  0
SECTION
  2
HEADER
  9
$ACADVER
  1
AC1014
  9
$ACADMAINTVER
 70
     9
  9
$DWGCODEPAGE
  3
ANSI_932
  9
$INSBASE
 10
0.0
 20
0.0
 30
0.0
  9
$EXTMIN
 10
170.9908434641001
 20
-93.19575063636314
 30
0.0
  9
$EXTMAX
 10
1415.5590876109
 20
662.5570031115009
 30
0.0
  9
$LIMMIN
 10
0.0
 20
0.0
  9
$LIMMAX
 10
12.0
 20
9.0
  9
$ORTHOMODE
 70
     0
  9
$REGENMODE
 70
     1
  9
$FILLMODE
 70
     1
  9
$QTEXTMODE
 70
     0
  9
$MIRRTEXT
 70
     1
  9
$DRAGMODE
 70
     2
  9
$LTSCALE
 40
1.0
  9
$OSMODE
 70
    37
  9
$ATTMODE
 70
     1
  9
$TEXTSIZE
 40
0.2
  9
$TRACEWID
 40
0.05
  9
$TEXTSTYLE
  7
STANDARD
  9
$CLAYER
  8
0
  9
$CELTYPE
  6
BYLAYER
  9
$CECOLOR
 62
   256
  9
$CELTSCALE
 40
1.0
  9
$DELOBJ
 70
     1
  9
$DISPSILH
 70
     0
  9
$DIMSCALE
 40
1.0
  9
$DIMASZ
 40
6.0
  9
$DIMEXO
 40
0.0625
  9
$DIMDLI
 40
0.38
  9
$DIMRND
 40
0.0
  9
$DIMDLE
 40
0.0
  9
$DIMEXE
 40
3.0
  9
$DIMTP
 40
0.0
  9
$DIMTM
 40
0.0
  9
$DIMTXT
 40
12.0
  9
$DIMCEN
 40
0.09
  9
$DIMTSZ
 40
0.0
  9
$DIMTOL
 70
     0
  9
$DIMLIM
 70
     0
  9
$DIMTIH
 70
     1
  9
$DIMTOH
 70
     1
  9
$DIMSE1
 70
     0
  9
$DIMSE2
 70
     0
  9
$DIMTAD
 70
     1
  9
$DIMZIN
 70
     0
  9
$DIMBLK
  1

  9
$DIMASO
 70
     1
  9
$DIMSHO
 70
     1
  9
$DIMPOST
  1

  9
$DIMAPOST
  1

  9
$DIMALT
 70
     0
  9
$DIMALTD
 70
     2
  9
$DIMALTF
 40
25.4
  9
$DIMLFAC
 40
1.0
  9
$DIMTOFL
 70
     0
  9
$DIMTVP
 40
0.0
  9
$DIMTIX
 70
     0
  9
$DIMSOXD
 70
     0
  9
$DIMSAH
 70
     0
  9
$DIMBLK1
  1

  9
$DIMBLK2
  1

  9
$DIMSTYLE
  2
STANDARD
  9
$DIMCLRD
 70
     0
  9
$DIMCLRE
 70
     0
  9
$DIMCLRT
 70
     0
  9
$DIMTFAC
 40
1.0
  9
$DIMGAP
 40
6.0
  9
$DIMJUST
 70
     0
  9
$DIMSD1
 70
     0
  9
$DIMSD2
 70
     0
  9
$DIMTOLJ
 70
     1
  9
$DIMTZIN
 70
     0
  9
$DIMALTZ
 70
     0
  9
$DIMALTTZ
 70
     0
  9
$DIMFIT
 70
     3
  9
$DIMUPT
 70
     0
  9
$DIMUNIT
 70
     2
  9
$DIMDEC
 70
     2
  9
$DIMTDEC
 70
     4
  9
$DIMALTU
 70
     2
  9
$DIMALTTD
 70
     2
  9
$DIMTXSTY
  7
ＭＳ_ゴシック
  9
$DIMAUNIT
 70
     0
  9
$LUNITS
 70
     2
  9
$LUPREC
 70
     4
  9
$SKETCHINC
 40
0.1
  9
$FILLETRAD
 40
0.5
  9
$AUNITS
 70
     0
  9
$AUPREC
 70
     0
  9
$MENU
  1
.
  9
$ELEVATION
 40
0.0
  9
$PELEVATION
 40
0.0
  9
$THICKNESS
 40
0.0
  9
$LIMCHECK
 70
     0
  9
$CHAMFERA
 40
0.0
  9
$CHAMFERB
 40
0.0
  9
$CHAMFERC
 40
0.0
  9
$CHAMFERD
 40
0.0
  9
$SKPOLY
 70
     0
  9
$TDCREATE
 40
2460734.477740428
  9
$TDUPDATE
 40
2460734.477741285
  9
$TDINDWG
 40
0.0000000116
  9
$TDUSRTIMER
 40
0.0000000116
  9
$USRTIMER
 70
     1
  9
$ANGBASE
 50
0.0
  9
$ANGDIR
 70
     0
  9
$PDMODE
 70
     0
  9
$PDSIZE
 40
0.0
  9
$PLINEWID
 40
0.0
  9
$COORDS
 70
     1
  9
$SPLFRAME
 70
     0
  9
$SPLINETYPE
 70
     6
  9
$SPLINESEGS
 70
     8
  9
$ATTDIA
 70
     0
  9
$ATTREQ
 70
     1
  9
$HANDLING
 70
     1
  9
$HANDSEED
  5
48F
  9
$SURFTAB1
 70
     6
  9
$SURFTAB2
 70
     6
  9
$SURFTYPE
 70
     6
  9
$SURFU
 70
     6
  9
$SURFV
 70
     6
  9
$UCSNAME
  2

  9
$UCSORG
 10
0.0
 20
0.0
 30
0.0
  9
$UCSXDIR
 10
1.0
 20
0.0
 30
0.0
  9
$UCSYDIR
 10
0.0
 20
1.0
 30
0.0
  9
$PUCSNAME
  2

  9
$PUCSORG
 10
0.0
 20
0.0
 30
0.0
  9
$PUCSXDIR
 10
1.0
 20
0.0
 30
0.0
  9
$PUCSYDIR
 10
0.0
 20
1.0
 30
0.0
  9
$USERI1
 70
     0
  9
$USERI2
 70
     0
  9
$USERI3
 70
     0
  9
$USERI4
 70
     0
  9
$USERI5
 70
     0
  9
$USERR1
 40
0.0
  9
$USERR2
 40
0.0
  9
$USERR3
 40
0.0
  9
$USERR4
 40
0.0
  9
$USERR5
 40
0.0
  9
$WORLDVIEW
 70
     1
  9
$SHADEDGE
 70
     3
  9
$SHADEDIF
 70
    70
  9
$TILEMODE
 70
     1
  9
$MAXACTVP
 70
    64
  9
$PINSBASE
 10
0.0
 20
0.0
 30
0.0
  9
$PLIMCHECK
 70
     0
  9
$PEXTMIN
 10
1.000000000000000E+20
 20
1.000000000000000E+20
 30
1.000000000000000E+20
  9
$PEXTMAX
 10
-1.000000000000000E+20
 20
-1.000000000000000E+20
 30
-1.000000000000000E+20
  9
$PLIMMIN
 10
0.0
 20
0.0
  9
$PLIMMAX
 10
12.0
 20
9.0
  9
$UNITMODE
 70
     0
  9
$VISRETAIN
 70
     1
  9
$PLINEGEN
 70
     0
  9
$PSLTSCALE
 70
     1
  9
$TREEDEPTH
 70
  3020
  9
$PICKSTYLE
 70
     1
  9
$CMLSTYLE
  2
STANDARD
  9
$CMLJUST
 70
     0
  9
$CMLSCALE
 40
1.0
  9
$PROXYGRAPHICS
 70
     1
  9
$MEASUREMENT
 70
     1
  0
ENDSEC
  0
SECTION
  2
CLASSES
  0
CLASS
  1
ACDBDICTIONARYWDFLT
  2
AcDbDictionaryWithDefault
  3
ObjectDBX Classes
 90
        0
280
     0
281
     0
  0
CLASS
  1
VISUALSTYLE
  2
AcDbVisualStyle
  3
ObjectDBX Classes
 90
     4095
280
     0
281
     0
  0
CLASS
  1
MATERIAL
  2
AcDbMaterial
  3
ObjectDBX Classes
 90
     1153
280
     0
281
     0
  0
CLASS
  1
SCALE
  2
AcDbScale
  3
ObjectDBX Classes
 90
     1153
280
     0
281
     0
  0
CLASS
  1
TABLESTYLE
  2
AcDbTableStyle
  3
ObjectDBX Classes
 90
     4095
280
     0
281
     0
  0
CLASS
  1
MLEADERSTYLE
  2
AcDbMLeaderStyle
  3
ACDB_MLEADERSTYLE_CLASS
 90
     4095
280
     0
281
     0
  0
CLASS
  1
SUN
  2
AcDbSun
  3
SCENEOE
 90
     1153
280
     0
281
     0
  0
CLASS
  1
DICTIONARYVAR
  2
AcDbDictionaryVar
  3
ObjectDBX Classes
 90
        0
280
     0
281
     0
  0
CLASS
  1
XRECORD
  2
AcDbXrecord
  3
ObjectDBX Classes
 90
        0
280
     0
281
     0
  0
CLASS
  1
LWPOLYLINE
  2
AcDbPolyline
  3
ObjectDBX Classes
 90
        0
280
     0
281
     1
  0
CLASS
  1
HATCH
  2
AcDbHatch
  3
ObjectDBX Classes
 90
        0
280
     0
281
     1
  0
CLASS
  1
ACDBPLACEHOLDER
  2
AcDbPlaceHolder
  3
ObjectDBX Classes
 90
        0
280
     0
281
     0
  0
CLASS
  1
LAYOUT
  2
AcDbLayout
  3
ObjectDBX Classes
 90
        0
280
     0
281
     0
  0
ENDSEC
  0
SECTION
  2
TABLES
  0
TABLE
  2
VPORT
  5
8
102
{ACAD_XDICTIONARY
360
484
102
}
330
0
100
AcDbSymbolTable
 70
     1
  0
VPORT
  5
29
330
8
100
AcDbSymbolTableRecord
100
AcDbViewportTableRecord
  2
*ACTIVE
 70
     0
 10
0.0
 20
0.0
 11
1.0
 21
1.0
 12
793.2749655375001
 22
284.6806262375688
 13
0.0
 23
0.0
 14
0.5
 24
0.5
 15
0.5
 25
0.5
 16
0.0
 26
0.0
 36
1.0
 17
0.0
 27
0.0
 37
0.0
 40
755.7527537478641
 41
1.6
 42
50.0
 43
0.0
 44
0.0
 50
0.0
 51
0.0
 71
     0
 72
   100
 73
     1
 74
     3
 75
     0
 76
     0
 77
     0
 78
     0
  0
ENDTAB
  0
TABLE
  2
LTYPE
  5
5
330
0
100
AcDbSymbolTable
 70
     3
  0
LTYPE
  5
14
330
5
100
AcDbSymbolTableRecord
100
AcDbLinetypeTableRecord
  2
BYBLOCK
 70
     0
  3

 72
    65
 73
     0
 40
0.0
  0
LTYPE
  5
15
330
5
100
AcDbSymbolTableRecord
100
AcDbLinetypeTableRecord
  2
BYLAYER
 70
     0
  3

 72
    65
 73
     0
 40
0.0
  0
LTYPE
  5
16
330
5
100
AcDbSymbolTableRecord
100
AcDbLinetypeTableRecord
  2
CONTINUOUS
 70
     0
  3
Solid line
 72
    65
 73
     0
 40
0.0
  0
LTYPE
  5
11C
330
5
100
AcDbSymbolTableRecord
100
AcDbLinetypeTableRecord
  2
CENTER
 70
     0
  3

 72
    65
 73
     0
 40
0.0
  0
LTYPE
  5
396
330
5
100
AcDbSymbolTableRecord
100
AcDbLinetypeTableRecord
  2
DASHED
 70
     0
  3

 72
    65
 73
     0
 40
0.0
  0
ENDTAB
  0
TABLE
  2
LAYER
  5
2
330
0
100
AcDbSymbolTable
 70
     2
  0
LAYER
  5
10
330
2
100
AcDbSymbolTableRecord
100
AcDbLayerTableRecord
  2
0
 70
     0
 62
     7
  6
CONTINUOUS
  0
LAYER
  5
6E
330
2
100
AcDbSymbolTableRecord
100
AcDbLayerTableRecord
  2
1
 70
     0
 62
     7
  6
CONTINUOUS
  0
ENDTAB
  0
TABLE
  2
STYLE
  5
3
330
0
100
AcDbSymbolTable
 70
     2
  0
STYLE
  5
11
330
3
100
AcDbSymbolTableRecord
100
AcDbTextStyleTableRecord
  2
STANDARD
 70
     0
 40
0.0
 41
1.0
 50
0.0
 71
     0
 42
0.2
  3
txt
  4

  0
STYLE
  5
6F
330
3
100
AcDbSymbolTableRecord
100
AcDbTextStyleTableRecord
  2
ＭＳ_ゴシック
 70
     0
 40
0.0
 41
1.0
 50
0.0
 71
     0
 42
0.2
  3
ＭＳ ゴシック.shx
  4

  0
ENDTAB
  0
TABLE
  2
VIEW
  5
6
330
0
100
AcDbSymbolTable
 70
     0
  0
ENDTAB
  0
TABLE
  2
UCS
  5
7
330
0
100
AcDbSymbolTable
 70
     0
  0
ENDTAB
  0
TABLE
  2
APPID
  5
9
330
0
100
AcDbSymbolTable
 70
     2
  0
APPID
  5
12
330
9
100
AcDbSymbolTableRecord
100
AcDbRegAppTableRecord
  2
ACAD
 70
     0
  0
APPID
  5
48E
330
9
100
AcDbSymbolTableRecord
100
AcDbRegAppTableRecord
  2
ACAD_MLEADERVER
 70
     0
  0
ENDTAB
  0
TABLE
  2
DIMSTYLE
  5
A
330
0
100
AcDbSymbolTable
 70
     1
  0
DIMSTYLE
105
27
330
A
100
AcDbSymbolTableRecord
100
AcDbDimStyleTableRecord
  2
STANDARD
 70
     0
  3

  4

  5

  6

  7

 40
1.0
 41
0.18
 42
0.0625
 43
0.38
 44
0.18
 45
0.0
 46
0.0
 47
0.0
 48
0.0
140
0.18
141
0.09
142
0.0
143
25.4
144
1.0
145
0.0
146
1.0
147
0.09
 71
     0
 72
     0
 73
     1
 74
     1
 75
     0
 76
     0
 77
     0
 78
     0
170
     0
171
     2
172
     0
173
     0
174
     0
175
     0
176
     0
177
     0
178
     0
270
     2
271
     4
272
     4
273
     2
274
     2
340
11
275
     0
280
     0
281
     0
282
     0
283
     1
284
     0
285
     0
286
     0
287
     3
288
     0
  0
ENDTAB
  0
TABLE
  2
BLOCK_RECORD
  5
1
330
0
100
AcDbSymbolTable
 70
     0
  0
BLOCK_RECORD
  5
1F
330
1
100
AcDbSymbolTableRecord
100
AcDbBlockTableRecord
  2
*MODEL_SPACE
  0
BLOCK_RECORD
  5
1B
330
1
100
AcDbSymbolTableRecord
100
AcDbBlockTableRecord
  2
*PAPER_SPACE
  0
ENDTAB
  0
ENDSEC
  0
SECTION
  2
BLOCKS
  0
BLOCK
  5
20
330
1F
100
AcDbEntity
  8
0
100
AcDbBlockBegin
  2
*MODEL_SPACE
 70
     0
 10
0.0
 20
0.0
 30
0.0
  3
*MODEL_SPACE
  1

  0
ENDBLK
  5
21
330
1F
100
AcDbEntity
  8
0
100
AcDbBlockEnd
  0
BLOCK
  5
1C
330
1B
100
AcDbEntity
 67
     1
  8
0
100
AcDbBlockBegin
  2
*PAPER_SPACE
 70
     0
 10
0.0
 20
0.0
 30
0.0
  3
*PAPER_SPACE
  1

  0
ENDBLK
  5
1D
330
1B
100
AcDbEntity
 67
     1
  8
0
100
AcDbBlockEnd
  0
ENDSEC
  0
SECTION
  2
ENTITIES
  0
LINE
  5
70
330
1F
100
AcDbEntity
  8
0
  6
CONTINUOUS
 62
     7
100
AcDbLine
 10
264.990843464199
 20
365.3553737633999
 30
0.0
 11
264.990843464199
 21
355.9583496115009
 31
0.0
  0
LINE
  5
71
330
1F
100
AcDbEntity
  8
0
  6
CONTINUOUS
 62
     7
100
AcDbLine
 10
266.9908434642014
 20
344.105754822202
 30
0.0
 11
342.7556347440994
 21
344.105754822202
 31
0.0
  0
LINE
  5
72
330
1F
100
AcDbEntity
  8
0
  6
CONTINUOUS
 62
     7
100
AcDbLine
 10
342.7556347440994
 20
347.1057548222021
 30
0.0
 11
342.7556347440994
 21
348.3670823486813
 31
0.0
  0
LINE
  5
73
330
1F
100
AcDbEntity
  8
0
  6
CONTINUOUS
 62
     7
100
AcDbLine
 10
267.9908434641991
 20
346.1057548222008
 30
0.0
 11
341.7556347440982
 21
346.1057548222008
 31
0.0
  0
LINE
  5
74
330
1F
100
AcDbEntity
  8
0
  6
CONTINUOUS
 62
     7
100
AcDbLine
 10
344.7556347440983
 20
346.1057548222008
 30
0.0
 11
344.7556347440983
 21
349.3879590996132
 31
0.0
  0
LINE
  5
75
330
1F
100
AcDbEntity
  8
0
  6
CONTINUOUS
 62
     7
100
AcDbLine
 10
266.9908434642014
 20
355.9583496115009
 30
0.0
 11
266.9908434642014
 21
365.3553737634007
 31
0.0
  0
MTEXT
  5
76
330
1F
100
AcDbEntity
  8
1
 62
     7
100
AcDbMText
 10
844.4806316363646
 20
-79.19575063636314
 30
0.0
 40
14.0
 41
0.0
 71
     1
 72
     1
  1
{\fＭＳ ゴシック;\W0.631892;（Ｃ）１４－３１ＨＣ}
  0
LINE
  5
77
330
1F
100
AcDbEntity
  8
0
  6
CONTINUOUS
 62
     7
100
AcDbLine
 10
264.9908434642026
 20
346.1057548222008
 30
0.0
 11
264.990843464199
 21
348.3553737632974
 31
0.0
  0
LINE
  5
78
330
1F
100
AcDbEntity
  8
1
  6
CONTINUOUS
 62
     7
100
AcDbLine
 10
265.9059753193001
 20
351.3553737632007
 30
0.0
 11
341.4908434989003
 21
351.3553737632007
 31
0.0
  0
LINE
  5
79
330
1F
100
AcDbEntity
  8
1
  6
CONTINUOUS
 62
     7
100
AcDbLine
 10
265.105975319301
 20
348.3553737632006
 30
0.0
 11
342.4908434642005
 21
348.3553737632006
 31
0.0
  0
ARC
  5
7A
330
1F
100
AcDbEntity
  8
1
  6
CONTINUOUS
 62
     7
100
AcDbCircle
 10
341.4908434989003
 20
352.355373763201
 30
0.0
 40
1.000000000000334
100
AcDbArc
 50
270.0
 51
0.0
  0
LINE
  5
7B
330
1F
100
AcDbEntity
  8
1
  6
CONTINUOUS
 62
     6
100
AcDbLine
 10
347.4908434642003
 20
369.3553737632005
 30
0.0
 11
347.4908434642003
 21
367.2931959367007
 31
0.0
  0
LINE
  5
7C
330
1F
100
AcDbEntity
  8
1
  6
CONTINUOUS
 62
     6
100
AcDbLine
 10
346.7907503488004
 20
362.2049547437003
 30
0.0
 11
345.4908434642006
 21
356.3553737632006
 31
0.0
  0
LINE
  5
7D
330
1F
100
AcDbEntity
  8
1
  6
CONTINUOUS
 62
     6
100
AcDbLine
 10
348.3209704831003
 20
364.8553737632003
 30
0.0
 11
346.5889196754999
 21
361.8553737632011
 31
0.0
  0
ARC
  5
7E
330
1F
100
AcDbEntity
  8
1
  6
CONTINUOUS
 62
     7
100
AcDbCircle
 10
343.9908434642005
 20
356.3553737632006
 30
0.0
 40
1.500000000000057
100
AcDbArc
 50
180.0
 51
0.0
  0
LINE
  5
7F
330
1F
100
AcDbEntity
  8
1
  6
CONTINUOUS
 62
     7
100
AcDbLine
 10
265.105975319301
 20
355.9583496115009
 30
0.0
 11
332.4908434643002
 21
355.9583496115009
 31
0.0
  0
LINE
  5
80
330
1F
100
AcDbEntity
  8
1
  6
CONTINUOUS
 62
     7
100
AcDbLine
 10
262.1059753193009
 20
352.9583496115008
 30
0.0
 11
262.1059753193009
 21
351.3553737632007
 31
0.0
  0
ARC
  5
81
330
1F
100
AcDbEntity
  8
1
  6
CONTINUOUS
 62
     7
100
AcDbCircle
 10
265.105975319301
 20
351.3553737632007
 30
0.0
 40
3.000000000000114
100
AcDbArc
 50
180.0
 51
270.0
  0
LINE
  5
82
330
1F
100
AcDbEntity
  8
1
  6
CONTINUOUS
 62
     7
100
AcDbLine
 10
332.4908434643002
 20
352.9583496115008
 30
0.0
 11
332.4908434643002
 21
355.9583496115009
 31
0.0
  0
ARC
  5
83
330
1F
100
AcDbEntity
  8
1
  6
CONTINUOUS
 62
     6
100
AcDbCircle
 10
347.4549450793
 20
365.3553737632009
 30
0.0
 40
1.000000000000334
100
AcDbArc
 50
330.0
 51
30.0
  0
ARC
  5
84
330
1F
100
AcDbEntity
  8
1
  6
CONTINUOUS
 62
     7
100
AcDbCircle
 10
342.4908434642005
 20
351.3553737632007
 30
0.0
 40
3.000000000000114
100
AcDbArc
 50
270.0
 51
0.0
  0
ARC
  5
85
330
1F
100
AcDbEntity
  8
1
  6
CONTINUOUS
 62
     7
100
AcDbCircle
 10
265.9059753193001
 20
352.1583496115008
 30
0.0
 40
0.7999999999999119
100
AcDbArc
 50
90.0
 51
180.0
  0
ARC
  5
86
330
1F
100
AcDbEntity
  8
1
  6
CONTINUOUS
 62
     7
100
AcDbCircle
 10
265.9059753193001
 20
352.1553737632006
 30
0.0
 40
0.7999999999999119
100
AcDbArc
 50
180.0
 51
270.0
  0
LINE
  5
87
330
1F
100
AcDbEntity
  8
0
  6
CONTINUOUS
 62
     7
100
AcDbLine
 10
266.9908434641979
 20
347.1057548222021
 30
0.0
 11
266.9908434641979
 21
348.3553737632006
 31
0.0
  0
ARC
  5
88
330
1F
100
AcDbEntity
  8
1
  6
CONTINUOUS
 62
     6
100
AcDbCircle
 10
345.7228942717006
 20
362.3553737632008
 30
0.0
 40
1.000000000000334
100
AcDbArc
 50
270.0
 51
330.0
  0
ARC
  5
89
330
1F
100
AcDbEntity
  8
1
  6
CONTINUOUS
 62
     6
100
AcDbCircle
 10
342.2587926566001
 20
362.3553737632008
 30
0.0
 40
1.000000000000334
100
AcDbArc
 50
210.0
 51
270.0
  0
LINE
  5
8A
330
1F
100
AcDbEntity
  8
1
  6
CONTINUOUS
 62
     6
100
AcDbLine
 10
347.4908434642003
 20
367.3553737632007
 30
0.0
 11
349.9908434642007
 21
365.8553737632006
 31
0.0
  0
LINE
  5
8B
330
1F
100
AcDbEntity
  8
1
  6
CONTINUOUS
 62
     7
100
AcDbLine
 10
345.4908434642006
 20
351.3553737632007
 30
0.0
 11
345.4908434642006
 21
356.3553737632006
 31
0.0
  0
LINE
  5
8C
330
1F
100
AcDbEntity
  8
1
  6
CONTINUOUS
 62
     7
100
AcDbLine
 10
265.9059753193001
 20
352.9583496115008
 30
0.0
 11
332.4908434643002
 21
352.9583496115008
 31
0.0
  0
LINE
  5
8D
330
1F
100
AcDbEntity
  8
1
  6
CONTINUOUS
 62
     6
100
AcDbLine
 10
345.7228942717006
 20
361.3553737632005
 30
0.0
 11
342.2587926566001
 21
361.3553737632005
 31
0.0
  0
LINE
  5
8E
330
1F
100
AcDbEntity
  8
1
  6
CONTINUOUS
 62
     7
100
AcDbLine
 10
342.4908434642005
 20
352.355373763201
 30
0.0
 11
342.4908434642005
 21
356.3553737632006
 31
0.0
  0
LINE
  5
8F
330
1F
100
AcDbEntity
  8
1
  6
CONTINUOUS
 62
     6
100
AcDbLine
 10
341.3927672527998
 20
361.8553737632011
 30
0.0
 11
339.6607164452004
 21
364.8553737632003
 31
0.0
  0
ARC
  5
90
330
1F
100
AcDbEntity
  8
1
  6
CONTINUOUS
 62
     7
100
AcDbCircle
 10
265.105975319301
 20
352.9583496115008
 30
0.0
 40
3.000000000000114
100
AcDbArc
 50
90.0
 51
180.0
  0
LINE
  5
91
330
1F
100
AcDbEntity
  8
1
  6
CONTINUOUS
 62
     6
100
AcDbLine
 10
341.1909365797001
 20
362.2049547436008
 30
0.0
 11
342.4908434642005
 21
356.3553737632006
 31
0.0
  0
LINE
  5
92
330
1F
100
AcDbEntity
  8
1
  6
CONTINUOUS
 62
     6
100
AcDbLine
 10
348.3209704831003
 20
365.8553737632006
 30
0.0
 11
346.5889196754999
 21
368.8553737632008
 31
0.0
  0
ARC
  5
93
330
1F
100
AcDbEntity
  8
1
  6
CONTINUOUS
 62
     6
100
AcDbCircle
 10
313.4908434642005
 20
433.3553737634004
 30
0.0
 40
1.99999999999978
100
AcDbArc
 50
90.0
 51
180.0
  0
ARC
  5
94
330
1F
100
AcDbEntity
  8
0
  6
CONTINUOUS
 62
     7
100
AcDbCircle
 10
-341.7556347440982
 20
347.1057548222021
 30
0.0
 40
1.000000000001222
210
0.0
220
0.0
230
-1.0
100
AcDbArc
 50
180.0
 51
270.0
  0
ARC
  5
95
330
1F
100
AcDbEntity
  8
0
  6
CONTINUOUS
 62
     7
100
AcDbCircle
 10
275.3446634641978
 20
402.0311417633984
 30
0.0
 40
0.7500000000000284
100
AcDbArc
 50
201.45192
 51
291.814178
  0
ARC
  5
96
330
1F
100
AcDbEntity
  8
0
  6
CONTINUOUS
 62
     7
100
AcDbCircle
 10
277.2943114641979
 20
402.8116577634009
 30
0.0
 40
0.7500000000000284
100
AcDbArc
 50
291.817596
 51
21.51671399999998
  0
ARC
  5
97
330
1F
100
AcDbEntity
  8
0
  6
CONTINUOUS
 62
     7
100
AcDbCircle
 10
265.9910874641991
 20
398.3554497634003
 30
0.0
 40
10.04999599999934
100
AcDbArc
 50
268.317169
 51
308.318481
  0
ARC
  5
98
330
1F
100
AcDbEntity
  8
0
  6
CONTINUOUS
 62
     7
100
AcDbCircle
 10
265.9908434642002
 20
398.3553737634011
 30
0.0
 40
25.9999999999998
100
AcDbArc
 50
78.999992
 51
100.999977
  0
ARC
  5
99
330
1F
100
AcDbEntity
  8
0
  6
CONTINUOUS
 62
     7
100
AcDbCircle
 10
287.9908274642009
 20
376.3553737633991
 30
0.0
 40
9.99999999999801
100
AcDbArc
 50
270.000031
 51
0.0
  0
CIRCLE
  5
9A
330
1F
100
AcDbEntity
  8
0
  6
CONTINUOUS
 62
     7
100
AcDbCircle
 10
265.9908434642002
 20
398.3553737634011
 30
0.0
 40
27.99999999999869
  0
ARC
  5
9B
330
1F
100
AcDbEntity
  8
0
  6
CONTINUOUS
 62
     7
100
AcDbCircle
 10
-267.9908434641991
 20
347.1057548222021
 30
0.0
 40
1.000000000001222
210
0.0
220
0.0
230
-1.0
100
AcDbArc
 50
270.0
 51
0.0
  0
ARC
  5
9C
330
1F
100
AcDbEntity
  8
0
  6
CONTINUOUS
 62
     7
100
AcDbCircle
 10
265.8059834641992
 20
396.2420777634001
 30
0.0
 40
1.000000000001222
100
AcDbArc
 50
39.999992
 51
129.999756
  0
CIRCLE
  5
9D
330
1F
100
AcDbEntity
  8
0
  6
CONTINUOUS
 62
     7
100
AcDbCircle
 10
258.6864634641994
 20
423.8288097633998
 30
0.0
 40
0.7500000000000284
  0
ARC
  5
9E
330
1F
100
AcDbEntity
  8
0
  6
CONTINUOUS
 62
     7
100
AcDbCircle
 10
263.8776074642007
 20
398.5402337633985
 30
0.0
 40
0.9999999999976694
100
AcDbArc
 50
310.000183
 51
39.99999200000002
  0
CIRCLE
  5
9F
330
1F
100
AcDbEntity
  8
0
  6
CONTINUOUS
 62
     7
100
AcDbCircle
 10
265.9908434642002
 20
398.3553737634011
 30
0.0
 40
3.750000000000142
  0
CIRCLE
  5
A0
330
1F
100
AcDbEntity
  8
0
  6
CONTINUOUS
 62
     7
100
AcDbCircle
 10
265.9908434642002
 20
398.3553737634011
 30
0.0
 40
19.99999999999957
  0
ARC
  5
A1
330
1F
100
AcDbEntity
  8
0
  6
CONTINUOUS
 62
     7
100
AcDbCircle
 10
265.9908434642002
 20
398.3553737634011
 30
0.0
 40
3.199999999999648
100
AcDbArc
 50
211.010849
 51
228.989426
  0
ARC
  5
A2
330
1F
100
AcDbEntity
  8
0
  6
CONTINUOUS
 62
     7
100
AcDbCircle
 10
265.9908434642002
 20
398.3553737634011
 30
0.0
 40
3.199999999999648
100
AcDbArc
 50
31.010698
 51
48.989288
  0
CIRCLE
  5
A3
330
1F
100
AcDbEntity
  8
0
  6
CONTINUOUS
 62
     7
100
AcDbCircle
 10
265.9908434642002
 20
398.3553737634011
 30
0.0
 40
3.499999999998948
  0
CIRCLE
  5
A4
330
1F
100
AcDbEntity
  8
0
  6
CONTINUOUS
 62
     7
100
AcDbCircle
 10
273.2952434641991
 20
423.8288097633998
 30
0.0
 40
0.7500000000000284
  0
ARC
  5
A5
330
1F
100
AcDbEntity
  8
0
  6
CONTINUOUS
 62
     7
100
AcDbCircle
 10
287.9908274642009
 20
420.3553737633996
 30
0.0
 40
9.99999999999801
100
AcDbArc
 50
0.0
 51
89.99998499999998
  0
CIRCLE
  5
A6
330
1F
100
AcDbEntity
  8
0
  6
CONTINUOUS
 62
     7
100
AcDbCircle
 10
258.6864634641994
 20
423.8288097633998
 30
0.0
 40
0.7500000000000284
  0
ARC
  5
A7
330
1F
100
AcDbEntity
  8
0
  6
CONTINUOUS
 62
     7
100
AcDbCircle
 10
-342.7556347440994
 20
346.1057548222008
 30
0.0
 40
1.999999999998892
210
0.0
220
0.0
230
-1.0
100
AcDbArc
 50
180.0
 51
270.0
  0
ARC
  5
A8
330
1F
100
AcDbEntity
  8
0
  6
CONTINUOUS
 62
     7
100
AcDbCircle
 10
266.175751464198
 20
400.4685937633994
 30
0.0
 40
1.000000000001222
100
AcDbArc
 50
220.000198
 51
310.000183
  0
ARC
  5
A9
330
1F
100
AcDbEntity
  8
0
  6
CONTINUOUS
 62
     7
100
AcDbCircle
 10
243.9908434641982
 20
420.3553737633996
 30
0.0
 40
10.00000000000156
100
AcDbArc
 50
89.99998499999998
 51
179.999969
  0
CIRCLE
  5
AA
330
1F
100
AcDbEntity
  8
0
  6
CONTINUOUS
 62
     7
100
AcDbCircle
 10
265.9908434642002
 20
398.3553737634011
 30
0.0
 40
24.99999999999858
  0
ARC
  5
AB
330
1F
100
AcDbEntity
  8
0
  6
CONTINUOUS
 62
     7
100
AcDbCircle
 10
273.5238634642005
 20
388.8224137633998
 30
0.0
 40
0.7500000000000284
100
AcDbArc
 50
308.314575
 51
38.86156799999998
  0
ARC
  5
AC
330
1F
100
AcDbEntity
  8
0
  6
CONTINUOUS
 62
     7
100
AcDbCircle
 10
265.9908434642002
 20
398.3553737634011
 30
0.0
 40
26.49999999999864
100
AcDbArc
 50
85.499977
 51
100.999977
  0
ARC
  5
AD
330
1F
100
AcDbEntity
  8
0
  6
CONTINUOUS
 62
     7
100
AcDbCircle
 10
268.1041274642002
 20
398.1703937634009
 30
0.0
 40
0.9999999999976694
100
AcDbArc
 50
129.999756
 51
219.999741
  0
ARC
  5
AE
330
1F
100
AcDbEntity
  8
0
  6
CONTINUOUS
 62
     7
100
AcDbCircle
 10
-266.9908434642014
 20
346.1057548222008
 30
0.0
 40
1.999999999998892
210
0.0
220
0.0
230
-1.0
100
AcDbArc
 50
270.0
 51
0.0
  0
ARC
  5
AF
330
1F
100
AcDbEntity
  8
0
  6
CONTINUOUS
 62
     7
100
AcDbCircle
 10
265.9908434642002
 20
398.3553737634011
 30
0.0
 40
25.9999999999998
100
AcDbArc
 50
78.999992
 51
100.999977
  0
ARC
  5
B0
330
1F
100
AcDbEntity
  8
0
  6
CONTINUOUS
 62
     7
100
AcDbCircle
 10
243.9908434641982
 20
376.3553737633991
 30
0.0
 40
10.00000000000156
100
AcDbArc
 50
179.999969
 51
270.0
  0
ARC
  5
B1
330
1F
100
AcDbEntity
  8
0
  6
CONTINUOUS
 62
     7
100
AcDbCircle
 10
272.2061754642002
 20
390.4577137634
 30
0.0
 40
0.7500000000000284
100
AcDbArc
 50
38.861679
 51
128.201508
  0
ARC
  5
B2
330
1F
100
AcDbEntity
  8
0
  6
CONTINUOUS
 62
     7
100
AcDbCircle
 10
259.3355114641991
 20
405.8858457634003
 30
0.0
 40
0.7500000000000284
100
AcDbArc
 50
311.468933
 51
41.56315599999999
  0
ARC
  5
B3
330
1F
100
AcDbEntity
  8
0
  6
CONTINUOUS
 62
     7
100
AcDbCircle
 10
257.9423194642008
 20
407.4571497633989
 30
0.0
 40
0.7500000000000284
100
AcDbArc
 50
41.562828
 51
131.48819
  0
ARC
  5
B4
330
1F
100
AcDbEntity
  8
0
  6
CONTINUOUS
 62
     7
100
AcDbCircle
 10
256.0521834642007
 20
396.8647737634008
 30
0.0
 40
0.7500000000000284
100
AcDbArc
 50
278.436005
 51
8.52973800000001
  0
ARC
  5
B5
330
1F
100
AcDbEntity
  8
0
  6
CONTINUOUS
 62
     7
100
AcDbCircle
 10
253.9749154641999
 20
396.5566977634012
 30
0.0
 40
0.7500000000000284
100
AcDbArc
 50
188.513947
 51
278.436005
  0
ARC
  5
B6
330
1F
100
AcDbEntity
  8
0
  6
CONTINUOUS
 62
     7
100
AcDbCircle
 10
271.3207394641994
 20
409.2740457634001
 30
0.0
 40
0.7500000000000284
100
AcDbArc
 50
63.98504599999998
 51
153.679153
  0
ARC
  5
B7
330
1F
100
AcDbEntity
  8
0
  6
CONTINUOUS
 62
     7
100
AcDbCircle
 10
265.9908434642002
 20
398.3553737634011
 30
0.0
 40
26.49999999999864
100
AcDbArc
 50
85.499977
 51
100.999977
  0
ARC
  5
B8
330
1F
100
AcDbEntity
  8
0
  6
CONTINUOUS
 62
     7
100
AcDbCircle
 10
270.3895274641983
 20
407.3917657633999
 30
0.0
 40
0.7500000000000284
100
AcDbArc
 50
153.679413
 51
244.04129
  0
CIRCLE
  5
B9
330
1F
100
AcDbEntity
  8
0
  6
CONTINUOUS
 62
     7
100
AcDbCircle
 10
273.2952434641991
 20
423.8288097633998
 30
0.0
 40
0.7500000000000284
  0
LINE
  5
BA
330
1F
100
AcDbEntity
  8
0
  6
CONTINUOUS
 62
     7
100
AcDbLine
 10
266.9256114642007
 20
396.4634537633991
 30
0.0
 11
267.6916514642007
 21
397.1062457633991
 31
0.0
  0
LINE
  5
BB
330
1F
100
AcDbEntity
  8
0
  6
CONTINUOUS
 62
     7
100
AcDbLine
 10
264.0991194642002
 20
397.4205457633992
 30
0.0
 11
264.7419114642001
 21
396.6545097633992
 31
0.0
  0
LINE
  5
BC
330
1F
100
AcDbEntity
  8
0
  6
CONTINUOUS
 62
     7
100
AcDbLine
 10
272.7900834641997
 20
390.9277457633991
 30
0.0
 11
274.1077554641996
 21
389.292477763399
 31
0.0
  0
ARC
  5
BD
330
1F
100
AcDbEntity
  8
0
  6
CONTINUOUS
 62
     7
100
AcDbCircle
 10
263.0629874642008
 20
386.5635497633981
 30
0.0
 40
0.7500000000000284
100
AcDbArc
 50
193.500595
 51
256.055725
  0
LINE
  5
BE
330
1F
100
AcDbEntity
  8
0
  6
CONTINUOUS
 62
     7
100
AcDbLine
 10
254.0851274641991
 20
395.8144977633999
 30
0.0
 11
256.1623674641991
 21
396.1225857633999
 31
0.0
  0
ARC
  5
BF
330
1F
100
AcDbEntity
  8
0
  6
CONTINUOUS
 62
     7
100
AcDbCircle
 10
265.9910274641977
 20
398.3554497634003
 30
0.0
 40
9.299996000002864
100
AcDbArc
 50
131.470871
 51
188.52977
  0
LINE
  5
C0
330
1F
100
AcDbEntity
  8
0
  6
CONTINUOUS
 62
     7
100
AcDbLine
 10
265.9993594641978
 20
386.2049537634
 30
0.0
 11
265.9909354641978
 21
386.2549857634
 31
0.0
  0
LINE
  5
C1
330
1F
100
AcDbEntity
  8
0
  6
CONTINUOUS
 62
     7
100
AcDbLine
 10
269.7174514641976
 20
407.7238737633983
 30
0.0
 11
270.6486674641976
 21
409.6061697633984
 31
0.0
  0
ARC
  5
C2
330
1F
100
AcDbEntity
  8
0
  6
CONTINUOUS
 62
     7
100
AcDbCircle
 10
265.7116074641994
 20
388.8095377634002
 30
0.0
 40
0.4999999999988347
100
AcDbArc
 50
193.499939
 51
268.322235
  0
ARC
  5
C3
330
1F
100
AcDbEntity
  8
0
  6
CONTINUOUS
 62
     7
100
AcDbCircle
 10
265.9910274641977
 20
398.3554497634003
 30
0.0
 40
9.299996000002864
100
AcDbArc
 50
272.0300599999999
 51
308.20105
  0
ARC
  5
C4
330
1F
100
AcDbEntity
  8
0
  6
CONTINUOUS
 62
     7
100
AcDbCircle
 10
265.9910274641977
 20
398.3554497634003
 30
0.0
 40
12.89999200000125
100
AcDbArc
 50
21.516388
 51
63.98155200000001
  0
ARC
  5
C5
330
1F
100
AcDbEntity
  8
0
  6
CONTINUOUS
 62
     7
100
AcDbCircle
 10
264.6828594641999
 20
390.9537177633986
 30
0.0
 40
0.7500000000000284
100
AcDbArc
 50
13.499384
 51
103.499001
  0
LINE
  5
C6
330
1F
100
AcDbEntity
  8
0
  6
CONTINUOUS
 62
     7
100
AcDbLine
 10
265.0562274641981
 20
400.2470217633984
 30
0.0
 11
265.4097594641981
 21
399.8256977633984
 31
0.0
  0
LINE
  5
C7
330
1F
100
AcDbEntity
  8
0
  6
CONTINUOUS
 62
     7
100
AcDbLine
 10
233.9908434642002
 20
376.3553737633991
 30
0.0
 11
233.9908434642002
 21
420.3553737633991
 31
0.0
  0
LINE
  5
C8
330
1F
100
AcDbEntity
  8
0
  6
CONTINUOUS
 62
     7
100
AcDbLine
 10
270.389707464199
 20
407.3913377634
 30
0.0
 11
271.320923464199
 21
409.2736337634
 31
0.0
  0
ARC
  5
C9
330
1F
100
AcDbEntity
  8
0
  6
CONTINUOUS
 62
     7
100
AcDbCircle
 10
265.9910874641991
 20
398.3554497634003
 30
0.0
 40
12.14999200000122
100
AcDbArc
 50
21.516497
 51
63.981499
  0
LINE
  5
CA
330
1F
100
AcDbEntity
  8
0
  6
CONTINUOUS
 62
     7
100
AcDbLine
 10
268.0701274642008
 20
424.7732377634001
 30
0.0
 11
268.1485914642008
 21
425.7701377634002
 31
0.0
  0
LINE
  5
CB
330
1F
100
AcDbEntity
  8
0
  6
CONTINUOUS
 62
     7
100
AcDbLine
 10
243.9908434641982
 20
366.3553737634011
 30
0.0
 11
287.9908274641982
 21
366.3553737634011
 31
0.0
  0
LINE
  5
CC
330
1F
100
AcDbEntity
  8
0
  6
CONTINUOUS
 62
     7
100
AcDbLine
 10
253.9751594641988
 20
396.5563937634009
 30
0.0
 11
256.0523994641987
 21
396.8644857634009
 31
0.0
  0
LINE
  5
CD
330
1F
100
AcDbEntity
  8
0
  6
CONTINUOUS
 62
     7
100
AcDbLine
 10
264.2901754641986
 20
399.6042297633977
 30
0.0
 11
264.6437074641986
 21
399.1829217633977
 31
0.0
  0
ARC
  5
CE
330
1F
100
AcDbEntity
  8
0
  6
CONTINUOUS
 62
     7
100
AcDbCircle
 10
265.9910874641991
 20
398.3554497634003
 30
0.0
 40
12.14999200000122
100
AcDbArc
 50
131.486496
 51
188.51355
  0
LINE
  5
CF
330
1F
100
AcDbEntity
  8
0
  6
CONTINUOUS
 62
     7
100
AcDbLine
 10
243.9908434641982
 20
430.3553897633989
 30
0.0
 11
287.9908274641982
 21
430.3553897633989
 31
0.0
  0
LINE
  5
D0
330
1F
100
AcDbEntity
  8
0
  6
CONTINUOUS
 62
     7
100
AcDbLine
 10
275.3444674641994
 20
402.0305897633989
 30
0.0
 11
277.2940514641994
 21
402.8111097633989
 31
0.0
  0
LINE
  5
D1
330
1F
100
AcDbEntity
  8
0
  6
CONTINUOUS
 62
     7
100
AcDbLine
 10
264.2901754641986
 20
399.6042297633977
 30
0.0
 11
265.0562274641986
 21
400.2470217633977
 31
0.0
  0
LINE
  5
D2
330
1F
100
AcDbEntity
  8
0
  6
CONTINUOUS
 62
     7
100
AcDbLine
 10
264.682707464198
 20
390.9534257633993
 30
0.0
 11
265.225431464198
 21
388.6928217633993
 31
0.0
  0
LINE
  5
D3
330
1F
100
AcDbEntity
  8
0
  6
CONTINUOUS
 62
     7
100
AcDbLine
 10
268.1486354641987
 20
425.7699577634
 30
0.0
 11
270.9520274641986
 21
423.8770417634
 31
0.0
  0
LINE
  5
D4
330
1F
100
AcDbEntity
  8
0
  6
CONTINUOUS
 62
     7
100
AcDbLine
 10
268.0701274642008
 20
424.7732377634001
 30
0.0
 11
268.1485914642008
 21
425.7701377634002
 31
0.0
  0
LINE
  5
D5
330
1F
100
AcDbEntity
  8
0
  6
CONTINUOUS
 62
     7
100
AcDbLine
 10
263.2482914641994
 20
396.7066177633995
 30
0.0
 11
264.5204474641993
 21
397.7740777633996
 31
0.0
  0
ARC
  5
D6
330
1F
100
AcDbEntity
  8
0
  6
CONTINUOUS
 62
     7
100
AcDbCircle
 10
265.9910274641977
 20
398.3554497634003
 30
0.0
 40
12.89999200000125
100
AcDbArc
 50
131.486557
 51
188.513611
  0
LINE
  5
D7
330
1F
100
AcDbEntity
  8
0
  6
CONTINUOUS
 62
     7
100
AcDbLine
 10
261.0297714641998
 20
423.8772097634005
 30
0.0
 11
260.9343554641998
 21
424.3680257634005
 31
0.0
  0
LINE
  5
D8
330
1F
100
AcDbEntity
  8
0
  6
CONTINUOUS
 62
     7
100
AcDbLine
 10
266.8185874641989
 20
399.7024497633994
 30
0.0
 11
268.0907434641988
 21
400.7699097633994
 31
0.0
  0
LINE
  5
D9
330
1F
100
AcDbEntity
  8
0
  6
CONTINUOUS
 62
     7
100
AcDbLine
 10
266.5720674641978
 20
396.8847777634003
 30
0.0
 11
266.9256114641978
 21
396.4634537634004
 31
0.0
  0
LINE
  5
DA
330
1F
100
AcDbEntity
  8
0
  6
CONTINUOUS
 62
     7
100
AcDbLine
 10
261.0297554641985
 20
423.8772097634005
 30
0.0
 11
260.9343554641985
 21
424.3680257634005
 31
0.0
  0
LINE
  5
DB
330
1F
100
AcDbEntity
  8
0
  6
CONTINUOUS
 62
     7
100
AcDbLine
 10
297.9908274641989
 20
376.3553737633991
 30
0.0
 11
297.9908274641989
 21
420.3553737633991
 31
0.0
  0
LINE
  5
DC
330
1F
100
AcDbEntity
  8
0
  6
CONTINUOUS
 62
     7
100
AcDbLine
 10
268.1486194642009
 20
425.7699577634
 30
0.0
 11
270.9520114642009
 21
423.8770417634
 31
0.0
  0
LINE
  5
DD
330
1F
100
AcDbEntity
  8
0
  6
CONTINUOUS
 62
     7
100
AcDbLine
 10
258.5036634641984
 20
407.9540977634011
 30
0.0
 11
259.8968514641984
 21
406.3827937634011
 31
0.0
  0
LINE
  5
DE
330
1F
100
AcDbEntity
  8
0
  6
CONTINUOUS
 62
     7
100
AcDbLine
 10
263.8910834642001
 20
395.9405657634001
 30
0.0
 11
265.1632394642001
 21
397.0080377634001
 31
0.0
  0
LINE
  5
DF
330
1F
100
AcDbEntity
  8
0
  6
CONTINUOUS
 62
     7
100
AcDbLine
 10
275.6231514642007
 20
401.3343017633986
 30
0.0
 11
277.5727554642007
 21
402.1148057633986
 31
0.0
  0
LINE
  5
E0
330
1F
100
AcDbEntity
  8
0
  6
CONTINUOUS
 62
     7
100
AcDbLine
 10
265.4119554642005
 20
391.1284937634001
 30
0.0
 11
265.8163754642005
 21
389.4439537634001
 31
0.0
  0
LINE
  5
E1
330
1F
100
AcDbEntity
  8
0
  6
CONTINUOUS
 62
     7
100
AcDbLine
 10
261.9794754641998
 20
391.0757577633994
 30
0.0
 11
264.5076434641998
 21
391.6827057633994
 31
0.0
  0
ARC
  5
E2
330
1F
100
AcDbEntity
  8
0
  6
CONTINUOUS
 62
     7
100
AcDbCircle
 10
265.9910274641977
 20
398.3554497634003
 30
0.0
 40
9.299996000002864
100
AcDbArc
 50
21.453329
 51
64.045097
  0
LINE
  5
E3
330
1F
100
AcDbEntity
  8
0
  6
CONTINUOUS
 62
     7
100
AcDbLine
 10
261.4252914641977
 20
390.1713857633986
 30
0.0
 11
262.3335554641977
 21
386.3882257633986
 31
0.0
  0
LINE
  5
E4
330
1F
100
AcDbEntity
  8
0
  6
CONTINUOUS
 62
     7
100
AcDbLine
 10
262.154555464198
 20
390.3464777633978
 30
0.0
 11
264.682679464198
 21
390.9534257633978
 31
0.0
  0
ARC
  5
E5
330
1F
100
AcDbEntity
  8
0
  6
CONTINUOUS
 62
     7
100
AcDbCircle
 10
265.9910274641977
 20
398.3554497634003
 30
0.0
 40
12.89999200000125
100
AcDbArc
 50
256.05484
 51
308.315155
  0
LINE
  5
E6
330
1F
100
AcDbEntity
  8
0
  6
CONTINUOUS
 62
     7
100
AcDbLine
 10
262.154555464198
 20
390.3464777633978
 30
0.0
 11
263.062819464198
 21
386.5633057633978
 31
0.0
  0
ARC
  5
E7
330
1F
100
AcDbEntity
  8
0
  6
CONTINUOUS
 62
     7
100
AcDbCircle
 10
265.9910874641991
 20
398.3554497634003
 30
0.0
 40
10.04998799999868
100
AcDbArc
 50
131.470657
 51
188.529724
  0
ARC
  5
E8
330
1F
100
AcDbEntity
  8
0
  6
CONTINUOUS
 62
     7
100
AcDbCircle
 10
266.3027954642008
 20
389.5609697633979
 30
0.0
 40
0.4999999999988347
100
AcDbArc
 50
193.500702
 51
272.031708
  0
ARC
  5
E9
330
1F
100
AcDbEntity
  8
0
  6
CONTINUOUS
 62
     7
100
AcDbCircle
 10
265.9910874641991
 20
398.3554497634003
 30
0.0
 40
12.14999200000122
100
AcDbArc
 50
256.054474
 51
308.3186650000001
  0
LINE
  5
EA
330
1F
100
AcDbEntity
  8
0
  6
CONTINUOUS
 62
     7
100
AcDbLine
 10
257.9424874642004
 20
407.456493763398
 30
0.0
 11
259.3356914642004
 21
405.885189763398
 31
0.0
  0
ARC
  5
EB
330
1F
100
AcDbEntity
  8
0
  6
CONTINUOUS
 62
     7
100
AcDbCircle
 10
265.9910874641991
 20
398.3554497634003
 30
0.0
 40
10.04999599999934
100
AcDbArc
 50
21.45322
 51
64.04499100000001
  0
LINE
  5
EC
330
1F
100
AcDbEntity
  8
0
  6
CONTINUOUS
 62
     7
100
AcDbLine
 10
267.4613634641983
 20
398.9363977634
 30
0.0
 11
268.7335354641983
 21
400.0038737634
 31
0.0
  0
LINE
  5
ED
330
1F
100
AcDbEntity
  8
0
  6
CONTINUOUS
 62
     7
100
AcDbLine
 10
267.3381194642008
 20
397.5275697634011
 30
0.0
 11
267.6916514642008
 21
397.1062457634011
 31
0.0
  0
LINE
  5
EE
330
1F
100
AcDbEntity
  8
0
  6
CONTINUOUS
 62
     7
100
AcDbLine
 10
272.2061474641979
 20
390.4571977633999
 30
0.0
 11
273.5238354641979
 21
388.8219137633999
 31
0.0
  0
LINE
  5
EF
330
1F
100
AcDbEntity
  8
0
  6
CONTINUOUS
 62
     7
100
AcDbLine
 10
267.2399154642005
 20
400.0559817633977
 30
0.0
 11
267.8827034642005
 21
399.2899457633977
 31
0.0
  0
ARC
  5
F0
330
1F
100
AcDbEntity
  8
0
  6
CONTINUOUS
 62
     7
100
AcDbCircle
 10
262.1547234641977
 20
390.3467537633993
 30
0.0
 40
0.7500000000000284
100
AcDbArc
 50
103.499062
 51
193.500946
  0
LINE
  5
F1
330
1F
100
AcDbEntity
  8
1
  6
CONTINUOUS
 62
     7
100
AcDbLine
 10
384.8287446980008
 20
464.6053737632005
 30
0.0
 11
385.2713420828007
 21
464.1627763784006
 31
0.0
  0
LINE
  5
F2
330
1F
100
AcDbEntity
  8
1
  6
CONTINUOUS
 62
     7
100
AcDbLine
 10
380.5861040109004
 20
464.6053737632005
 30
0.0
 11
381.0287013957003
 21
464.1627763784006
 31
0.0
  0
LINE
  5
F3
330
1F
100
AcDbEntity
  8
1
  6
CONTINUOUS
 62
     7
100
AcDbLine
 10
1279.559087610901
 20
589.1053737632008
 30
0.0
 11
1279.559087610901
 21
586.1053737632006
 31
0.0
  0
LINE
  5
F4
330
1F
100
AcDbEntity
  8
1
  6
CONTINUOUS
 62
     7
100
AcDbLine
 10
1255.7590876109
 20
374.1053737632009
 30
0.0
 11
1255.7590876109
 21
377.105373763201
 31
0.0
  0
LINE
  5
F5
330
1F
100
AcDbEntity
  8
1
  6
CONTINUOUS
 62
     7
100
AcDbLine
 10
1072.6307909953
 20
341.3520452340002
 30
0.0
 11
717.1241339370002
 21
341.3520452340002
 31
0.0
  0
LINE
  5
F6
330
1F
100
AcDbEntity
  8
1
  6
CONTINUOUS
 62
     7
100
AcDbLine
 10
1223.0590876109
 20
555.105373763201
 30
0.0
 11
1279.559087610901
 21
555.105373763201
 31
0.0
  0
LINE
  5
F7
330
1F
100
AcDbEntity
  8
1
  6
CONTINUOUS
 62
     7
100
AcDbLine
 10
1284.109087610901
 20
547.6053737632008
 30
0.0
 11
1283.8090876109
 21
546.1053737632006
 31
0.0
  0
LINE
  5
F8
330
1F
100
AcDbEntity
  8
1
  6
CONTINUOUS
 62
     7
100
AcDbLine
 10
1096.877462466201
 20
594.6053737632004
 30
0.0
 11
1096.877462466201
 21
592.4053737632012
 31
0.0
  0
LINE
  5
F9
330
1F
100
AcDbEntity
  8
1
  6
CONTINUOUS
 62
     7
100
AcDbLine
 10
1285.2590876109
 20
592.1053737632009
 30
0.0
 11
1285.5590876109
 21
592.4053737632012
 31
0.0
  0
ARC
  5
FA
330
1F
100
AcDbEntity
  8
1
  6
CONTINUOUS
 62
     7
100
AcDbCircle
 10
1097.3774624662
 20
594.6053737632004
 30
0.0
 40
0.4999999999997229
100
AcDbArc
 50
90.0
 51
180.0
  0
LINE
  5
FB
330
1F
100
AcDbEntity
  8
1
  6
CONTINUOUS
 62
     7
100
AcDbLine
 10
1098.6274624662
 20
546.1053737632006
 30
0.0
 11
1099.6274624662
 21
545.1053737632003
 31
0.0
  0
LINE
  5
FC
330
1F
100
AcDbEntity
  8
1
  6
CONTINUOUS
 62
     7
100
AcDbLine
 10
1106.1274624662
 20
545.1053737632003
 30
0.0
 11
1107.127462466201
 21
546.1053737632006
 31
0.0
  0
LINE
  5
FD
330
1F
100
AcDbEntity
  8
1
  6
CONTINUOUS
 62
     7
100
AcDbLine
 10
1107.427462466201
 20
547.6053737632008
 30
0.0
 11
1107.127462466201
 21
546.1053737632006
 31
0.0
  0
LINE
  5
FE
330
1F
100
AcDbEntity
  8
1
  6
CONTINUOUS
 62
     7
100
AcDbLine
 10
1288.0590876109
 20
583.1053737632005
 30
0.0
 11
1223.0590876109
 21
583.1053737632005
 31
0.0
  0
ARC
  5
FF
330
1F
100
AcDbEntity
  8
1
  6
CONTINUOUS
 62
     7
100
AcDbCircle
 10
1285.0590876109
 20
594.6053737632004
 30
0.0
 40
0.4999999999997229
100
AcDbArc
 50
0.0
 51
90.0
  0
LINE
  5
100
330
1F
100
AcDbEntity
  8
1
  6
CONTINUOUS
 62
     7
100
AcDbLine
 10
1280.5590876109
 20
549.1053737632008
 30
0.0
 11
1280.5590876109
 21
545.1053737632003
 31
0.0
  0
LINE
  5
101
330
1F
100
AcDbEntity
  8
1
  6
CONTINUOUS
 62
     7
100
AcDbLine
 10
1107.127462466201
 20
549.1053737632008
 30
0.0
 11
1107.427462466201
 21
547.6053737632008
 31
0.0
  0
LINE
  5
102
330
1F
100
AcDbEntity
  8
1
  6
CONTINUOUS
 62
     7
100
AcDbLine
 10
1279.559087610901
 20
555.105373763201
 30
0.0
 11
1279.559087610901
 21
552.1053737632009
 31
0.0
  0
LINE
  5
103
330
1F
100
AcDbEntity
  8
1
  6
CONTINUOUS
 62
     7
100
AcDbLine
 10
1283.8090876109
 20
549.1053737632008
 30
0.0
 11
1284.109087610901
 21
547.6053737632008
 31
0.0
  0
LINE
  5
104
330
1F
100
AcDbEntity
  8
1
  6
CONTINUOUS
 62
     7
100
AcDbLine
 10
1255.7590876109
 20
552.1053737632009
 30
0.0
 11
1255.7590876109
 21
555.105373763201
 31
0.0
  0
ARC
  5
105
330
1F
100
AcDbEntity
  8
1
  6
CONTINUOUS
 62
     7
100
AcDbCircle
 10
1274.0590876109
 20
594.6053737632004
 30
0.0
 40
0.4999999999997229
100
AcDbArc
 50
90.0
 51
180.0
  0
LINE
  5
106
330
1F
100
AcDbEntity
  8
1
  6
CONTINUOUS
 62
     7
100
AcDbLine
 10
1282.8090876109
 20
545.1053737632003
 30
0.0
 11
1280.5590876109
 21
545.1053737632003
 31
0.0
  0
LINE
  5
107
330
1F
100
AcDbEntity
  8
1
  6
CONTINUOUS
 62
     7
100
AcDbLine
 10
1273.5590876109
 20
592.4053737632012
 30
0.0
 11
1273.859087610901
 21
592.1053737632009
 31
0.0
  0
LINE
  5
108
330
1F
100
AcDbEntity
  8
1
  6
CONTINUOUS
 62
     7
100
AcDbLine
 10
1288.0590876109
 20
592.1053737632009
 30
0.0
 11
1288.0590876109
 21
583.1053737632005
 31
0.0
  0
LINE
  5
109
330
1F
100
AcDbEntity
  8
1
  6
CONTINUOUS
 62
     7
100
AcDbLine
 10
1255.7590876109
 20
558.1053737632011
 30
0.0
 11
1255.7590876109
 21
583.1053737632005
 31
0.0
  0
LINE
  5
10A
330
1F
100
AcDbEntity
  8
1
  6
CONTINUOUS
 62
     7
100
AcDbLine
 10
1278.5590876109
 20
545.1053737632003
 30
0.0
 11
1276.3090876109
 21
545.1053737632003
 31
0.0
  0
LINE
  5
10B
330
1F
100
AcDbEntity
  8
1
  6
CONTINUOUS
 62
     7
100
AcDbLine
 10
1096.877462466201
 20
592.4053737632012
 30
0.0
 11
1097.177462466201
 21
592.1053737632009
 31
0.0
  0
LINE
  5
10C
330
1F
100
AcDbEntity
  8
1
  6
CONTINUOUS
 62
     7
100
AcDbLine
 10
1098.6274624662
 20
549.1053737632008
 30
0.0
 11
1098.3274624662
 21
547.6053737632008
 31
0.0
  0
LINE
  5
10D
330
1F
100
AcDbEntity
  8
1
  6
CONTINUOUS
 62
     7
100
AcDbLine
 10
1275.3090876109
 20
546.1053737632006
 30
0.0
 11
1276.3090876109
 21
545.1053737632003
 31
0.0
  0
LINE
  5
10E
330
1F
100
AcDbEntity
  8
1
  6
CONTINUOUS
 62
     7
100
AcDbLine
 10
1268.5590876109
 20
598.1053737632011
 30
0.0
 11
1268.5590876109
 21
592.1053737632009
 31
0.0
  0
LINE
  5
10F
330
1F
100
AcDbEntity
  8
1
  6
CONTINUOUS
 62
     7
100
AcDbLine
 10
1275.0090876109
 20
547.6053737632008
 30
0.0
 11
1275.3090876109
 21
546.1053737632006
 31
0.0
  0
LINE
  5
110
330
1F
100
AcDbEntity
  8
1
  6
CONTINUOUS
 62
     7
100
AcDbLine
 10
1288.0590876109
 20
558.1053737632011
 30
0.0
 11
1288.0590876109
 21
549.1053737632008
 31
0.0
  0
LINE
  5
111
330
1F
100
AcDbEntity
  8
1
  6
CONTINUOUS
 62
     7
100
AcDbLine
 10
1255.7590876109
 20
296.4837371623004
 30
0.0
 11
1255.7590876109
 21
337.105373763201
 31
0.0
  0
LINE
  5
112
330
1F
100
AcDbEntity
  8
1
  6
CONTINUOUS
 62
     7
100
AcDbLine
 10
1268.5590876109
 20
371.1053737632008
 30
0.0
 11
1268.5590876109
 21
346.1053737632005
 31
0.0
  0
LINE
  5
113
330
1F
100
AcDbEntity
  8
1
  6
CONTINUOUS
 62
     7
100
AcDbLine
 10
1275.3090876109
 20
549.1053737632008
 30
0.0
 11
1275.0090876109
 21
547.6053737632008
 31
0.0
  0
LINE
  5
114
330
1F
100
AcDbEntity
  8
1
  6
CONTINUOUS
 62
     7
100
AcDbLine
 10
1098.3274624662
 20
547.6053737632008
 30
0.0
 11
1098.6274624662
 21
546.1053737632006
 31
0.0
  0
LINE
  5
115
330
1F
100
AcDbEntity
  8
1
  6
CONTINUOUS
 62
     7
100
AcDbLine
 10
1106.1274624662
 20
545.1053737632003
 30
0.0
 11
1103.8774624662
 21
545.1053737632003
 31
0.0
  0
LINE
  5
116
330
1F
100
AcDbEntity
  8
1
  6
CONTINUOUS
 62
     7
100
AcDbLine
 10
1223.0590876109
 20
558.1053737632011
 30
0.0
 11
1288.0590876109
 21
558.1053737632011
 31
0.0
  0
LINE
  5
117
330
1F
100
AcDbEntity
  8
1
  6
CONTINUOUS
 62
     7
100
AcDbLine
 10
1271.0590876109
 20
555.105373763201
 30
0.0
 11
1271.0590876109
 21
552.1053737632009
 31
0.0
  0
LINE
  5
118
330
1F
100
AcDbEntity
  8
1
  6
CONTINUOUS
 62
     7
100
AcDbLine
 10
1255.7590876109
 20
592.1053737632009
 30
0.0
 11
1255.7590876109
 21
632.7270103640012
 31
0.0
  0
LINE
  5
119
330
1F
100
AcDbEntity
  8
1
  6
CONTINUOUS
 62
     7
100
AcDbLine
 10
1223.0590876109
 20
589.1053737632008
 30
0.0
 11
1279.559087610901
 21
589.1053737632008
 31
0.0
  0
LINE
  5
11A
330
1F
100
AcDbEntity
  8
1
  6
CONTINUOUS
 62
     7
100
AcDbLine
 10
1255.7590876109
 20
346.1053737632005
 30
0.0
 11
1255.7590876109
 21
371.1053737632008
 31
0.0
  0
LINE
  5
11B
330
1F
100
AcDbEntity
  8
1
  6
CENTER
 62
     7
100
AcDbLine
 10
894.8774624662005
 20
662.5570031115009
 30
0.0
 11
894.8774624662005
 21
284.6053737632008
 31
0.0
  0
LINE
  5
11D
330
1F
100
AcDbEntity
  8
1
  6
CONTINUOUS
 62
     7
100
AcDbLine
 10
1268.5590876109
 20
337.105373763201
 30
0.0
 11
1268.5590876109
 21
294.1053737632009
 31
0.0
  0
LINE
  5
11E
330
1F
100
AcDbEntity
  8
1
  6
CONTINUOUS
 62
     7
100
AcDbLine
 10
1279.559087610901
 20
552.1053737632009
 30
0.0
 11
1223.0590876109
 21
552.1053737632009
 31
0.0
  0
LINE
  5
11F
330
1F
100
AcDbEntity
  8
1
  6
CONTINUOUS
 62
     7
100
AcDbLine
 10
1285.5590876109
 20
594.6053737632004
 30
0.0
 11
1285.5590876109
 21
592.4053737632012
 31
0.0
  0
LINE
  5
120
330
1F
100
AcDbEntity
  8
1
  6
CONTINUOUS
 62
     7
100
AcDbLine
 10
1108.8774624662
 20
594.6053737632004
 30
0.0
 11
1108.8774624662
 21
592.4053737632012
 31
0.0
  0
LINE
  5
121
330
1F
100
AcDbEntity
  8
1
  6
CONTINUOUS
 62
     7
100
AcDbLine
 10
1285.0590876109
 20
595.105373763201
 30
0.0
 11
1274.0590876109
 21
595.105373763201
 31
0.0
  0
LINE
  5
122
330
1F
100
AcDbEntity
  8
1
  6
CONTINUOUS
 62
     7
100
AcDbLine
 10
1268.5590876109
 20
377.105373763201
 30
0.0
 11
1268.5590876109
 21
374.1053737632009
 31
0.0
  0
LINE
  5
123
330
1F
100
AcDbEntity
  8
1
  6
CONTINUOUS
 62
     7
100
AcDbLine
 10
1108.5774624662
 20
592.1053737632009
 30
0.0
 11
1108.8774624662
 21
592.4053737632012
 31
0.0
  0
LINE
  5
124
330
1F
100
AcDbEntity
  8
1
  6
CONTINUOUS
 62
     7
100
AcDbLine
 10
1255.7590876109
 20
380.1053737632003
 30
0.0
 11
1255.7590876109
 21
549.1053737632008
 31
0.0
  0
LINE
  5
125
330
1F
100
AcDbEntity
  8
1
  6
CONTINUOUS
 62
     7
100
AcDbLine
 10
1282.8090876109
 20
545.1053737632003
 30
0.0
 11
1283.8090876109
 21
546.1053737632006
 31
0.0
  0
LINE
  5
126
330
1F
100
AcDbEntity
  8
1
  6
CONTINUOUS
 62
     7
100
AcDbLine
 10
1278.5590876109
 20
549.1053737632008
 30
0.0
 11
1278.5590876109
 21
545.1053737632003
 31
0.0
  0
LINE
  5
127
330
1F
100
AcDbEntity
  8
1
  6
CONTINUOUS
 62
     7
100
AcDbLine
 10
1108.3774624662
 20
595.105373763201
 30
0.0
 11
1097.3774624662
 21
595.105373763201
 31
0.0
  0
LINE
  5
128
330
1F
100
AcDbEntity
  8
1
  6
CONTINUOUS
 62
     7
100
AcDbLine
 10
1268.5590876109
 20
343.1053737632004
 30
0.0
 11
1268.5590876109
 21
340.1053737632012
 31
0.0
  0
LINE
  5
129
330
1F
100
AcDbEntity
  8
1
  6
CONTINUOUS
 62
     7
100
AcDbLine
 10
1271.0590876109
 20
589.1053737632008
 30
0.0
 11
1271.0590876109
 21
586.1053737632006
 31
0.0
  0
ARC
  5
12A
330
1F
100
AcDbEntity
  8
1
  6
CONTINUOUS
 62
     7
100
AcDbCircle
 10
1108.3774624662
 20
594.6053737632004
 30
0.0
 40
0.4999999999997229
100
AcDbArc
 50
0.0
 51
90.0
  0
LINE
  5
12B
330
1F
100
AcDbEntity
  8
1
  6
CONTINUOUS
 62
     7
100
AcDbLine
 10
1268.5590876109
 20
583.1053737632005
 30
0.0
 11
1268.5590876109
 21
558.1053737632011
 31
0.0
  0
LINE
  5
12C
330
1F
100
AcDbEntity
  8
1
  6
CONTINUOUS
 62
     7
100
AcDbLine
 10
1103.8774624662
 20
549.1053737632008
 30
0.0
 11
1103.8774624662
 21
545.1053737632003
 31
0.0
  0
LINE
  5
12D
330
1F
100
AcDbEntity
  8
1
  6
CONTINUOUS
 62
     7
100
AcDbLine
 10
1279.559087610901
 20
586.1053737632006
 30
0.0
 11
1223.0590876109
 21
586.1053737632006
 31
0.0
  0
LINE
  5
12E
330
1F
100
AcDbEntity
  8
1
  6
CONTINUOUS
 62
     7
100
AcDbLine
 10
1273.5590876109
 20
594.6053737632004
 30
0.0
 11
1273.5590876109
 21
592.4053737632012
 31
0.0
  0
LINE
  5
12F
330
1F
100
AcDbEntity
  8
1
  6
CONTINUOUS
 62
     7
100
AcDbLine
 10
1101.8774624662
 20
549.1053737632008
 30
0.0
 11
1101.8774624662
 21
545.1053737632003
 31
0.0
  0
LINE
  5
130
330
1F
100
AcDbEntity
  8
1
  6
CONTINUOUS
 62
     7
100
AcDbLine
 10
1288.0590876109
 20
549.1053737632008
 30
0.0
 11
1223.0590876109
 21
549.1053737632008
 31
0.0
  0
LINE
  5
131
330
1F
100
AcDbEntity
  8
1
  6
CONTINUOUS
 62
     7
100
AcDbLine
 10
1255.7590876109
 20
586.1053737632006
 30
0.0
 11
1255.7590876109
 21
589.1053737632008
 31
0.0
  0
LINE
  5
132
330
1F
100
AcDbEntity
  8
1
  6
CONTINUOUS
 62
     7
100
AcDbLine
 10
1255.7590876109
 20
340.1053737632012
 30
0.0
 11
1255.7590876109
 21
343.1053737632004
 31
0.0
  0
LINE
  5
133
330
1F
100
AcDbEntity
  8
1
  6
CONTINUOUS
 62
     7
100
AcDbLine
 10
1268.5590876109
 20
549.1053737632008
 30
0.0
 11
1268.5590876109
 21
380.1053737632003
 31
0.0
  0
LINE
  5
134
330
1F
100
AcDbEntity
  8
1
  6
CONTINUOUS
 62
     7
100
AcDbLine
 10
766.8774624661
 20
103.5002551446
 30
0.0
 11
766.8774624661
 21
81.00025514460008
 31
0.0
  0
LINE
  5
135
330
1F
100
AcDbEntity
  8
1
  6
CONTINUOUS
 62
     7
100
AcDbLine
 10
1106.1274624662
 20
333.1053737632006
 30
0.0
 11
1103.8774624662
 21
333.1053737632006
 31
0.0
  0
LINE
  5
136
330
1F
100
AcDbEntity
  8
1
  6
CONTINUOUS
 62
     7
100
AcDbLine
 10
1096.877462466201
 20
382.6053737632007
 30
0.0
 11
1096.877462466201
 21
380.4053737632005
 31
0.0
  0
LINE
  5
137
330
1F
100
AcDbEntity
  8
1
  6
CONTINUOUS
 62
     7
100
AcDbLine
 10
1101.8774624662
 20
333.1053737632006
 30
0.0
 11
1099.6274624662
 21
333.1053737632006
 31
0.0
  0
ARC
  5
138
330
1F
100
AcDbEntity
  8
1
  6
CONTINUOUS
 62
     7
100
AcDbCircle
 10
679.3774624662001
 20
452.9122179687004
 30
0.0
 40
3.000000000000114
100
AcDbArc
 50
96.17017509499999
 51
180.0
  0
LINE
  5
139
330
1F
100
AcDbEntity
  8
1
  6
CONTINUOUS
 62
     7
100
AcDbLine
 10
693.0924261521003
 20
457.4123968643002
 30
0.0
 11
679.0550169372001
 21
455.8948391114006
 31
0.0
  0
ARC
  5
13A
330
1F
100
AcDbEntity
  8
1
  6
CONTINUOUS
 62
     7
100
AcDbCircle
 10
692.8774624662007
 20
459.4008109595
 30
0.0
 40
1.99999999999978
100
AcDbArc
 50
276.170175095
 51
0.0
  0
LINE
  5
13B
330
1F
100
AcDbEntity
  8
1
  6
CONTINUOUS
 62
     7
100
AcDbLine
 10
822.8774624661002
 20
103.5002551446
 30
0.0
 11
822.8774624661002
 21
81.00025514460008
 31
0.0
  0
LINE
  5
13C
330
1F
100
AcDbEntity
  8
1
  6
CONTINUOUS
 62
     7
100
AcDbLine
 10
1022.8774624661
 20
103.5002551446
 30
0.0
 11
1022.8774624661
 21
81.00025514460008
 31
0.0
  0
LINE
  5
13D
330
1F
100
AcDbEntity
  8
1
  6
CONTINUOUS
 62
     7
100
AcDbLine
 10
1108.3774624662
 20
383.1053737632004
 30
0.0
 11
1097.3774624662
 21
383.1053737632004
 31
0.0
  0
LINE
  5
13E
330
1F
100
AcDbEntity
  8
1
  6
CONTINUOUS
 62
     7
100
AcDbLine
 10
1103.8774624662
 20
337.105373763201
 30
0.0
 11
1103.8774624662
 21
333.1053737632006
 31
0.0
  0
ARC
  5
13F
330
1F
100
AcDbEntity
  8
1
  6
CONTINUOUS
 62
     7
100
AcDbCircle
 10
782.3774624661004
 20
81.00025514460008
 30
0.0
 40
15.50000000000029
100
AcDbArc
 50
180.0
 51
270.0
  0
LINE
  5
140
330
1F
100
AcDbEntity
  8
1
  6
CONTINUOUS
 62
     7
100
AcDbLine
 10
1096.877462466201
 20
380.4053737632005
 30
0.0
 11
1097.177462466201
 21
380.1053737632003
 31
0.0
  0
LINE
  5
141
330
1F
100
AcDbEntity
  8
1
  6
CONTINUOUS
 62
     7
100
AcDbLine
 10
982.3774624662001
 20
65.50025514459978
 30
0.0
 11
1007.3774624661
 21
65.50025514459978
 31
0.0
  0
ARC
  5
142
330
1F
100
AcDbEntity
  8
1
  6
CONTINUOUS
 62
     7
100
AcDbCircle
 10
1269.5590876109
 20
342.3053737627004
 30
0.0
 40
3.999999999999559
100
AcDbArc
 50
89.9999999982
 51
104.4775121859
  0
ARC
  5
143
330
1F
100
AcDbEntity
  8
1
  6
CONTINUOUS
 62
     7
100
AcDbCircle
 10
1097.3774624662
 20
382.6053737632007
 30
0.0
 40
0.4999999999997229
100
AcDbArc
 50
90.0
 51
180.0
  0
LINE
  5
144
330
1F
100
AcDbEntity
  8
1
  6
CONTINUOUS
 62
     7
100
AcDbLine
 10
693.9849443090998
 20
455.4972319012007
 30
0.0
 11
679.2699806232009
 21
453.9064250163012
 31
0.0
  0
ARC
  5
145
330
1F
100
AcDbEntity
  8
1
  6
CONTINUOUS
 62
     7
100
AcDbCircle
 10
693.8774624662001
 20
456.4914389488006
 30
0.0
 40
1.000000000000334
100
AcDbArc
 50
276.170175095
 51
0.0
  0
ARC
  5
146
330
1F
100
AcDbEntity
  8
1
  6
CONTINUOUS
 62
     7
100
AcDbCircle
 10
807.3774624661007
 20
81.00025514460008
 30
0.0
 40
15.50000000000029
100
AcDbArc
 50
270.0
 51
0.0
  0
LINE
  5
147
330
1F
100
AcDbEntity
  8
1
  6
CONTINUOUS
 62
     7
100
AcDbLine
 10
1269.5590876109
 20
370.9053737632013
 30
0.0
 11
1304.6490876109
 21
370.9053737632013
 31
0.0
  0
LINE
  5
148
330
1F
100
AcDbEntity
  8
1
  6
CONTINUOUS
 62
     7
100
AcDbLine
 10
1098.6274624662
 20
334.1053737632009
 30
0.0
 11
1099.6274624662
 21
333.1053737632006
 31
0.0
  0
LINE
  5
149
330
1F
100
AcDbEntity
  8
1
  6
CONTINUOUS
 62
     7
100
AcDbLine
 10
678.3774624662007
 20
452.9122179687004
 30
0.0
 11
678.3774624662007
 21
440.2985295576007
 31
0.0
  0
LINE
  5
14A
330
1F
100
AcDbEntity
  8
1
  6
CONTINUOUS
 62
     7
100
AcDbLine
 10
679.2699806232009
 20
439.3043225101003
 30
0.0
 11
693.9849443090998
 21
437.7135156251004
 31
0.0
  0
ARC
  5
14B
330
1F
100
AcDbEntity
  8
1
  6
CONTINUOUS
 62
     7
100
AcDbCircle
 10
1269.5590876109
 20
374.9053737632009
 30
0.0
 40
3.999999999999559
100
AcDbArc
 50
255.5224878141
 51
270.0
  0
ARC
  5
14C
330
1F
100
AcDbEntity
  8
1
  6
CONTINUOUS
 62
     7
100
AcDbCircle
 10
1272.7090876109
 20
350.8053737632002
 30
0.0
 40
0.4999999999997229
100
AcDbArc
 50
270.0
 51
0.0
  0
LINE
  5
14D
330
1F
100
AcDbEntity
  8
1
  6
CONTINUOUS
 62
     7
100
AcDbLine
 10
1275.0590876109
 20
350.3053737632005
 30
0.0
 11
1271.0590876109
 21
350.3053737632005
 31
0.0
  0
ARC
  5
14E
330
1F
100
AcDbEntity
  8
1
  6
CONTINUOUS
 62
     7
100
AcDbCircle
 10
687.0490353414
 20
96.30025514460083
 30
0.0
 40
1.99999999999978
100
AcDbArc
 50
45.0
 51
90.0
  0
ARC
  5
14F
330
1F
100
AcDbEntity
  8
1
  6
CONTINUOUS
 62
     7
100
AcDbCircle
 10
1275.0590876109
 20
351.8053737632005
 30
0.0
 40
1.500000000000057
100
AcDbArc
 50
270.0
 51
0.0
  0
LINE
  5
150
330
1F
100
AcDbEntity
  8
1
  6
CONTINUOUS
 62
     7
100
AcDbLine
 10
1280.5590876109
 20
350.3053737632005
 30
0.0
 11
1304.6490876109
 21
350.3053737632005
 31
0.0
  0
ARC
  5
151
330
1F
100
AcDbEntity
  8
1
  6
CONTINUOUS
 62
     7
100
AcDbCircle
 10
1280.5590876109
 20
351.3053737632008
 30
0.0
 40
1.000000000000334
100
AcDbArc
 50
180.0
 51
270.0
  0
LINE
  5
152
330
1F
100
AcDbEntity
  8
1
  6
CONTINUOUS
 62
     7
100
AcDbLine
 10
1271.0590876109
 20
366.9053737632009
 30
0.0
 11
1271.0590876109
 21
370.9053737632013
 31
0.0
  0
ARC
  5
153
330
1F
100
AcDbEntity
  8
1
  6
CONTINUOUS
 62
     7
100
AcDbCircle
 10
1272.7090876109
 20
366.4053737632011
 30
0.0
 40
0.4999999999997229
100
AcDbArc
 50
0.0
 51
90.0
  0
LINE
  5
154
330
1F
100
AcDbEntity
  8
1
  6
CONTINUOUS
 62
     7
100
AcDbLine
 10
1275.0590876109
 20
366.9053737632009
 30
0.0
 11
1271.0590876109
 21
366.9053737632009
 31
0.0
  0
ARC
  5
155
330
1F
100
AcDbEntity
  8
1
  6
CONTINUOUS
 62
     7
100
AcDbCircle
 10
1275.0590876109
 20
365.4053737632008
 30
0.0
 40
1.500000000000057
100
AcDbArc
 50
0.0
 51
90.0
  0
ARC
  5
156
330
1F
100
AcDbEntity
  8
1
  6
CONTINUOUS
 62
     7
100
AcDbCircle
 10
982.3774624662001
 20
81.00025514460008
 30
0.0
 40
15.50000000000029
100
AcDbArc
 50
180.0
 51
270.0
  0
ARC
  5
157
330
1F
100
AcDbEntity
  8
1
  6
CONTINUOUS
 62
     7
100
AcDbCircle
 10
1108.3774624662
 20
382.6053737632007
 30
0.0
 40
0.4999999999997229
100
AcDbArc
 50
0.0
 51
90.0
  0
LINE
  5
158
330
1F
100
AcDbEntity
  8
1
  6
CONTINUOUS
 62
     7
100
AcDbLine
 10
1107.427462466201
 20
335.605373763201
 30
0.0
 11
1107.127462466201
 21
334.1053737632009
 31
0.0
  0
LINE
  5
159
330
1F
100
AcDbEntity
  8
1
  6
CONTINUOUS
 62
     7
100
AcDbLine
 10
1271.0590876109
 20
346.3053737644008
 30
0.0
 11
1271.0590876109
 21
350.3053737632005
 31
0.0
  0
LINE
  5
15A
330
1F
100
AcDbEntity
  8
1
  6
CONTINUOUS
 62
     7
100
AcDbLine
 10
1280.5590876109
 20
366.9053737632009
 30
0.0
 11
1304.6490876109
 21
366.9053737632009
 31
0.0
  0
ARC
  5
15B
330
1F
100
AcDbEntity
  8
1
  6
CONTINUOUS
 62
     7
100
AcDbCircle
 10
1280.5590876109
 20
365.9053737632005
 30
0.0
 40
1.000000000000334
100
AcDbArc
 50
90.0
 51
180.0
  0
LINE
  5
15C
330
1F
100
AcDbEntity
  8
1
  6
CONTINUOUS
 62
     7
100
AcDbLine
 10
966.8774624662007
 20
103.5002551446
 30
0.0
 11
966.8774624662007
 21
81.00025514460008
 31
0.0
  0
LINE
  5
15D
330
1F
100
AcDbEntity
  8
1
  6
CONTINUOUS
 62
     7
100
AcDbLine
 10
1273.209087610899
 20
350.8053737632002
 30
0.0
 11
1273.209087610899
 21
366.4053737632011
 31
0.0
  0
LINE
  5
15E
330
1F
100
AcDbEntity
  8
1
  6
CONTINUOUS
 62
     7
100
AcDbLine
 10
1276.5590876109
 20
351.8053737632005
 30
0.0
 11
1276.5590876109
 21
365.4053737632008
 31
0.0
  0
LINE
  5
15F
330
1F
100
AcDbEntity
  8
1
  6
CONTINUOUS
 62
     7
100
AcDbLine
 10
1107.127462466201
 20
337.105373763201
 30
0.0
 11
1107.427462466201
 21
335.605373763201
 31
0.0
  0
LINE
  5
160
330
1F
100
AcDbEntity
  8
1
  6
CONTINUOUS
 62
     7
100
AcDbLine
 10
1279.559087610901
 20
351.3053737632008
 30
0.0
 11
1279.559087610901
 21
365.9053737632005
 31
0.0
  0
LINE
  5
161
330
1F
100
AcDbEntity
  8
1
  6
CONTINUOUS
 62
     7
100
AcDbLine
 10
1101.8774624662
 20
545.1053737632003
 30
0.0
 11
1099.6274624662
 21
545.1053737632003
 31
0.0
  0
ARC
  5
162
330
1F
100
AcDbEntity
  8
1
  6
CONTINUOUS
 62
     7
100
AcDbCircle
 10
679.3774624662001
 20
452.9122179687004
 30
0.0
 40
1.000000000000334
100
AcDbArc
 50
96.17017509499999
 51
180.0
  0
LINE
  5
163
330
1F
100
AcDbEntity
  8
1
  6
CONTINUOUS
 62
     7
100
AcDbLine
 10
1223.0590876109
 20
380.1053737632003
 30
0.0
 11
1288.0590876109
 21
380.1053737632003
 31
0.0
  0
ARC
  5
164
330
1F
100
AcDbEntity
  8
1
  6
CONTINUOUS
 62
     7
100
AcDbCircle
 10
1007.3774624661
 20
81.00025514460008
 30
0.0
 40
15.50000000000029
100
AcDbArc
 50
270.0
 51
0.0
  0
LINE
  5
165
330
1F
100
AcDbEntity
  8
1
  6
CONTINUOUS
 62
     7
100
AcDbLine
 10
1269.559087611
 20
346.3053737632009
 30
0.0
 11
1304.6490876109
 21
346.3053737632009
 31
0.0
  0
LINE
  5
166
330
1F
100
AcDbEntity
  8
1
  6
CONTINUOUS
 62
     7
100
AcDbLine
 10
1288.0590876109
 20
380.1053737632003
 30
0.0
 11
1288.0590876109
 21
371.1053737632008
 31
0.0
  0
LINE
  5
167
330
1F
100
AcDbEntity
  8
1
  6
CONTINUOUS
 62
     7
100
AcDbLine
 10
1288.0590876109
 20
371.1053737632008
 30
0.0
 11
1223.0590876109
 21
371.1053737632008
 31
0.0
  0
LINE
  5
168
330
1F
100
AcDbEntity
  8
1
  6
CONTINUOUS
 62
     7
100
AcDbLine
 10
1223.0590876109
 20
346.1053737632005
 30
0.0
 11
1288.0590876109
 21
346.1053737632005
 31
0.0
  0
LINE
  5
169
330
1F
100
AcDbEntity
  8
1
  6
CONTINUOUS
 62
     7
100
AcDbLine
 10
1288.0590876109
 20
346.1053737632005
 30
0.0
 11
1288.0590876109
 21
337.105373763201
 31
0.0
  0
LINE
  5
16A
330
1F
100
AcDbEntity
  8
1
  6
CONTINUOUS
 62
     7
100
AcDbLine
 10
1101.8774624662
 20
337.105373763201
 30
0.0
 11
1101.8774624662
 21
333.1053737632006
 31
0.0
  0
LINE
  5
16B
330
1F
100
AcDbEntity
  8
1
  6
CONTINUOUS
 62
     7
100
AcDbLine
 10
1108.5774624662
 20
380.1053737632003
 30
0.0
 11
1108.8774624662
 21
380.4053737632005
 31
0.0
  0
LINE
  5
16C
330
1F
100
AcDbEntity
  8
1
  6
CONTINUOUS
 62
     7
100
AcDbLine
 10
782.3774624661004
 20
65.50025514459978
 30
0.0
 11
807.3774624661007
 21
65.50025514459978
 31
0.0
  0
LINE
  5
16D
330
1F
100
AcDbEntity
  8
1
  6
CONTINUOUS
 62
     7
100
AcDbLine
 10
1098.6274624662
 20
337.105373763201
 30
0.0
 11
1098.3274624662
 21
335.605373763201
 31
0.0
  0
LINE
  5
16E
330
1F
100
AcDbEntity
  8
1
  6
CONTINUOUS
 62
     7
100
AcDbLine
 10
1098.3274624662
 20
335.605373763201
 30
0.0
 11
1098.6274624662
 21
334.1053737632009
 31
0.0
  0
ARC
  5
16F
330
1F
100
AcDbEntity
  8
1
  6
CONTINUOUS
 62
     7
100
AcDbCircle
 10
679.3774624662001
 20
440.2985295576007
 30
0.0
 40
1.000000000000334
100
AcDbArc
 50
180.0
 51
263.829824905
  0
LINE
  5
170
330
1F
100
AcDbEntity
  8
1
  6
CONTINUOUS
 62
     7
100
AcDbLine
 10
1108.8774624662
 20
382.6053737632007
 30
0.0
 11
1108.8774624662
 21
380.4053737632005
 31
0.0
  0
LINE
  5
171
330
1F
100
AcDbEntity
  8
1
  6
CONTINUOUS
 62
     7
100
AcDbLine
 10
1106.1274624662
 20
333.1053737632006
 30
0.0
 11
1107.127462466201
 21
334.1053737632009
 31
0.0
  0
ARC
  5
172
330
1F
100
AcDbEntity
  8
1
  6
CONTINUOUS
 62
     7
100
AcDbCircle
 10
693.8774624662001
 20
436.7193085775005
 30
0.0
 40
1.000000000000334
100
AcDbArc
 50
0.0
 51
83.82982490499997
  0
ARC
  5
173
330
1F
100
AcDbEntity
  8
1
  6
CONTINUOUS
 62
     7
100
AcDbCircle
 10
694.0863775387998
 20
109.5002551446003
 30
0.0
 40
1.000000000000334
100
AcDbArc
 50
270.0
 51
358.0
  0
LINE
  5
174
330
1F
100
AcDbEntity
  8
1
  6
CONTINUOUS
 62
     7
100
AcDbLine
 10
1285.0590876109
 20
383.1053737632004
 30
0.0
 11
1274.0590876109
 21
383.1053737632004
 31
0.0
  0
LINE
  5
175
330
1F
100
AcDbEntity
  8
1
  6
CONTINUOUS
 62
     7
100
AcDbLine
 10
1275.0090876109
 20
335.605373763201
 30
0.0
 11
1275.3090876109
 21
334.1053737632009
 31
0.0
  0
LINE
  5
176
330
1F
100
AcDbEntity
  8
1
  6
CONTINUOUS
 62
     7
100
AcDbLine
 10
1275.3090876109
 20
334.1053737632009
 30
0.0
 11
1276.3090876109
 21
333.1053737632006
 31
0.0
  0
LINE
  5
177
330
1F
100
AcDbEntity
  8
1
  6
CONTINUOUS
 62
     7
100
AcDbLine
 10
1279.559087610901
 20
377.105373763201
 30
0.0
 11
1279.559087610901
 21
374.1053737632009
 31
0.0
  0
LINE
  5
178
330
1F
100
AcDbEntity
  8
1
  6
CONTINUOUS
 62
     7
100
AcDbLine
 10
1282.8090876109
 20
333.1053737632006
 30
0.0
 11
1280.5590876109
 21
333.1053737632006
 31
0.0
  0
LINE
  5
179
330
1F
100
AcDbEntity
  8
1
  6
CONTINUOUS
 62
     6
100
AcDbLine
 10
404.9908434642005
 20
359.3553737632007
 30
0.0
 11
404.9908434642005
 21
443.3553737632003
 31
0.0
  0
LINE
  5
17A
330
1F
100
AcDbEntity
  8
1
  6
CONTINUOUS
 62
     7
100
AcDbLine
 10
1288.0590876109
 20
337.105373763201
 30
0.0
 11
1223.0590876109
 21
337.105373763201
 31
0.0
  0
LINE
  5
17B
330
1F
100
AcDbEntity
  8
1
  6
CONTINUOUS
 62
     7
100
AcDbLine
 10
1280.5590876109
 20
337.105373763201
 30
0.0
 11
1280.5590876109
 21
333.1053737632006
 31
0.0
  0
ARC
  5
17C
330
1F
100
AcDbEntity
  8
1
  6
CONTINUOUS
 62
     7
100
AcDbCircle
 10
704.8774624662002
 20
304.1053737632007
 30
0.0
 40
9.999999999999787
100
AcDbArc
 50
180.0
 51
270.0
  0
LINE
  5
17D
330
1F
100
AcDbEntity
  8
1
  6
CONTINUOUS
 62
     7
100
AcDbLine
 10
1282.8090876109
 20
333.1053737632006
 30
0.0
 11
1283.8090876109
 21
334.1053737632009
 31
0.0
  0
LINE
  5
17E
330
1F
100
AcDbEntity
  8
1
  6
CONTINUOUS
 62
     7
100
AcDbLine
 10
1285.2590876109
 20
380.1053737632003
 30
0.0
 11
1285.5590876109
 21
380.4053737632005
 31
0.0
  0
LINE
  5
17F
330
1F
100
AcDbEntity
  8
1
  6
CONTINUOUS
 62
     7
100
AcDbLine
 10
1285.5590876109
 20
382.6053737632007
 30
0.0
 11
1285.5590876109
 21
380.4053737632005
 31
0.0
  0
ARC
  5
180
330
1F
100
AcDbEntity
  8
1
  6
CONTINUOUS
 62
     7
100
AcDbCircle
 10
1222.0590876109
 20
624.9273247427008
 30
0.0
 40
1.99999999999978
100
AcDbArc
 50
92.0
 51
180.0000000002
  0
ARC
  5
181
330
1F
100
AcDbEntity
  8
1
  6
CONTINUOUS
 62
     7
100
AcDbCircle
 10
1285.0590876109
 20
382.6053737632007
 30
0.0
 40
0.4999999999997229
100
AcDbArc
 50
0.0
 51
90.0
  0
LINE
  5
182
330
1F
100
AcDbEntity
  8
1
  6
CONTINUOUS
 62
     7
100
AcDbLine
 10
1271.0590876109
 20
343.1053737632004
 30
0.0
 11
1271.0590876109
 21
340.1053737632012
 31
0.0
  0
ARC
  5
183
330
1F
100
AcDbEntity
  8
1
  6
CONTINUOUS
 62
     7
100
AcDbCircle
 10
1274.0590876109
 20
382.6053737632007
 30
0.0
 40
0.4999999999997229
100
AcDbArc
 50
90.0
 51
180.0
  0
LINE
  5
184
330
1F
100
AcDbEntity
  8
1
  6
CONTINUOUS
 62
     7
100
AcDbLine
 10
1284.109087610901
 20
335.605373763201
 30
0.0
 11
1283.8090876109
 21
334.1053737632009
 31
0.0
  0
LINE
  5
185
330
1F
100
AcDbEntity
  8
1
  6
CONTINUOUS
 62
     7
100
AcDbLine
 10
1273.5590876109
 20
380.4053737632005
 30
0.0
 11
1273.859087610901
 21
380.1053737632003
 31
0.0
  0
LINE
  5
186
330
1F
100
AcDbEntity
  8
1
  6
CONTINUOUS
 62
     7
100
AcDbLine
 10
1223.0590876109
 20
377.105373763201
 30
0.0
 11
1279.559087610901
 21
377.105373763201
 31
0.0
  0
LINE
  5
187
330
1F
100
AcDbEntity
  8
1
  6
CONTINUOUS
 62
     7
100
AcDbLine
 10
1278.5590876109
 20
333.1053737632006
 30
0.0
 11
1276.3090876109
 21
333.1053737632006
 31
0.0
  0
LINE
  5
188
330
1F
100
AcDbEntity
  8
1
  6
CONTINUOUS
 62
     7
100
AcDbLine
 10
1279.559087610901
 20
374.1053737632009
 30
0.0
 11
1223.0590876109
 21
374.1053737632009
 31
0.0
  0
LINE
  5
189
330
1F
100
AcDbEntity
  8
1
  6
CONTINUOUS
 62
     7
100
AcDbLine
 10
1275.3090876109
 20
337.105373763201
 30
0.0
 11
1275.0090876109
 21
335.605373763201
 31
0.0
  0
LINE
  5
18A
330
1F
100
AcDbEntity
  8
1
  6
CONTINUOUS
 62
     7
100
AcDbLine
 10
1223.0590876109
 20
343.1053737632004
 30
0.0
 11
1279.559087610901
 21
343.1053737632004
 31
0.0
  0
ARC
  5
18B
330
1F
100
AcDbEntity
  8
1
  6
CONTINUOUS
 62
     7
100
AcDbCircle
 10
717.1241339370002
 20
346.352045234001
 30
0.0
 40
4.999999999999893
100
AcDbArc
 50
180.0
 51
270.0
  0
LINE
  5
18C
330
1F
100
AcDbEntity
  8
1
  6
CONTINUOUS
 62
     7
100
AcDbLine
 10
1271.0590876109
 20
377.105373763201
 30
0.0
 11
1271.0590876109
 21
374.1053737632009
 31
0.0
  0
LINE
  5
18D
330
1F
100
AcDbEntity
  8
1
  6
CONTINUOUS
 62
     7
100
AcDbLine
 10
1279.559087610901
 20
340.1053737632012
 30
0.0
 11
1223.0590876109
 21
340.1053737632012
 31
0.0
  0
LINE
  5
18E
330
1F
100
AcDbEntity
  8
1
  6
CONTINUOUS
 62
     7
100
AcDbLine
 10
1278.5590876109
 20
337.105373763201
 30
0.0
 11
1278.5590876109
 21
333.1053737632006
 31
0.0
  0
ARC
  5
18F
330
1F
100
AcDbEntity
  8
1
  6
CONTINUOUS
 62
     7
100
AcDbCircle
 10
712.1241339370004
 20
311.3520452340009
 30
0.0
 40
3.999999999999559
100
AcDbArc
 50
180.0
 51
270.0
  0
LINE
  5
190
330
1F
100
AcDbEntity
  8
1
  6
CONTINUOUS
 62
     7
100
AcDbLine
 10
1279.559087610901
 20
343.1053737632004
 30
0.0
 11
1279.559087610901
 21
340.1053737632012
 31
0.0
  0
LINE
  5
191
330
1F
100
AcDbEntity
  8
1
  6
CONTINUOUS
 62
     7
100
AcDbLine
 10
1273.5590876109
 20
382.6053737632007
 30
0.0
 11
1273.5590876109
 21
380.4053737632005
 31
0.0
  0
LINE
  5
192
330
1F
100
AcDbEntity
  8
1
  6
CONTINUOUS
 62
     7
100
AcDbLine
 10
1283.8090876109
 20
337.105373763201
 30
0.0
 11
1284.109087610901
 21
335.605373763201
 31
0.0
  0
ARC
  5
193
330
1F
100
AcDbEntity
  8
1
  6
CONTINUOUS
 62
     7
100
AcDbCircle
 10
710.0567298325994
 20
309.2846411295999
 30
0.0
 40
6.999999999999673
100
AcDbArc
 50
180.0
 51
270.0
  0
LINE
  5
194
330
1F
100
AcDbEntity
  8
1
  6
CONTINUOUS
 62
     6
100
AcDbLine
 10
326.9908434642002
 20
397.8553737634005
 30
0.0
 11
325.5328035726999
 21
397.8553737634005
 31
0.0
  0
ARC
  5
195
330
1F
100
AcDbEntity
  8
1
  6
CONTINUOUS
 62
     6
100
AcDbCircle
 10
343.4908434642008
 20
382.1276424342015
 30
0.0
 40
1.99999999999978
100
AcDbArc
 50
317.2906100424
 51
0.0
  0
LINE
  5
196
330
1F
100
AcDbEntity
  8
1
  6
CONTINUOUS
 62
     6
100
AcDbLine
 10
321.2408434642002
 20
377.6053737634006
 30
0.0
 11
323.2408434642009
 21
377.6053737634006
 31
0.0
  0
ARC
  5
197
330
1F
100
AcDbEntity
  8
1
  6
CONTINUOUS
 62
     6
100
AcDbCircle
 10
313.4908434642005
 20
365.3553737632009
 30
0.0
 40
1.99999999999978
100
AcDbArc
 50
180.0
 51
270.0
  0
LINE
  5
198
330
1F
100
AcDbEntity
  8
1
  6
CONTINUOUS
 62
     6
100
AcDbLine
 10
333.7408434642004
 20
379.6053737634004
 30
0.0
 11
333.7408434642004
 21
386.605373763401
 31
0.0
  0
LINE
  5
199
330
1F
100
AcDbEntity
  8
1
  6
CONTINUOUS
 62
     6
100
AcDbLine
 10
321.2408434642002
 20
386.605373763401
 30
0.0
 11
321.2408434642002
 21
377.6053737634006
 31
0.0
  0
ARC
  5
19A
330
1F
100
AcDbEntity
  8
1
  6
CONTINUOUS
 62
     6
100
AcDbCircle
 10
307.9908434642009
 20
359.3553737632007
 30
0.0
 40
1.99999999999978
100
AcDbArc
 50
180.0
 51
270.0
  0
LINE
  5
19B
330
1F
100
AcDbEntity
  8
1
  6
CONTINUOUS
 62
     6
100
AcDbLine
 10
311.4908434642007
 20
365.3553737632009
 30
0.0
 11
311.4908434642007
 21
433.3553737636011
 31
0.0
  0
LINE
  5
19C
330
1F
100
AcDbEntity
  8
1
  6
CONTINUOUS
 62
     6
100
AcDbLine
 10
337.2408434642002
 20
378.1053737634012
 30
0.0
 11
337.2408434642002
 21
388.105373763401
 31
0.0
  0
LINE
  5
19D
330
1F
100
AcDbEntity
  8
1
  6
CONTINUOUS
 62
     6
100
AcDbLine
 10
350.9908434642002
 20
384.0412800695008
 30
0.0
 11
350.9908434642002
 21
443.3553737634011
 31
0.0
  0
LINE
  5
19E
330
1F
100
AcDbEntity
  8
1
  6
CONTINUOUS
 62
     6
100
AcDbLine
 10
345.4908434642006
 20
382.1276424342015
 30
0.0
 11
345.4908434642006
 21
433.3553737634004
 31
0.0
  0
LINE
  5
19F
330
1F
100
AcDbEntity
  8
1
  6
CONTINUOUS
 62
     6
100
AcDbLine
 10
345.4908434642006
 20
356.3553737632006
 30
0.0
 11
348.9908434642004
 21
356.3553737632006
 31
0.0
  0
CIRCLE
  5
1A0
330
1F
100
AcDbEntity
  8
1
  6
CONTINUOUS
 62
     6
100
AcDbCircle
 10
328.4908434642002
 20
398.3553737634011
 30
0.0
 40
3.750000000000142
  0
ARC
  5
1A1
330
1F
100
AcDbEntity
  8
1
  6
CONTINUOUS
 62
     6
100
AcDbCircle
 10
326.9908434642002
 20
396.8553737639011
 30
0.0
 40
1.000000000000334
100
AcDbArc
 50
0.0
 51
89.99999999959999
  0
ARC
  5
1A2
330
1F
100
AcDbEntity
  8
1
  6
CONTINUOUS
 62
     6
100
AcDbCircle
 10
334.9908434649
 20
365.3553737632009
 30
0.0
 40
1.99999999999978
100
AcDbArc
 50
270.0
 51
0.0000000036000074
  0
CIRCLE
  5
1A3
330
1F
100
AcDbEntity
  8
1
  6
CONTINUOUS
 62
     6
100
AcDbCircle
 10
328.4908434642002
 20
398.3553737634011
 30
0.0
 40
3.000000000000114
  0
LINE
  5
1A4
330
1F
100
AcDbEntity
  8
1
  6
CONTINUOUS
 62
     6
100
AcDbLine
 10
335.7408434642002
 20
386.605373763401
 30
0.0
 11
335.7408434642002
 21
379.6053737634004
 31
0.0
  0
LINE
  5
1A5
330
1F
100
AcDbEntity
  8
1
  6
CONTINUOUS
 62
     6
100
AcDbLine
 10
328.9908434642008
 20
396.8553737620013
 30
0.0
 11
328.9908434642008
 21
396.3553737634005
 31
0.0
  0
LINE
  5
1A6
330
1F
100
AcDbEntity
  8
1
  6
CONTINUOUS
 62
     6
100
AcDbLine
 10
336.9908434642009
 20
357.3553737632009
 30
0.0
 11
307.9908434642009
 21
357.3553737632009
 31
0.0
  0
LINE
  5
1A7
330
1F
100
AcDbEntity
  8
1
  6
CONTINUOUS
 62
     6
100
AcDbLine
 10
335.7408434642002
 20
379.6053737634004
 30
0.0
 11
333.7408434642004
 21
379.6053737634004
 31
0.0
  0
LINE
  5
1A8
330
1F
100
AcDbEntity
  8
1
  6
CONTINUOUS
 62
     6
100
AcDbLine
 10
324.7408434642001
 20
388.105373763401
 30
0.0
 11
319.7408434642002
 21
388.105373763401
 31
0.0
  0
LINE
  5
1A9
330
1F
100
AcDbEntity
  8
1
  6
CONTINUOUS
 62
     6
100
AcDbLine
 10
332.2408434642003
 20
378.1053737634012
 30
0.0
 11
337.2408434642002
 21
378.1053737634012
 31
0.0
  0
LINE
  5
1AA
330
1F
100
AcDbEntity
  8
1
  6
CONTINUOUS
 62
     6
100
AcDbLine
 10
324.7408434642001
 20
376.1053737634006
 30
0.0
 11
324.7408434642001
 21
388.105373763401
 31
0.0
  0
LINE
  5
1AB
330
1F
100
AcDbEntity
  8
1
  6
CONTINUOUS
 62
     6
100
AcDbLine
 10
326.9908434642002
 20
398.8553737634008
 30
0.0
 11
325.5328035726004
 21
398.8553737634008
 31
0.0
  0
LINE
  5
1AC
330
1F
100
AcDbEntity
  8
1
  6
CONTINUOUS
 62
     6
100
AcDbLine
 10
323.2408434642009
 20
386.605373763401
 30
0.0
 11
321.2408434642002
 21
386.605373763401
 31
0.0
  0
LINE
  5
1AD
330
1F
100
AcDbEntity
  8
1
  6
CONTINUOUS
 62
     6
100
AcDbLine
 10
319.7408434642002
 20
388.105373763401
 30
0.0
 11
319.7408434642002
 21
376.1053737634006
 31
0.0
  0
LINE
  5
1AE
330
1F
100
AcDbEntity
  8
1
  6
CONTINUOUS
 62
     6
100
AcDbLine
 10
323.2408434642009
 20
377.6053737634006
 30
0.0
 11
323.2408434642009
 21
386.605373763401
 31
0.0
  0
LINE
  5
1AF
330
1F
100
AcDbEntity
  8
1
  6
CONTINUOUS
 62
     6
100
AcDbLine
 10
337.2408434642002
 20
388.105373763401
 30
0.0
 11
332.2408434642003
 21
388.105373763401
 31
0.0
  0
LINE
  5
1B0
330
1F
100
AcDbEntity
  8
1
  6
CONTINUOUS
 62
     6
100
AcDbLine
 10
335.7408434642002
 20
419.8553737634007
 30
0.0
 11
333.7408434642004
 21
419.8553737634007
 31
0.0
  0
LINE
  5
1B1
330
1F
100
AcDbEntity
  8
1
  6
CONTINUOUS
 62
     6
100
AcDbLine
 10
333.7408434642004
 20
419.8553737634007
 30
0.0
 11
333.7408434642004
 21
426.8553737634005
 31
0.0
  0
LINE
  5
1B2
330
1F
100
AcDbEntity
  8
1
  6
CONTINUOUS
 62
     6
100
AcDbLine
 10
305.9908434642002
 20
359.3553737632007
 30
0.0
 11
305.9908434642002
 21
443.3553737633007
 31
0.0
  0
LINE
  5
1B3
330
1F
100
AcDbEntity
  8
1
  6
CONTINUOUS
 62
     6
100
AcDbLine
 10
327.9908434642005
 20
396.3553737634005
 30
0.0
 11
328.9908434642008
 21
396.3553737634005
 31
0.0
  0
ARC
  5
1B4
330
1F
100
AcDbEntity
  8
1
  6
CONTINUOUS
 62
     6
100
AcDbCircle
 10
343.4908434642008
 20
433.3553737634004
 30
0.0
 40
1.99999999999978
100
AcDbArc
 50
0.0
 51
90.0
  0
LINE
  5
1B5
330
1F
100
AcDbEntity
  8
1
  6
CONTINUOUS
 62
     6
100
AcDbLine
 10
333.7408434642004
 20
426.8553737634005
 30
0.0
 11
335.7408434642002
 21
426.8553737634005
 31
0.0
  0
LINE
  5
1B6
330
1F
100
AcDbEntity
  8
1
  6
CONTINUOUS
 62
     6
100
AcDbLine
 10
328.9908434642008
 20
399.8553737616008
 30
0.0
 11
328.9908434642008
 21
400.3553737634009
 31
0.0
  0
ARC
  5
1B7
330
1F
100
AcDbEntity
  8
1
  6
CONTINUOUS
 62
     6
100
AcDbCircle
 10
307.9908434642009
 20
443.3553737633007
 30
0.0
 40
1.99999999999978
100
AcDbArc
 50
90.0000000002
 51
180.0
  0
ARC
  5
1B8
330
1F
100
AcDbEntity
  8
1
  6
CONTINUOUS
 62
     6
100
AcDbCircle
 10
329.9908434642003
 20
399.8553737616008
 30
0.0
 40
1.000000000000334
100
AcDbArc
 50
180.0
 51
270.0000000004
  0
LINE
  5
1B9
330
1F
100
AcDbEntity
  8
1
  6
CONTINUOUS
 62
     6
100
AcDbLine
 10
327.9908434642005
 20
396.8553737639011
 30
0.0
 11
327.9908434642005
 21
396.3553737634005
 31
0.0
  0
ARC
  5
1BA
330
1F
100
AcDbEntity
  8
1
  6
CONTINUOUS
 62
     6
100
AcDbCircle
 10
348.9908434642004
 20
443.3553737634011
 30
0.0
 40
1.99999999999978
100
AcDbArc
 50
0.0
 51
90.0
  0
LINE
  5
1BB
330
1F
100
AcDbEntity
  8
1
  6
CONTINUOUS
 62
     6
100
AcDbLine
 10
334.9908434649
 20
363.3553737632012
 30
0.0
 11
313.4908434642005
 21
363.3553737632012
 31
0.0
  0
LINE
  5
1BC
330
1F
100
AcDbEntity
  8
1
  6
CONTINUOUS
 62
     6
100
AcDbLine
 10
319.7408434642002
 20
376.1053737634006
 30
0.0
 11
324.7408434642001
 21
376.1053737634006
 31
0.0
  0
ARC
  5
1BD
330
1F
100
AcDbEntity
  8
1
  6
CONTINUOUS
 62
     6
100
AcDbCircle
 10
329.9908434642003
 20
396.8553737620013
 30
0.0
 40
1.000000000000334
100
AcDbArc
 50
90.0000000003
 51
180.0
  0
LINE
  5
1BE
330
1F
100
AcDbEntity
  8
1
  6
CONTINUOUS
 62
     6
100
AcDbLine
 10
327.9908434642005
 20
399.8553737642005
 30
0.0
 11
327.9908434642005
 21
400.3553737634009
 31
0.0
  0
ARC
  5
1BF
330
1F
100
AcDbEntity
  8
1
  6
CONTINUOUS
 62
     6
100
AcDbCircle
 10
326.9908434642002
 20
399.8553737642005
 30
0.0
 40
1.000000000000334
100
AcDbArc
 50
269.9999999997
 51
0.0
  0
LINE
  5
1C0
330
1F
100
AcDbEntity
  8
1
  6
CONTINUOUS
 62
     6
100
AcDbLine
 10
328.9908434642008
 20
400.3553737634009
 30
0.0
 11
327.9908434642005
 21
400.3553737634009
 31
0.0
  0
LINE
  5
1C1
330
1F
100
AcDbEntity
  8
1
  6
CONTINUOUS
 62
     6
100
AcDbLine
 10
335.7408434642002
 20
426.8553737634005
 30
0.0
 11
335.7408434642002
 21
419.8553737634007
 31
0.0
  0
ARC
  5
1C2
330
1F
100
AcDbEntity
  8
1
  6
CONTINUOUS
 62
     6
100
AcDbCircle
 10
336.9908434642009
 20
359.3553737632007
 30
0.0
 40
1.99999999999978
100
AcDbArc
 50
270.0
 51
0.0
  0
LINE
  5
1C3
330
1F
100
AcDbEntity
  8
1
  6
CONTINUOUS
 62
     6
100
AcDbLine
 10
348.9908434642004
 20
445.3553737634008
 30
0.0
 11
307.9908434642009
 21
445.3553737634008
 31
0.0
  0
LINE
  5
1C4
330
1F
100
AcDbEntity
  8
1
  6
CONTINUOUS
 62
     6
100
AcDbLine
 10
321.2408434642002
 20
417.855373763401
 30
0.0
 11
323.2408434642009
 21
417.855373763401
 31
0.0
  0
LINE
  5
1C5
330
1F
100
AcDbEntity
  8
1
  6
CONTINUOUS
 62
     6
100
AcDbLine
 10
343.4908434642008
 20
435.355373763401
 30
0.0
 11
313.4908434642005
 21
435.355373763401
 31
0.0
  0
LINE
  5
1C6
330
1F
100
AcDbEntity
  8
1
  6
CONTINUOUS
 62
     6
100
AcDbLine
 10
333.7408434642004
 20
386.605373763401
 30
0.0
 11
335.7408434642002
 21
386.605373763401
 31
0.0
  0
LINE
  5
1C7
330
1F
100
AcDbEntity
  8
1
  6
CONTINUOUS
 62
     6
100
AcDbLine
 10
332.2408434642003
 20
388.105373763401
 30
0.0
 11
332.2408434642003
 21
378.1053737634012
 31
0.0
  0
LINE
  5
1C8
330
1F
100
AcDbEntity
  8
1
  6
CONTINUOUS
 62
     6
100
AcDbLine
 10
329.9908434642003
 20
397.8553737634005
 30
0.0
 11
331.4488833556996
 21
397.8553737634005
 31
0.0
  0
LINE
  5
1C9
330
1F
100
AcDbEntity
  8
1
  6
CONTINUOUS
 62
     6
100
AcDbLine
 10
329.9908434642003
 20
398.8553737634008
 30
0.0
 11
331.4488833558
 21
398.8553737634008
 31
0.0
  0
LINE
  5
1CA
330
1F
100
AcDbEntity
  8
1
  6
CONTINUOUS
 62
     6
100
AcDbLine
 10
323.2408434642009
 20
417.855373763401
 30
0.0
 11
323.2408434642009
 21
426.8553737634005
 31
0.0
  0
LINE
  5
1CB
330
1F
100
AcDbEntity
  8
1
  6
CONTINUOUS
 62
     6
100
AcDbLine
 10
345.4908434642006
 20
365.8553737632006
 30
0.0
 11
348.3209704831003
 21
365.8553737632006
 31
0.0
  0
LINE
  5
1CC
330
1F
100
AcDbEntity
  8
1
  6
CONTINUOUS
 62
     6
100
AcDbLine
 10
337.5212365757001
 20
375.7119339696011
 30
0.0
 11
344.9604503534003
 21
380.7710822287005
 31
0.0
  0
LINE
  5
1CD
330
1F
100
AcDbEntity
  8
1
  6
CONTINUOUS
 62
     6
100
AcDbLine
 10
338.9908434642006
 20
372.7048876915999
 30
0.0
 11
338.9908434642006
 21
359.3553737632007
 31
0.0
  0
ARC
  5
1CE
330
1F
100
AcDbEntity
  8
1
  6
CONTINUOUS
 62
     6
100
AcDbCircle
 10
328.4908434642002
 20
370.6053737632011
 30
0.0
 40
4.249999999999865
100
AcDbArc
 50
0.0
 51
180.0
  0
LINE
  5
1CF
330
1F
100
AcDbEntity
  8
1
  6
CONTINUOUS
 62
     6
100
AcDbLine
 10
332.7408434642001
 20
406.6053737663004
 30
0.0
 11
332.7408434642001
 21
410.8553737632006
 31
0.0
  0
LINE
  5
1D0
330
1F
100
AcDbEntity
  8
1
  6
CONTINUOUS
 62
     6
100
AcDbLine
 10
324.2408434642003
 20
410.8553737632006
 30
0.0
 11
324.2408434642003
 21
406.6053737632007
 31
0.0
  0
LINE
  5
1D1
330
1F
100
AcDbEntity
  8
1
  6
CONTINUOUS
 62
     6
100
AcDbLine
 10
324.7408434642001
 20
428.3553737634005
 30
0.0
 11
319.7408434642002
 21
428.3553737634005
 31
0.0
  0
LINE
  5
1D2
330
1F
100
AcDbEntity
  8
1
  6
CONTINUOUS
 62
     6
100
AcDbLine
 10
340.3038032907002
 20
375.1855923199008
 30
0.0
 11
349.6778836376002
 21
381.5605754411004
 31
0.0
  0
LINE
  5
1D3
330
1F
100
AcDbEntity
  8
1
  6
CONTINUOUS
 62
     6
100
AcDbLine
 10
347.4908434642003
 20
374.3553737632004
 30
0.0
 11
351.9908434642005
 21
373.3553737632009
 31
0.0
  0
LINE
  5
1D4
330
1F
100
AcDbEntity
  8
1
  6
CONTINUOUS
 62
     6
100
AcDbLine
 10
342.4908434642005
 20
365.8553737632006
 30
0.0
 11
339.6607164452004
 21
365.8553737632006
 31
0.0
  0
ARC
  5
1D5
330
1F
100
AcDbEntity
  8
1
  6
CONTINUOUS
 62
     6
100
AcDbCircle
 10
342.4908434642005
 20
363.8553737632009
 30
0.0
 40
1.000000000000334
100
AcDbArc
 50
0.0
 51
90.0
  0
LINE
  5
1D6
330
1F
100
AcDbEntity
  8
1
  6
CONTINUOUS
 62
     6
100
AcDbLine
 10
343.4908434642008
 20
366.855373763201
 30
0.0
 11
343.4908434642008
 21
367.3553737632007
 31
0.0
  0
LINE
  5
1D7
330
1F
100
AcDbEntity
  8
1
  6
CONTINUOUS
 62
     6
100
AcDbLine
 10
337.2408434642002
 20
418.3553737634007
 30
0.0
 11
337.2408434642002
 21
428.3553737634005
 31
0.0
  0
ARC
  5
1D8
330
1F
100
AcDbEntity
  8
1
  6
CONTINUOUS
 62
     6
100
AcDbCircle
 10
342.4908434642005
 20
366.855373763201
 30
0.0
 40
1.000000000000334
100
AcDbArc
 50
270.0
 51
0.0
  0
LINE
  5
1D9
330
1F
100
AcDbEntity
  8
1
  6
CONTINUOUS
 62
     6
100
AcDbLine
 10
339.9908434642001
 20
364.2835769935004
 30
0.0
 11
339.9908434642001
 21
356.3553737632006
 31
0.0
  0
LINE
  5
1DA
330
1F
100
AcDbEntity
  8
1
  6
CONTINUOUS
 62
     6
100
AcDbLine
 10
351.9908434642005
 20
376.355373763201
 30
0.0
 11
347.4908434642003
 21
376.355373763201
 31
0.0
  0
LINE
  5
1DB
330
1F
100
AcDbEntity
  8
1
  6
CONTINUOUS
 62
     6
100
AcDbLine
 10
344.4908434642002
 20
367.3553737632007
 30
0.0
 11
343.4908434642008
 21
367.3553737632007
 31
0.0
  0
ARC
  5
1DC
330
1F
100
AcDbEntity
  8
1
  6
CONTINUOUS
 62
     6
100
AcDbCircle
 10
347.9908434642001
 20
384.0412800695008
 30
0.0
 40
3.000000000000114
100
AcDbArc
 50
304.2182452403
 51
0.0
  0
ARC
  5
1DD
330
1F
100
AcDbEntity
  8
1
  6
CONTINUOUS
 62
     6
100
AcDbCircle
 10
345.4908434642006
 20
366.855373763201
 30
0.0
 40
1.000000000000334
100
AcDbArc
 50
180.0
 51
270.0
  0
ARC
  5
1DE
330
1F
100
AcDbEntity
  8
1
  6
CONTINUOUS
 62
     6
100
AcDbCircle
 10
328.4908434642002
 20
410.8553737632006
 30
0.0
 40
4.249999999999865
100
AcDbArc
 50
0.0
 51
180.0
  0
LINE
  5
1DF
330
1F
100
AcDbEntity
  8
1
  6
CONTINUOUS
 62
     6
100
AcDbLine
 10
323.2408434642009
 20
426.8553737634005
 30
0.0
 11
321.2408434642002
 21
426.8553737634005
 31
0.0
  0
ARC
  5
1E0
330
1F
100
AcDbEntity
  8
1
  6
CONTINUOUS
 62
     6
100
AcDbCircle
 10
345.7228942717006
 20
368.355373763201
 30
0.0
 40
1.000000000000334
100
AcDbArc
 50
30.0
 51
90.0
  0
LINE
  5
1E1
330
1F
100
AcDbEntity
  8
1
  6
CONTINUOUS
 62
     6
100
AcDbLine
 10
339.4856696723006
 20
374.3553737632004
 30
0.0
 11
347.4908434642003
 21
374.3553737632004
 31
0.0
  0
LINE
  5
1E2
330
1F
100
AcDbEntity
  8
1
  6
CONTINUOUS
 62
     6
100
AcDbLine
 10
324.2408434642003
 20
406.6053737632007
 30
0.0
 11
332.7408434642001
 21
406.6053737663004
 31
0.0
  0
LINE
  5
1E3
330
1F
100
AcDbEntity
  8
1
  6
CONTINUOUS
 62
     6
100
AcDbLine
 10
342.2587926566001
 20
369.3553737632005
 30
0.0
 11
345.7228942717006
 21
369.3553737632005
 31
0.0
  0
LINE
  5
1E4
330
1F
100
AcDbEntity
  8
1
  6
CONTINUOUS
 62
     6
100
AcDbLine
 10
319.7408434642002
 20
416.3553737634009
 30
0.0
 11
324.7408434642001
 21
416.3553737634009
 31
0.0
  0
LINE
  5
1E5
330
1F
100
AcDbEntity
  8
1
  6
CONTINUOUS
 62
     6
100
AcDbLine
 10
331.2408434642009
 20
410.8553737632006
 30
0.0
 11
331.2408434642009
 21
408.1053737632008
 31
0.0
  0
ARC
  5
1E6
330
1F
100
AcDbEntity
  8
1
  6
CONTINUOUS
 62
     6
100
AcDbCircle
 10
342.2587926566001
 20
368.355373763201
 30
0.0
 40
1.000000000000334
100
AcDbArc
 50
90.0
 51
150.0
  0
LINE
  5
1E7
330
1F
100
AcDbEntity
  8
1
  6
CONTINUOUS
 62
     6
100
AcDbLine
 10
339.6607164452004
 20
365.8553737632006
 30
0.0
 11
341.3927672527998
 21
368.8553737632008
 31
0.0
  0
ARC
  5
1E8
330
1F
100
AcDbEntity
  8
1
  6
CONTINUOUS
 62
     6
100
AcDbCircle
 10
340.5267418490005
 20
365.3553737632009
 30
0.0
 40
1.000000000000334
100
AcDbArc
 50
150.0
 51
210.0
  0
ARC
  5
1E9
330
1F
100
AcDbEntity
  8
1
  6
CONTINUOUS
 62
     6
100
AcDbCircle
 10
328.4908434642002
 20
370.6053737632011
 30
0.0
 40
2.749999999999808
100
AcDbArc
 50
0.0
 51
180.0
  0
LINE
  5
1EA
330
1F
100
AcDbEntity
  8
1
  6
CONTINUOUS
 62
     6
100
AcDbLine
 10
324.7408434642001
 20
416.3553737634009
 30
0.0
 11
324.7408434642001
 21
428.3553737634005
 31
0.0
  0
LINE
  5
1EB
330
1F
100
AcDbEntity
  8
1
  6
CONTINUOUS
 62
     6
100
AcDbLine
 10
319.7408434642002
 20
428.3553737634005
 30
0.0
 11
319.7408434642002
 21
416.3553737634009
 31
0.0
  0
ARC
  5
1EC
330
1F
100
AcDbEntity
  8
1
  6
CONTINUOUS
 62
     6
100
AcDbCircle
 10
338.9908434648996
 20
374.3553737641001
 30
0.0
 40
1.99999999999978
100
AcDbArc
 50
137.2906100424
 51
180.0
  0
LINE
  5
1ED
330
1F
100
AcDbEntity
  8
1
  6
CONTINUOUS
 62
     6
100
AcDbLine
 10
337.2408434642002
 20
428.3553737634005
 30
0.0
 11
332.2408434642003
 21
428.3553737634005
 31
0.0
  0
LINE
  5
1EE
330
1F
100
AcDbEntity
  8
1
  6
CONTINUOUS
 62
     6
100
AcDbLine
 10
325.7408434642004
 20
367.8553737632004
 30
0.0
 11
325.7408434642004
 21
370.6053737632011
 31
0.0
  0
LINE
  5
1EF
330
1F
100
AcDbEntity
  8
1
  6
CONTINUOUS
 62
     6
100
AcDbLine
 10
347.4908434642003
 20
376.355373763201
 30
0.0
 11
347.4908434642003
 21
375.3553737632007
 31
0.0
  0
LINE
  5
1F0
330
1F
100
AcDbEntity
  8
1
  6
CONTINUOUS
 62
     6
100
AcDbLine
 10
345.4908434642006
 20
364.8553737632003
 30
0.0
 11
348.3209704831003
 21
364.8553737632003
 31
0.0
  0
LINE
  5
1F1
330
1F
100
AcDbEntity
  8
1
  6
CONTINUOUS
 62
     6
100
AcDbLine
 10
324.2408434642003
 20
366.3553737632004
 30
0.0
 11
332.7408434642001
 21
366.3553737663001
 31
0.0
  0
LINE
  5
1F2
330
1F
100
AcDbEntity
  8
1
  6
CONTINUOUS
 62
     6
100
AcDbLine
 10
336.9908434648998
 20
374.3553737641001
 30
0.0
 11
336.9908434648998
 21
365.3553737633004
 31
0.0
  0
LINE
  5
1F3
330
1F
100
AcDbEntity
  8
1
  6
CONTINUOUS
 62
     6
100
AcDbLine
 10
321.2408434642002
 20
426.8553737634005
 30
0.0
 11
321.2408434642002
 21
417.855373763401
 31
0.0
  0
ARC
  5
1F4
330
1F
100
AcDbEntity
  8
1
  6
CONTINUOUS
 62
     6
100
AcDbCircle
 10
341.9908434642007
 20
372.7048876915999
 30
0.0
 40
3.000000000000114
100
AcDbArc
 50
124.2182452403
 51
180.0
  0
LINE
  5
1F5
330
1F
100
AcDbEntity
  8
1
  6
CONTINUOUS
 62
     6
100
AcDbLine
 10
331.2408434642009
 20
370.6053737632011
 30
0.0
 11
331.2408434642009
 21
367.8553737632004
 31
0.0
  0
LINE
  5
1F6
330
1F
100
AcDbEntity
  8
1
  6
CONTINUOUS
 62
     6
100
AcDbLine
 10
332.7408434642001
 20
366.3553737663001
 30
0.0
 11
332.7408434642001
 21
370.6053737632011
 31
0.0
  0
LINE
  5
1F7
330
1F
100
AcDbEntity
  8
1
  6
CONTINUOUS
 62
     6
100
AcDbLine
 10
324.2408434642003
 20
370.6053737632011
 30
0.0
 11
324.2408434642003
 21
366.3553737632004
 31
0.0
  0
LINE
  5
1F8
330
1F
100
AcDbEntity
  8
1
  6
CONTINUOUS
 62
     6
100
AcDbLine
 10
331.2408434642009
 20
408.1053737632008
 30
0.0
 11
325.7408434642004
 21
408.1053737632008
 31
0.0
  0
LINE
  5
1F9
330
1F
100
AcDbEntity
  8
1
  6
CONTINUOUS
 62
     6
100
AcDbLine
 10
347.4908434642003
 20
375.3553737632007
 30
0.0
 11
340.5534580522005
 21
375.3553737632007
 31
0.0
  0
LINE
  5
1FA
330
1F
100
AcDbEntity
  8
1
  6
CONTINUOUS
 62
     6
100
AcDbLine
 10
347.4908434642003
 20
369.3553737632005
 30
0.0
 11
351.9908434642005
 21
370.3553737632008
 31
0.0
  0
LINE
  5
1FB
330
1F
100
AcDbEntity
  8
1
  6
CONTINUOUS
 62
     6
100
AcDbLine
 10
344.4908434642002
 20
366.855373763201
 30
0.0
 11
344.4908434642002
 21
367.3553737632007
 31
0.0
  0
ARC
  5
1FC
330
1F
100
AcDbEntity
  8
1
  6
CONTINUOUS
 62
     6
100
AcDbCircle
 10
345.4908434642006
 20
363.8553737632009
 30
0.0
 40
1.000000000000334
100
AcDbArc
 50
90.0
 51
180.0
  0
LINE
  5
1FD
330
1F
100
AcDbEntity
  8
1
  6
CONTINUOUS
 62
     6
100
AcDbLine
 10
342.4908434642005
 20
364.8553737632003
 30
0.0
 11
339.6607164452004
 21
364.8553737632003
 31
0.0
  0
LINE
  5
1FE
330
1F
100
AcDbEntity
  8
1
  6
CONTINUOUS
 62
     6
100
AcDbLine
 10
325.7408434642004
 20
408.1053737632008
 30
0.0
 11
325.7408434642004
 21
410.8553737632006
 31
0.0
  0
LINE
  5
1FF
330
1F
100
AcDbEntity
  8
1
  6
CONTINUOUS
 62
     6
100
AcDbLine
 10
344.4908434642002
 20
363.8553737632009
 30
0.0
 11
344.4908434642002
 21
363.3553737632012
 31
0.0
  0
LINE
  5
200
330
1F
100
AcDbEntity
  8
1
  6
CONTINUOUS
 62
     6
100
AcDbLine
 10
343.4908434642008
 20
363.8553737632009
 30
0.0
 11
343.4908434642008
 21
363.3553737632012
 31
0.0
  0
LINE
  5
201
330
1F
100
AcDbEntity
  8
1
  6
CONTINUOUS
 62
     6
100
AcDbLine
 10
332.2408434642003
 20
418.3553737634007
 30
0.0
 11
337.2408434642002
 21
418.3553737634007
 31
0.0
  0
LINE
  5
202
330
1F
100
AcDbEntity
  8
1
  6
CONTINUOUS
 62
     6
100
AcDbLine
 10
332.2408434642003
 20
428.3553737634005
 30
0.0
 11
332.2408434642003
 21
418.3553737634007
 31
0.0
  0
LINE
  5
203
330
1F
100
AcDbEntity
  8
1
  6
CONTINUOUS
 62
     6
100
AcDbLine
 10
338.9908434642006
 20
367.3553737632007
 30
0.0
 11
339.9908434642001
 21
367.3553737632007
 31
0.0
  0
LINE
  5
204
330
1F
100
AcDbEntity
  8
1
  6
CONTINUOUS
 62
     6
100
AcDbLine
 10
340.9908434642004
 20
360.8553737632008
 30
0.0
 11
341.9908434642007
 21
356.3553737632006
 31
0.0
  0
LINE
  5
205
330
1F
100
AcDbEntity
  8
1
  6
CONTINUOUS
 62
     6
100
AcDbLine
 10
340.9908434642004
 20
360.8553737632008
 30
0.0
 11
339.9908434642001
 21
360.8553737632008
 31
0.0
  0
LINE
  5
206
330
1F
100
AcDbEntity
  8
1
  6
CONTINUOUS
 62
     6
100
AcDbLine
 10
331.2408434642009
 20
367.8553737632004
 30
0.0
 11
325.7408434642004
 21
367.8553737632004
 31
0.0
  0
ARC
  5
207
330
1F
100
AcDbEntity
  8
1
  6
CONTINUOUS
 62
     6
100
AcDbCircle
 10
328.4908434642002
 20
410.8553737632006
 30
0.0
 40
2.749999999999808
100
AcDbArc
 50
0.0
 51
180.0
  0
LINE
  5
208
330
1F
100
AcDbEntity
  8
1
  6
CONTINUOUS
 62
     6
100
AcDbLine
 10
349.9908434642007
 20
365.8553737632006
 30
0.0
 11
351.9908434642005
 21
365.8553737632006
 31
0.0
  0
LINE
  5
209
330
1F
100
AcDbEntity
  8
1
  6
CONTINUOUS
 62
     6
100
AcDbLine
 10
339.9908434642001
 20
367.3553737632007
 30
0.0
 11
339.9908434642001
 21
366.4271705329005
 31
0.0
  0
LINE
  5
20A
330
1F
100
AcDbEntity
  8
1
  6
CONTINUOUS
 62
     6
100
AcDbLine
 10
343.4908434642008
 20
363.3553737632012
 30
0.0
 11
344.4908434642002
 21
363.3553737632012
 31
0.0
  0
CIRCLE
  5
20B
330
1F
100
AcDbEntity
  8
1
  6
CONTINUOUS
 62
     7
100
AcDbCircle
 10
398.9908434641007
 20
325.6053737632003
 30
0.0
 40
2.500000000000391
  0
CIRCLE
  5
20C
330
1F
100
AcDbEntity
  8
1
  6
CONTINUOUS
 62
     7
100
AcDbCircle
 10
189.9908434641002
 20
446.6053737632008
 30
0.0
 40
4.500000000000171
  0
LINE
  5
20D
330
1F
100
AcDbEntity
  8
1
  6
CONTINUOUS
 62
     7
100
AcDbLine
 10
183.9908434641009
 20
466.6053737632003
 30
0.0
 11
202.7551138172008
 21
466.6053737632003
 31
0.0
  0
ARC
  5
20E
330
1F
100
AcDbEntity
  8
1
  6
CONTINUOUS
 62
     7
100
AcDbCircle
 10
210.7551138172008
 20
305.8696441163011
 30
0.0
 40
8.000000000000007
100
AcDbArc
 50
180.0
 51
270.0
  0
LINE
  5
20F
330
1F
100
AcDbEntity
  8
1
  6
CONTINUOUS
 62
     7
100
AcDbLine
 10
180.9908434641008
 20
463.6053737632011
 30
0.0
 11
180.9908434641008
 21
440.342332629001
 31
0.0
  0
LINE
  5
210
330
1F
100
AcDbEntity
  8
1
  6
CENTER
 62
     7
100
AcDbLine
 10
170.9908434641001
 20
464.6053737632005
 30
0.0
 11
605.2265731110004
 21
464.6053737632005
 31
0.0
  0
CIRCLE
  5
211
330
1F
100
AcDbEntity
  8
1
  6
CONTINUOUS
 62
     7
100
AcDbCircle
 10
543.9908434642007
 20
595.6053737632008
 30
0.0
 40
17.24999999999977
  0
CIRCLE
  5
212
330
1F
100
AcDbEntity
  8
1
  6
CONTINUOUS
 62
     7
100
AcDbCircle
 10
298.9908434641002
 20
326.1053737632009
 30
0.0
 40
12.50000000000018
  0
ARC
  5
213
330
1F
100
AcDbEntity
  8
1
  6
CONTINUOUS
 62
     7
100
AcDbCircle
 10
587.2265731110007
 20
305.8696441163011
 30
0.0
 40
8.000000000000007
100
AcDbArc
 50
270.0
 51
0.0
  0
LINE
  5
214
330
1F
100
AcDbEntity
  8
1
  6
CONTINUOUS
 62
     7
100
AcDbLine
 10
183.7163189405002
 20
437.3549196536004
 30
0.0
 11
202.7551138172008
 21
435.6053737632006
 31
0.0
  0
CIRCLE
  5
215
330
1F
100
AcDbEntity
  8
1
  6
CONTINUOUS
 62
     7
100
AcDbCircle
 10
458.9908434641004
 20
595.6053737632008
 30
0.0
 40
13.49999999999962
  0
LINE
  5
216
330
1F
100
AcDbEntity
  8
1
  6
CONTINUOUS
 62
     7
100
AcDbLine
 10
396.4908434641004
 20
607.6053737632003
 30
0.0
 11
396.4908434641004
 21
601.9355007821003
 31
0.0
  0
CIRCLE
  5
217
330
1F
100
AcDbEntity
  8
1
  6
CONTINUOUS
 62
     7
100
AcDbCircle
 10
253.9908434640008
 20
595.6053737632008
 30
0.0
 40
17.24999999999977
  0
LINE
  5
218
330
1F
100
AcDbEntity
  8
1
  6
CONTINUOUS
 62
     7
100
AcDbLine
 10
595.2265731110007
 20
582.905373763201
 30
0.0
 11
615.4908434641006
 21
582.905373763201
 31
0.0
  0
ARC
  5
219
330
1F
100
AcDbEntity
  8
1
  6
CONTINUOUS
 62
     7
100
AcDbCircle
 10
183.9908434641009
 20
440.342332629001
 30
0.0
 40
3.000000000000114
100
AcDbArc
 50
180.0
 51
264.7496227932
  0
LINE
  5
21A
330
1F
100
AcDbEntity
  8
1
  6
CONTINUOUS
 62
     7
100
AcDbLine
 10
202.7551138172008
 20
305.8696441163011
 30
0.0
 11
202.7551138172008
 21
623.3411034101008
 31
0.0
  0
CIRCLE
  5
21B
330
1F
100
AcDbEntity
  8
1
  6
CONTINUOUS
 62
     7
100
AcDbCircle
 10
298.9908434641002
 20
595.6053737632008
 30
0.0
 40
13.49999999999962
  0
LINE
  5
21C
330
1F
100
AcDbEntity
  8
1
  6
CONTINUOUS
 62
     7
100
AcDbLine
 10
615.4908434641006
 20
582.905373763201
 30
0.0
 11
615.4908434641006
 21
558.3053737632007
 31
0.0
  0
LINE
  5
21D
330
1F
100
AcDbEntity
  8
1
  6
CONTINUOUS
 62
     7
100
AcDbLine
 10
615.4908434641006
 20
558.3053737632007
 30
0.0
 11
595.2265731110007
 21
558.3053737632007
 31
0.0
  0
LINE
  5
21E
330
1F
100
AcDbEntity
  8
1
  6
CONTINUOUS
 62
     7
100
AcDbLine
 10
615.4908434641006
 20
370.9053737632013
 30
0.0
 11
615.4908434641006
 21
346.3053737632009
 31
0.0
  0
LINE
  5
21F
330
1F
100
AcDbEntity
  8
1
  6
CONTINUOUS
 62
     7
100
AcDbLine
 10
423.9908434641002
 20
339.1053737632008
 30
0.0
 11
423.9908434641002
 21
312.1053737632007
 31
0.0
  0
LINE
  5
220
330
1F
100
AcDbEntity
  8
1
  6
CONTINUOUS
 62
     7
100
AcDbLine
 10
401.4908434641002
 20
607.6053737632003
 30
0.0
 11
401.4908434641002
 21
601.9355007821003
 31
0.0
  0
LINE
  5
221
330
1F
100
AcDbEntity
  8
1
  6
CONTINUOUS
 62
     7
100
AcDbLine
 10
615.4908434641006
 20
346.3053737632009
 30
0.0
 11
595.2265731110007
 21
346.3053737632009
 31
0.0
  0
LINE
  5
222
330
1F
100
AcDbEntity
  8
1
  6
CONTINUOUS
 62
     7
100
AcDbLine
 10
573.2908434641004
 20
608.6053737632006
 30
0.0
 11
573.2908434641004
 21
603.0494709719001
 31
0.0
  0
ARC
  5
223
330
1F
100
AcDbEntity
  8
1
  6
CONTINUOUS
 62
     7
100
AcDbCircle
 10
398.9908434641007
 20
607.6053737632003
 30
0.0
 40
2.500000000000391
100
AcDbArc
 50
0.0
 51
180.0
  0
LINE
  5
224
330
1F
100
AcDbEntity
  8
1
  6
CONTINUOUS
 62
     7
100
AcDbLine
 10
373.9908434641004
 20
617.1053737632004
 30
0.0
 11
373.9908434641004
 21
590.1053737632011
 31
0.0
  0
LINE
  5
225
330
1F
100
AcDbEntity
  8
1
  6
CONTINUOUS
 62
     7
100
AcDbLine
 10
373.9908434641004
 20
312.1053737632007
 30
0.0
 11
373.9908434641004
 21
339.1053737632008
 31
0.0
  0
LINE
  5
226
330
1F
100
AcDbEntity
  8
1
  6
CONTINUOUS
 62
     7
100
AcDbLine
 10
356.9908434641
 20
586.1053737632006
 30
0.0
 11
440.9908434641005
 21
586.1053737632006
 31
0.0
  0
LINE
  5
227
330
1F
100
AcDbEntity
  8
1
  6
CONTINUOUS
 62
     7
100
AcDbLine
 10
578.6908434641002
 20
608.6053737632006
 30
0.0
 11
578.6908434641002
 21
603.0494709719001
 31
0.0
  0
LINE
  5
228
330
1F
100
AcDbEntity
  8
1
  6
CENTER
 62
     7
100
AcDbLine
 10
398.9908434641007
 20
641.3411034101007
 30
0.0
 11
398.9908434641007
 21
287.8696441163005
 31
0.0
  0
ARC
  5
229
330
1F
100
AcDbEntity
  8
1
  6
CONTINUOUS
 62
     7
100
AcDbCircle
 10
575.9908434641003
 20
608.6053737632006
 30
0.0
 40
2.699999999999925
100
AcDbArc
 50
0.0
 51
180.0
  0
LINE
  5
22A
330
1F
100
AcDbEntity
  8
1
  6
CONTINUOUS
 62
     7
100
AcDbLine
 10
440.9908434641005
 20
586.1053737632006
 30
0.0
 11
440.9908434641005
 21
622.6053737632009
 31
0.0
  0
CIRCLE
  5
22B
330
1F
100
AcDbEntity
  8
1
  6
CONTINUOUS
 62
     7
100
AcDbCircle
 10
338.9908434641002
 20
595.6053737632008
 30
0.0
 40
13.49999999999962
  0
ARC
  5
22C
330
1F
100
AcDbEntity
  8
1
  6
CONTINUOUS
 62
     7
100
AcDbCircle
 10
587.2265731110007
 20
623.3411034101008
 30
0.0
 40
8.000000000000007
100
AcDbArc
 50
0.0
 51
90.0
  0
LINE
  5
22D
330
1F
100
AcDbEntity
  8
1
  6
CONTINUOUS
 62
     7
100
AcDbLine
 10
587.2265731110007
 20
631.3411034101008
 30
0.0
 11
210.7551138172008
 21
631.3411034101008
 31
0.0
  0
CIRCLE
  5
22E
330
1F
100
AcDbEntity
  8
1
  6
CONTINUOUS
 62
     7
100
AcDbCircle
 10
498.9908434641004
 20
326.1053737632009
 30
0.0
 40
12.50000000000018
  0
CIRCLE
  5
22F
330
1F
100
AcDbEntity
  8
1
  6
CONTINUOUS
 62
     7
100
AcDbCircle
 10
543.9908434641003
 20
326.1053737632009
 30
0.0
 40
14.00000000000023
  0
ARC
  5
230
330
1F
100
AcDbEntity
  8
1
  6
CONTINUOUS
 62
     7
100
AcDbCircle
 10
210.7551138172008
 20
623.3411034101008
 30
0.0
 40
8.000000000000007
100
AcDbArc
 50
90.0
 51
180.0
  0
ARC
  5
231
330
1F
100
AcDbEntity
  8
1
  6
CONTINUOUS
 62
     7
100
AcDbCircle
 10
575.9908434641003
 20
598.6053737632009
 30
0.0
 40
5.200000000000315
100
AcDbArc
 50
121.2806671521
 51
58.71933284800003
  0
ARC
  5
232
330
1F
100
AcDbEntity
  8
1
  6
CONTINUOUS
 62
     7
100
AcDbCircle
 10
183.9908434641009
 20
463.6053737632011
 30
0.0
 40
3.000000000000114
100
AcDbArc
 50
90.0
 51
180.0
  0
LINE
  5
233
330
1F
100
AcDbEntity
  8
1
  6
CONTINUOUS
 62
     7
100
AcDbLine
 10
323.9908434641006
 20
297.8696441163011
 30
0.0
 11
323.9908434641006
 21
304.6053737632004
 31
0.0
  0
LINE
  5
234
330
1F
100
AcDbEntity
  8
1
  6
CONTINUOUS
 62
     7
100
AcDbLine
 10
323.9908434641006
 20
304.6053737632004
 30
0.0
 11
322.9908434641002
 21
304.6053737632004
 31
0.0
  0
LINE
  5
235
330
1F
100
AcDbEntity
  8
1
  6
CONTINUOUS
 62
     7
100
AcDbLine
 10
423.9908434641002
 20
590.1053737632011
 30
0.0
 11
423.9908434641002
 21
617.1053737632004
 31
0.0
  0
LINE
  5
236
330
1F
100
AcDbEntity
  8
1
  6
CONTINUOUS
 62
     7
100
AcDbLine
 10
322.9908434641002
 20
304.6053737632004
 30
0.0
 11
321.9908434640004
 21
304.0280234940012
 31
0.0
  0
ARC
  5
237
330
1F
100
AcDbEntity
  8
1
  6
CONTINUOUS
 62
     7
100
AcDbCircle
 10
398.9908434641007
 20
597.6053737632005
 30
0.0
 40
4.999999999999893
100
AcDbArc
 50
120.0
 51
60.0
  0
CIRCLE
  5
238
330
1F
100
AcDbEntity
  8
1
  6
CONTINUOUS
 62
     7
100
AcDbCircle
 10
498.9908434641004
 20
595.6053737632008
 30
0.0
 40
13.49999999999962
  0
CIRCLE
  5
239
330
1F
100
AcDbEntity
  8
1
  6
CONTINUOUS
 62
     7
100
AcDbCircle
 10
253.9908434641003
 20
326.1053737632009
 30
0.0
 40
14.00000000000023
  0
LINE
  5
23A
330
1F
100
AcDbEntity
  8
1
  6
CONTINUOUS
 62
     7
100
AcDbLine
 10
321.9121013889001
 20
303.982561735701
 30
0.0
 11
275.7771220845004
 21
304.1514155901011
 31
0.0
  0
LINE
  5
23B
330
1F
100
AcDbEntity
  8
1
  6
CONTINUOUS
 62
     7
100
AcDbLine
 10
595.2265731110007
 20
370.9053737632013
 30
0.0
 11
615.4908434641006
 21
370.9053737632013
 31
0.0
  0
LINE
  5
23C
330
1F
100
AcDbEntity
  8
1
  6
CONTINUOUS
 62
     7
100
AcDbLine
 10
210.7551138172008
 20
297.8696441163011
 30
0.0
 11
587.2265731110007
 21
297.8696441163011
 31
0.0
  0
ARC
  5
23D
330
1F
100
AcDbEntity
  8
1
  6
CONTINUOUS
 62
     7
100
AcDbCircle
 10
217.0835519034
 20
617.0126653239007
 30
0.0
 40
1.99999999999978
100
AcDbArc
 50
90.0
 51
180.0
  0
LINE
  5
23E
330
1F
100
AcDbEntity
  8
1
  6
CONTINUOUS
 62
     7
100
AcDbLine
 10
356.9908434641
 20
619.1053737631007
 30
0.0
 11
356.9908434641
 21
586.1053737632006
 31
0.0
  0
LINE
  5
23F
330
1F
100
AcDbEntity
  8
1
  6
CONTINUOUS
 62
     7
100
AcDbLine
 10
373.9908434641004
 20
590.1053737632011
 30
0.0
 11
423.9908434641002
 21
590.1053737632011
 31
0.0
  0
LINE
  5
240
330
1F
100
AcDbEntity
  8
1
  6
CONTINUOUS
 62
     7
100
AcDbLine
 10
423.9908434641002
 20
312.1053737632007
 30
0.0
 11
373.9908434641004
 21
312.1053737632007
 31
0.0
  0
LINE
  5
241
330
1F
100
AcDbEntity
  8
1
  6
CONTINUOUS
 62
     7
100
AcDbLine
 10
423.9908434641002
 20
617.1053737632004
 30
0.0
 11
373.9908434641004
 21
617.1053737632004
 31
0.0
  0
ARC
  5
242
330
1F
100
AcDbEntity
  8
1
  6
CONTINUOUS
 62
     7
100
AcDbCircle
 10
214.4908434641009
 20
619.6053737632008
 30
0.0
 40
3.000000000000114
100
AcDbArc
 50
90.0
 51
180.0
  0
LINE
  5
243
330
1F
100
AcDbEntity
  8
1
  6
CONTINUOUS
 62
     7
100
AcDbLine
 10
595.2265731110007
 20
305.8696441163011
 30
0.0
 11
595.2265731110007
 21
623.3411034101008
 31
0.0
  0
LINE
  5
244
330
1F
100
AcDbEntity
  8
1
  6
CONTINUOUS
 62
     7
100
AcDbLine
 10
373.9908434641004
 20
339.1053737632008
 30
0.0
 11
423.9908434641002
 21
339.1053737632008
 31
0.0
  0
LINE
  5
245
330
1F
100
AcDbEntity
  8
1
  6
CONTINUOUS
 62
     7
100
AcDbLine
 10
522.1248180601998
 20
304.1053737632007
 30
0.0
 11
522.990843464
 21
304.6053737632004
 31
0.0
  0
LINE
  5
246
330
1F
100
AcDbEntity
  8
1
  6
CONTINUOUS
 62
     7
100
AcDbLine
 10
523.9908434641007
 20
304.6053737632004
 30
0.0
 11
523.9908434641007
 21
297.8696441163011
 31
0.0
  0
ARC
  5
247
330
1F
100
AcDbEntity
  8
1
  6
CONTINUOUS
 62
     7
100
AcDbCircle
 10
217.0835519034
 20
312.3049369979007
 30
0.0
 40
1.99999999999978
100
AcDbArc
 50
180.0
 51
270.0
  0
LINE
  5
248
330
1F
100
AcDbEntity
  8
1
  6
CONTINUOUS
 62
     7
100
AcDbLine
 10
274.9908434642006
 20
304.6053737632004
 30
0.0
 11
273.9908434641007
 21
304.6053737632004
 31
0.0
  0
LINE
  5
249
330
1F
100
AcDbEntity
  8
1
  6
CONTINUOUS
 62
     7
100
AcDbLine
 10
568.9908434642001
 20
342.3553737632004
 30
0.0
 11
568.9908434642001
 21
572.3553737632008
 31
0.0
  0
LINE
  5
24A
330
1F
100
AcDbEntity
  8
1
  6
CONTINUOUS
 62
     6
100
AcDbLine
 10
413.9908434642008
 20
356.3553737632006
 30
0.0
 11
454.9908434642003
 21
356.3553737632006
 31
0.0
  0
LINE
  5
24B
330
1F
100
AcDbEntity
  8
1
  6
CONTINUOUS
 62
     3
100
AcDbLine
 10
283.9908434642009
 20
480.4484628254011
 30
0.0
 11
283.9908434642009
 21
550.4484628254014
 31
0.0
  0
LINE
  5
24C
330
1F
100
AcDbEntity
  8
1
  6
CONTINUOUS
 62
     3
100
AcDbLine
 10
283.9908434642009
 20
550.4484628254014
 30
0.0
 11
251.9908434642009
 21
550.4484628254014
 31
0.0
  0
LINE
  5
24D
330
1F
100
AcDbEntity
  8
1
  6
CONTINUOUS
 62
     3
100
AcDbLine
 10
371.9908434642001
 20
550.4484628254014
 30
0.0
 11
371.9908434642001
 21
480.4484628254011
 31
0.0
  0
LINE
  5
24E
330
1F
100
AcDbEntity
  8
1
  6
CONTINUOUS
 62
     7
100
AcDbLine
 10
612.5008434641011
 20
351.3053737632008
 30
0.0
 11
612.5008434641011
 21
365.9053737632005
 31
0.0
  0
ARC
  5
24F
330
1F
100
AcDbEntity
  8
1
  6
CONTINUOUS
 62
     7
100
AcDbCircle
 10
214.4908434641009
 20
310.0055108802007
 30
0.0
 40
3.000000000000114
100
AcDbArc
 50
180.0
 51
270.0
  0
LINE
  5
250
330
1F
100
AcDbEntity
  8
1
  6
CONTINUOUS
 62
     7
100
AcDbLine
 10
582.1978950700997
 20
312.3049369979007
 30
0.0
 11
582.1978950700997
 21
617.0126653239007
 31
0.0
  0
LINE
  5
251
330
1F
100
AcDbEntity
  8
1
  6
CONTINUOUS
 62
     7
100
AcDbLine
 10
585.7906035094001
 20
619.6053737632008
 30
0.0
 11
585.7906035094001
 21
310.0055108802007
 31
0.0
  0
LINE
  5
252
330
1F
100
AcDbEntity
  8
1
  6
CONTINUOUS
 62
     7
100
AcDbLine
 10
228.9908434642003
 20
572.3553737632008
 30
0.0
 11
228.9908434642003
 21
342.3553737632004
 31
0.0
  0
LINE
  5
253
330
1F
100
AcDbEntity
  8
1
  6
CONTINUOUS
 62
     3
100
AcDbLine
 10
251.9908434642009
 20
480.4484628254011
 30
0.0
 11
283.9908434642009
 21
480.4484628254011
 31
0.0
  0
LINE
  5
254
330
1F
100
AcDbEntity
  8
1
  6
CONTINUOUS
 62
     3
100
AcDbLine
 10
371.9908434642001
 20
480.4484628254011
 30
0.0
 11
403.9908434642001
 21
480.4484628254011
 31
0.0
  0
LINE
  5
255
330
1F
100
AcDbEntity
  8
1
  6
CONTINUOUS
 62
     3
100
AcDbLine
 10
403.9908434642001
 20
480.4484628254011
 30
0.0
 11
403.9908434642001
 21
550.4484628254014
 31
0.0
  0
LINE
  5
256
330
1F
100
AcDbEntity
  8
1
  6
CONTINUOUS
 62
     3
100
AcDbLine
 10
403.9908434642001
 20
550.4484628254014
 30
0.0
 11
371.9908434642001
 21
550.4484628254014
 31
0.0
  0
ARC
  5
257
330
1F
100
AcDbEntity
  8
1
  6
CONTINUOUS
 62
     7
100
AcDbCircle
 10
580.1978950700999
 20
312.3049369979007
 30
0.0
 40
1.99999999999978
100
AcDbArc
 50
270.0
 51
0.0
  0
LINE
  5
258
330
1F
100
AcDbEntity
  8
1
  6
CONTINUOUS
 62
     3
100
AcDbLine
 10
403.9908434642001
 20
493.448462825401
 30
0.0
 11
371.9908434642001
 21
493.448462825401
 31
0.0
  0
ARC
  5
259
330
1F
100
AcDbEntity
  8
1
  6
CONTINUOUS
 62
     7
100
AcDbCircle
 10
611.5008434641007
 20
365.9053737632005
 30
0.0
 40
1.000000000000334
100
AcDbArc
 50
0.0
 51
90.0
  0
ARC
  5
25A
330
1F
100
AcDbEntity
  8
1
  6
CONTINUOUS
 62
     7
100
AcDbCircle
 10
580.1978950700999
 20
617.0126653239007
 30
0.0
 40
1.99999999999978
100
AcDbArc
 50
0.0
 51
90.0
  0
LINE
  5
25B
330
1F
100
AcDbEntity
  8
1
  6
CONTINUOUS
 62
     7
100
AcDbLine
 10
582.7906035094009
 20
307.0055108802006
 30
0.0
 11
214.4908434641009
 21
307.0055108802006
 31
0.0
  0
LINE
  5
25C
330
1F
100
AcDbEntity
  8
1
  6
CONTINUOUS
 62
     3
100
AcDbLine
 10
403.9908434642001
 20
533.4484628254011
 30
0.0
 11
371.9908434642001
 21
533.4484628254011
 31
0.0
  0
LINE
  5
25D
330
1F
100
AcDbEntity
  8
1
  6
CONTINUOUS
 62
     3
100
AcDbLine
 10
403.9908434642001
 20
537.4484628254015
 30
0.0
 11
371.9908434642001
 21
537.4484628254015
 31
0.0
  0
CIRCLE
  5
25E
330
1F
100
AcDbEntity
  8
1
  6
CONTINUOUS
 62
     3
100
AcDbCircle
 10
397.4908434642002
 20
543.9484628254014
 30
0.0
 40
3.499999999999837
  0
ARC
  5
25F
330
1F
100
AcDbEntity
  8
1
  6
CONTINUOUS
 62
     7
100
AcDbCircle
 10
582.7906035094009
 20
619.6053737632008
 30
0.0
 40
3.000000000000114
100
AcDbArc
 50
0.0
 51
90.0
  0
LINE
  5
260
330
1F
100
AcDbEntity
  8
1
  6
CONTINUOUS
 62
     6
100
AcDbLine
 10
457.9908434642004
 20
359.3553737632007
 30
0.0
 11
457.9908434642004
 21
443.3553737632003
 31
0.0
  0
LINE
  5
261
330
1F
100
AcDbEntity
  8
1
  6
CONTINUOUS
 62
     3
100
AcDbLine
 10
403.9908434642001
 20
497.4484628254015
 30
0.0
 11
371.9908434642001
 21
497.4484628254015
 31
0.0
  0
ARC
  5
262
330
1F
100
AcDbEntity
  8
1
  6
CONTINUOUS
 62
     7
100
AcDbCircle
 10
611.5008434641007
 20
577.9053737632012
 30
0.0
 40
1.000000000000334
100
AcDbArc
 50
0.0
 51
90.0
  0
LINE
  5
263
330
1F
100
AcDbEntity
  8
1
  6
CONTINUOUS
 62
     7
100
AcDbLine
 10
356.9908434641
 20
310.2122285587008
 30
0.0
 11
356.9908434641
 21
342.1053737635011
 31
0.0
  0
LINE
  5
264
330
1F
100
AcDbEntity
  8
1
  6
CONTINUOUS
 62
     6
100
AcDbLine
 10
454.9908434642003
 20
446.3553737632004
 30
0.0
 11
413.9908434642008
 21
446.3553737632004
 31
0.0
  0
LINE
  5
265
330
1F
100
AcDbEntity
  8
1
  6
CONTINUOUS
 62
     7
100
AcDbLine
 10
611.5008434641007
 20
578.9053737632006
 30
0.0
 11
595.2265731110007
 21
578.9053737632006
 31
0.0
  0
LINE
  5
266
330
1F
100
AcDbEntity
  8
1
  6
CONTINUOUS
 62
     7
100
AcDbLine
 10
275.8568688679999
 20
304.1053737632007
 30
0.0
 11
274.9908434642006
 21
304.6053737632004
 31
0.0
  0
LINE
  5
267
330
1F
100
AcDbEntity
  8
1
  6
CONTINUOUS
 62
     7
100
AcDbLine
 10
473.9908434641
 20
297.8696441163011
 30
0.0
 11
473.9908434641
 21
304.6053737632004
 31
0.0
  0
LINE
  5
268
330
1F
100
AcDbEntity
  8
1
  6
CONTINUOUS
 62
     7
100
AcDbLine
 10
398.9908434641007
 20
310.3049369979001
 30
0.0
 11
580.1978950700999
 21
310.3049369979001
 31
0.0
  0
LINE
  5
269
330
1F
100
AcDbEntity
  8
1
  6
CONTINUOUS
 62
     7
100
AcDbLine
 10
228.9908434642003
 20
342.3553737632004
 30
0.0
 11
568.9908434642001
 21
342.3553737632004
 31
0.0
  0
LINE
  5
26A
330
1F
100
AcDbEntity
  8
1
  6
CONTINUOUS
 62
     7
100
AcDbLine
 10
612.5008434641011
 20
563.3053737632006
 30
0.0
 11
612.5008434641011
 21
577.9053737632012
 31
0.0
  0
ARC
  5
26B
330
1F
100
AcDbEntity
  8
1
  6
CONTINUOUS
 62
     6
100
AcDbCircle
 10
413.9908434642008
 20
359.3553737632007
 30
0.0
 40
3.000000000000114
100
AcDbArc
 50
180.0
 51
270.0
  0
LINE
  5
26C
330
1F
100
AcDbEntity
  8
1
  6
CONTINUOUS
 62
     7
100
AcDbLine
 10
273.9908434641007
 20
304.6053737632004
 30
0.0
 11
273.9908434641007
 21
297.8696441163011
 31
0.0
  0
LINE
  5
26D
330
1F
100
AcDbEntity
  8
1
  6
CONTINUOUS
 62
     7
100
AcDbLine
 10
611.5008434641007
 20
350.3053737632005
 30
0.0
 11
595.2265731110007
 21
350.3053737632005
 31
0.0
  0
LINE
  5
26E
330
1F
100
AcDbEntity
  8
1
  6
CONTINUOUS
 62
     7
100
AcDbLine
 10
440.9908434641005
 20
342.1053737635011
 30
0.0
 11
440.9908434641005
 21
310.3049369979001
 31
0.0
  0
LINE
  5
26F
330
1F
100
AcDbEntity
  8
1
  6
CONTINUOUS
 62
     7
100
AcDbLine
 10
356.9908434641
 20
342.1053737635011
 30
0.0
 11
440.9908434641005
 21
342.1053737635011
 31
0.0
  0
LINE
  5
270
330
1F
100
AcDbEntity
  8
1
  6
CONTINUOUS
 62
     7
100
AcDbLine
 10
568.9908434642001
 20
572.3553737632008
 30
0.0
 11
498.9855855475005
 21
572.3553738236999
 31
0.0
  0
ARC
  5
271
330
1F
100
AcDbEntity
  8
1
  6
CONTINUOUS
 62
     6
100
AcDbCircle
 10
413.9908434642008
 20
443.3553737632003
 30
0.0
 40
3.000000000000114
100
AcDbArc
 50
90.0
 51
180.0
  0
ARC
  5
272
330
1F
100
AcDbEntity
  8
1
  6
CONTINUOUS
 62
     6
100
AcDbCircle
 10
454.9908434642003
 20
443.3553737632003
 30
0.0
 40
3.000000000000114
100
AcDbArc
 50
0.0
 51
90.0
  0
LINE
  5
273
330
1F
100
AcDbEntity
  8
1
  6
CONTINUOUS
 62
     7
100
AcDbLine
 10
522.990843464
 20
304.6053737632004
 30
0.0
 11
523.9908434641007
 21
304.6053737632004
 31
0.0
  0
LINE
  5
274
330
1F
100
AcDbEntity
  8
1
  6
CONTINUOUS
 62
     6
100
AcDbLine
 10
410.9908434642007
 20
359.3553737632007
 30
0.0
 11
410.9908434642007
 21
443.3553737632003
 31
0.0
  0
LINE
  5
275
330
1F
100
AcDbEntity
  8
1
  6
CONTINUOUS
 62
     7
100
AcDbLine
 10
476.0695855392996
 20
303.982561735701
 30
0.0
 11
522.2045648437002
 21
304.1514155901011
 31
0.0
  0
LINE
  5
276
330
1F
100
AcDbEntity
  8
1
  6
CONTINUOUS
 62
     7
100
AcDbLine
 10
580.1978950700999
 20
619.0126653239014
 30
0.0
 11
217.0835519034
 21
619.0126653239014
 31
0.0
  0
LINE
  5
277
330
1F
100
AcDbEntity
  8
1
  6
CONTINUOUS
 62
     7
100
AcDbLine
 10
582.7906035094009
 20
622.6053737632009
 30
0.0
 11
214.4908434641009
 21
622.6053737632009
 31
0.0
  0
LINE
  5
278
330
1F
100
AcDbEntity
  8
1
  6
CONTINUOUS
 62
     7
100
AcDbLine
 10
215.0835519034002
 20
312.3049369979007
 30
0.0
 11
215.0835519034002
 21
617.0126653239007
 31
0.0
  0
LINE
  5
279
330
1F
100
AcDbEntity
  8
1
  6
CONTINUOUS
 62
     7
100
AcDbLine
 10
217.0835519034
 20
310.3049369979001
 30
0.0
 11
398.9908434641007
 21
310.1561686728003
 31
0.0
  0
LINE
  5
27A
330
1F
100
AcDbEntity
  8
1
  6
CONTINUOUS
 62
     7
100
AcDbLine
 10
473.9908434641
 20
304.6053737632004
 30
0.0
 11
474.9908434641004
 21
304.6053737632004
 31
0.0
  0
LINE
  5
27B
330
1F
100
AcDbEntity
  8
1
  6
CONTINUOUS
 62
     7
100
AcDbLine
 10
611.5008434641007
 20
366.9053737632009
 30
0.0
 11
595.2265731110007
 21
366.9053737632009
 31
0.0
  0
ARC
  5
27C
330
1F
100
AcDbEntity
  8
1
  6
CONTINUOUS
 62
     7
100
AcDbCircle
 10
611.5008434641007
 20
563.3053737632006
 30
0.0
 40
1.000000000000334
100
AcDbArc
 50
270.0
 51
0.0
  0
ARC
  5
27D
330
1F
100
AcDbEntity
  8
1
  6
CONTINUOUS
 62
     7
100
AcDbCircle
 10
582.7906035094009
 20
310.0055108802007
 30
0.0
 40
3.000000000000114
100
AcDbArc
 50
270.0
 51
0.0
  0
LINE
  5
27E
330
1F
100
AcDbEntity
  8
1
  6
CONTINUOUS
 62
     7
100
AcDbLine
 10
474.9855855538998
 20
572.3553737637009
 30
0.0
 11
228.9908434642003
 21
572.3553737632008
 31
0.0
  0
LINE
  5
27F
330
1F
100
AcDbEntity
  8
1
  6
CONTINUOUS
 62
     3
100
AcDbLine
 10
251.9908434642009
 20
550.4484628254014
 30
0.0
 11
251.9908434642009
 21
480.4484628254011
 31
0.0
  0
ARC
  5
280
330
1F
100
AcDbEntity
  8
1
  6
CONTINUOUS
 62
     6
100
AcDbCircle
 10
454.9908434642003
 20
359.3553737632007
 30
0.0
 40
3.000000000000114
100
AcDbArc
 50
270.0
 51
0.0
  0
LINE
  5
281
330
1F
100
AcDbEntity
  8
1
  6
CONTINUOUS
 62
     7
100
AcDbLine
 10
611.5008434641007
 20
562.3053737632002
 30
0.0
 11
595.2265731110007
 21
562.3053737632002
 31
0.0
  0
LINE
  5
282
330
1F
100
AcDbEntity
  8
1
  6
CONTINUOUS
 62
     7
100
AcDbLine
 10
211.4908434641007
 20
310.0055108802007
 30
0.0
 11
211.4908434641007
 21
619.6053737632008
 31
0.0
  0
ARC
  5
283
330
1F
100
AcDbEntity
  8
1
  6
CONTINUOUS
 62
     7
100
AcDbCircle
 10
611.5008434641007
 20
351.3053737632008
 30
0.0
 40
1.000000000000334
100
AcDbArc
 50
270.0
 51
0.0
  0
LINE
  5
284
330
1F
100
AcDbEntity
  8
1
  6
CONTINUOUS
 62
     7
100
AcDbLine
 10
474.9908434641004
 20
304.6053737632004
 30
0.0
 11
475.9908434642002
 21
304.0280234940012
 31
0.0
  0
LINE
  5
285
330
1F
100
AcDbEntity
  8
1
  6
CONTINUOUS
 62
     3
100
AcDbLine
 10
383.9908434642005
 20
549.4484628254011
 30
0.0
 11
383.9908434642005
 21
544.9484628254008
 31
0.0
  0
LINE
  5
286
330
1F
100
AcDbEntity
  8
1
  6
CONTINUOUS
 62
     7
100
AcDbLine
 10
391.3908434642001
 20
506.4484628254009
 30
0.0
 11
384.5908434642
 21
506.4484628254009
 31
0.0
  0
LINE
  5
287
330
1F
100
AcDbEntity
  8
1
  6
CONTINUOUS
 62
     7
100
AcDbLine
 10
548.9908434642006
 20
492.4484628254007
 30
0.0
 11
458.9908434642007
 21
492.4484628254007
 31
0.0
  0
LINE
  5
288
330
1F
100
AcDbEntity
  8
1
  6
CONTINUOUS
 62
     7
100
AcDbLine
 10
531.9908434642002
 20
512.9484628254008
 30
0.0
 11
537.9908434642005
 21
512.9484628254008
 31
0.0
  0
CIRCLE
  5
289
330
1F
100
AcDbEntity
  8
1
  6
CONTINUOUS
 62
     7
100
AcDbCircle
 10
503.4908434642009
 20
478.4484628243009
 30
0.0
 40
3.499999999999837
  0
CIRCLE
  5
28A
330
1F
100
AcDbEntity
  8
1
  6
CONTINUOUS
 62
     2
100
AcDbCircle
 10
387.9908434642001
 20
484.4484628254007
 30
0.0
 40
3.999999999999559
  0
ARC
  5
28B
330
1F
100
AcDbEntity
  8
1
  6
CONTINUOUS
 62
     3
100
AcDbCircle
 10
385.9908434642003
 20
544.9484628254008
 30
0.0
 40
1.99999999999978
100
AcDbArc
 50
180.0
 51
270.0
  0
CIRCLE
  5
28C
330
1F
100
AcDbEntity
  8
1
  6
CONTINUOUS
 62
     7
100
AcDbCircle
 10
541.4908434642002
 20
478.4484628243009
 30
0.0
 40
3.499999999999837
  0
ARC
  5
28D
330
1F
100
AcDbEntity
  8
1
  6
CONTINUOUS
 62
     6
100
AcDbCircle
 10
360.9908434642009
 20
359.3553737632007
 30
0.0
 40
3.000000000000114
100
AcDbArc
 50
180.0
 51
270.0
  0
ARC
  5
28E
330
1F
100
AcDbEntity
  8
1
  6
CONTINUOUS
 62
     7
100
AcDbCircle
 10
514.9908434642008
 20
485.9484628254007
 30
0.0
 40
1.99999999999978
100
AcDbArc
 50
270.0
 51
0.0
  0
LINE
  5
28F
330
1F
100
AcDbEntity
  8
1
  6
CONTINUOUS
 62
     7
100
AcDbLine
 10
516.9908434642006
 20
488.9484628254008
 30
0.0
 11
516.9908434642006
 21
485.9484628254007
 31
0.0
  0
ARC
  5
290
330
1F
100
AcDbEntity
  8
1
  6
CONTINUOUS
 62
     7
100
AcDbCircle
 10
518.9908434642003
 20
488.9484628254008
 30
0.0
 40
1.99999999999978
100
AcDbArc
 50
90.0
 51
180.0
  0
LINE
  5
291
330
1F
100
AcDbEntity
  8
1
  6
CONTINUOUS
 62
     7
100
AcDbLine
 10
525.9908434642009
 20
490.9484628254006
 30
0.0
 11
518.9908434642003
 21
490.9484628254006
 31
0.0
  0
LINE
  5
292
330
1F
100
AcDbEntity
  8
1
  6
CONTINUOUS
 62
     3
100
AcDbLine
 10
391.3908434642001
 20
526.4484628254014
 30
0.0
 11
384.5908434642
 21
526.4484628254014
 31
0.0
  0
LINE
  5
293
330
1F
100
AcDbEntity
  8
1
  6
CONTINUOUS
 62
     7
100
AcDbLine
 10
527.9908434642007
 20
485.9484628254007
 30
0.0
 11
527.9908434642007
 21
488.9484628254008
 31
0.0
  0
CIRCLE
  5
294
330
1F
100
AcDbEntity
  8
1
  6
CONTINUOUS
 62
     7
100
AcDbCircle
 10
522.4908434642001
 20
486.4484628243009
 30
0.0
 40
3.499999999999837
  0
LINE
  5
295
330
1F
100
AcDbEntity
  8
1
  6
CONTINUOUS
 62
     7
100
AcDbLine
 10
547.9908434642002
 20
483.948462825401
 30
0.0
 11
529.9908434642005
 21
483.948462825401
 31
0.0
  0
LINE
  5
296
330
1F
100
AcDbEntity
  8
1
  6
CONTINUOUS
 62
     6
100
AcDbLine
 10
357.9908434642007
 20
359.3553737632007
 30
0.0
 11
357.9908434642007
 21
443.3553737632003
 31
0.0
  0
LINE
  5
297
330
1F
100
AcDbEntity
  8
1
  6
CONTINUOUS
 62
     3
100
AcDbLine
 10
391.9908434642005
 20
549.4484628254011
 30
0.0
 11
391.9908434642005
 21
544.9484628254008
 31
0.0
  0
LINE
  5
298
330
1F
100
AcDbEntity
  8
1
  6
CONTINUOUS
 62
     7
100
AcDbLine
 10
548.9908434642006
 20
470.4484628254013
 30
0.0
 11
458.9908434642007
 21
470.4484628254013
 31
0.0
  0
LINE
  5
299
330
1F
100
AcDbEntity
  8
1
  6
CONTINUOUS
 62
     3
100
AcDbLine
 10
385.9908434642003
 20
542.9484628254011
 30
0.0
 11
389.9908434642007
 21
542.9484628254011
 31
0.0
  0
LINE
  5
29A
330
1F
100
AcDbEntity
  8
1
  6
CONTINUOUS
 62
     7
100
AcDbLine
 10
489.1908434642005
 20
528.4484628254012
 30
0.0
 11
548.9908434642006
 21
528.4484628254012
 31
0.0
  0
ARC
  5
29B
330
1F
100
AcDbEntity
  8
1
  6
CONTINUOUS
 62
     3
100
AcDbCircle
 10
385.9908434642003
 20
485.9484628254007
 30
0.0
 40
1.99999999999978
100
AcDbArc
 50
90.0
 51
180.0
  0
LINE
  5
29C
330
1F
100
AcDbEntity
  8
1
  6
CONTINUOUS
 62
     3
100
AcDbLine
 10
384.5908434642
 20
515.4484628254012
 30
0.0
 11
391.3908434642001
 21
515.4484628254012
 31
0.0
  0
LINE
  5
29D
330
1F
100
AcDbEntity
  8
1
  6
CONTINUOUS
 62
     7
100
AcDbLine
 10
531.9908434642002
 20
518.9484628254011
 30
0.0
 11
531.9908434642002
 21
512.9484628254008
 31
0.0
  0
ARC
  5
29E
330
1F
100
AcDbEntity
  8
1
  6
CONTINUOUS
 62
     7
100
AcDbCircle
 10
525.9908434642009
 20
488.9484628254008
 30
0.0
 40
1.99999999999978
100
AcDbArc
 50
0.0
 51
90.0
  0
LINE
  5
29F
330
1F
100
AcDbEntity
  8
1
  6
CONTINUOUS
 62
     7
100
AcDbLine
 10
498.9908434642007
 20
483.948462825401
 30
0.0
 11
514.9908434642008
 21
483.948462825401
 31
0.0
  0
ARC
  5
2A0
330
1F
100
AcDbEntity
  8
1
  6
CONTINUOUS
 62
     3
100
AcDbCircle
 10
382.9908434642002
 20
549.4484628254011
 30
0.0
 40
1.000000000000334
100
AcDbArc
 50
0.0
 51
90.0
  0
ARC
  5
2A1
330
1F
100
AcDbEntity
  8
1
  6
CONTINUOUS
 62
     7
100
AcDbCircle
 10
498.9908434642007
 20
482.9484628254006
 30
0.0
 40
1.000000000000334
100
AcDbArc
 50
90.0
 51
180.0
  0
CIRCLE
  5
2A2
330
1F
100
AcDbEntity
  8
1
  6
CONTINUOUS
 62
     3
100
AcDbCircle
 10
378.4908434642009
 20
486.9484628254011
 30
0.0
 40
3.499999999999837
  0
ARC
  5
2A3
330
1F
100
AcDbEntity
  8
1
  6
CONTINUOUS
 62
     3
100
AcDbCircle
 10
392.9908434642009
 20
549.4484628254011
 30
0.0
 40
1.000000000000334
100
AcDbArc
 50
90.0
 51
180.0
  0
ARC
  5
2A4
330
1F
100
AcDbEntity
  8
1
  6
CONTINUOUS
 62
     7
100
AcDbCircle
 10
496.9908434642001
 20
471.4484628254007
 30
0.0
 40
1.000000000000334
100
AcDbArc
 50
270.0
 51
0.0
  0
LINE
  5
2A5
330
1F
100
AcDbEntity
  8
1
  6
CONTINUOUS
 62
     7
100
AcDbLine
 10
489.1908434642005
 20
507.4484628254012
 30
0.0
 11
489.1908434642005
 21
530.448462825401
 31
0.0
  0
LINE
  5
2A6
330
1F
100
AcDbEntity
  8
1
  6
CONTINUOUS
 62
     3
100
AcDbLine
 10
391.9908434642005
 20
481.4484628254014
 30
0.0
 11
391.9908434642005
 21
485.9484628254007
 31
0.0
  0
LINE
  5
2A7
330
1F
100
AcDbEntity
  8
1
  6
CONTINUOUS
 62
     3
100
AcDbLine
 10
384.5908434642
 20
508.4484628254007
 30
0.0
 11
384.5908434642
 21
529.4484628254015
 31
0.0
  0
ARC
  5
2A8
330
1F
100
AcDbEntity
  8
1
  6
CONTINUOUS
 62
     3
100
AcDbCircle
 10
382.9908434642002
 20
481.4484628254014
 30
0.0
 40
1.000000000000334
100
AcDbArc
 50
270.0
 51
0.0
  0
ARC
  5
2A9
330
1F
100
AcDbEntity
  8
1
  6
CONTINUOUS
 62
     6
100
AcDbCircle
 10
360.9908434642009
 20
443.3553737632003
 30
0.0
 40
3.000000000000114
100
AcDbArc
 50
90.0
 51
180.0
  0
ARC
  5
2AA
330
1F
100
AcDbEntity
  8
1
  6
CONTINUOUS
 62
     6
100
AcDbCircle
 10
401.9908434642003
 20
443.3553737632003
 30
0.0
 40
3.000000000000114
100
AcDbArc
 50
0.0
 51
90.0
  0
ARC
  5
2AB
330
1F
100
AcDbEntity
  8
1
  6
CONTINUOUS
 62
     7
100
AcDbCircle
 10
529.9908434642005
 20
485.9484628254007
 30
0.0
 40
1.99999999999978
100
AcDbArc
 50
180.0
 51
270.0
  0
LINE
  5
2AC
330
1F
100
AcDbEntity
  8
1
  6
CONTINUOUS
 62
     7
100
AcDbLine
 10
458.9908434642007
 20
550.4484628254014
 30
0.0
 11
548.9908434642006
 21
550.4484628254014
 31
0.0
  0
ARC
  5
2AD
330
1F
100
AcDbEntity
  8
1
  6
CONTINUOUS
 62
     7
100
AcDbCircle
 10
547.9908434642002
 20
484.9484628254012
 30
0.0
 40
1.000000000000334
100
AcDbArc
 50
270.0
 51
0.0
  0
LINE
  5
2AE
330
1F
100
AcDbEntity
  8
1
  6
CONTINUOUS
 62
     3
100
AcDbLine
 10
391.3908434642001
 20
508.4484628254007
 30
0.0
 11
384.5908434642
 21
508.4484628254007
 31
0.0
  0
LINE
  5
2AF
330
1F
100
AcDbEntity
  8
1
  6
CONTINUOUS
 62
     7
100
AcDbLine
 10
391.3908434642001
 20
508.4484628254007
 30
0.0
 11
391.3908434642001
 21
506.4484628254009
 31
0.0
  0
CIRCLE
  5
2B0
330
1F
100
AcDbEntity
  8
1
  6
CONTINUOUS
 62
     3
100
AcDbCircle
 10
397.4908434642002
 20
486.9484628254011
 30
0.0
 40
3.499999999999837
  0
LINE
  5
2B1
330
1F
100
AcDbEntity
  8
1
  6
CONTINUOUS
 62
     3
100
AcDbLine
 10
383.9908434642005
 20
481.4484628254014
 30
0.0
 11
383.9908434642005
 21
485.9484628254007
 31
0.0
  0
LINE
  5
2B2
330
1F
100
AcDbEntity
  8
1
  6
CONTINUOUS
 62
     3
100
AcDbLine
 10
385.9908434642003
 20
487.9484628254014
 30
0.0
 11
389.9908434642007
 21
487.9484628254014
 31
0.0
  0
CIRCLE
  5
2B3
330
1F
100
AcDbEntity
  8
1
  6
CONTINUOUS
 62
     2
100
AcDbCircle
 10
387.9908434642001
 20
546.448462825401
 30
0.0
 40
3.999999999999559
  0
LINE
  5
2B4
330
1F
100
AcDbEntity
  8
1
  6
CONTINUOUS
 62
     7
100
AcDbLine
 10
384.5908434642
 20
506.4484628254009
 30
0.0
 11
384.5908434642
 21
508.4484628254007
 31
0.0
  0
ARC
  5
2B5
330
1F
100
AcDbEntity
  8
1
  6
CONTINUOUS
 62
     3
100
AcDbCircle
 10
389.9908434642007
 20
544.9484628254008
 30
0.0
 40
1.99999999999978
100
AcDbArc
 50
270.0
 51
0.0
  0
LINE
  5
2B6
330
1F
100
AcDbEntity
  8
1
  6
CONTINUOUS
 62
     7
100
AcDbLine
 10
458.9908434642007
 20
528.4484628254012
 30
0.0
 11
481.7908434642009
 21
528.4484628254012
 31
0.0
  0
LINE
  5
2B7
330
1F
100
AcDbEntity
  8
1
  6
CONTINUOUS
 62
     7
100
AcDbLine
 10
537.9908434642005
 20
512.9484628254008
 30
0.0
 11
537.9908434642005
 21
518.9484628254011
 31
0.0
  0
LINE
  5
2B8
330
1F
100
AcDbEntity
  8
1
  6
CONTINUOUS
 62
     7
100
AcDbLine
 10
537.9908434642005
 20
518.9484628254011
 30
0.0
 11
531.9908434642002
 21
518.9484628254011
 31
0.0
  0
CIRCLE
  5
2B9
330
1F
100
AcDbEntity
  8
1
  6
CONTINUOUS
 62
     7
100
AcDbCircle
 10
522.4908434642001
 20
478.4484628243009
 30
0.0
 40
3.499999999999837
  0
LINE
  5
2BA
330
1F
100
AcDbEntity
  8
1
  6
CONTINUOUS
 62
     7
100
AcDbLine
 10
497.9908434642004
 20
471.4484628254007
 30
0.0
 11
497.9908434642004
 21
482.9484628254006
 31
0.0
  0
ARC
  5
2BB
330
1F
100
AcDbEntity
  8
1
  6
CONTINUOUS
 62
     3
100
AcDbCircle
 10
389.9908434642007
 20
485.9484628254007
 30
0.0
 40
1.99999999999978
100
AcDbArc
 50
0.0
 51
90.0
  0
LINE
  5
2BC
330
1F
100
AcDbEntity
  8
1
  6
CONTINUOUS
 62
     3
100
AcDbLine
 10
384.5908434642
 20
529.4484628254015
 30
0.0
 11
391.3908434642001
 21
529.4484628254015
 31
0.0
  0
LINE
  5
2BD
330
1F
100
AcDbEntity
  8
1
  6
CONTINUOUS
 62
     6
100
AcDbLine
 10
401.9908434642003
 20
446.3553737632004
 30
0.0
 11
360.9908434642009
 21
446.3553737632004
 31
0.0
  0
CIRCLE
  5
2BE
330
1F
100
AcDbEntity
  8
1
  6
CONTINUOUS
 62
     3
100
AcDbCircle
 10
378.4908434642009
 20
543.9484628254014
 30
0.0
 40
3.499999999999837
  0
ARC
  5
2BF
330
1F
100
AcDbEntity
  8
1
  6
CONTINUOUS
 62
     6
100
AcDbCircle
 10
401.9908434642003
 20
359.3553737632007
 30
0.0
 40
3.000000000000114
100
AcDbArc
 50
270.0
 51
0.0
  0
LINE
  5
2C0
330
1F
100
AcDbEntity
  8
1
  6
CONTINUOUS
 62
     3
100
AcDbLine
 10
391.3908434642001
 20
529.4484628254015
 30
0.0
 11
391.3908434642001
 21
508.4484628254007
 31
0.0
  0
LINE
  5
2C1
330
1F
100
AcDbEntity
  8
1
  6
CONTINUOUS
 62
     7
100
AcDbLine
 10
548.9908434642006
 20
470.4484628254013
 30
0.0
 11
548.9908434642006
 21
550.4484628254014
 31
0.0
  0
LINE
  5
2C2
330
1F
100
AcDbEntity
  8
1
  6
CONTINUOUS
 62
     7
100
AcDbLine
 10
458.9908434642007
 20
470.4484628254013
 30
0.0
 11
458.9908434642007
 21
550.4484628254014
 31
0.0
  0
LINE
  5
2C3
330
1F
100
AcDbEntity
  8
1
  6
CONTINUOUS
 62
     6
100
AcDbLine
 10
360.9908434642009
 20
356.3553737632006
 30
0.0
 11
401.9908434642003
 21
356.3553737632006
 31
0.0
  0
ARC
  5
2C4
330
1F
100
AcDbEntity
  8
1
  6
CONTINUOUS
 62
     3
100
AcDbCircle
 10
392.9908434642009
 20
481.4484628254014
 30
0.0
 40
1.000000000000334
100
AcDbArc
 50
180.0
 51
270.0
  0
LINE
  5
2C5
330
1F
100
AcDbEntity
  8
1
  6
CONTINUOUS
 62
     7
100
AcDbLine
 10
507.4908434642005
 20
559.5956148345014
 30
0.0
 11
507.4908434642005
 21
550.4484628254014
 31
0.0
  0
ARC
  5
2C6
330
1F
100
AcDbEntity
  8
1
  6
CONTINUOUS
 62
     7
100
AcDbCircle
 10
508.9908434642005
 20
537.9484628254012
 30
0.0
 40
1.000000000000334
100
AcDbArc
 50
270.0
 51
0.0
  0
LINE
  5
2C7
330
1F
100
AcDbEntity
  8
1
  6
CONTINUOUS
 62
     7
100
AcDbLine
 10
322.2408434631001
 20
563.9620676549013
 30
0.0
 11
446.2428830062004
 21
563.9620676701007
 31
0.0
  0
CIRCLE
  5
2C8
330
1F
100
AcDbEntity
  8
1
  6
CONTINUOUS
 62
     7
100
AcDbCircle
 10
466.4908434642001
 20
542.4484628264006
 30
0.0
 40
3.499999999999837
  0
LINE
  5
2C9
330
1F
100
AcDbEntity
  8
1
  6
CONTINUOUS
 62
     6
100
AcDbLine
 10
318.7408434642007
 20
557.8620676549004
 30
0.0
 11
318.7408434642007
 21
550.4484628254014
 31
0.0
  0
LINE
  5
2CA
330
1F
100
AcDbEntity
  8
1
  6
CONTINUOUS
 62
     6
100
AcDbLine
 10
278.7399297890003
 20
563.8272987518009
 30
0.0
 11
278.7399297890003
 21
550.4484628254014
 31
0.0
  0
LINE
  5
2CB
330
1F
100
AcDbEntity
  8
1
  6
CONTINUOUS
 62
     7
100
AcDbLine
 10
502.4908434642006
 20
570.8138074011009
 30
0.0
 11
498.9855855499998
 21
570.8138074011009
 31
0.0
  0
LINE
  5
2CC
330
1F
100
AcDbEntity
  8
1
  6
CONTINUOUS
 62
     6
100
AcDbLine
 10
276.2399297889999
 20
563.9272987518007
 30
0.0
 11
276.2399297889999
 21
550.4484628254014
 31
0.0
  0
LINE
  5
2CD
330
1F
100
AcDbEntity
  8
1
  6
CONTINUOUS
 62
     7
100
AcDbLine
 10
282.3399297889999
 20
567.4272987518005
 30
0.0
 11
298.3674462917998
 21
567.4272987518005
 31
0.0
  0
LINE
  5
2CE
330
1F
100
AcDbEntity
  8
1
  6
CONTINUOUS
 62
     7
100
AcDbLine
 10
489.1908434642005
 20
515.948462825401
 30
0.0
 11
481.7908434642009
 21
515.948462825401
 31
0.0
  0
LINE
  5
2CF
330
1F
100
AcDbEntity
  8
1
  6
CONTINUOUS
 62
     6
100
AcDbLine
 10
339.7399297890003
 20
551.9389433696
 30
0.0
 11
339.7399297890003
 21
550.4484628254014
 31
0.0
  0
LINE
  5
2D0
330
1F
100
AcDbEntity
  8
1
  6
CONTINUOUS
 62
     6
100
AcDbLine
 10
316.2408434642003
 20
557.9620667473008
 30
0.0
 11
316.2408434642003
 21
550.4484628254014
 31
0.0
  0
ARC
  5
2D1
330
1F
100
AcDbEntity
  8
1
  6
CONTINUOUS
 62
     7
100
AcDbCircle
 10
510.9908434642003
 20
549.4484628254011
 30
0.0
 40
1.000000000000334
100
AcDbArc
 50
90.0
 51
180.0
  0
LINE
  5
2D2
330
1F
100
AcDbEntity
  8
1
  6
CONTINUOUS
 62
     7
100
AcDbLine
 10
362.3408434642004
 20
561.4620676549009
 30
0.0
 11
397.3674462918
 21
561.4620676549009
 31
0.0
  0
ARC
  5
2D3
330
1F
100
AcDbEntity
  8
1
  6
CONTINUOUS
 62
     7
100
AcDbCircle
 10
481.9908434642004
 20
531.948462825401
 30
0.0
 40
1.99999999999978
100
AcDbArc
 50
180.0
 51
264.2608295227001
  0
ARC
  5
2D4
330
1F
100
AcDbEntity
  8
1
  6
CONTINUOUS
 62
     7
100
AcDbCircle
 10
502.4908434642006
 20
565.813807401101
 30
0.0
 40
4.999999999999893
100
AcDbArc
 50
0.0
 51
90.0
  0
LINE
  5
2D5
330
1F
100
AcDbEntity
  8
1
  6
CONTINUOUS
 62
     7
100
AcDbLine
 10
507.4908434642005
 20
565.813807401101
 30
0.0
 11
507.4908434642005
 21
561.5956148362011
 31
0.0
  0
LINE
  5
2D6
330
1F
100
AcDbEntity
  8
1
  6
CONTINUOUS
 62
     6
100
AcDbLine
 10
337.2399297889999
 20
552.0389427896006
 30
0.0
 11
337.2399297889999
 21
550.4484628254014
 31
0.0
  0
LINE
  5
2D7
330
1F
100
AcDbEntity
  8
1
  6
CONTINUOUS
 62
     7
100
AcDbLine
 10
489.1908434642005
 20
530.448462825401
 30
0.0
 11
481.7908434642009
 21
530.448462825401
 31
0.0
  0
LINE
  5
2D8
330
1F
100
AcDbEntity
  8
1
  6
CONTINUOUS
 62
     7
100
AcDbLine
 10
508.9908434642005
 20
536.9484628254008
 30
0.0
 11
492.9908434642005
 21
536.9484628254008
 31
0.0
  0
ARC
  5
2D9
330
1F
100
AcDbEntity
  8
1
  6
CONTINUOUS
 62
     7
100
AcDbCircle
 10
488.9908434642001
 20
531.948462825401
 30
0.0
 40
1.99999999999978
100
AcDbArc
 50
275.7391704771
 51
0.0
  0
LINE
  5
2DA
330
1F
100
AcDbEntity
  8
1
  6
CONTINUOUS
 62
     7
100
AcDbLine
 10
402.3408434622002
 20
561.4620676549009
 30
0.0
 11
446.2428830062004
 21
561.4620676926005
 31
0.0
  0
LINE
  5
2DB
330
1F
100
AcDbEntity
  8
1
  6
CONTINUOUS
 62
     6
100
AcDbLine
 10
379.7408434642007
 20
561.4620676789003
 30
0.0
 11
379.7408434642007
 21
550.4484628254014
 31
0.0
  0
LINE
  5
2DC
330
1F
100
AcDbEntity
  8
1
  6
CONTINUOUS
 62
     6
100
AcDbLine
 10
377.2408434642003
 20
561.4620676789003
 30
0.0
 11
377.2408434642003
 21
550.4484628254014
 31
0.0
  0
LINE
  5
2DD
330
1F
100
AcDbEntity
  8
1
  6
CONTINUOUS
 62
     7
100
AcDbLine
 10
282.2399297890001
 20
569.9272987518
 30
0.0
 11
446.2428830062004
 21
569.9272987518
 31
0.0
  0
ARC
  5
2DE
330
1F
100
AcDbEntity
  8
1
  6
CONTINUOUS
 62
     7
100
AcDbCircle
 10
464.4908434642003
 20
554.514616087701
 30
0.0
 40
4.999999999999893
100
AcDbArc
 50
0.0
 51
14.9129792333
  0
ARC
  5
2DF
330
1F
100
AcDbEntity
  8
1
  6
CONTINUOUS
 62
     7
100
AcDbCircle
 10
483.4908434642005
 20
560.3013745881009
 30
0.0
 40
4.999999999999893
100
AcDbArc
 50
15.0017204469
 51
90.0
  0
LINE
  5
2E0
330
1F
100
AcDbEntity
  8
1
  6
CONTINUOUS
 62
     7
100
AcDbLine
 10
532.8908434641999
 20
561.5956148345011
 30
0.0
 11
474.2428830030008
 21
561.5956148345011
 31
0.0
  0
LINE
  5
2E1
330
1F
100
AcDbEntity
  8
1
  6
CONTINUOUS
 62
     7
100
AcDbLine
 10
536.4908434642003
 20
557.9956148355008
 30
0.0
 11
536.4908434642003
 21
550.4484628254014
 31
0.0
  0
CIRCLE
  5
2E2
330
1F
100
AcDbEntity
  8
1
  6
CONTINUOUS
 62
     7
100
AcDbCircle
 10
485.4908434642002
 20
542.4484628264006
 30
0.0
 40
3.499999999999837
  0
LINE
  5
2E3
330
1F
100
AcDbEntity
  8
1
  6
CONTINUOUS
 62
     7
100
AcDbLine
 10
463.4908434642009
 20
551.5146160877009
 30
0.0
 11
463.4908434642009
 21
550.4484628254014
 31
0.0
  0
ARC
  5
2E4
330
1F
100
AcDbEntity
  8
1
  6
CONTINUOUS
 62
     7
100
AcDbCircle
 10
461.4908434642002
 20
551.5146160877009
 30
0.0
 40
1.99999999999978
100
AcDbArc
 50
0.0
 51
90.0
  0
LINE
  5
2E5
330
1F
100
AcDbEntity
  8
1
  6
CONTINUOUS
 62
     7
100
AcDbLine
 10
358.360266963901
 20
567.4272463524011
 30
0.0
 11
378.3674232084007
 21
567.4272666103004
 31
0.0
  0
LINE
  5
2E6
330
1F
100
AcDbEntity
  8
1
  6
CONTINUOUS
 62
     7
100
AcDbLine
 10
490.9908434642007
 20
531.948462825401
 30
0.0
 11
490.9908434642007
 21
534.9484628254011
 31
0.0
  0
LINE
  5
2E7
330
1F
100
AcDbEntity
  8
1
  6
CONTINUOUS
 62
     7
100
AcDbLine
 10
530.8908434642001
 20
559.5956148345014
 30
0.0
 11
474.2428830030008
 21
559.5956148345014
 31
0.0
  0
LINE
  5
2E8
330
1F
100
AcDbEntity
  8
1
  6
CONTINUOUS
 62
     7
100
AcDbLine
 10
489.1908434642005
 20
526.9484628254011
 30
0.0
 11
481.7908434642009
 21
526.9484628254011
 31
0.0
  0
LINE
  5
2E9
330
1F
100
AcDbEntity
  8
1
  6
CONTINUOUS
 62
     7
100
AcDbLine
 10
480.4908434642003
 20
559.3013745881005
 30
0.0
 11
474.2428830030008
 21
559.3013745881005
 31
0.0
  0
CIRCLE
  5
2EA
330
1F
100
AcDbEntity
  8
1
  6
CONTINUOUS
 62
     7
100
AcDbCircle
 10
504.4908434642003
 20
542.4484628264006
 30
0.0
 40
3.499999999999837
  0
LINE
  5
2EB
330
1F
100
AcDbEntity
  8
1
  6
CONTINUOUS
 62
     7
100
AcDbLine
 10
461.4908434642002
 20
553.5146160877007
 30
0.0
 11
444.1792074863002
 21
553.5146160880009
 31
0.0
  0
LINE
  5
2EC
330
1F
100
AcDbEntity
  8
1
  6
CONTINUOUS
 62
     7
100
AcDbLine
 10
322.3408434642003
 20
561.4620676549009
 30
0.0
 11
357.3674462917999
 21
561.4620676549009
 31
0.0
  0
ARC
  5
2ED
330
1F
100
AcDbEntity
  8
1
  6
CONTINUOUS
 62
     7
100
AcDbCircle
 10
383.2408434642005
 20
563.9272987518007
 30
0.0
 40
6.000000000000227
100
AcDbArc
 50
90.0
 51
179.6679795779
  0
LINE
  5
2EE
330
1F
100
AcDbEntity
  8
1
  6
CONTINUOUS
 62
     7
100
AcDbLine
 10
509.9908434642009
 20
549.4484628254011
 30
0.0
 11
509.9908434642009
 21
537.9484628254012
 31
0.0
  0
ARC
  5
2EF
330
1F
100
AcDbEntity
  8
1
  6
CONTINUOUS
 62
     7
100
AcDbCircle
 10
499.4908434642005
 20
562.8138074011009
 30
0.0
 40
1.99999999999978
100
AcDbArc
 50
0.0
 51
90.0
  0
LINE
  5
2F0
330
1F
100
AcDbEntity
  8
1
  6
CONTINUOUS
 62
     7
100
AcDbLine
 10
482.4908434642001
 20
557.3013745881008
 30
0.0
 11
482.4908434642001
 21
550.4484628254014
 31
0.0
  0
LINE
  5
2F1
330
1F
100
AcDbEntity
  8
1
  6
CONTINUOUS
 62
     7
100
AcDbLine
 10
303.3408434642002
 20
567.4272987518005
 30
0.0
 11
372.3674462917996
 21
567.4272987518005
 31
0.0
  0
LINE
  5
2F2
330
1F
100
AcDbEntity
  8
1
  6
CONTINUOUS
 62
     7
100
AcDbLine
 10
383.3268698256998
 20
567.4272716319005
 30
0.0
 11
446.2428830062004
 21
567.4273353362
 31
0.0
  0
LINE
  5
2F3
330
1F
100
AcDbEntity
  8
1
  6
CONTINUOUS
 62
     7
100
AcDbLine
 10
463.9968950018005
 20
569.9272987518
 30
0.0
 11
474.9855855538998
 21
569.9272987518
 31
0.0
  0
LINE
  5
2F4
330
1F
100
AcDbEntity
  8
1
  6
CONTINUOUS
 62
     7
100
AcDbLine
 10
534.4908434642006
 20
555.9956148345009
 30
0.0
 11
534.4908434642006
 21
550.4484628254014
 31
0.0
  0
ARC
  5
2F5
330
1F
100
AcDbEntity
  8
1
  6
CONTINUOUS
 62
     7
100
AcDbCircle
 10
459.9908434642002
 20
535.9484628254014
 30
0.0
 40
1.000000000000334
100
AcDbArc
 50
90.0
 51
180.0
  0
LINE
  5
2F6
330
1F
100
AcDbEntity
  8
1
  6
CONTINUOUS
 62
     3
100
AcDbLine
 10
291.9908434642009
 20
550.4484628254014
 30
0.0
 11
291.9908434642009
 21
480.4484628254011
 31
0.0
  0
LINE
  5
2F7
330
1F
100
AcDbEntity
  8
1
  6
CONTINUOUS
 62
     7
100
AcDbLine
 10
481.7908434642009
 20
530.448462825401
 30
0.0
 11
481.7908434642009
 21
507.4484628254012
 31
0.0
  0
LINE
  5
2F8
330
1F
100
AcDbEntity
  8
1
  6
CONTINUOUS
 62
     7
100
AcDbLine
 10
499.4908434642005
 20
564.8138074011007
 30
0.0
 11
498.9855855499998
 21
564.8138074011007
 31
0.0
  0
CIRCLE
  5
2F9
330
1F
100
AcDbEntity
  8
1
  6
CONTINUOUS
 62
     7
100
AcDbCircle
 10
485.4908434642002
 20
534.4484628264006
 30
0.0
 40
3.499999999999837
  0
LINE
  5
2FA
330
1F
100
AcDbEntity
  8
1
  6
CONTINUOUS
 62
     7
100
AcDbLine
 10
479.9908434642006
 20
534.9484628254011
 30
0.0
 11
479.9908434642006
 21
531.948462825401
 31
0.0
  0
ARC
  5
2FB
330
1F
100
AcDbEntity
  8
1
  6
CONTINUOUS
 62
     7
100
AcDbCircle
 10
383.3408434642002
 20
563.8272987518009
 30
0.0
 40
3.599999999999604
100
AcDbArc
 50
90.0
 51
177.8545849852
  0
LINE
  5
2FC
330
1F
100
AcDbEntity
  8
1
  6
CONTINUOUS
 62
     7
100
AcDbLine
 10
488.4908434642003
 20
559.5956148345014
 30
0.0
 11
488.4908434642003
 21
550.4484628254014
 31
0.0
  0
LINE
  5
2FD
330
1F
100
AcDbEntity
  8
1
  6
CONTINUOUS
 62
     7
100
AcDbLine
 10
459.9908434642002
 20
536.9484628254008
 30
0.0
 11
477.9908434642009
 21
536.9484628254008
 31
0.0
  0
LINE
  5
2FE
330
1F
100
AcDbEntity
  8
1
  6
CONTINUOUS
 62
     7
100
AcDbLine
 10
501.4908434642002
 20
559.5956148345014
 30
0.0
 11
501.4908434642002
 21
550.4484628254014
 31
0.0
  0
ARC
  5
2FF
330
1F
100
AcDbEntity
  8
1
  6
CONTINUOUS
 62
     7
100
AcDbCircle
 10
492.9908434642005
 20
534.9484628254011
 30
0.0
 40
1.99999999999978
100
AcDbArc
 50
90.0
 51
180.0
  0
LINE
  5
300
330
1F
100
AcDbEntity
  8
1
  6
CONTINUOUS
 62
     7
100
AcDbLine
 10
501.4908434642002
 20
562.8138074011009
 30
0.0
 11
501.4908434642002
 21
561.5956148362011
 31
0.0
  0
LINE
  5
301
330
1F
100
AcDbEntity
  8
1
  6
CONTINUOUS
 62
     7
100
AcDbLine
 10
481.7908434642009
 20
507.4484628254012
 30
0.0
 11
489.1908434642005
 21
507.4484628254012
 31
0.0
  0
ARC
  5
302
330
1F
100
AcDbEntity
  8
1
  6
CONTINUOUS
 62
     7
100
AcDbCircle
 10
480.4908434642003
 20
557.3013745881008
 30
0.0
 40
1.99999999999978
100
AcDbArc
 50
0.0
 51
90.0
  0
ARC
  5
303
330
1F
100
AcDbEntity
  8
1
  6
CONTINUOUS
 62
     7
100
AcDbCircle
 10
477.9908434642009
 20
534.9484628254011
 30
0.0
 40
1.99999999999978
100
AcDbArc
 50
0.0
 51
90.0
  0
LINE
  5
304
330
1F
100
AcDbEntity
  8
1
  6
CONTINUOUS
 62
     7
100
AcDbLine
 10
469.4908434642002
 20
554.514616087701
 30
0.0
 11
469.4908434642002
 21
550.4484628254014
 31
0.0
  0
ARC
  5
305
330
1F
100
AcDbEntity
  8
1
  6
CONTINUOUS
 62
     7
100
AcDbCircle
 10
362.2408434642006
 20
557.962067654901
 30
0.0
 40
6.000000000000227
100
AcDbArc
 50
90.0
 51
180.0
  0
ARC
  5
306
330
1F
100
AcDbEntity
  8
1
  6
CONTINUOUS
 62
     7
100
AcDbCircle
 10
263.239929789
 20
552.0389427896006
 30
0.0
 40
6.000000000000227
100
AcDbArc
 50
89.9999998823
 51
180.0
  0
LINE
  5
307
330
1F
100
AcDbEntity
  8
1
  6
CONTINUOUS
 62
     3
100
AcDbLine
 10
331.9908434642009
 20
550.4484628254014
 30
0.0
 11
331.9908434642009
 21
480.4484628254011
 31
0.0
  0
LINE
  5
308
330
1F
100
AcDbEntity
  8
1
  6
CONTINUOUS
 62
     6
100
AcDbLine
 10
356.2098353662994
 20
463.6627763784009
 30
0.0
 11
356.2098353662994
 21
480.4484628254011
 31
0.0
  0
ARC
  5
309
330
1F
100
AcDbEntity
  8
1
  6
CONTINUOUS
 62
     7
100
AcDbCircle
 10
532.8908434641999
 20
557.9956148355008
 30
0.0
 40
3.599999999999604
100
AcDbArc
 50
0.0
 51
90.0
  0
ARC
  5
30A
330
1F
100
AcDbEntity
  8
1
  6
CONTINUOUS
 62
     7
100
AcDbCircle
 10
402.3408434641995
 20
557.8620676549004
 30
0.0
 40
3.599999999999604
100
AcDbArc
 50
90.0
 51
180.0
  0
LINE
  5
30B
330
1F
100
AcDbEntity
  8
1
  6
CONTINUOUS
 62
     7
100
AcDbLine
 10
379.7408434642007
 20
558.0388942552004
 30
0.0
 11
396.2408434642004
 21
558.0387503615008
 31
0.0
  0
LINE
  5
30C
330
1F
100
AcDbEntity
  8
1
  6
CONTINUOUS
 62
     7
100
AcDbLine
 10
358.7451913607005
 20
558.0389460053005
 30
0.0
 11
377.2408434642003
 21
558.0386560065004
 31
0.0
  0
LINE
  5
30D
330
1F
100
AcDbEntity
  8
1
  6
CONTINUOUS
 62
     7
100
AcDbLine
 10
400.2080080160004
 20
470.1627763784008
 30
0.0
 11
435.5694230477001
 21
470.1627763784008
 31
0.0
  0
LINE
  5
30E
330
1F
100
AcDbEntity
  8
1
  6
CONTINUOUS
 62
     6
100
AcDbLine
 10
396.2408434642004
 20
557.962067654901
 30
0.0
 11
396.2408434642004
 21
550.4484628254014
 31
0.0
  0
LINE
  5
30F
330
1F
100
AcDbEntity
  8
1
  6
CONTINUOUS
 62
     6
100
AcDbLine
 10
438.5694230477002
 20
467.1627763784007
 30
0.0
 11
438.5694230477002
 21
446.3553737632004
 31
0.0
  0
LINE
  5
310
330
1F
100
AcDbEntity
  8
1
  6
CONTINUOUS
 62
     6
100
AcDbLine
 10
436.0694230477007
 20
466.1627763784004
 30
0.0
 11
436.0694230477007
 21
446.3553737632004
 31
0.0
  0
LINE
  5
311
330
1F
100
AcDbEntity
  8
1
  6
CONTINUOUS
 62
     7
100
AcDbLine
 10
398.7452870831003
 20
558.0408812737003
 30
0.0
 11
420.1792074904
 21
558.038119582001
 31
0.0
  0
LINE
  5
312
330
1F
100
AcDbEntity
  8
1
  6
CONTINUOUS
 62
     7
100
AcDbLine
 10
381.2098353662998
 20
466.662776378401
 30
0.0
 11
429.9122638806008
 21
466.662776378401
 31
0.0
  0
LINE
  5
313
330
1F
100
AcDbEntity
  8
1
  6
CONTINUOUS
 62
     7
100
AcDbLine
 10
278.7399297890003
 20
558.0389404564006
 30
0.0
 11
297.2408434642002
 21
558.0389419022014
 31
0.0
  0
LINE
  5
314
330
1F
100
AcDbEntity
  8
1
  6
CONTINUOUS
 62
     3
100
AcDbLine
 10
363.9908434642001
 20
480.4484628254011
 30
0.0
 11
363.9908434642001
 21
550.4484628254014
 31
0.0
  0
LINE
  5
315
330
1F
100
AcDbEntity
  8
1
  6
CONTINUOUS
 62
     3
100
AcDbLine
 10
363.9908434642001
 20
550.4484628254014
 30
0.0
 11
331.9908434642009
 21
550.4484628254014
 31
0.0
  0
LINE
  5
316
330
1F
100
AcDbEntity
  8
1
  6
CONTINUOUS
 62
     6
100
AcDbLine
 10
383.0694230477008
 20
459.1627763784007
 30
0.0
 11
383.0694230477008
 21
446.3553737632004
 31
0.0
  0
LINE
  5
317
330
1F
100
AcDbEntity
  8
1
  6
CONTINUOUS
 62
     6
100
AcDbLine
 10
379.9122638806001
 20
457.1610130755008
 30
0.0
 11
379.9122638806001
 21
446.3553737632004
 31
0.0
  0
LINE
  5
318
330
1F
100
AcDbEntity
  8
1
  6
CONTINUOUS
 62
     7
100
AcDbLine
 10
428.9122638806004
 20
464.1627763784006
 30
0.0
 11
380.2098353662995
 21
464.1627763784006
 31
0.0
  0
LINE
  5
319
330
1F
100
AcDbEntity
  8
1
  6
CONTINUOUS
 62
     3
100
AcDbLine
 10
291.9908434642009
 20
480.4484628254011
 30
0.0
 11
323.9908434642009
 21
480.4484628254011
 31
0.0
  0
LINE
  5
31A
330
1F
100
AcDbEntity
  8
1
  6
CONTINUOUS
 62
     6
100
AcDbLine
 10
379.7098353662997
 20
468.1627763784002
 30
0.0
 11
379.7098353662997
 21
480.4484628254011
 31
0.0
  0
LINE
  5
31B
330
1F
100
AcDbEntity
  8
1
  6
CONTINUOUS
 62
     7
100
AcDbLine
 10
360.2098353662999
 20
463.1627763784003
 30
0.0
 11
382.5694230477001
 21
463.1627763784003
 31
0.0
  0
LINE
  5
31C
330
1F
100
AcDbEntity
  8
1
  6
CONTINUOUS
 62
     3
100
AcDbLine
 10
331.9908434642009
 20
480.4484628254011
 30
0.0
 11
363.9908434642001
 21
480.4484628254011
 31
0.0
  0
LINE
  5
31D
330
1F
100
AcDbEntity
  8
1
  6
CONTINUOUS
 62
     6
100
AcDbLine
 10
356.2408434642003
 20
557.962067654901
 30
0.0
 11
356.2408434642003
 21
550.4484628254014
 31
0.0
  0
LINE
  5
31E
330
1F
100
AcDbEntity
  8
1
  6
CONTINUOUS
 62
     3
100
AcDbLine
 10
323.9908434642009
 20
550.4484628254014
 30
0.0
 11
291.9908434642009
 21
550.4484628254014
 31
0.0
  0
LINE
  5
31F
330
1F
100
AcDbEntity
  8
1
  6
CONTINUOUS
 62
     7
100
AcDbLine
 10
318.7408434642007
 20
555.5389599099003
 30
0.0
 11
338.3665277561008
 21
555.5389360217005
 31
0.0
  0
LINE
  5
320
330
1F
100
AcDbEntity
  8
1
  6
CONTINUOUS
 62
     7
100
AcDbLine
 10
381.5694230477007
 20
460.6627763784008
 30
0.0
 11
359.2098353662996
 21
460.6627763784008
 31
0.0
  0
LINE
  5
321
330
1F
100
AcDbEntity
  8
1
  6
CONTINUOUS
 62
     7
100
AcDbLine
 10
343.3098353663002
 20
460.1610130755
 30
0.0
 11
376.9122638806008
 21
460.1610130755
 31
0.0
  0
LINE
  5
322
330
1F
100
AcDbEntity
  8
1
  6
CONTINUOUS
 62
     6
100
AcDbLine
 10
257.2399297889998
 20
552.0389427896006
 30
0.0
 11
257.2399297889998
 21
550.4484628254014
 31
0.0
  0
LINE
  5
323
330
1F
100
AcDbEntity
  8
1
  6
CONTINUOUS
 62
     6
100
AcDbLine
 10
358.7098353662998
 20
464.6627763784003
 30
0.0
 11
358.7098353662998
 21
480.4484628254011
 31
0.0
  0
LINE
  5
324
330
1F
100
AcDbEntity
  8
1
  6
CONTINUOUS
 62
     6
100
AcDbLine
 10
299.7736789123007
 20
461.6610130755001
 30
0.0
 11
299.7736789123007
 21
480.4484628254011
 31
0.0
  0
LINE
  5
325
330
1F
100
AcDbEntity
  8
1
  6
CONTINUOUS
 62
     7
100
AcDbLine
 10
434.5694230477006
 20
467.6627763784005
 30
0.0
 11
399.208008016001
 21
467.6627763784005
 31
0.0
  0
LINE
  5
326
330
1F
100
AcDbEntity
  8
1
  6
CONTINUOUS
 62
     7
100
AcDbLine
 10
263.3365194515003
 20
555.5389417543006
 30
0.0
 11
276.2399297889999
 21
555.539020553101
 31
0.0
  0
LINE
  5
327
330
1F
100
AcDbEntity
  8
1
  6
CONTINUOUS
 62
     7
100
AcDbLine
 10
375.9122638806005
 20
457.6610130755005
 30
0.0
 11
343.2098353662996
 21
457.6610130755005
 31
0.0
  0
LINE
  5
328
330
1F
100
AcDbEntity
  8
1
  6
CONTINUOUS
 62
     6
100
AcDbLine
 10
259.7399297890002
 20
551.9389433696
 30
0.0
 11
259.7399297890002
 21
550.4484628254014
 31
0.0
  0
LINE
  5
329
330
1F
100
AcDbEntity
  8
1
  6
CONTINUOUS
 62
     6
100
AcDbLine
 10
398.7080080160003
 20
471.6627763784009
 30
0.0
 11
398.7080080160003
 21
480.4484628254011
 31
0.0
  0
LINE
  5
32A
330
1F
100
AcDbEntity
  8
1
  6
CONTINUOUS
 62
     6
100
AcDbLine
 10
398.7408434642008
 20
557.8620676549004
 30
0.0
 11
398.7408434642008
 21
550.4484628254014
 31
0.0
  0
ARC
  5
32B
330
1F
100
AcDbEntity
  8
1
  6
CONTINUOUS
 62
     7
100
AcDbCircle
 10
530.8908434642001
 20
555.9956148345009
 30
0.0
 40
3.599999999999604
100
AcDbArc
 50
0.0
 51
90.0
  0
LINE
  5
32C
330
1F
100
AcDbEntity
  8
1
  6
CONTINUOUS
 62
     7
100
AcDbLine
 10
299.7408434642006
 20
555.5389303416999
 30
0.0
 11
316.2408434642003
 21
555.539042899901
 31
0.0
  0
LINE
  5
32D
330
1F
100
AcDbEntity
  8
1
  6
CONTINUOUS
 62
     7
100
AcDbLine
 10
318.7408434642007
 20
558.0389430353003
 30
0.0
 11
356.2413360073
 21
558.038945965901
 31
0.0
  0
LINE
  5
32E
330
1F
100
AcDbEntity
  8
1
  6
CONTINUOUS
 62
     7
100
AcDbLine
 10
343.0523447343008
 20
555.5390252397005
 30
0.0
 11
356.2408434642003
 21
555.5393277156008
 31
0.0
  0
LINE
  5
32F
330
1F
100
AcDbEntity
  8
1
  6
CONTINUOUS
 62
     7
100
AcDbLine
 10
358.7408434642007
 20
555.5389391970004
 30
0.0
 11
377.2408434642003
 21
555.5390493362005
 31
0.0
  0
LINE
  5
330
330
1F
100
AcDbEntity
  8
1
  6
CONTINUOUS
 62
     3
100
AcDbLine
 10
323.9908434642009
 20
480.4484628254011
 30
0.0
 11
323.9908434642009
 21
550.4484628254014
 31
0.0
  0
LINE
  5
331
330
1F
100
AcDbEntity
  8
1
  6
CONTINUOUS
 62
     6
100
AcDbLine
 10
318.7718515620004
 20
465.1610130755008
 30
0.0
 11
318.7718515620004
 21
480.4484628254011
 31
0.0
  0
LINE
  5
332
330
1F
100
AcDbEntity
  8
1
  6
CONTINUOUS
 62
     6
100
AcDbLine
 10
316.271851562
 20
464.1610130755005
 30
0.0
 11
316.271851562
 21
480.4484628254011
 31
0.0
  0
LINE
  5
333
330
1F
100
AcDbEntity
  8
1
  6
CONTINUOUS
 62
     6
100
AcDbLine
 10
297.2736789123003
 20
460.6610130755006
 30
0.0
 11
297.2736789123003
 21
480.4484628254011
 31
0.0
  0
LINE
  5
334
330
1F
100
AcDbEntity
  8
1
  6
CONTINUOUS
 62
     6
100
AcDbLine
 10
358.7408434642007
 20
557.8620676549004
 30
0.0
 11
358.7408434642007
 21
550.4484628254014
 31
0.0
  0
ARC
  5
335
330
1F
100
AcDbEntity
  8
1
  6
CONTINUOUS
 62
     7
100
AcDbCircle
 10
343.3399297890007
 20
551.9389433696
 30
0.0
 40
3.599999999999604
100
AcDbArc
 50
89.92407467709998
 51
180.0
  0
LINE
  5
336
330
1F
100
AcDbEntity
  8
1
  6
CONTINUOUS
 62
     6
100
AcDbLine
 10
430.4122638806005
 20
462.6627763784006
 30
0.0
 11
430.4122638806005
 21
446.3553737632004
 31
0.0
  0
ARC
  5
337
330
1F
100
AcDbEntity
  8
1
  6
CONTINUOUS
 62
     7
100
AcDbCircle
 10
343.2399297890001
 20
552.0389427896006
 30
0.0
 40
6.000000000000227
100
AcDbArc
 50
89.9999998823
 51
180.0
  0
ARC
  5
338
330
1F
100
AcDbEntity
  8
1
  6
CONTINUOUS
 62
     7
100
AcDbCircle
 10
362.3408434642004
 20
557.8620676549004
 30
0.0
 40
3.599999999999604
100
AcDbArc
 50
90.0
 51
180.0
  0
ARC
  5
339
330
1F
100
AcDbEntity
  8
1
  6
CONTINUOUS
 62
     7
100
AcDbCircle
 10
263.3399297890007
 20
551.9389433696
 30
0.0
 40
3.599999999999604
100
AcDbArc
 50
89.94642257959998
 51
180.0
  0
LINE
  5
33A
330
1F
100
AcDbEntity
  8
1
  6
CONTINUOUS
 62
     6
100
AcDbLine
 10
385.5694230477002
 20
460.1627763784002
 30
0.0
 11
385.5694230477002
 21
446.3553737632004
 31
0.0
  0
ARC
  5
33B
330
1F
100
AcDbEntity
  8
1
  6
CONTINUOUS
 62
     7
100
AcDbCircle
 10
402.2408434642006
 20
557.962067654901
 30
0.0
 40
6.000000000000227
100
AcDbArc
 50
90.0
 51
180.0
  0
LINE
  5
33C
330
1F
100
AcDbEntity
  8
1
  6
CONTINUOUS
 62
     7
100
AcDbLine
 10
379.7408434642007
 20
555.5390003811009
 30
0.0
 11
396.2408434642004
 21
555.5389647266011
 31
0.0
  0
LINE
  5
33D
330
1F
100
AcDbEntity
  8
1
  6
CONTINUOUS
 62
     7
100
AcDbLine
 10
263.2334075404002
 20
558.038939244601
 30
0.0
 11
276.2399297889999
 21
558.0389402610004
 31
0.0
  0
LINE
  5
33E
330
1F
100
AcDbEntity
  8
1
  6
CONTINUOUS
 62
     7
100
AcDbLine
 10
299.7408434642006
 20
558.0389420975002
 30
0.0
 11
316.2408434642003
 21
558.0389433870004
 31
0.0
  0
LINE
  5
33F
330
1F
100
AcDbEntity
  8
1
  6
CONTINUOUS
 62
     7
100
AcDbLine
 10
398.7408434642008
 20
555.5389269113009
 30
0.0
 11
420.1792074904
 21
555.5388805857007
 31
0.0
  0
LINE
  5
340
330
1F
100
AcDbEntity
  8
1
  6
CONTINUOUS
 62
     6
100
AcDbLine
 10
377.4122638806006
 20
456.1610130755005
 30
0.0
 11
377.4122638806006
 21
446.3553737632004
 31
0.0
  0
LINE
  5
341
330
1F
100
AcDbEntity
  8
1
  6
CONTINUOUS
 62
     6
100
AcDbLine
 10
396.2080080160009
 20
470.6627763784006
 30
0.0
 11
396.2080080160009
 21
480.4484628254011
 31
0.0
  0
LINE
  5
342
330
1F
100
AcDbEntity
  8
1
  6
CONTINUOUS
 62
     6
100
AcDbLine
 10
377.2098353663002
 20
467.1627763784007
 30
0.0
 11
377.2098353663002
 21
480.4484628254011
 31
0.0
  0
LINE
  5
343
330
1F
100
AcDbEntity
  8
1
  6
CONTINUOUS
 62
     6
100
AcDbLine
 10
432.9122638806009
 20
463.6627763784009
 30
0.0
 11
432.9122638806009
 21
446.3553737632004
 31
0.0
  0
LINE
  5
344
330
1F
100
AcDbEntity
  8
1
  6
CONTINUOUS
 62
     7
100
AcDbLine
 10
278.7399297890003
 20
555.538919767101
 30
0.0
 11
297.2408434642002
 21
555.5390205581006
 31
0.0
  0
ARC
  5
345
330
1F
100
AcDbEntity
  8
1
  6
CONTINUOUS
 62
     7
100
AcDbCircle
 10
486.3218960274
 20
569.0138073981003
 30
0.0
 40
8.000000000000007
100
AcDbArc
 50
291.986197439
 51
305.6590876961
  0
LINE
  5
346
330
1F
100
AcDbEntity
  8
1
  6
CONTINUOUS
 62
     7
100
AcDbLine
 10
446.2428830062004
 20
570.3013745881007
 30
0.0
 11
446.2428830062004
 21
554.3013745881007
 31
0.0
  0
ARC
  5
347
330
1F
100
AcDbEntity
  8
1
  6
CONTINUOUS
 62
     7
100
AcDbCircle
 10
434.5694230477006
 20
466.1627763784004
 30
0.0
 40
1.500000000000057
100
AcDbArc
 50
0.0
 51
90.0
  0
ARC
  5
348
330
1F
100
AcDbEntity
  8
1
  6
CONTINUOUS
 62
     7
100
AcDbCircle
 10
486.3218960274
 20
566.6138074011
 30
0.0
 40
8.000000000000007
100
AcDbArc
 50
54.34091230389999
 51
90.00005631019998
  0
ARC
  5
349
330
1F
100
AcDbEntity
  8
1
  6
CONTINUOUS
 62
     7
100
AcDbCircle
 10
381.2098353662998
 20
468.1627763784002
 30
0.0
 40
1.500000000000057
100
AcDbArc
 50
180.0
 51
270.0
  0
ARC
  5
34A
330
1F
100
AcDbEntity
  8
1
  6
CONTINUOUS
 62
     7
100
AcDbCircle
 10
282.2399297890001
 20
563.9272987518007
 30
0.0
 40
6.000000000000227
100
AcDbArc
 50
90.0
 51
180.0
  0
ARC
  5
34B
330
1F
100
AcDbEntity
  8
1
  6
CONTINUOUS
 62
     7
100
AcDbCircle
 10
278.9908434642001
 20
453.9868819474009
 30
0.0
 40
6.000000000000227
100
AcDbArc
 50
172.9711530769
 51
180.0
  0
LINE
  5
34C
330
1F
100
AcDbEntity
  8
1
  6
CONTINUOUS
 62
     7
100
AcDbLine
 10
317.4661101867997
 20
446.3553737632004
 30
0.0
 11
317.4661101867997
 21
454.061013075501
 31
0.0
  0
LINE
  5
34D
330
1F
100
AcDbEntity
  8
1
  6
CONTINUOUS
 62
     7
100
AcDbLine
 10
446.2428830062004
 20
570.3013745881007
 30
0.0
 11
461.5791934795998
 21
570.3013745881007
 31
0.0
  0
LINE
  5
34E
330
1F
100
AcDbEntity
  8
1
  6
CONTINUOUS
 62
     7
100
AcDbLine
 10
444.1792074904001
 20
551.2146160850007
 30
0.0
 11
436.1792074904001
 21
551.2146160850007
 31
0.0
  0
LINE
  5
34F
330
1F
100
AcDbEntity
  8
1
  6
CONTINUOUS
 62
     7
100
AcDbLine
 10
260.4626855156002
 20
454.5791826842
 30
0.0
 11
257.2080080160006
 21
480.4484628254011
 31
0.0
  0
LINE
  5
350
330
1F
100
AcDbEntity
  8
1
  6
CONTINUOUS
 62
     7
100
AcDbLine
 10
275.4908434642003
 20
454.1342786738003
 30
0.0
 11
275.4908434642003
 21
431.3553737634006
 31
0.0
  0
ARC
  5
351
330
1F
100
AcDbEntity
  8
1
  6
CONTINUOUS
 62
     7
100
AcDbCircle
 10
399.208008016001
 20
470.6627763784006
 30
0.0
 40
3.000000000000114
100
AcDbArc
 50
180.0
 51
270.0
  0
LINE
  5
352
330
1F
100
AcDbEntity
  8
1
  6
CONTINUOUS
 62
     7
100
AcDbLine
 10
319.9661101868001
 20
454.1610130755007
 30
0.0
 11
319.9661101868001
 21
446.3553737632004
 31
0.0
  0
LINE
  5
353
330
1F
100
AcDbEntity
  8
1
  6
CONTINUOUS
 62
     7
100
AcDbLine
 10
313.9661101867999
 20
460.1610130755
 30
0.0
 11
301.2736789123007
 21
460.1610130755
 31
0.0
  0
ARC
  5
354
330
1F
100
AcDbEntity
  8
1
  6
CONTINUOUS
 62
     7
100
AcDbCircle
 10
360.2098353662999
 20
464.6627763784003
 30
0.0
 40
1.500000000000057
100
AcDbArc
 50
180.0
 51
270.0
  0
LINE
  5
355
330
1F
100
AcDbEntity
  8
1
  6
CONTINUOUS
 62
     7
100
AcDbLine
 10
474.2428830062
 20
555.8013745881008
 30
0.0
 11
466.2428830062
 21
555.8013745881008
 31
0.0
  0
LINE
  5
356
330
1F
100
AcDbEntity
  8
1
  6
CONTINUOUS
 62
     7
100
AcDbLine
 10
332.4661101868003
 20
457.6610130755005
 30
0.0
 11
332.4661101868003
 21
446.3553737632004
 31
0.0
  0
ARC
  5
357
330
1F
100
AcDbEntity
  8
1
  6
CONTINUOUS
 62
     7
100
AcDbCircle
 10
359.2098353662996
 20
463.6627763784009
 30
0.0
 40
3.000000000000114
100
AcDbArc
 50
180.0
 51
270.0
  0
ARC
  5
358
330
1F
100
AcDbEntity
  8
1
  6
CONTINUOUS
 62
     7
100
AcDbCircle
 10
428.9122638806004
 20
462.6627763784006
 30
0.0
 40
1.500000000000057
100
AcDbArc
 50
0.0
 51
90.0
  0
ARC
  5
359
330
1F
100
AcDbEntity
  8
1
  6
CONTINUOUS
 62
     7
100
AcDbCircle
 10
300.2736789123004
 20
460.6610130755006
 30
0.0
 40
3.000000000000114
100
AcDbArc
 50
180.0
 51
270.0
  0
LINE
  5
35A
330
1F
100
AcDbEntity
  8
1
  6
CONTINUOUS
 62
     7
100
AcDbLine
 10
272.9908434642008
 20
431.3553737634006
 30
0.0
 11
272.9908434642008
 21
453.9868819474009
 31
0.0
  0
ARC
  5
35B
330
1F
100
AcDbEntity
  8
1
  6
CONTINUOUS
 62
     7
100
AcDbCircle
 10
382.5694230477001
 20
460.1627763784002
 30
0.0
 40
3.000000000000114
100
AcDbArc
 50
0.0
 51
90.0
  0
ARC
  5
35C
330
1F
100
AcDbEntity
  8
1
  6
CONTINUOUS
 62
     7
100
AcDbCircle
 10
376.9122638806008
 20
457.1610130755008
 30
0.0
 40
3.000000000000114
100
AcDbArc
 50
0.0
 51
90.0
  0
LINE
  5
35D
330
1F
100
AcDbEntity
  8
1
  6
CONTINUOUS
 62
     7
100
AcDbLine
 10
466.2428830062
 20
568.8013745881007
 30
0.0
 11
474.2428830062
 21
568.8013745881007
 31
0.0
  0
LINE
  5
35E
330
1F
100
AcDbEntity
  8
1
  6
CONTINUOUS
 62
     7
100
AcDbLine
 10
474.2428830062
 20
568.8013745881007
 30
0.0
 11
474.2428830062
 21
555.8013745881008
 31
0.0
  0
ARC
  5
35F
330
1F
100
AcDbEntity
  8
1
  6
CONTINUOUS
 62
     7
100
AcDbCircle
 10
301.2736789123007
 20
461.6610130755001
 30
0.0
 40
1.500000000000057
100
AcDbArc
 50
180.0
 51
270.0
  0
ARC
  5
360
330
1F
100
AcDbEntity
  8
1
  6
CONTINUOUS
 62
     7
100
AcDbCircle
 10
431.5155179638994
 20
557.7146160850006
 30
0.0
 40
8.000000000000007
100
AcDbArc
 50
269.9999436898
 51
305.6590876961
  0
LINE
  5
361
330
1F
100
AcDbEntity
  8
1
  6
CONTINUOUS
 62
     7
100
AcDbLine
 10
276.2080080160007
 20
480.4484628254011
 30
0.0
 11
273.0359354572007
 21
454.7210962409007
 31
0.0
  0
LINE
  5
362
330
1F
100
AcDbEntity
  8
1
  6
CONTINUOUS
 62
     7
100
AcDbLine
 10
446.2428830062004
 20
559.5146160877009
 30
0.0
 11
444.1792074863002
 21
559.5146160877009
 31
0.0
  0
LINE
  5
363
330
1F
100
AcDbEntity
  8
1
  6
CONTINUOUS
 62
     7
100
AcDbLine
 10
474.9855855538998
 20
574.6138074011
 30
0.0
 11
474.9855855538998
 21
565.3013745881008
 31
0.0
  0
ARC
  5
364
330
1F
100
AcDbEntity
  8
1
  6
CONTINUOUS
 62
     7
100
AcDbCircle
 10
256.8908434642001
 20
454.1298004867009
 30
0.0
 40
3.599999999999604
100
AcDbArc
 50
0.0
 51
7.1708455274
  0
LINE
  5
365
330
1F
100
AcDbEntity
  8
1
  6
CONTINUOUS
 62
     7
100
AcDbLine
 10
474.9855855538998
 20
574.6138074011
 30
0.0
 11
486.3218960274
 21
574.6138074011
 31
0.0
  0
LINE
  5
366
330
1F
100
AcDbEntity
  8
1
  6
CONTINUOUS
 62
     7
100
AcDbLine
 10
313.8661101868001
 20
457.6610130755005
 30
0.0
 11
300.2736789123004
 21
457.6610130755005
 31
0.0
  0
ARC
  5
367
330
1F
100
AcDbEntity
  8
1
  6
CONTINUOUS
 62
     7
100
AcDbCircle
 10
380.2098353662995
 20
467.1627763784007
 30
0.0
 40
3.000000000000114
100
AcDbArc
 50
180.0
 51
270.0
  0
LINE
  5
368
330
1F
100
AcDbEntity
  8
1
  6
CONTINUOUS
 62
     7
100
AcDbLine
 10
320.2718515620004
 20
463.6610130755008
 30
0.0
 11
326.4661101868001
 21
463.6610130755008
 31
0.0
  0
LINE
  5
369
330
1F
100
AcDbEntity
  8
1
  6
CONTINUOUS
 62
     7
100
AcDbLine
 10
483.4908434642005
 20
565.3013745881008
 30
0.0
 11
474.2428830030008
 21
565.3013745881008
 31
0.0
  0
ARC
  5
36A
330
1F
100
AcDbEntity
  8
1
  6
CONTINUOUS
 62
     7
100
AcDbCircle
 10
429.9122638806008
 20
463.6627763784009
 30
0.0
 40
3.000000000000114
100
AcDbArc
 50
0.0
 51
90.0
  0
LINE
  5
36B
330
1F
100
AcDbEntity
  8
1
  6
CONTINUOUS
 62
     7
100
AcDbLine
 10
262.9908434642001
 20
453.9794183022998
 30
0.0
 11
262.9908434642001
 21
431.3553737634006
 31
0.0
  0
ARC
  5
36C
330
1F
100
AcDbEntity
  8
1
  6
CONTINUOUS
 62
     7
100
AcDbCircle
 10
381.5694230477007
 20
459.1627763784007
 30
0.0
 40
1.500000000000057
100
AcDbArc
 50
0.0
 51
90.0
  0
ARC
  5
36D
330
1F
100
AcDbEntity
  8
1
  6
CONTINUOUS
 62
     7
100
AcDbCircle
 10
400.2080080160004
 20
471.6627763784009
 30
0.0
 40
1.500000000000057
100
AcDbArc
 50
180.0
 51
270.0
  0
ARC
  5
36E
330
1F
100
AcDbEntity
  8
1
  6
CONTINUOUS
 62
     7
100
AcDbCircle
 10
282.3399297889999
 20
563.8272987518009
 30
0.0
 40
3.599999999999604
100
AcDbArc
 50
90.0
 51
180.0
  0
LINE
  5
36F
330
1F
100
AcDbEntity
  8
1
  6
CONTINUOUS
 62
     7
100
AcDbLine
 10
420.1792074904
 20
561.4620676926005
 30
0.0
 11
420.1792074904
 21
549.7146160850006
 31
0.0
  0
LINE
  5
370
330
1F
100
AcDbEntity
  8
1
  6
CONTINUOUS
 62
     7
100
AcDbLine
 10
444.1792074863002
 20
561.4620676926005
 30
0.0
 11
444.1792074904001
 21
551.2146160850007
 31
0.0
  0
LINE
  5
371
330
1F
100
AcDbEntity
  8
1
  6
CONTINUOUS
 62
     7
100
AcDbLine
 10
259.708008016001
 20
480.4484628254011
 30
0.0
 11
262.9439135498997
 21
454.7283886315005
 31
0.0
  0
ARC
  5
372
330
1F
100
AcDbEntity
  8
1
  6
CONTINUOUS
 62
     7
100
AcDbCircle
 10
461.5791934795998
 20
562.3013745881007
 30
0.0
 40
8.000000000000007
100
AcDbArc
 50
269.9999436898
 51
305.6590876961
  0
LINE
  5
373
330
1F
100
AcDbEntity
  8
1
  6
CONTINUOUS
 62
     7
100
AcDbLine
 10
278.7080080160002
 20
480.4484628254011
 30
0.0
 11
275.5178986600004
 21
454.5748072499007
 31
0.0
  0
ARC
  5
374
330
1F
100
AcDbEntity
  8
1
  6
CONTINUOUS
 62
     7
100
AcDbCircle
 10
279.0908434641998
 20
454.1342786738003
 30
0.0
 40
3.599999999999604
100
AcDbArc
 50
172.9711530769
 51
180.0
  0
ARC
  5
375
330
1F
100
AcDbEntity
  8
1
  6
CONTINUOUS
 62
     7
100
AcDbCircle
 10
256.9908434642007
 20
453.9794183022998
 30
0.0
 40
6.000000000000227
100
AcDbArc
 50
0.0
 51
7.1708455274
  0
LINE
  5
376
330
1F
100
AcDbEntity
  8
1
  6
CONTINUOUS
 62
     7
100
AcDbLine
 10
329.9661101867999
 20
446.3553737632004
 30
0.0
 11
329.9661101867999
 21
457.5610130755008
 31
0.0
  0
ARC
  5
377
330
1F
100
AcDbEntity
  8
1
  6
CONTINUOUS
 62
     7
100
AcDbCircle
 10
313.8661101868001
 20
454.061013075501
 30
0.0
 40
3.599999999999604
100
AcDbArc
 50
0.0
 51
90.0
  0
ARC
  5
378
330
1F
100
AcDbEntity
  8
1
  6
CONTINUOUS
 62
     7
100
AcDbCircle
 10
375.9122638806005
 20
456.1610130755005
 30
0.0
 40
1.500000000000057
100
AcDbArc
 50
0.0
 51
90.0
  0
ARC
  5
379
330
1F
100
AcDbEntity
  8
1
  6
CONTINUOUS
 62
     7
100
AcDbCircle
 10
326.3661101868003
 20
457.5610130755008
 30
0.0
 40
3.599999999999604
100
AcDbArc
 50
0.0
 51
90.0
  0
LINE
  5
37A
330
1F
100
AcDbEntity
  8
1
  6
CONTINUOUS
 62
     7
100
AcDbLine
 10
326.3661101868003
 20
461.1610130755004
 30
0.0
 11
319.2718515620001
 21
461.1610130755004
 31
0.0
  0
LINE
  5
37B
330
1F
100
AcDbEntity
  8
1
  6
CONTINUOUS
 62
     7
100
AcDbLine
 10
461.5791856173006
 20
554.3013745881007
 30
0.0
 11
446.2428830062004
 21
554.3013745881007
 31
0.0
  0
ARC
  5
37C
330
1F
100
AcDbEntity
  8
1
  6
CONTINUOUS
 62
     7
100
AcDbCircle
 10
319.2718515620001
 20
464.1610130755005
 30
0.0
 40
3.000000000000114
100
AcDbArc
 50
180.0
 51
270.0
  0
ARC
  5
37D
330
1F
100
AcDbEntity
  8
1
  6
CONTINUOUS
 62
     7
100
AcDbCircle
 10
320.2718515620004
 20
465.1610130755008
 30
0.0
 40
1.500000000000057
100
AcDbArc
 50
180.0
 51
270.0
  0
ARC
  5
37E
330
1F
100
AcDbEntity
  8
1
  6
CONTINUOUS
 62
     7
100
AcDbCircle
 10
461.5791934795998
 20
562.3013745881007
 30
0.0
 40
8.000000000000007
100
AcDbArc
 50
54.34091230389999
 51
90.00005631019998
  0
LINE
  5
37F
330
1F
100
AcDbEntity
  8
1
  6
CONTINUOUS
 62
     7
100
AcDbLine
 10
498.9855855538998
 20
562.5138073981004
 30
0.0
 11
490.9855855538998
 21
562.5138073981004
 31
0.0
  0
LINE
  5
380
330
1F
100
AcDbEntity
  8
1
  6
CONTINUOUS
 62
     7
100
AcDbLine
 10
490.9855855538998
 20
573.1138074011
 30
0.0
 11
498.9855855538998
 21
573.1138074011
 31
0.0
  0
LINE
  5
381
330
1F
100
AcDbEntity
  8
1
  6
CONTINUOUS
 62
     7
100
AcDbLine
 10
260.4908434642006
 20
431.3553737634006
 30
0.0
 11
260.4908434642006
 21
454.1298004867009
 31
0.0
  0
LINE
  5
382
330
1F
100
AcDbEntity
  8
1
  6
CONTINUOUS
 62
     7
100
AcDbLine
 10
431.5155101014998
 20
549.7146160850006
 30
0.0
 11
420.1792074904
 21
549.7146160850006
 31
0.0
  0
ARC
  5
383
330
1F
100
AcDbEntity
  8
1
  6
CONTINUOUS
 62
     7
100
AcDbCircle
 10
435.5694230477001
 20
467.1627763784007
 30
0.0
 40
3.000000000000114
100
AcDbArc
 50
0.0
 51
90.0
  0
LINE
  5
384
330
1F
100
AcDbEntity
  8
1
  6
CONTINUOUS
 62
     7
100
AcDbLine
 10
498.9855855538998
 20
573.1138074011
 30
0.0
 11
498.9855855538998
 21
562.5138073981004
 31
0.0
  0
ARC
  5
385
330
1F
100
AcDbEntity
  8
1
  6
CONTINUOUS
 62
     6
100
AcDbCircle
 10
307.9908434642009
 20
359.3553737632007
 30
0.0
 40
3.000000000000114
100
AcDbArc
 50
180.0
 51
270.0
  0
LINE
  5
386
330
1F
100
AcDbEntity
  8
1
  6
CONTINUOUS
 62
     6
100
AcDbLine
 10
297.2408434642002
 20
563.9272987518007
 30
0.0
 11
297.2408434642002
 21
550.4484628254014
 31
0.0
  0
ARC
  5
387
330
1F
100
AcDbEntity
  8
1
  6
CONTINUOUS
 62
     7
100
AcDbCircle
 10
303.3408434642002
 20
563.8272987518009
 30
0.0
 40
3.599999999999604
100
AcDbArc
 50
90.0
 51
180.0
  0
LINE
  5
388
330
1F
100
AcDbEntity
  8
1
  6
CONTINUOUS
 62
     7
100
AcDbLine
 10
344.2260521842
 20
449.6049927045007
 30
0.0
 11
344.2260521842
 21
446.3553737633008
 31
0.0
  0
LINE
  5
389
330
1F
100
AcDbEntity
  8
1
  6
CONTINUOUS
 62
     7
100
AcDbLine
 10
342.2260521842002
 20
450.6049927045001
 30
0.0
 11
342.2260521842002
 21
446.3553737633008
 31
0.0
  0
ARC
  5
38A
330
1F
100
AcDbEntity
  8
1
  6
CONTINUOUS
 62
     7
100
AcDbCircle
 10
344.2260521843003
 20
450.6049927045001
 30
0.0
 40
1.99999999999978
100
AcDbArc
 50
90.0
 51
180.0
  0
LINE
  5
38B
330
1F
100
AcDbEntity
  8
1
  6
CONTINUOUS
 62
     7
100
AcDbLine
 10
395.2260521842001
 20
450.6049927045001
 30
0.0
 11
395.2260521842001
 21
446.3553737633008
 31
0.0
  0
LINE
  5
38C
330
1F
100
AcDbEntity
  8
1
  6
CONTINUOUS
 62
     7
100
AcDbLine
 10
365.7556347441
 20
449.6049927045007
 30
0.0
 11
365.7556347441
 21
446.3553737633008
 31
0.0
  0
ARC
  5
38D
330
1F
100
AcDbEntity
  8
1
  6
CONTINUOUS
 62
     7
100
AcDbCircle
 10
418.7556347441
 20
450.6049927045001
 30
0.0
 40
1.99999999999978
100
AcDbArc
 50
0.0
 51
90.0
  0
ARC
  5
38E
330
1F
100
AcDbEntity
  8
1
  6
CONTINUOUS
 62
     6
100
AcDbCircle
 10
307.9908434642009
 20
443.3553737632003
 30
0.0
 40
3.000000000000114
100
AcDbArc
 50
90.0
 51
180.0
  0
LINE
  5
38F
330
1F
100
AcDbEntity
  8
1
  6
CONTINUOUS
 62
     7
100
AcDbLine
 10
1405.5590876109
 20
621.557003107501
 30
0.0
 11
1405.5590876109
 21
307.6537444149006
 31
0.0
  0
LINE
  5
390
330
1F
100
AcDbEntity
  8
1
  6
CONTINUOUS
 62
     7
100
AcDbLine
 10
1111.377462466201
 20
582.905373763201
 30
0.0
 11
1111.377462466201
 21
558.3053737632007
 31
0.0
  0
LINE
  5
391
330
1F
100
AcDbEntity
  8
1
  6
CONTINUOUS
 62
     7
100
AcDbLine
 10
1268.5590876109
 20
297.8696441163011
 30
0.0
 11
1299.0590876109
 21
297.8696441163011
 31
0.0
  0
LINE
  5
392
330
1F
100
AcDbEntity
  8
1
  6
CONTINUOUS
 62
     7
100
AcDbLine
 10
418.7556347441
 20
449.6049927045007
 30
0.0
 11
418.7556347441
 21
446.3553737633008
 31
0.0
  0
LINE
  5
393
330
1F
100
AcDbEntity
  8
1
  6
CONTINUOUS
 62
     7
100
AcDbLine
 10
914.8774624661007
 20
-33.49974485539953
 30
0.0
 11
899.8774624661002
 21
-28.49974485539963
 31
0.0
  0
LINE
  5
394
330
1F
100
AcDbEntity
  8
1
  6
CONTINUOUS
 62
     7
100
AcDbLine
 10
344.2260521843003
 20
452.6049927044999
 30
0.0
 11
365.7556347441
 21
452.6049927044999
 31
0.0
  0
LINE
  5
395
330
1F
100
AcDbEntity
  8
1
  6
DASHED
 62
     7
100
AcDbLine
 10
698.6417328193006
 20
103.5002551446
 30
0.0
 11
698.6417328193006
 21
103.3002551446005
 31
0.0
  0
LINE
  5
397
330
1F
100
AcDbEntity
  8
1
  6
CONTINUOUS
 62
     7
100
AcDbLine
 10
398.2260521842002
 20
450.6049927045001
 30
0.0
 11
417.7556347440996
 21
450.6049927045001
 31
0.0
  0
LINE
  5
398
330
1F
100
AcDbEntity
  8
1
  6
CONTINUOUS
 62
     7
100
AcDbLine
 10
704.8700558351006
 20
81.3076617757007
 30
0.0
 11
688.4632489038003
 21
97.71446870700106
 31
0.0
  0
LINE
  5
399
330
1F
100
AcDbEntity
  8
1
  6
CONTINUOUS
 62
     6
100
AcDbLine
 10
299.7408434642006
 20
563.8272987518009
 30
0.0
 11
299.7408434642006
 21
550.4484628254014
 31
0.0
  0
ARC
  5
39A
330
1F
100
AcDbEntity
  8
1
  6
CONTINUOUS
 62
     7
100
AcDbCircle
 10
343.3098353663002
 20
463.7610130755006
 30
0.0
 40
3.599999999999604
100
AcDbArc
 50
180.0
 51
270.0
  0
LINE
  5
39B
330
1F
100
AcDbEntity
  8
1
  6
CONTINUOUS
 62
     7
100
AcDbLine
 10
345.2260521842003
 20
450.6049927045001
 30
0.0
 11
364.7556347440997
 21
450.6049927045001
 31
0.0
  0
ARC
  5
39C
330
1F
100
AcDbEntity
  8
1
  6
CONTINUOUS
 62
     7
100
AcDbCircle
 10
364.7556347440997
 20
449.6049927045007
 30
0.0
 40
1.000000000000334
100
AcDbArc
 50
0.0
 51
90.0
  0
LINE
  5
39D
330
1F
100
AcDbEntity
  8
1
  6
CONTINUOUS
 62
     7
100
AcDbLine
 10
420.7556347440997
 20
450.6049927045001
 30
0.0
 11
420.7556347440997
 21
446.3553737633008
 31
0.0
  0
ARC
  5
39E
330
1F
100
AcDbEntity
  8
1
  6
CONTINUOUS
 62
     6
100
AcDbCircle
 10
348.9908434642004
 20
359.3553737632007
 30
0.0
 40
3.000000000000114
100
AcDbArc
 50
270.0
 51
0.0
  0
ARC
  5
39F
330
1F
100
AcDbEntity
  8
1
  6
CONTINUOUS
 62
     7
100
AcDbCircle
 10
343.2098353662996
 20
463.6610130755008
 30
0.0
 40
6.000000000000227
100
AcDbArc
 50
180.0
 51
270.0
  0
LINE
  5
3A0
330
1F
100
AcDbEntity
  8
1
  6
CONTINUOUS
 62
     7
100
AcDbLine
 10
1111.377462466201
 20
370.9053737632013
 30
0.0
 11
1111.377462466201
 21
346.3053737632009
 31
0.0
  0
LINE
  5
3A1
330
1F
100
AcDbEntity
  8
1
  6
CONTINUOUS
 62
     7
100
AcDbLine
 10
889.8774624661003
 20
-28.49974485539963
 30
0.0
 11
874.8774624661006
 21
-33.49974485539953
 31
0.0
  0
LINE
  5
3A2
330
1F
100
AcDbEntity
  8
1
  6
CONTINUOUS
 62
     7
100
AcDbLine
 10
698.6417328193006
 20
103.3002551446005
 30
0.0
 11
676.8774624661003
 21
103.3002551446005
 31
0.0
  0
ARC
  5
3A3
330
1F
100
AcDbEntity
  8
1
  6
CONTINUOUS
 62
     7
100
AcDbCircle
 10
326.4661101868001
 20
457.6610130755005
 30
0.0
 40
6.000000000000227
100
AcDbArc
 50
0.0
 51
90.0
  0
ARC
  5
3A4
330
1F
100
AcDbEntity
  8
1
  6
CONTINUOUS
 62
     7
100
AcDbCircle
 10
313.9661101867999
 20
454.1610130755007
 30
0.0
 40
6.000000000000227
100
AcDbArc
 50
0.0
 51
90.0
  0
ARC
  5
3A5
330
1F
100
AcDbEntity
  8
1
  6
CONTINUOUS
 62
     7
100
AcDbCircle
 10
1269.5590876109
 20
554.3053737627001
 30
0.0
 40
3.999999999999559
100
AcDbArc
 50
89.9999999982
 51
104.4775121859
  0
LINE
  5
3A6
330
1F
100
AcDbEntity
  8
1
  6
CONTINUOUS
 62
     7
100
AcDbLine
 10
397.2260521841999
 20
449.6049927045007
 30
0.0
 11
397.2260521841999
 21
446.3553737633008
 31
0.0
  0
ARC
  5
3A7
330
1F
100
AcDbEntity
  8
1
  6
CONTINUOUS
 62
     7
100
AcDbCircle
 10
397.2260521841999
 20
450.6049927045001
 30
0.0
 40
1.99999999999978
100
AcDbArc
 50
90.0
 51
180.0
  0
LINE
  5
3A8
330
1F
100
AcDbEntity
  8
1
  6
CONTINUOUS
 62
     7
100
AcDbLine
 10
1275.5590876109
 20
624.9611729155014
 30
0.0
 11
1405.5590876109
 21
621.557003107501
 31
0.0
  0
LINE
  5
3A9
330
1F
100
AcDbEntity
  8
1
  6
CONTINUOUS
 62
     7
100
AcDbLine
 10
474.2428830010006
 20
567.4273314917002
 30
0.0
 11
474.9855855538998
 21
567.4273314917002
 31
0.0
  0
LINE
  5
3AA
330
1F
100
AcDbEntity
  8
1
  6
CONTINUOUS
 62
     6
100
AcDbLine
 10
304.9908434642008
 20
359.3553737632007
 30
0.0
 11
304.9908434642008
 21
443.3553737632003
 31
0.0
  0
LINE
  5
3AB
330
1F
100
AcDbEntity
  8
1
  6
CONTINUOUS
 62
     6
100
AcDbLine
 10
339.7098353662997
 20
463.7610130755006
 30
0.0
 11
339.7098353662997
 21
480.4484628254011
 31
0.0
  0
LINE
  5
3AC
330
1F
100
AcDbEntity
  8
1
  6
CONTINUOUS
 62
     6
100
AcDbLine
 10
307.9908434642009
 20
356.3553737632006
 30
0.0
 11
348.9908434642004
 21
356.3553737632006
 31
0.0
  0
LINE
  5
3AD
330
1F
100
AcDbEntity
  8
1
  6
CONTINUOUS
 62
     7
100
AcDbLine
 10
397.2260521841999
 20
452.6049927044999
 30
0.0
 11
418.7556347441
 21
452.6049927044999
 31
0.0
  0
LINE
  5
3AE
330
1F
100
AcDbEntity
  8
1
  6
CONTINUOUS
 62
     7
100
AcDbLine
 10
1299.0590876109
 20
297.8696441163011
 30
0.0
 11
1299.0590876109
 21
304.8649437677007
 31
0.0
  0
LINE
  5
3AF
330
1F
100
AcDbEntity
  8
1
  6
CONTINUOUS
 62
     7
100
AcDbLine
 10
1268.5590876109
 20
304.0662731599015
 30
0.0
 11
1405.5590876109
 21
307.6537444149006
 31
0.0
  0
LINE
  5
3B0
330
1F
100
AcDbEntity
  8
1
  6
CENTER
 62
     7
100
AcDbLine
 10
1208.5590876109
 20
464.6053737632005
 30
0.0
 11
1415.5590876109
 21
464.6053737632005
 31
0.0
  0
LINE
  5
3B1
330
1F
100
AcDbEntity
  8
1
  6
CONTINUOUS
 62
     6
100
AcDbLine
 10
337.2098353663002
 20
463.6610130755008
 30
0.0
 11
337.2098353663002
 21
480.4484628254011
 31
0.0
  0
ARC
  5
3B2
330
1F
100
AcDbEntity
  8
1
  6
CONTINUOUS
 62
     7
100
AcDbCircle
 10
322.2408434642006
 20
557.9620667473008
 30
0.0
 40
6.000000000000227
100
AcDbArc
 50
90.0000000104
 51
180.0
  0
LINE
  5
3B3
330
1F
100
AcDbEntity
  8
1
  6
CONTINUOUS
 62
     6
100
AcDbLine
 10
351.9908434642005
 20
359.3553737632007
 30
0.0
 11
351.9908434642005
 21
443.3553737632003
 31
0.0
  0
LINE
  5
3B4
330
1F
100
AcDbEntity
  8
1
  6
CONTINUOUS
 62
     7
100
AcDbLine
 10
1269.559087611
 20
558.3053737632007
 30
0.0
 11
1304.6490876109
 21
558.3053737632007
 31
0.0
  0
LINE
  5
3B5
330
1F
100
AcDbEntity
  8
1
  6
CONTINUOUS
 62
     7
100
AcDbLine
 10
1269.5590876109
 20
582.905373763201
 30
0.0
 11
1304.6490876109
 21
582.905373763201
 31
0.0
  0
ARC
  5
3B6
330
1F
100
AcDbEntity
  8
1
  6
CONTINUOUS
 62
     6
100
AcDbCircle
 10
348.9908434642004
 20
443.3553737632003
 30
0.0
 40
3.000000000000114
100
AcDbArc
 50
0.0
 51
90.0
  0
ARC
  5
3B7
330
1F
100
AcDbEntity
  8
1
  6
CONTINUOUS
 62
     7
100
AcDbCircle
 10
1269.5590876109
 20
586.9053737632006
 30
0.0
 40
3.999999999999559
100
AcDbArc
 50
255.5224878141
 51
270.0
  0
LINE
  5
3B8
330
1F
100
AcDbEntity
  8
1
  6
CONTINUOUS
 62
     7
100
AcDbLine
 10
704.8383618629001
 20
103.5002551446
 30
0.0
 11
708.4258331177997
 21
-33.49974485539953
 31
0.0
  0
ARC
  5
3B9
330
1F
100
AcDbEntity
  8
1
  6
CONTINUOUS
 62
     7
100
AcDbCircle
 10
345.2260521842003
 20
449.6049927045007
 30
0.0
 40
1.000000000000334
100
AcDbArc
 50
90.0
 51
180.0
  0
LINE
  5
3BA
330
1F
100
AcDbEntity
  8
1
  6
CONTINUOUS
 62
     7
100
AcDbLine
 10
677.8774624661006
 20
98.30025514460061
 30
0.0
 11
687.0490353414
 21
98.30025514460061
 31
0.0
  0
ARC
  5
3BB
330
1F
100
AcDbEntity
  8
1
  6
CONTINUOUS
 62
     7
100
AcDbCircle
 10
365.7556347441
 20
450.6049927045001
 30
0.0
 40
1.99999999999978
100
AcDbArc
 50
0.0
 51
90.0
  0
LINE
  5
3BC
330
1F
100
AcDbEntity
  8
1
  6
CONTINUOUS
 62
     7
100
AcDbLine
 10
899.8774624661002
 20
-28.49974485539963
 30
0.0
 11
889.8774624661003
 21
-28.49974485539963
 31
0.0
  0
ARC
  5
3BD
330
1F
100
AcDbEntity
  8
1
  6
CONTINUOUS
 62
     7
100
AcDbCircle
 10
417.7556347440996
 20
449.6049927045007
 30
0.0
 40
1.000000000000334
100
AcDbArc
 50
0.0
 51
90.0
  0
LINE
  5
3BE
330
1F
100
AcDbEntity
  8
1
  6
CONTINUOUS
 62
     7
100
AcDbLine
 10
367.7556347440998
 20
450.6049927045001
 30
0.0
 11
367.7556347440998
 21
446.3553737633008
 31
0.0
  0
ARC
  5
3BF
330
1F
100
AcDbEntity
  8
1
  6
CONTINUOUS
 62
     7
100
AcDbCircle
 10
322.3408434642003
 20
557.8620676549004
 30
0.0
 40
3.599999999999604
100
AcDbArc
 50
90.0
 51
180.0
  0
LINE
  5
3C0
330
1F
100
AcDbEntity
  8
1
  6
CONTINUOUS
 62
     7
100
AcDbLine
 10
676.8774624661003
 20
99.30025514460006
 30
0.0
 11
676.8774624661003
 21
103.3002551446005
 31
0.0
  0
ARC
  5
3C1
330
1F
100
AcDbEntity
  8
1
  6
CONTINUOUS
 62
     7
100
AcDbCircle
 10
303.2408434642005
 20
563.9272987518007
 30
0.0
 40
6.000000000000227
100
AcDbArc
 50
90.0
 51
180.0
  0
LINE
  5
3C2
330
1F
100
AcDbEntity
  8
1
  6
CONTINUOUS
 62
     6
100
AcDbLine
 10
348.9908434642004
 20
446.3553737632004
 30
0.0
 11
307.9908434642009
 21
446.3553737632004
 31
0.0
  0
ARC
  5
3C3
330
1F
100
AcDbEntity
  8
1
  6
CONTINUOUS
 62
     7
100
AcDbCircle
 10
398.2260521842002
 20
449.6049927045007
 30
0.0
 40
1.000000000000334
100
AcDbArc
 50
90.0
 51
180.0
  0
ARC
  5
3C4
330
1F
100
AcDbEntity
  8
1
  6
CONTINUOUS
 62
     7
100
AcDbCircle
 10
1275.0590876109
 20
577.4053737632006
 30
0.0
 40
1.500000000000057
100
AcDbArc
 50
0.0
 51
90.0
  0
LINE
  5
3C5
330
1F
100
AcDbEntity
  8
1
  6
CENTER
 62
     7
100
AcDbLine
 10
894.8774624662005
 20
187.5002551446005
 30
0.0
 11
894.8774624661002
 21
-43.4997448554002
 31
0.0
  0
CIRCLE
  5
3C6
330
1F
100
AcDbEntity
  8
1
  6
CONTINUOUS
 62
     7
100
AcDbCircle
 10
1102.8774624661
 20
92.50025514459992
 30
0.0
 40
4.349999999999632
  0
LINE
  5
3C7
330
1F
100
AcDbEntity
  8
1
  6
CONTINUOUS
 62
     7
100
AcDbLine
 10
1084.9165630694
 20
103.5002551446
 30
0.0
 11
1081.3290918145
 21
-33.49974485539953
 31
0.0
  0
ARC
  5
3C8
330
1F
100
AcDbEntity
  8
1
  6
CONTINUOUS
 62
     7
100
AcDbCircle
 10
1102.8774624661
 20
92.50025514459992
 30
0.0
 40
8.49999999999973
100
AcDbArc
 50
305.0
 51
90.0
  0
ARC
  5
3C9
330
1F
100
AcDbEntity
  8
1
  6
CONTINUOUS
 62
     7
100
AcDbCircle
 10
1272.7090876109
 20
562.8053737632008
 30
0.0
 40
0.4999999999997229
100
AcDbArc
 50
270.0
 51
0.0
  0
LINE
  5
3CA
330
1F
100
AcDbEntity
  8
1
  6
CONTINUOUS
 62
     7
100
AcDbLine
 10
1107.387462466201
 20
578.9053737632006
 30
0.0
 11
1094.877462466201
 21
578.9053737632006
 31
0.0
  0
LINE
  5
3CB
330
1F
100
AcDbEntity
  8
1
  6
CONTINUOUS
 62
     7
100
AcDbLine
 10
914.8774624661007
 20
-33.49974485539953
 30
0.0
 11
1081.329091814401
 21
-33.49974485539953
 31
0.0
  0
ARC
  5
3CC
330
1F
100
AcDbEntity
  8
1
  6
CONTINUOUS
 62
     7
100
AcDbCircle
 10
1086.9702567337
 20
67.32300200820073
 30
0.0
 40
3.000000000000114
100
AcDbArc
 50
125.0
 51
178.5
  0
LINE
  5
3CD
330
1F
100
AcDbEntity
  8
1
  6
CONTINUOUS
 62
     7
100
AcDbLine
 10
1107.387462466201
 20
366.9053737632009
 30
0.0
 11
1094.877462466201
 21
366.9053737632009
 31
0.0
  0
LINE
  5
3CE
330
1F
100
AcDbEntity
  8
1
  6
CONTINUOUS
 62
     7
100
AcDbLine
 10
1094.4978807211
 20
114.3700541380008
 30
0.0
 11
1094.8774624661
 21
103.5002551446
 31
0.0
  0
CIRCLE
  5
3CF
330
1F
100
AcDbEntity
  8
1
  6
CONTINUOUS
 62
     7
100
AcDbCircle
 10
1024.8774624661
 20
8.500255144600288
 30
0.0
 40
17.24999999999977
  0
LINE
  5
3D0
330
1F
100
AcDbEntity
  8
1
  6
CONTINUOUS
 62
     7
100
AcDbLine
 10
1108.387462466201
 20
351.3053737632008
 30
0.0
 11
1108.387462466201
 21
365.9053737632005
 31
0.0
  0
LINE
  5
3D1
330
1F
100
AcDbEntity
  8
1
  6
CONTINUOUS
 62
     7
100
AcDbLine
 10
1084.6994134453
 20
152.0002551445998
 30
0.0
 11
705.0555114866004
 21
152.0002551445998
 31
0.0
  0
ARC
  5
3D2
330
1F
100
AcDbEntity
  8
1
  6
CONTINUOUS
 62
     7
100
AcDbCircle
 10
1084.6994134457
 20
150.0002551446
 30
0.0
 40
1.99999999999978
100
AcDbArc
 50
2.0
 51
90.000000011
  0
ARC
  5
3D3
330
1F
100
AcDbEntity
  8
1
  6
CONTINUOUS
 62
     7
100
AcDbCircle
 10
677.8774624661006
 20
99.30025514460006
 30
0.0
 40
1.000000000000334
100
AcDbArc
 50
180.0
 51
270.0
  0
LINE
  5
3D4
330
1F
100
AcDbEntity
  8
1
  6
CONTINUOUS
 62
     7
100
AcDbLine
 10
1093.113192110199
 20
101.0002551446005
 30
0.0
 11
1102.8774624661
 21
101.0002551446005
 31
0.0
  0
CIRCLE
  5
3D5
330
1F
100
AcDbEntity
  8
1
  6
CONTINUOUS
 62
     7
100
AcDbCircle
 10
919.8774624662001
 20
8.500255144600288
 30
0.0
 40
13.49999999999962
  0
LINE
  5
3D6
330
1F
100
AcDbEntity
  8
1
  6
CONTINUOUS
 62
     7
100
AcDbLine
 10
708.4258331177997
 20
-33.49974485539953
 30
0.0
 11
874.8774624661006
 21
-33.49974485539953
 31
0.0
  0
ARC
  5
3D7
330
1F
100
AcDbEntity
  8
1
  6
CONTINUOUS
 62
     7
100
AcDbCircle
 10
1275.0590876109
 20
563.8053737632002
 30
0.0
 40
1.500000000000057
100
AcDbArc
 50
270.0
 51
0.0
  0
ARC
  5
3D8
330
1F
100
AcDbEntity
  8
1
  6
CONTINUOUS
 62
     7
100
AcDbCircle
 10
1093.113192110199
 20
103.0002551446003
 30
0.0
 40
1.99999999999978
100
AcDbArc
 50
179.9999999988
 51
270.0
  0
CIRCLE
  5
3D9
330
1F
100
AcDbEntity
  8
1
  6
CONTINUOUS
 62
     7
100
AcDbCircle
 10
869.8774624661007
 20
8.500255144600288
 30
0.0
 40
13.49999999999962
  0
CIRCLE
  5
3DA
330
1F
100
AcDbEntity
  8
1
  6
CONTINUOUS
 62
     7
100
AcDbCircle
 10
819.8774624661
 20
8.500255144600288
 30
0.0
 40
13.49999999999962
  0
ARC
  5
3DB
330
1F
100
AcDbEntity
  8
1
  6
CONTINUOUS
 62
     7
100
AcDbCircle
 10
1272.7090876109
 20
578.4053737632008
 30
0.0
 40
0.4999999999997229
100
AcDbArc
 50
0.0
 51
90.0
  0
LINE
  5
3DC
330
1F
100
AcDbEntity
  8
1
  6
CONTINUOUS
 62
     7
100
AcDbLine
 10
1276.5590876109
 20
563.8053737632002
 30
0.0
 11
1276.5590876109
 21
577.4053737632006
 31
0.0
  0
LINE
  5
3DD
330
1F
100
AcDbEntity
  8
1
  6
CONTINUOUS
 62
     7
100
AcDbLine
 10
1108.387462466201
 20
563.3053737632006
 30
0.0
 11
1108.387462466201
 21
577.9053737632012
 31
0.0
  0
LINE
  5
3DE
330
1F
100
AcDbEntity
  8
1
  6
CONTINUOUS
 62
     7
100
AcDbLine
 10
1085.2495274246
 20
69.78045814100042
 30
0.0
 11
1107.7528621751
 21
85.53746276820107
 31
0.0
  0
ARC
  5
3DF
330
1F
100
AcDbEntity
  8
1
  6
CONTINUOUS
 62
     7
100
AcDbCircle
 10
1092.499099067001
 20
114.3002551446006
 30
0.0
 40
1.99999999999978
100
AcDbArc
 50
2.0
 51
90.0
  0
ARC
  5
3E0
330
1F
100
AcDbEntity
  8
1
  6
CONTINUOUS
 62
     7
100
AcDbCircle
 10
1107.387462466201
 20
563.3053737632006
 30
0.0
 40
1.000000000000334
100
AcDbArc
 50
270.0
 51
0.0
  0
ARC
  5
3E1
330
1F
100
AcDbEntity
  8
1
  6
CONTINUOUS
 62
     7
100
AcDbCircle
 10
1107.387462466201
 20
577.9053737632012
 30
0.0
 40
1.000000000000334
100
AcDbArc
 50
0.0
 51
90.0
  0
LINE
  5
3E2
330
1F
100
AcDbEntity
  8
1
  6
CONTINUOUS
 62
     7
100
AcDbLine
 10
1280.5590876109
 20
562.3053737632002
 30
0.0
 11
1304.6490876109
 21
562.3053737632002
 31
0.0
  0
LINE
  5
3E3
330
1F
100
AcDbEntity
  8
1
  6
CONTINUOUS
 62
     7
100
AcDbLine
 10
1107.387462466201
 20
562.3053737632002
 30
0.0
 11
1094.877462466201
 21
562.3053737632002
 31
0.0
  0
LINE
  5
3E4
330
1F
100
AcDbEntity
  8
1
  6
CONTINUOUS
 62
     7
100
AcDbLine
 10
1107.387462466201
 20
350.3053737632005
 30
0.0
 11
1094.877462466201
 21
350.3053737632005
 31
0.0
  0
ARC
  5
3E5
330
1F
100
AcDbEntity
  8
1
  6
CONTINUOUS
 62
     7
100
AcDbCircle
 10
1107.387462466201
 20
351.3053737632008
 30
0.0
 40
1.000000000000334
100
AcDbArc
 50
270.0
 51
0.0
  0
ARC
  5
3E6
330
1F
100
AcDbEntity
  8
1
  6
CONTINUOUS
 62
     7
100
AcDbCircle
 10
1280.5590876109
 20
563.3053737632006
 30
0.0
 40
1.000000000000334
100
AcDbArc
 50
180.0
 51
270.0
  0
ARC
  5
3E7
330
1F
100
AcDbEntity
  8
1
  6
CONTINUOUS
 62
     7
100
AcDbCircle
 10
1280.5590876109
 20
577.9053737632012
 30
0.0
 40
1.000000000000334
100
AcDbArc
 50
90.0
 51
180.0
  0
ARC
  5
3E8
330
1F
100
AcDbEntity
  8
1
  6
CONTINUOUS
 62
     7
100
AcDbCircle
 10
1107.387462466201
 20
365.9053737632005
 30
0.0
 40
1.000000000000334
100
AcDbArc
 50
0.0
 51
90.0
  0
LINE
  5
3E9
330
1F
100
AcDbEntity
  8
1
  6
CONTINUOUS
 62
     7
100
AcDbLine
 10
695.2570442112007
 20
114.3700541380008
 30
0.0
 11
694.8774624661
 21
103.5002551446
 31
0.0
  0
ARC
  5
3EA
330
1F
100
AcDbEntity
  8
1
  6
CONTINUOUS
 62
     7
100
AcDbCircle
 10
697.2558258652998
 20
114.3002551446006
 30
0.0
 40
1.99999999999978
100
AcDbArc
 50
90.0
 51
178.0
  0
ARC
  5
3EB
330
1F
100
AcDbEntity
  8
1
  6
CONTINUOUS
 62
     7
100
AcDbCircle
 10
705.0555114866004
 20
150.0002551446
 30
0.0
 40
1.99999999999978
100
AcDbArc
 50
89.999999989
 51
178.0
  0
LINE
  5
3EC
330
1F
100
AcDbEntity
  8
1
  6
CONTINUOUS
 62
     7
100
AcDbLine
 10
1073.630790995301
 20
153.5002551445999
 30
0.0
 11
716.1241339369999
 21
153.5002551445999
 31
0.0
  0
LINE
  5
3ED
330
1F
100
AcDbEntity
  8
1
  6
CONTINUOUS
 62
     7
100
AcDbLine
 10
1094.377462466101
 20
101.5002551446003
 30
0.0
 11
1094.377462466101
 21
101.0002551446005
 31
0.0
  0
ARC
  5
3EE
330
1F
100
AcDbEntity
  8
1
  6
CONTINUOUS
 62
     7
100
AcDbCircle
 10
1092.3774624661
 20
101.5002551446003
 30
0.0
 40
1.99999999999978
100
AcDbArc
 50
0.0
 51
90.0
  0
LINE
  5
3EF
330
1F
100
AcDbEntity
  8
1
  6
CONTINUOUS
 62
     7
100
AcDbLine
 10
1280.5590876109
 20
578.9053737632006
 30
0.0
 11
1304.6490876109
 21
578.9053737632006
 31
0.0
  0
LINE
  5
3F0
330
1F
100
AcDbEntity
  8
1
  6
CONTINUOUS
 62
     7
100
AcDbLine
 10
676.3774624661005
 20
107.5002551446005
 30
0.0
 11
676.3774624661005
 21
103.5002551446
 31
0.0
  0
ARC
  5
3F1
330
1F
100
AcDbEntity
  8
1
  6
CONTINUOUS
 62
     7
100
AcDbCircle
 10
677.3774624660999
 20
107.5002551446005
 30
0.0
 40
1.000000000000334
100
AcDbArc
 50
90.0
 51
180.0
  0
LINE
  5
3F2
330
1F
100
AcDbEntity
  8
1
  6
CONTINUOUS
 62
     7
100
AcDbLine
 10
697.2558258652998
 20
116.3002551446004
 30
0.0
 11
1092.499099067001
 21
116.3002551446004
 31
0.0
  0
LINE
  5
3F3
330
1F
100
AcDbEntity
  8
1
  6
CONTINUOUS
 62
     7
100
AcDbLine
 10
701.8844423655004
 20
116.5001333100006
 30
0.0
 11
703.0567298325998
 21
150.0700541380011
 31
0.0
  0
LINE
  5
3F4
330
1F
100
AcDbEntity
  8
1
  6
CONTINUOUS
 62
     7
100
AcDbLine
 10
1273.209087610899
 20
562.8053737632008
 30
0.0
 11
1273.209087610899
 21
578.4053737632008
 31
0.0
  0
LINE
  5
3F5
330
1F
100
AcDbEntity
  8
1
  6
CONTINUOUS
 62
     7
100
AcDbLine
 10
677.3774624660999
 20
108.5002551445999
 30
0.0
 11
694.0863775387998
 21
108.5002551445999
 31
0.0
  0
CIRCLE
  5
3F6
330
1F
100
AcDbEntity
  8
1
  6
CONTINUOUS
 62
     7
100
AcDbCircle
 10
764.8774624661003
 20
8.500255144600288
 30
0.0
 40
17.24999999999977
  0
LINE
  5
3F7
330
1F
100
AcDbEntity
  8
1
  6
CONTINUOUS
 62
     7
100
AcDbLine
 10
676.3774624661005
 20
103.5002551446
 30
0.0
 11
1094.8774624661
 21
103.5002551446
 31
0.0
  0
LINE
  5
3F8
330
1F
100
AcDbEntity
  8
1
  6
CONTINUOUS
 62
     7
100
AcDbLine
 10
701.8844423655004
 20
116.5001333100006
 30
0.0
 11
701.6774624661002
 21
116.3002551446004
 31
0.0
  0
LINE
  5
3F9
330
1F
100
AcDbEntity
  8
1
  6
CONTINUOUS
 62
     7
100
AcDbLine
 10
1087.8704825668
 20
116.5001333100006
 30
0.0
 11
1086.6981950997
 21
150.0700541380011
 31
0.0
  0
LINE
  5
3FA
330
1F
100
AcDbEntity
  8
1
  6
CONTINUOUS
 62
     7
100
AcDbLine
 10
714.6241339369999
 20
152.0002551445998
 30
0.0
 11
716.1241339369999
 21
153.5002551445999
 31
0.0
  0
LINE
  5
3FB
330
1F
100
AcDbEntity
  8
1
  6
CONTINUOUS
 62
     7
100
AcDbLine
 10
1271.0590876109
 20
558.3053737644015
 30
0.0
 11
1271.0590876109
 21
562.3053737632002
 31
0.0
  0
LINE
  5
3FC
330
1F
100
AcDbEntity
  8
1
  6
CONTINUOUS
 62
     7
100
AcDbLine
 10
1075.130790995301
 20
152.0002551445998
 30
0.0
 11
1073.630790995301
 21
153.5002551445999
 31
0.0
  0
CIRCLE
  5
3FD
330
1F
100
AcDbEntity
  8
1
  6
CONTINUOUS
 62
     7
100
AcDbCircle
 10
969.8774624661004
 20
8.500255144600288
 30
0.0
 40
13.49999999999962
  0
LINE
  5
3FE
330
1F
100
AcDbEntity
  8
1
  6
CONTINUOUS
 62
     7
100
AcDbLine
 10
1086.7355533038
 20
149.0002551446006
 30
0.0
 11
1110.6267212628
 21
95.99296012820079
 31
0.0
  0
LINE
  5
3FF
330
1F
100
AcDbEntity
  8
1
  6
CONTINUOUS
 62
     7
100
AcDbLine
 10
1088.0774624661
 20
116.3002551446004
 30
0.0
 11
1087.8704825668
 21
116.5001333100006
 31
0.0
  0
LINE
  5
400
330
1F
100
AcDbEntity
  8
1
  6
CONTINUOUS
 62
     7
100
AcDbLine
 10
1279.559087610901
 20
563.3053737632006
 30
0.0
 11
1279.559087610901
 21
577.9053737632012
 31
0.0
  0
LINE
  5
401
330
1F
100
AcDbEntity
  8
1
  6
CONTINUOUS
 62
     7
100
AcDbLine
 10
1275.0590876109
 20
562.3053737632002
 30
0.0
 11
1271.0590876109
 21
562.3053737632002
 31
0.0
  0
LINE
  5
402
330
1F
100
AcDbEntity
  8
1
  6
CONTINUOUS
 62
     7
100
AcDbLine
 10
1271.0590876109
 20
578.9053737632006
 30
0.0
 11
1271.0590876109
 21
582.905373763201
 31
0.0
  0
LINE
  5
403
330
1F
100
AcDbEntity
  8
1
  6
CONTINUOUS
 62
     7
100
AcDbLine
 10
1275.0590876109
 20
578.9053737632006
 30
0.0
 11
1271.0590876109
 21
578.9053737632006
 31
0.0
  0
ARC
  5
404
330
1F
100
AcDbEntity
  8
1
  6
CONTINUOUS
 62
     7
100
AcDbCircle
 10
1096.877462466201
 20
560.1053737632009
 30
0.0
 40
1.99999999999978
100
AcDbArc
 50
180.0
 51
270.0
  0
LINE
  5
405
330
1F
100
AcDbEntity
  8
1
  6
CONTINUOUS
 62
     7
100
AcDbLine
 10
676.3774624662
 20
440.2985295576007
 30
0.0
 11
676.3774624662
 21
488.9122179687009
 31
0.0
  0
ARC
  5
406
330
1F
100
AcDbEntity
  8
1
  6
CONTINUOUS
 62
     7
100
AcDbCircle
 10
1096.877462466201
 20
547.105373763201
 30
0.0
 40
1.99999999999978
100
AcDbArc
 50
90.0
 51
180.0
  0
LINE
  5
407
330
1F
100
AcDbEntity
  8
1
  6
CONTINUOUS
 62
     7
100
AcDbLine
 10
703.0567298325998
 20
309.2846411295999
 30
0.0
 11
703.0567298325998
 21
619.9261063968003
 31
0.0
  0
LINE
  5
408
330
1F
100
AcDbEntity
  8
1
  6
CONTINUOUS
 62
     7
100
AcDbLine
 10
1111.377462466201
 20
380.1053737632003
 30
0.0
 11
1111.377462466201
 21
371.1053737632008
 31
0.0
  0
LINE
  5
409
330
1F
100
AcDbEntity
  8
1
  6
CONTINUOUS
 62
     7
100
AcDbLine
 10
1111.377462466201
 20
371.1053737632008
 30
0.0
 11
1086.7355533038
 21
371.1053737632008
 31
0.0
  0
ARC
  5
40A
330
1F
100
AcDbEntity
  8
1
  6
CONTINUOUS
 62
     7
100
AcDbCircle
 10
679.3774624662001
 20
440.2985295576007
 30
0.0
 40
3.000000000000114
100
AcDbArc
 50
180.0
 51
263.829824905
  0
LINE
  5
40B
330
1F
100
AcDbEntity
  8
1
  6
CONTINUOUS
 62
     7
100
AcDbLine
 10
1086.7355533038
 20
380.1053737632003
 30
0.0
 11
1111.377462466201
 21
380.1053737632003
 31
0.0
  0
LINE
  5
40C
330
1F
100
AcDbEntity
  8
1
  6
CONTINUOUS
 62
     7
100
AcDbLine
 10
1086.7355533038
 20
377.105373763201
 30
0.0
 11
1111.377462466201
 21
377.105373763201
 31
0.0
  0
LINE
  5
40D
330
1F
100
AcDbEntity
  8
1
  6
CONTINUOUS
 62
     7
100
AcDbLine
 10
1081.630790995301
 20
617.8587022923008
 30
0.0
 11
1081.630790995301
 21
311.3520452340009
 31
0.0
  0
ARC
  5
40E
330
1F
100
AcDbEntity
  8
1
  6
CONTINUOUS
 62
     7
100
AcDbCircle
 10
1096.877462466201
 20
581.1053737632008
 30
0.0
 40
1.99999999999978
100
AcDbArc
 50
90.0
 51
180.0
  0
ARC
  5
40F
330
1F
100
AcDbEntity
  8
1
  6
CONTINUOUS
 62
     7
100
AcDbCircle
 10
710.0567298325994
 20
619.9261063968003
 30
0.0
 40
6.999999999999673
100
AcDbArc
 50
90.0
 51
180.0
  0
LINE
  5
410
330
1F
100
AcDbEntity
  8
1
  6
CONTINUOUS
 62
     7
100
AcDbLine
 10
1111.377462466201
 20
374.1053737632009
 30
0.0
 11
1086.7355533038
 21
374.1053737632009
 31
0.0
  0
LINE
  5
411
330
1F
100
AcDbEntity
  8
1
  6
CONTINUOUS
 62
     7
100
AcDbLine
 10
1096.3774624662
 20
377.105373763201
 30
0.0
 11
1096.3774624662
 21
374.1053737632009
 31
0.0
  0
LINE
  5
412
330
1F
100
AcDbEntity
  8
1
  6
CONTINUOUS
 62
     7
100
AcDbLine
 10
1077.6307909953
 20
346.352045234001
 30
0.0
 11
1077.6307909953
 21
612.8587022923009
 31
0.0
  0
ARC
  5
413
330
1F
100
AcDbEntity
  8
1
  6
CONTINUOUS
 62
     7
100
AcDbCircle
 10
1096.877462466201
 20
382.105373763201
 30
0.0
 40
1.99999999999978
100
AcDbArc
 50
180.0
 51
270.0
  0
ARC
  5
414
330
1F
100
AcDbEntity
  8
1
  6
CONTINUOUS
 62
     7
100
AcDbCircle
 10
1096.877462466201
 20
369.105373763201
 30
0.0
 40
1.99999999999978
100
AcDbArc
 50
90.0
 51
180.0
  0
LINE
  5
415
330
1F
100
AcDbEntity
  8
1
  6
CONTINUOUS
 62
     7
100
AcDbLine
 10
1111.377462466201
 20
346.1053737632005
 30
0.0
 11
1111.377462466201
 21
337.105373763201
 31
0.0
  0
ARC
  5
416
330
1F
100
AcDbEntity
  8
1
  6
CONTINUOUS
 62
     7
100
AcDbCircle
 10
704.8774624662002
 20
625.1053737632004
 30
0.0
 40
9.999999999999787
100
AcDbArc
 50
90.0
 51
180.0
  0
LINE
  5
417
330
1F
100
AcDbEntity
  8
1
  6
CONTINUOUS
 62
     7
100
AcDbLine
 10
693.0924261521003
 20
435.7983506620009
 30
0.0
 11
679.0550169372001
 21
437.3159084149005
 31
0.0
  0
ARC
  5
418
330
1F
100
AcDbEntity
  8
1
  6
CONTINUOUS
 62
     7
100
AcDbCircle
 10
1077.6307909953
 20
311.3520452340009
 30
0.0
 40
3.999999999999559
100
AcDbArc
 50
270.0
 51
0.0
  0
ARC
  5
419
330
1F
100
AcDbEntity
  8
1
  6
CONTINUOUS
 62
     7
100
AcDbCircle
 10
1072.6307909953
 20
612.8587022923009
 30
0.0
 40
4.999999999999893
100
AcDbArc
 50
0.0
 51
90.0
  0
ARC
  5
41A
330
1F
100
AcDbEntity
  8
1
  6
CONTINUOUS
 62
     7
100
AcDbCircle
 10
712.1241339370004
 20
617.8587022923008
 30
0.0
 40
3.999999999999559
100
AcDbArc
 50
90.0
 51
180.0
  0
LINE
  5
41B
330
1F
100
AcDbEntity
  8
1
  6
CONTINUOUS
 62
     7
100
AcDbLine
 10
1111.377462466201
 20
549.1053737632008
 30
0.0
 11
1086.7355533038
 21
549.1053737632008
 31
0.0
  0
LINE
  5
41C
330
1F
100
AcDbEntity
  8
1
  6
CONTINUOUS
 62
     7
100
AcDbLine
 10
1079.698195099699
 20
626.9261063968008
 30
0.0
 11
710.0567298325994
 21
626.9261063968008
 31
0.0
  0
LINE
  5
41D
330
1F
100
AcDbEntity
  8
1
  6
CONTINUOUS
 62
     7
100
AcDbLine
 10
1096.3774624662
 20
555.105373763201
 30
0.0
 11
1096.3774624662
 21
552.1053737632009
 31
0.0
  0
ARC
  5
41E
330
1F
100
AcDbEntity
  8
1
  6
CONTINUOUS
 62
     7
100
AcDbCircle
 10
1072.6307909953
 20
346.352045234001
 30
0.0
 40
4.999999999999893
100
AcDbArc
 50
270.0
 51
0.0
  0
LINE
  5
41F
330
1F
100
AcDbEntity
  8
1
  6
CONTINUOUS
 62
     7
100
AcDbLine
 10
1111.377462466201
 20
337.105373763201
 30
0.0
 11
1086.7355533038
 21
337.105373763201
 31
0.0
  0
LINE
  5
420
330
1F
100
AcDbEntity
  8
1
  6
CONTINUOUS
 62
     7
100
AcDbLine
 10
1086.7355533038
 20
346.1053737632005
 30
0.0
 11
1111.377462466201
 21
346.1053737632005
 31
0.0
  0
ARC
  5
421
330
1F
100
AcDbEntity
  8
1
  6
CONTINUOUS
 62
     7
100
AcDbCircle
 10
1084.8774624662
 20
625.1053737632004
 30
0.0
 40
9.999999999999787
100
AcDbArc
 50
0.0
 51
90.0
  0
ARC
  5
422
330
1F
100
AcDbEntity
  8
1
  6
CONTINUOUS
 62
     7
100
AcDbCircle
 10
1079.698195099699
 20
309.2846411295999
 30
0.0
 40
6.999999999999673
100
AcDbArc
 50
270.0
 51
0.0
  0
LINE
  5
423
330
1F
100
AcDbEntity
  8
1
  6
CONTINUOUS
 62
     7
100
AcDbLine
 10
712.1241339370004
 20
612.8587022923009
 30
0.0
 11
712.1241339370004
 21
346.352045234001
 31
0.0
  0
LINE
  5
424
330
1F
100
AcDbEntity
  8
1
  6
CONTINUOUS
 62
     7
100
AcDbLine
 10
1086.6981950997
 20
309.2846411295999
 30
0.0
 11
1086.6981950997
 21
619.9261063968003
 31
0.0
  0
CIRCLE
  5
425
330
1F
100
AcDbEntity
  8
1
  6
CONTINUOUS
 62
     7
100
AcDbCircle
 10
685.8774624662001
 20
446.6053737632008
 30
0.0
 40
3.999999999999559
  0
ARC
  5
426
330
1F
100
AcDbEntity
  8
1
  6
CONTINUOUS
 62
     7
100
AcDbCircle
 10
717.1241339370002
 20
612.8587022923009
 30
0.0
 40
4.999999999999893
100
AcDbArc
 50
90.0
 51
180.0
  0
ARC
  5
427
330
1F
100
AcDbEntity
  8
1
  6
CONTINUOUS
 62
     7
100
AcDbCircle
 10
1079.698195099699
 20
619.9261063968003
 30
0.0
 40
6.999999999999673
100
AcDbArc
 50
0.0
 51
90.0
  0
LINE
  5
428
330
1F
100
AcDbEntity
  8
1
  6
CONTINUOUS
 62
     7
100
AcDbLine
 10
693.0924261521003
 20
493.4123968643007
 30
0.0
 11
679.0550169372001
 21
491.8948391114002
 31
0.0
  0
LINE
  5
429
330
1F
100
AcDbEntity
  8
1
  6
CONTINUOUS
 62
     7
100
AcDbLine
 10
1111.377462466201
 20
558.1053737632011
 30
0.0
 11
1111.377462466201
 21
549.1053737632008
 31
0.0
  0
LINE
  5
42A
330
1F
100
AcDbEntity
  8
1
  6
CONTINUOUS
 62
     7
100
AcDbLine
 10
1086.7355533038
 20
592.1053737632009
 30
0.0
 11
1111.377462466201
 21
592.1053737632009
 31
0.0
  0
LINE
  5
42B
330
1F
100
AcDbEntity
  8
1
  6
CONTINUOUS
 62
     7
100
AcDbLine
 10
710.0567298325994
 20
302.2846411296003
 30
0.0
 11
1079.698195099699
 21
302.2846411296003
 31
0.0
  0
LINE
  5
42C
330
1F
100
AcDbEntity
  8
1
  6
CONTINUOUS
 62
     7
100
AcDbLine
 10
1086.7355533038
 20
589.1053737632008
 30
0.0
 11
1111.377462466201
 21
589.1053737632008
 31
0.0
  0
ARC
  5
42D
330
1F
100
AcDbEntity
  8
1
  6
CONTINUOUS
 62
     7
100
AcDbCircle
 10
679.3774624662001
 20
488.9122179687009
 30
0.0
 40
3.000000000000114
100
AcDbArc
 50
96.17017509499999
 51
180.0
  0
LINE
  5
42E
330
1F
100
AcDbEntity
  8
1
  6
CONTINUOUS
 62
     7
100
AcDbLine
 10
1077.6307909953
 20
307.3520452340004
 30
0.0
 11
712.1241339370005
 21
307.3520452340004
 31
0.0
  0
ARC
  5
42F
330
1F
100
AcDbEntity
  8
1
  6
CONTINUOUS
 62
     7
100
AcDbCircle
 10
1084.8774624662
 20
304.1053737632007
 30
0.0
 40
9.999999999999787
100
AcDbArc
 50
270.0
 51
0.0
  0
LINE
  5
430
330
1F
100
AcDbEntity
  8
1
  6
CONTINUOUS
 62
     7
100
AcDbLine
 10
704.8774624662002
 20
635.1053737632011
 30
0.0
 11
1084.8774624662
 21
635.1053737632011
 31
0.0
  0
ARC
  5
431
330
1F
100
AcDbEntity
  8
1
  6
CONTINUOUS
 62
     7
100
AcDbCircle
 10
692.8774624662007
 20
433.8099365668011
 30
0.0
 40
1.99999999999978
100
AcDbArc
 50
0.0
 51
83.8298249049
  0
LINE
  5
432
330
1F
100
AcDbEntity
  8
1
  6
CONTINUOUS
 62
     7
100
AcDbLine
 10
1086.7355533038
 20
558.1053737632011
 30
0.0
 11
1111.377462466201
 21
558.1053737632011
 31
0.0
  0
LINE
  5
433
330
1F
100
AcDbEntity
  8
1
  6
CONTINUOUS
 62
     7
100
AcDbLine
 10
1111.377462466201
 20
592.1053737632009
 30
0.0
 11
1111.377462466201
 21
583.1053737632005
 31
0.0
  0
LINE
  5
434
330
1F
100
AcDbEntity
  8
1
  6
CONTINUOUS
 62
     7
100
AcDbLine
 10
708.1241339369999
 20
617.8587022923008
 30
0.0
 11
708.1241339369999
 21
311.3520452340009
 31
0.0
  0
LINE
  5
435
330
1F
100
AcDbEntity
  8
1
  6
CONTINUOUS
 62
     7
100
AcDbLine
 10
712.1241339370004
 20
621.8587022923012
 30
0.0
 11
1077.6307909953
 21
621.8587022923012
 31
0.0
  0
ARC
  5
436
330
1F
100
AcDbEntity
  8
1
  6
CONTINUOUS
 62
     7
100
AcDbCircle
 10
1077.6307909953
 20
617.8587022923008
 30
0.0
 40
3.999999999999559
100
AcDbArc
 50
0.0
 51
90.0
  0
LINE
  5
437
330
1F
100
AcDbEntity
  8
1
  6
CONTINUOUS
 62
     7
100
AcDbLine
 10
1084.8774624662
 20
294.1053737632009
 30
0.0
 11
704.8774624662002
 21
294.1053737632009
 31
0.0
  0
LINE
  5
438
330
1F
100
AcDbEntity
  8
1
  6
CENTER
 62
     7
100
AcDbLine
 10
1104.877462466201
 20
464.6053737632005
 30
0.0
 11
666.3774624662002
 21
464.6053737632005
 31
0.0
  0
LINE
  5
439
330
1F
100
AcDbEntity
  8
1
  6
CONTINUOUS
 62
     7
100
AcDbLine
 10
1111.377462466201
 20
586.1053737632006
 30
0.0
 11
1086.7355533038
 21
586.1053737632006
 31
0.0
  0
LINE
  5
43A
330
1F
100
AcDbEntity
  8
1
  6
CONTINUOUS
 62
     7
100
AcDbLine
 10
1096.3774624662
 20
589.1053737632008
 30
0.0
 11
1096.3774624662
 21
586.1053737632006
 31
0.0
  0
ARC
  5
43B
330
1F
100
AcDbEntity
  8
1
  6
CONTINUOUS
 62
     7
100
AcDbCircle
 10
692.8774624662007
 20
495.4008109595005
 30
0.0
 40
1.99999999999978
100
AcDbArc
 50
276.1701750951
 51
0.0
  0
LINE
  5
43C
330
1F
100
AcDbEntity
  8
1
  6
CONTINUOUS
 62
     7
100
AcDbLine
 10
1086.7355533038
 20
555.105373763201
 30
0.0
 11
1111.3774624661
 21
555.105373763201
 31
0.0
  0
LINE
  5
43D
330
1F
100
AcDbEntity
  8
1
  6
CONTINUOUS
 62
     7
100
AcDbLine
 10
1111.3774624661
 20
552.1053737632009
 30
0.0
 11
1086.7355533038
 21
552.1053737632009
 31
0.0
  0
ARC
  5
43E
330
1F
100
AcDbEntity
  8
1
  6
CONTINUOUS
 62
     7
100
AcDbCircle
 10
1096.877462466201
 20
594.1053737632008
 30
0.0
 40
1.99999999999978
100
AcDbArc
 50
180.0
 51
270.0
  0
LINE
  5
43F
330
1F
100
AcDbEntity
  8
1
  6
CONTINUOUS
 62
     7
100
AcDbLine
 10
1094.877462466201
 20
560.1053737632009
 30
0.0
 11
1094.877462466201
 21
581.1053737632008
 31
0.0
  0
LINE
  5
440
330
1F
100
AcDbEntity
  8
1
  6
CONTINUOUS
 62
     7
100
AcDbLine
 10
1072.6307909953
 20
617.8587022923008
 30
0.0
 11
717.1241339370002
 21
617.8587022923008
 31
0.0
  0
LINE
  5
441
330
1F
100
AcDbEntity
  8
1
  6
CONTINUOUS
 62
     7
100
AcDbLine
 10
694.8774624662004
 20
625.1053737632004
 30
0.0
 11
694.8774624662004
 21
304.1053737632007
 31
0.0
  0
LINE
  5
442
330
1F
100
AcDbEntity
  8
1
  6
CONTINUOUS
 62
     7
100
AcDbLine
 10
1111.377462466201
 20
583.1053737632005
 30
0.0
 11
1086.7355533038
 21
583.1053737632005
 31
0.0
  0
LINE
  5
443
330
1F
100
AcDbEntity
  8
1
  6
CONTINUOUS
 62
     7
100
AcDbLine
 10
1094.877462466201
 20
594.1053737632008
 30
0.0
 11
1094.877462466201
 21
625.1053737632004
 31
0.0
  0
LINE
  5
444
330
1F
100
AcDbEntity
  8
1
  6
CONTINUOUS
 62
     7
100
AcDbLine
 10
1111.377462466201
 20
340.1053737632012
 30
0.0
 11
1086.7355533038
 21
340.1053737632012
 31
0.0
  0
LINE
  5
445
330
1F
100
AcDbEntity
  8
1
  6
CONTINUOUS
 62
     7
100
AcDbLine
 10
1275.5590876109
 20
635.3498191496003
 30
0.0
 11
1275.5590876109
 21
605.1053737632009
 31
0.0
  0
LINE
  5
446
330
1F
100
AcDbEntity
  8
1
  6
CONTINUOUS
 62
     7
100
AcDbLine
 10
1255.5592094455
 20
628.0983938638008
 30
0.0
 11
1255.7590876109
 21
628.3053737632009
 31
0.0
  0
ARC
  5
447
330
1F
100
AcDbEntity
  8
1
  6
CONTINUOUS
 62
     7
100
AcDbCircle
 10
1257.759087610799
 20
632.7270103640012
 30
0.0
 40
1.99999999999978
100
AcDbArc
 50
92.0
 51
180.0
  0
LINE
  5
448
330
1F
100
AcDbEntity
  8
1
  6
CONTINUOUS
 62
     7
100
AcDbLine
 10
1220.0590876109
 20
345.1020452340003
 30
0.0
 11
1218.5590876109
 21
347.3520452340004
 31
0.0
  0
LINE
  5
449
330
1F
100
AcDbEntity
  8
1
  6
CONTINUOUS
 62
     7
100
AcDbLine
 10
1096.3774624662
 20
343.1053737632004
 30
0.0
 11
1096.3774624662
 21
340.1053737632012
 31
0.0
  0
LINE
  5
44A
330
1F
100
AcDbEntity
  8
1
  6
CONTINUOUS
 62
     7
100
AcDbLine
 10
1094.877462466201
 20
547.105373763201
 30
0.0
 11
1094.877462466201
 21
382.105373763201
 31
0.0
  0
ARC
  5
44B
330
1F
100
AcDbEntity
  8
1
  6
CONTINUOUS
 62
     7
100
AcDbCircle
 10
1096.877462466201
 20
348.1053737632012
 30
0.0
 40
1.99999999999978
100
AcDbArc
 50
180.0
 51
270.0
  0
LINE
  5
44C
330
1F
100
AcDbEntity
  8
1
  6
CONTINUOUS
 62
     7
100
AcDbLine
 10
1094.877462466201
 20
369.105373763201
 30
0.0
 11
1094.877462466201
 21
348.1053737632012
 31
0.0
  0
LINE
  5
44D
330
1F
100
AcDbEntity
  8
1
  6
CONTINUOUS
 62
     7
100
AcDbLine
 10
1257.689288617501
 20
294.4849555082003
 30
0.0
 11
1268.5590876109
 21
294.1053737632009
 31
0.0
  0
LINE
  5
44E
330
1F
100
AcDbEntity
  8
1
  6
CONTINUOUS
 62
     7
100
AcDbLine
 10
1094.877462466201
 20
335.1053737632004
 30
0.0
 11
1094.877462466201
 21
304.1053737632007
 31
0.0
  0
ARC
  5
44F
330
1F
100
AcDbEntity
  8
1
  6
CONTINUOUS
 62
     7
100
AcDbCircle
 10
1257.7590876109
 20
296.4837371623004
 30
0.0
 40
1.99999999999978
100
AcDbArc
 50
180.0
 51
267.9999999999999
  0
LINE
  5
450
330
1F
100
AcDbEntity
  8
1
  6
CONTINUOUS
 62
     7
100
AcDbLine
 10
1255.5592094455
 20
301.1123536625009
 30
0.0
 11
1221.9892886175
 21
302.2846411296003
 31
0.0
  0
ARC
  5
451
330
1F
100
AcDbEntity
  8
1
  6
CONTINUOUS
 62
     7
100
AcDbCircle
 10
1096.877462466201
 20
335.1053737632004
 30
0.0
 40
1.99999999999978
100
AcDbArc
 50
90.0
 51
180.0
  0
LINE
  5
452
330
1F
100
AcDbEntity
  8
1
  6
CONTINUOUS
 62
     7
100
AcDbLine
 10
1218.5590876109
 20
347.3520452340004
 30
0.0
 11
1218.5590876109
 21
613.8587022923012
 31
0.0
  0
LINE
  5
453
330
1F
100
AcDbEntity
  8
1
  6
CONTINUOUS
 62
     7
100
AcDbLine
 10
1255.7590876109
 20
300.9053737632011
 30
0.0
 11
1255.5592094455
 21
301.1123536625009
 31
0.0
  0
LINE
  5
454
330
1F
100
AcDbEntity
  8
1
  6
CONTINUOUS
 62
     7
100
AcDbLine
 10
1255.5592094455
 20
628.0983938638008
 30
0.0
 11
1221.9892886189
 21
626.9261063968008
 31
0.0
  0
LINE
  5
455
330
1F
100
AcDbEntity
  8
1
  6
CONTINUOUS
 62
     7
100
AcDbLine
 10
1257.6892886174
 20
634.7257920181004
 30
0.0
 11
1275.5590876109
 21
635.3498191496003
 31
0.0
  0
LINE
  5
456
330
1F
100
AcDbEntity
  8
1
  6
CONTINUOUS
 62
     7
100
AcDbLine
 10
1220.0590876109
 20
615.3587022923012
 30
0.0
 11
1218.5590876109
 21
613.8587022923012
 31
0.0
  0
LINE
  5
457
330
1F
100
AcDbEntity
  8
1
  6
CONTINUOUS
 62
     7
100
AcDbLine
 10
1220.0590876109
 20
624.9273247427008
 30
0.0
 11
1220.0590876109
 21
304.2834227836009
 31
0.0
  0
LINE
  5
458
330
1F
100
AcDbEntity
  8
1
  6
CONTINUOUS
 62
     7
100
AcDbLine
 10
1086.7355533038
 20
343.1053737632004
 30
0.0
 11
1111.377462466201
 21
343.1053737632004
 31
0.0
  0
ARC
  5
459
330
1F
100
AcDbEntity
  8
1
  6
CONTINUOUS
 62
     7
100
AcDbCircle
 10
1275.5590876109
 20
598.1053737632011
 30
0.0
 40
6.999999999999673
100
AcDbArc
 50
90.0
 51
180.0
  0
ARC
  5
45A
330
1F
100
AcDbEntity
  8
1
  6
CONTINUOUS
 62
     7
100
AcDbCircle
 10
1222.0590876109
 20
304.2834227836009
 30
0.0
 40
1.99999999999978
100
AcDbArc
 50
179.9999999998
 51
267.9999999999999
  0
LINE
  5
45B
330
1F
100
AcDbEntity
  8
1
  6
CONTINUOUS
 62
     7
100
AcDbLine
 10
1223.0590876109
 20
592.1053737632009
 30
0.0
 11
1288.0590876109
 21
592.1053737632009
 31
0.0
  0
ENDSEC
  0
SECTION
  2
OBJECTS
  0
DICTIONARY
  5
C
330
0
100
AcDbDictionary
  3
ACAD_GROUP
350
D
  3
ACAD_LAYOUT
350
1A
  3
ACAD_MATERIAL
350
43
  3
ACAD_MLEADERSTYLE
350
6B
  3
ACAD_MLINESTYLE
350
17
  3
ACAD_PLOTSETTINGS
350
19
  3
ACAD_SCALELIST
350
47
  3
ACAD_VISUALSTYLE
350
2A
  3
ACDBHEADERROUNDTRIPXREC
350
45C
  3
ACDBVARIABLEDICTIONARY
350
47D
  0
DICTIONARY
  5
484
330
8
100
AcDbDictionary
280
     1
  3
ACAD_XREC_ROUNDTRIP
360
485
  0
DICTIONARY
  5
D
102
{ACAD_REACTORS
330
C
102
}
330
C
100
AcDbDictionary
  0
DICTIONARY
  5
1A
102
{ACAD_REACTORS
330
C
102
}
330
C
100
AcDbDictionary
  0
DICTIONARY
  5
43
102
{ACAD_REACTORS
330
C
102
}
330
C
100
AcDbDictionary
  3
BYBLOCK
350
45
  3
BYLAYER
350
44
  3
GLOBAL
350
46
  0
DICTIONARY
  5
6B
102
{ACAD_REACTORS
330
C
102
}
330
C
100
AcDbDictionary
  3
STANDARD
350
6C
  0
DICTIONARY
  5
17
102
{ACAD_REACTORS
330
C
102
}
330
C
100
AcDbDictionary
  3
STANDARD
350
18
  0
DICTIONARY
  5
19
102
{ACAD_REACTORS
330
C
102
}
330
C
100
AcDbDictionary
  0
DICTIONARY
  5
47
102
{ACAD_REACTORS
330
C
102
}
330
C
100
AcDbDictionary
  3
A0
350
48
  3
A1
350
49
  3
A2
350
4A
  3
A3
350
4B
  3
A4
350
4C
  3
A5
350
4D
  3
A6
350
4E
  3
A7
350
4F
  3
A8
350
50
  3
A9
350
51
  3
B0
350
52
  3
B1
350
53
  3
B2
350
54
  3
B3
350
55
  3
B4
350
56
  3
B5
350
57
  3
B6
350
58
  3
B7
350
59
  3
B8
350
5A
  3
B9
350
5B
  3
C0
350
5C
  3
C1
350
5D
  3
C2
350
5E
  3
C3
350
5F
  3
C4
350
60
  3
C5
350
61
  3
C6
350
62
  3
C7
350
63
  3
C8
350
64
  3
C9
350
65
  3
D0
350
66
  3
D1
350
67
  3
D2
350
68
  0
DICTIONARY
  5
2A
102
{ACAD_REACTORS
330
C
102
}
330
C
100
AcDbDictionary
  3
2DWIREFRAME
350
2F
  3
BASIC
350
32
  3
BRIGHTEN
350
36
  3
COLORCHANGE
350
3A
  3
CONCEPTUAL
350
34
  3
DIM
350
35
  3
EDGECOLOROFF
350
3D
  3
FACEPATTERN
350
39
  3
FLAT
350
2B
  3
FLATWITHEDGES
350
2C
  3
GOURAUD
350
2D
  3
GOURAUDWITHEDGES
350
2E
  3
HIDDEN
350
31
  3
JITTEROFF
350
3B
  3
LINEPATTERN
350
38
  3
OVERHANGOFF
350
3C
  3
REALISTIC
350
33
  3
SHADED
350
42
  3
SHADED_WITH_EDGES
350
41
  3
SHADES_OF_GRAY
350
3E
  3
SKETCHY
350
3F
  3
THICKEN
350
37
  3
WIREFRAME
350
30
  3
X-RAY
350
40
  0
DICTIONARY
  5
45C
102
{ACAD_REACTORS
330
C
102
}
330
C
100
AcDbDictionary
  3
CEPSNID
350
466
  3
CEPSNTYPE
350
465
  3
DIMSTYLEDATA
350
47C
  3
FINGERPRINTGUID
350
467
  3
HYPERLINKBASE
350
45F
  3
INSUNITS
350
464
  3
LAYOUTDICT
350
461
  3
LWETCUNION
350
463
  3
PLOTSETDICT
350
462
  3
PSVPSCALE
350
469
  3
PUCSBASE
350
46C
  3
PUCSORGBACK
350
472
  3
PUCSORGBOTTOM
350
46E
  3
PUCSORGFRONT
350
471
  3
PUCSORGLEFT
350
46F
  3
PUCSORGRIGHT
350
470
  3
PUCSORGTOP
350
46D
  3
PUCSORTHOREF
350
46A
  3
PUCSORTHOVIEW
350
46B
  3
STYLESHEET
350
460
  3
TSTACKALIGN
350
45D
  3
TSTACKSIZE
350
45E
  3
UCSBASE
350
475
  3
UCSORGBACK
350
47B
  3
UCSORGBOTTOM
350
477
  3
UCSORGFRONT
350
47A
  3
UCSORGLEFT
350
478
  3
UCSORGRIGHT
350
479
  3
UCSORGTOP
350
476
  3
UCSORTHOREF
350
473
  3
UCSORTHOVIEW
350
474
  3
VERSIONGUID
350
468
  0
DICTIONARY
  5
47D
102
{ACAD_REACTORS
330
C
102
}
330
C
100
AcDbDictionary
  3
CANNOSCALE
350
486
  3
CMLEADERSTYLE
350
47F
  3
CTABLESTYLE
350
47E
  3
DIMASSOC
350
482
  3
HIDETEXT
350
483
  3
MSLTSCALE
350
487
  0
XRECORD
  5
485
102
{ACAD_REACTORS
330
484
102
}
330
484
100
AcDbXrecord
102
VTR_0.000_0.000_1.000_1.000_VISUALSTYLE
340
2F
102
VTR_0.000_0.000_1.000_1.000_GRIDDISPLAY
 70
     3
102
VTR_0.000_0.000_1.000_1.000_GRIDMAJOR
 70
     5
102
VTR_0.000_0.000_1.000_1.000_DEFAULTLIGHTING
280
     1
102
VTR_0.000_0.000_1.000_1.000_DEFAULTLIGHTINGTYPE
 70
     1
102
VTR_0.000_0.000_1.000_1.000_BRIGHTNESS
141
0.0
102
VTR_0.000_0.000_1.000_1.000_CONTRAST
142
0.0
  0
MATERIAL
  5
45
102
{ACAD_REACTORS
330
43
102
}
102
{ACAD_XDICTIONARY
360
48A
102
}
330
43
100
AcDbMaterial
  1
BYBLOCK
  0
MATERIAL
  5
44
102
{ACAD_REACTORS
330
43
102
}
102
{ACAD_XDICTIONARY
360
488
102
}
330
43
100
AcDbMaterial
  1
BYLAYER
  0
MATERIAL
  5
46
102
{ACAD_REACTORS
330
43
102
}
102
{ACAD_XDICTIONARY
360
48C
102
}
330
43
100
AcDbMaterial
  1
GLOBAL
  0
ACAD_PROXY_OBJECT
  5
6C
102
{ACAD_REACTORS
330
6B
102
}
330
6B
100
AcDbProxyObject
 90
      499
 91
      505
 93
      610
310
40901902A4063FBFFFFFE056BD1B81E855B9FC0AD7A3703D0AD73F4214DD185B99185C9900AD7A3703D0AC73F90141901A02B5E8DC0F42B1CFC02B5E8DC0F42B1CFE5764000000000000300FC0
340
14
340
0
340
11
340
0
 94
        0
1001
ACAD_MLEADERVER
1070
     2
  0
MLINESTYLE
  5
18
102
{ACAD_REACTORS
330
17
102
}
330
17
100
AcDbMlineStyle
  2
Standard
 70
     0
  3

 62
   256
 51
90.0
 52
90.0
 71
     2
 49
0.5
 62
   256
  6
BYLAYER
 49
-0.5
 62
   256
  6
BYLAYER
  0
ACAD_PROXY_OBJECT
  5
48
102
{ACAD_REACTORS
330
47
102
}
330
47
100
AcDbProxyObject
 90
      499
 91
      503
 93
       41
310
903313A31580
  0
ACAD_PROXY_OBJECT
  5
49
102
{ACAD_REACTORS
330
47
102
}
330
47
100
AcDbProxyObject
 90
      499
 91
      503
 93
      105
310
903313A324000000000000004000
  0
ACAD_PROXY_OBJECT
  5
4A
102
{ACAD_REACTORS
330
47
102
}
330
47
100
AcDbProxyObject
 90
      499
 91
      503
 93
      105
310
903313A344000000000000104000
  0
ACAD_PROXY_OBJECT
  5
4B
102
{ACAD_REACTORS
330
47
102
}
330
47
100
AcDbProxyObject
 90
      499
 91
      503
 93
      105
310
903313A354000000000000144000
  0
ACAD_PROXY_OBJECT
  5
4C
102
{ACAD_REACTORS
330
47
102
}
330
47
100
AcDbProxyObject
 90
      499
 91
      503
 93
      105
310
903313A384000000000000204000
  0
ACAD_PROXY_OBJECT
  5
4D
102
{ACAD_REACTORS
330
47
102
}
330
47
100
AcDbProxyObject
 90
      499
 91
      503
 93
      113
310
904313A31304000000000000244000
  0
ACAD_PROXY_OBJECT
  5
4E
102
{ACAD_REACTORS
330
47
102
}
330
47
100
AcDbProxyObject
 90
      499
 91
      503
 93
      113
310
904313A31364000000000000304000
  0
ACAD_PROXY_OBJECT
  5
4F
102
{ACAD_REACTORS
330
47
102
}
330
47
100
AcDbProxyObject
 90
      499
 91
      503
 93
      113
310
904313A32304000000000000344000
  0
ACAD_PROXY_OBJECT
  5
50
102
{ACAD_REACTORS
330
47
102
}
330
47
100
AcDbProxyObject
 90
      499
 91
      503
 93
      113
310
904313A333040000000000003E4000
  0
ACAD_PROXY_OBJECT
  5
51
102
{ACAD_REACTORS
330
47
102
}
330
47
100
AcDbProxyObject
 90
      499
 91
      503
 93
      113
310
904313A34304000000000000444000
  0
ACAD_PROXY_OBJECT
  5
52
102
{ACAD_REACTORS
330
47
102
}
330
47
100
AcDbProxyObject
 90
      499
 91
      503
 93
      113
310
904313A35304000000000000494000
  0
ACAD_PROXY_OBJECT
  5
53
102
{ACAD_REACTORS
330
47
102
}
330
47
100
AcDbProxyObject
 90
      499
 91
      503
 93
      121
310
905313A3130304000000000000594000
  0
ACAD_PROXY_OBJECT
  5
54
102
{ACAD_REACTORS
330
47
102
}
330
47
100
AcDbProxyObject
 90
      499
 91
      503
 93
      105
310
903323A310000000000000010100
  0
ACAD_PROXY_OBJECT
  5
55
102
{ACAD_REACTORS
330
47
102
}
330
47
100
AcDbProxyObject
 90
      499
 91
      503
 93
      105
310
903343A310000000000000410100
  0
ACAD_PROXY_OBJECT
  5
56
102
{ACAD_REACTORS
330
47
102
}
330
47
100
AcDbProxyObject
 90
      499
 91
      503
 93
      105
310
903383A310000000000000810100
  0
ACAD_PROXY_OBJECT
  5
57
102
{ACAD_REACTORS
330
47
102
}
330
47
100
AcDbProxyObject
 90
      499
 91
      503
 93
      113
310
90431303A310000000000000910100
  0
ACAD_PROXY_OBJECT
  5
58
102
{ACAD_REACTORS
330
47
102
}
330
47
100
AcDbProxyObject
 90
      499
 91
      503
 93
      121
310
9053130303A310000000000001650100
  0
ACAD_PROXY_OBJECT
  5
59
102
{ACAD_REACTORS
330
47
102
}
330
47
100
AcDbProxyObject
 90
      499
 91
      503
 93
      257
310
90E312F31323822203D2031272D3022000000000000200FC000000000000284000
  0
ACAD_PROXY_OBJECT
  5
5A
102
{ACAD_REACTORS
330
47
102
}
330
47
100
AcDbProxyObject
 90
      499
 91
      503
 93
      249
310
90D312F363422203D2031272D3022000000000000240FC000000000000284000
  0
ACAD_PROXY_OBJECT
  5
5B
102
{ACAD_REACTORS
330
47
102
}
330
47
100
AcDbProxyObject
 90
      499
 91
      503
 93
      249
310
90D312F333222203D2031272D3022000000000000280FC000000000000284000
  0
ACAD_PROXY_OBJECT
  5
5C
102
{ACAD_REACTORS
330
47
102
}
330
47
100
AcDbProxyObject
 90
      499
 91
      503
 93
      249
310
90D312F313622203D2031272D30220000000000002C0FC000000000000284000
  0
ACAD_PROXY_OBJECT
  5
5D
102
{ACAD_REACTORS
330
47
102
}
330
47
100
AcDbProxyObject
 90
      499
 91
      503
 93
      249
310
90D332F333222203D2031272D30220000000000002E0FC000000000000284000
  0
ACAD_PROXY_OBJECT
  5
5E
102
{ACAD_REACTORS
330
47
102
}
330
47
100
AcDbProxyObject
 90
      499
 91
      503
 93
      241
310
90C312F3822203D2031272D3022000000000000300FC000000000000284000
  0
ACAD_PROXY_OBJECT
  5
5F
102
{ACAD_REACTORS
330
47
102
}
330
47
100
AcDbProxyObject
 90
      499
 91
      503
 93
      249
310
90D332F313622203D2031272D3022000000000000320FC000000000000284000
  0
ACAD_PROXY_OBJECT
  5
60
102
{ACAD_REACTORS
330
47
102
}
330
47
100
AcDbProxyObject
 90
      499
 91
      503
 93
      241
310
90C312F3422203D2031272D3022000000000000340FC000000000000284000
  0
ACAD_PROXY_OBJECT
  5
61
102
{ACAD_REACTORS
330
47
102
}
330
47
100
AcDbProxyObject
 90
      499
 91
      503
 93
      241
310
90C332F3822203D2031272D3022000000000000360FC000000000000284000
  0
ACAD_PROXY_OBJECT
  5
62
102
{ACAD_REACTORS
330
47
102
}
330
47
100
AcDbProxyObject
 90
      499
 91
      503
 93
      241
310
90C312F3222203D2031272D3022000000000000380FC000000000000284000
  0
ACAD_PROXY_OBJECT
  5
63
102
{ACAD_REACTORS
330
47
102
}
330
47
100
AcDbProxyObject
 90
      499
 91
      503
 93
      241
310
90C332F3422203D2031272D30220000000000003A0FC000000000000284000
  0
ACAD_PROXY_OBJECT
  5
64
102
{ACAD_REACTORS
330
47
102
}
330
47
100
AcDbProxyObject
 90
      499
 91
      503
 93
      161
310
90A3122203D2031272D30224000000000000284000
  0
ACAD_PROXY_OBJECT
  5
65
102
{ACAD_REACTORS
330
47
102
}
330
47
100
AcDbProxyObject
 90
      499
 91
      503
 93
      257
310
90E312D312F3222203D2031272D30220000000000003E0FC000000000000284000
  0
ACAD_PROXY_OBJECT
  5
66
102
{ACAD_REACTORS
330
47
102
}
330
47
100
AcDbProxyObject
 90
      499
 91
      503
 93
      225
310
90A3322203D2031272D302200000000000002100000000000000284000
  0
ACAD_PROXY_OBJECT
  5
67
102
{ACAD_REACTORS
330
47
102
}
330
47
100
AcDbProxyObject
 90
      499
 91
      503
 93
      225
310
90A3622203D2031272D302200000000000006100000000000000284000
  0
ACAD_PROXY_OBJECT
  5
68
102
{ACAD_REACTORS
330
47
102
}
330
47
100
AcDbProxyObject
 90
      499
 91
      503
 93
      249
310
90D31272D3022203D2031272D30220000000000000A100000000000000284000
  0
ACAD_PROXY_OBJECT
  5
2F
102
{ACAD_REACTORS
330
2A
102
}
330
2A
100
AcDbProxyObject
 90
      499
 91
      501
 93
      436
310
42CC9915DA5C99599C985B595049028333333333333E33F0000000000000F90107901411070040501600405405064090741402480A0340
1001
ACAD
1000
AcDbSavedByObjectVersion
1070
     0
  0
ACAD_PROXY_OBJECT
  5
32
102
{ACAD_REACTORS
330
2A
102
}
330
2A
100
AcDbProxyObject
 90
      499
 91
      501
 93
      388
310
4150985CDA58D07406404333333333333E33F0000000000000F90107A41107004050150841D405064090741402480A0350
1001
ACAD
1000
AcDbSavedByObjectVersion
1070
     0
  0
ACAD_PROXY_OBJECT
  5
36
102
{ACAD_REACTORS
330
2A
102
}
330
2A
100
AcDbProxyObject
 90
      499
 91
      501
 93
      428
310
42109C9A59DA1D195B90C409028333333333333E33F0000000000000F9010790141107004050150841D405064090741402480A029950
1001
ACAD
1000
AcDbSavedByObjectVersion
1070
     0
  0
ACAD_PROXY_OBJECT
  5
3A
102
{ACAD_REACTORS
330
2A
102
}
330
2A
100
AcDbProxyObject
 90
      499
 91
      501
 93
      452
310
42D0DBDB1BDC90DA185B99D95104090240C333333333333E33F0000000000000F90108901411070040501508421405064090741402480A0350
1001
ACAD
1000
AcDbSavedByObjectVersion
1070
     0
  0
ACAD_PROXY_OBJECT
  5
34
102
{ACAD_REACTORS
330
2A
102
}
330
2A
100
AcDbProxyObject
 90
      499
 91
      501
 93
      500
310
4290DBDB98D95C1D1D585B10940D028333333333333E33F0000000000000F90107902409070040501000000000018199010841D405064090740C02480A0340
1001
ACAD
1000
AcDbSavedByObjectVersion
1070
     0
  0
ACAD_PROXY_OBJECT
  5
35
102
{ACAD_REACTORS
330
2A
102
}
330
2A
100
AcDbProxyObject
 90
      499
 91
      501
 93
      412
310
40D11A5B50B409028333333333333E33F0000000000000F9010790141107004050150841D405064090741402480A02677FFFFFD0
1001
ACAD
1000
AcDbSavedByObjectVersion
1070
     0
  0
ACAD_PROXY_OBJECT
  5
3D
102
{ACAD_REACTORS
330
2A
102
}
330
2A
100
AcDbProxyObject
 90
      499
 91
      501
 93
      452
310
43115919D950DBDB1BDC93D999916409028333333333333E33F0000000000000F9010790141107004050150841D405064090741402480A0350
1001
ACAD
1000
AcDbSavedByObjectVersion
1070
     0
  0
ACAD_PROXY_OBJECT
  5
39
102
{ACAD_REACTORS
330
2A
102
}
330
2A
100
AcDbProxyObject
 90
      499
 91
      501
 93
      444
310
42D19858D95C185D1D195C9B90F409028333333333333E33F0000000000000F9010790141107004050150841D405064090741402480A0350
1001
ACAD
1000
AcDbSavedByObjectVersion
1070
     0
  0
ACAD_PROXY_OBJECT
  5
2B
102
{ACAD_REACTORS
330
2A
102
}
330
2A
100
AcDbProxyObject
 90
      499
 91
      501
 93
      380
310
41119B185D240901404333333333333E33F0000000000000F9010740A907004050150841D405064090741402480A1B50
1001
ACAD
1000
AcDbSavedByObjectVersion
1070
     0
  0
ACAD_PROXY_OBJECT
  5
2C
102
{ACAD_REACTORS
330
2A
102
}
330
2A
100
AcDbProxyObject
 90
      499
 91
      501
 93
      468
310
43519B185D15DA5D1A115919D95CD0140901404333333333333E33F0000000000000F90107409019070040501600405405064090741402480A1B50
1001
ACAD
1000
AcDbSavedByObjectVersion
1070
     0
  0
ACAD_PROXY_OBJECT
  5
2D
102
{ACAD_REACTORS
330
2A
102
}
330
2A
100
AcDbProxyObject
 90
      499
 91
      501
 93
      404
310
41D1DBDD5C985D5910240902404333333333333E33F0000000000000F9010740A9070040501641D405064090741402480A1B50
1001
ACAD
1000
AcDbSavedByObjectVersion
1070
     0
  0
ACAD_PROXY_OBJECT
  5
2E
102
{ACAD_REACTORS
330
2A
102
}
330
2A
100
AcDbProxyObject
 90
      499
 91
      501
 93
      492
310
4411DBDD5C985D5915DA5D1A115919D95CD0340902404333333333333E33F0000000000000F90107409019070040501600405405064090741402480A1B50
1001
ACAD
1000
AcDbSavedByObjectVersion
1070
     0
  0
ACAD_PROXY_OBJECT
  5
31
102
{ACAD_REACTORS
330
2A
102
}
330
2A
100
AcDbProxyObject
 90
      499
 91
      501
 93
      476
310
41921A5919195B90640502408333333333333E33F0000000000000F901079024090700405020000000000001110200405405064090740C02480A0340
1001
ACAD
1000
AcDbSavedByObjectVersion
1070
     0
  0
ACAD_PROXY_OBJECT
  5
3B
102
{ACAD_REACTORS
330
2A
102
}
330
2A
100
AcDbProxyObject
 90
      499
 91
      501
 93
      428
310
42529A5D1D195C93D999914409028333333333333E33F0000000000000F9010790141107004050150A41D405064090741402480A0350
1001
ACAD
1000
AcDbSavedByObjectVersion
1070
     0
  0
ACAD_PROXY_OBJECT
  5
38
102
{ACAD_REACTORS
330
2A
102
}
330
2A
100
AcDbProxyObject
 90
      499
 91
      501
 93
      444
310
42D31A5B995C185D1D195C9B90E409028333333333333E33F0000000000000F9010790141107004050750841D405064090741402483A0350
1001
ACAD
1000
AcDbSavedByObjectVersion
1070
     0
  0
ACAD_PROXY_OBJECT
  5
3C
102
{ACAD_REACTORS
330
2A
102
}
330
2A
100
AcDbProxyObject
 90
      499
 91
      501
 93
      444
310
42D3DD995C9A185B99D3D999915409028333333333333E33F0000000000000F9010790141107004050150941D405064090741402480A0350
1001
ACAD
1000
AcDbSavedByObjectVersion
1070
     0
  0
ACAD_PROXY_OBJECT
  5
33
102
{ACAD_REACTORS
330
2A
102
}
330
2A
100
AcDbProxyObject
 90
      499
 91
      501
 93
      428
310
425499585B1A5CDD1A58D08409038333333333333E33F0000000000000F9010740A907004050150800405405064090740C02480A1B40
1001
ACAD
1000
AcDbSavedByObjectVersion
1070
     0
  0
ACAD_PROXY_OBJECT
  5
42
102
{ACAD_REACTORS
330
2A
102
}
330
2A
100
AcDbProxyObject
 90
      499
 91
      501
 93
      420
310
4194DA1859195911B40902404333333333333E33F0000000000000F9010740A41107004050150800405405064090840C02480A0B40
1001
ACAD
1000
AcDbSavedByObjectVersion
1070
     0
  0
ACAD_PROXY_OBJECT
  5
41
102
{ACAD_REACTORS
330
2A
102
}
330
2A
100
AcDbProxyObject
 90
      499
 91
      501
 93
      516
310
4454DA18591959081DDA5D1A08195919D95CD1A40902404333333333333E33F0000000000000F901074090142907004050250800405405064090740C02480A0B40
1001
ACAD
1000
AcDbSavedByObjectVersion
1070
     0
  0
ACAD_PROXY_OBJECT
  5
3E
102
{ACAD_REACTORS
330
2A
102
}
330
2A
100
AcDbProxyObject
 90
      499
 91
      501
 93
      532
310
4394DA1859195CC81BD98811DC985E5174090240C333333333333E33F0000000000000F901079024090741D01000000000000111010841D405064090740C02480A0340
1001
ACAD
1000
AcDbSavedByObjectVersion
1070
     0
  0
ACAD_PROXY_OBJECT
  5
3F
102
{ACAD_REACTORS
330
2A
102
}
330
2A
100
AcDbProxyObject
 90
      499
 91
      501
 93
      476
310
41D4DAD95D18DA1E51840502408333333333333E33F0000000000000F901079024090741D01000000000000111010B41D405064090741802480A0340
1001
ACAD
1000
AcDbSavedByObjectVersion
1070
     0
  0
ACAD_PROXY_OBJECT
  5
37
102
{ACAD_REACTORS
330
2A
102
}
330
2A
100
AcDbProxyObject
 90
      499
 91
      501
 93
      412
310
41D51A1A58DAD95B90D409028333333333333E33F0000000000000F9010790141107004050150C41D405064090741402480A0350
1001
ACAD
1000
AcDbSavedByObjectVersion
1070
     0
  0
ACAD_PROXY_OBJECT
  5
30
102
{ACAD_REACTORS
330
2A
102
}
330
2A
100
AcDbProxyObject
 90
      499
 91
      501
 93
      420
310
4255DA5C99599C985B595059028333333333333E33F0000000000000F90107901411070040501600405405064090740C02480A0340
1001
ACAD
1000
AcDbSavedByObjectVersion
1070
     0
  0
ACAD_PROXY_OBJECT
  5
40
102
{ACAD_REACTORS
330
2A
102
}
330
2A
100
AcDbProxyObject
 90
      499
 91
      501
 93
      404
310
41560B54985E51940902404000000000000E03F0000000000000F9010740501907004050150841D405064090740C02480A1B40
1001
ACAD
1000
AcDbSavedByObjectVersion
1070
     0
  0
XRECORD
  5
466
102
{ACAD_REACTORS
330
45C
102
}
330
45C
100
AcDbXrecord
340
0
  0
XRECORD
  5
465
102
{ACAD_REACTORS
330
45C
102
}
330
45C
100
AcDbXrecord
 90
        0
  0
XRECORD
  5
47C
102
{ACAD_REACTORS
330
45C
102
}
330
45C
100
AcDbXrecord
1000
DSTYLE
1002
{
1070
   179
 70
     2
1070
   171
 70
     2
1070
   143
 40
25.4
1070
   274
 70
     2
1070
    41
 40
6.0
1070
   141
 40
0.09
1070
    43
 40
0.38
1070
   278
 70
    46
1070
    44
 40
3.0
1070
    42
 40
0.0625
1070
   147
 40
6.0
1070
   272
 70
     4
1070
    73
 70
     1
1070
   172
 70
     0
1070
    74
 70
     1
1070
   283
 70
     1
1070
   340
340
6F
1070
   140
 40
12.0
1070
   284
 70
     0
1070
    78
 70
     0
1002
}
  0
XRECORD
  5
467
102
{ACAD_REACTORS
330
45C
102
}
330
45C
100
AcDbXrecord
  1
{A4BE3832-DCDB-4E6C-83D7-7D112F1F603F}
  0
XRECORD
  5
45F
102
{ACAD_REACTORS
330
45C
102
}
330
45C
100
AcDbXrecord
  1

  0
XRECORD
  5
464
102
{ACAD_REACTORS
330
45C
102
}
330
45C
100
AcDbXrecord
 90
        4
  0
XRECORD
  5
461
102
{ACAD_REACTORS
330
45C
102
}
330
45C
100
AcDbXrecord
340
1A
  0
XRECORD
  5
463
102
{ACAD_REACTORS
330
45C
102
}
330
45C
100
AcDbXrecord
 90
    10269
  0
XRECORD
  5
462
102
{ACAD_REACTORS
330
45C
102
}
330
45C
100
AcDbXrecord
340
19
  0
XRECORD
  5
469
102
{ACAD_REACTORS
330
45C
102
}
330
45C
100
AcDbXrecord
 40
0.0
  0
XRECORD
  5
46C
102
{ACAD_REACTORS
330
45C
102
}
330
45C
100
AcDbXrecord
340
0
  0
XRECORD
  5
472
102
{ACAD_REACTORS
330
45C
102
}
330
45C
100
AcDbXrecord
 10
0.0
 20
0.0
 30
0.0
  0
XRECORD
  5
46E
102
{ACAD_REACTORS
330
45C
102
}
330
45C
100
AcDbXrecord
 10
0.0
 20
0.0
 30
0.0
  0
XRECORD
  5
471
102
{ACAD_REACTORS
330
45C
102
}
330
45C
100
AcDbXrecord
 10
0.0
 20
0.0
 30
0.0
  0
XRECORD
  5
46F
102
{ACAD_REACTORS
330
45C
102
}
330
45C
100
AcDbXrecord
 10
0.0
 20
0.0
 30
0.0
  0
XRECORD
  5
470
102
{ACAD_REACTORS
330
45C
102
}
330
45C
100
AcDbXrecord
 10
0.0
 20
0.0
 30
0.0
  0
XRECORD
  5
46D
102
{ACAD_REACTORS
330
45C
102
}
330
45C
100
AcDbXrecord
 10
0.0
 20
0.0
 30
0.0
  0
XRECORD
  5
46A
102
{ACAD_REACTORS
330
45C
102
}
330
45C
100
AcDbXrecord
340
0
  0
XRECORD
  5
46B
102
{ACAD_REACTORS
330
45C
102
}
330
45C
100
AcDbXrecord
 70
     0
  0
XRECORD
  5
460
102
{ACAD_REACTORS
330
45C
102
}
330
45C
100
AcDbXrecord
  1

  0
XRECORD
  5
45D
102
{ACAD_REACTORS
330
45C
102
}
330
45C
100
AcDbXrecord
 90
        1
  0
XRECORD
  5
45E
102
{ACAD_REACTORS
330
45C
102
}
330
45C
100
AcDbXrecord
 90
       70
  0
XRECORD
  5
475
102
{ACAD_REACTORS
330
45C
102
}
330
45C
100
AcDbXrecord
340
0
  0
XRECORD
  5
47B
102
{ACAD_REACTORS
330
45C
102
}
330
45C
100
AcDbXrecord
 10
0.0
 20
0.0
 30
0.0
  0
XRECORD
  5
477
102
{ACAD_REACTORS
330
45C
102
}
330
45C
100
AcDbXrecord
 10
0.0
 20
0.0
 30
0.0
  0
XRECORD
  5
47A
102
{ACAD_REACTORS
330
45C
102
}
330
45C
100
AcDbXrecord
 10
0.0
 20
0.0
 30
0.0
  0
XRECORD
  5
478
102
{ACAD_REACTORS
330
45C
102
}
330
45C
100
AcDbXrecord
 10
0.0
 20
0.0
 30
0.0
  0
XRECORD
  5
479
102
{ACAD_REACTORS
330
45C
102
}
330
45C
100
AcDbXrecord
 10
0.0
 20
0.0
 30
0.0
  0
XRECORD
  5
476
102
{ACAD_REACTORS
330
45C
102
}
330
45C
100
AcDbXrecord
 10
0.0
 20
0.0
 30
0.0
  0
XRECORD
  5
473
102
{ACAD_REACTORS
330
45C
102
}
330
45C
100
AcDbXrecord
340
0
  0
XRECORD
  5
474
102
{ACAD_REACTORS
330
45C
102
}
330
45C
100
AcDbXrecord
 70
     0
  0
XRECORD
  5
468
102
{ACAD_REACTORS
330
45C
102
}
330
45C
100
AcDbXrecord
  1
{FAEB1C32-E019-11D5-929B-00C0DF256EC4}
  0
DICTIONARYVAR
  5
486
102
{ACAD_REACTORS
330
47D
102
}
330
47D
100
DictionaryVariables
280
     0
  1
1:1
  0
DICTIONARYVAR
  5
47F
102
{ACAD_REACTORS
330
47D
102
}
330
47D
100
DictionaryVariables
280
     0
  1
Standard
  0
DICTIONARYVAR
  5
47E
102
{ACAD_REACTORS
330
47D
102
}
330
47D
100
DictionaryVariables
280
     0
  1
Standard
  0
DICTIONARYVAR
  5
482
102
{ACAD_REACTORS
330
47D
102
}
330
47D
100
DictionaryVariables
280
     0
  1
2
  0
DICTIONARYVAR
  5
483
102
{ACAD_REACTORS
330
47D
102
}
330
47D
100
DictionaryVariables
280
     0
  1
1
  0
DICTIONARYVAR
  5
487
102
{ACAD_REACTORS
330
47D
102
}
330
47D
100
DictionaryVariables
280
     0
  1
1
  0
DICTIONARY
  5
48A
330
45
100
AcDbDictionary
280
     1
  3
ACAD_XREC_ROUNDTRIP
360
48B
  0
DICTIONARY
  5
488
330
44
100
AcDbDictionary
280
     1
  3
ACAD_XREC_ROUNDTRIP
360
489
  0
DICTIONARY
  5
48C
330
46
100
AcDbDictionary
280
     1
  3
ACAD_XREC_ROUNDTRIP
360
48D
  0
XRECORD
  5
48B
102
{ACAD_REACTORS
330
48A
102
}
330
48A
100
AcDbXrecord
102
MATERIAL
148
0.0
149
0.0
149
0.0
 93
        0
 94
      127
282
     0
 72
     1
 77
     1
171
     1
175
     1
179
     1
273
     0
  0
XRECORD
  5
489
102
{ACAD_REACTORS
330
488
102
}
330
488
100
AcDbXrecord
102
MATERIAL
148
0.0
149
0.0
149
0.0
 93
        0
 94
      127
282
     0
 72
     1
 77
     1
171
     1
175
     1
179
     1
273
     0
  0
XRECORD
  5
48D
102
{ACAD_REACTORS
330
48C
102
}
330
48C
100
AcDbXrecord
102
MATERIAL
148
0.0
149
0.0
149
0.0
 93
        0
 94
      127
282
     0
 72
     1
 77
     1
171
     1
175
     1
179
     1
273
     0
  0
ENDSEC
  0
EOF
