  0
SECTION
  2
HEADER
  9
$ACADVER
  1
AC1006
  9
$DWGCODEPAGE
  3
ansi_932
  9
$INSBASE
 10
0.0
 20
0.0
 30
0.0
  9
$EXTMIN
 10
282.6176073929722
 20
102.3409090909091
  9
$EXTMAX
 10
429.1
 20
190.5
  9
$LIMMIN
 10
0.0
 20
0.0
  9
$LIMMAX
 10
12.0
 20
9.0
  9
$ORTHOMODE
 70
     0
  9
$REGENMODE
 70
     1
  9
$FILLMODE
 70
     1
  9
$QTEXTMODE
 70
     0
  9
$MIRRTEXT
 70
     1
  9
$DRAGMODE
 70
     2
  9
$LTSCALE
 40
1.0
  9
$OSMODE
 70
    37
  9
$ATTMODE
 70
     1
  9
$TEXTSIZE
 40
0.2
  9
$TRACEWID
 40
0.05
  9
$TEXTSTYLE
  7
STANDARD
  9
$CLAYER
  8
0
  9
$CELTYPE
  6
BYLAYER
  9
$CECOLOR
 62
   256
  9
$DIMSCALE
 40
1.0
  9
$DIMASZ
 40
3.0
  9
$DIMEXO
 40
0.0625
  9
$DIMDLI
 40
0.38
  9
$DIMRND
 40
0.0
  9
$DIMDLE
 40
0.0
  9
$DIMEXE
 40
1.5
  9
$DIMTP
 40
0.0
  9
$DIMTM
 40
0.0
  9
$DIMTXT
 40
3.0
  9
$DIMCEN
 40
0.09
  9
$DIMTSZ
 40
0.0
  9
$DIMTOL
 70
     0
  9
$DIMLIM
 70
     0
  9
$DIMTIH
 70
     1
  9
$DIMTOH
 70
     1
  9
$DIMSE1
 70
     0
  9
$DIMSE2
 70
     0
  9
$DIMTAD
 70
     1
  9
$DIMZIN
 70
     0
  9
$DIMBLK
  1

  9
$DIMASO
 70
     1
  9
$DIMSHO
 70
     1
  9
$DIMPOST
  1

  9
$DIMAPOST
  1

  9
$DIMALT
 70
     0
  9
$DIMALTD
 70
     2
  9
$DIMALTF
 40
25.4
  9
$DIMLFAC
 40
1.0
  9
$DIMTOFL
 70
     0
  9
$DIMTVP
 40
0.0
  9
$DIMTIX
 70
     0
  9
$DIMSOXD
 70
     0
  9
$DIMSAH
 70
     0
  9
$DIMBLK1
  1

  9
$DIMBLK2
  1

  9
$LUNITS
 70
     2
  9
$LUPREC
 70
     4
  9
$SKETCHINC
 40
0.1
  9
$FILLETRAD
 40
0.5
  9
$AUNITS
 70
     0
  9
$AUPREC
 70
     0
  9
$MENU
  1
.
  9
$ELEVATION
 40
0.0
  9
$THICKNESS
 40
0.0
  9
$LIMCHECK
 70
     0
  9
$CHAMFERA
 40
0.0
  9
$CHAMFERB
 40
0.0
  9
$SKPOLY
 70
     0
  9
$TDCREATE
 40
2459011.662949421
  9
$TDUPDATE
 40
2459011.662949606
  9
$TDINDWG
 40
0.0000000116
  9
$TDUSRTIMER
 40
0.0000000116
  9
$USRTIMER
 70
     1
  9
$ANGBASE
 50
0.0
  9
$ANGDIR
 70
     0
  9
$PDMODE
 70
     0
  9
$PDSIZE
 40
0.0
  9
$PLINEWID
 40
0.0
  9
$COORDS
 70
     1
  9
$SPLFRAME
 70
     0
  9
$SPLINETYPE
 70
     6
  9
$SPLINESEGS
 70
     8
  9
$ATTDIA
 70
     0
  9
$ATTREQ
 70
     1
  9
$HANDLING
 70
     1
  9
$HANDSEED
  5
B6
  9
$SURFTAB1
 70
     6
  9
$SURFTAB2
 70
     6
  9
$SURFTYPE
 70
     6
  9
$SURFU
 70
     6
  9
$SURFV
 70
     6
  9
$UCSNAME
  2

  9
$UCSORG
 10
0.0
 20
0.0
 30
0.0
  9
$UCSXDIR
 10
1.0
 20
0.0
 30
0.0
  9
$UCSYDIR
 10
0.0
 20
1.0
 30
0.0
  9
$USERI1
 70
     0
  9
$USERI2
 70
     0
  9
$USERI3
 70
     0
  9
$USERI4
 70
     0
  9
$USERI5
 70
     0
  9
$USERR1
 40
0.0
  9
$USERR2
 40
0.0
  9
$USERR3
 40
0.0
  9
$USERR4
 40
0.0
  9
$USERR5
 40
0.0
  9
$WORLDVIEW
 70
     1
  0
ENDSEC
  0
SECTION
  2
TABLES
  0
TABLE
  2
VPORT
 70
     1
  0
VPORT
  2
*ACTIVE
 70
     0
 10
0.0
 20
0.0
 11
1.0
 21
1.0
 12
355.8588036964861
 22
146.4204545454546
 13
0.0
 23
0.0
 14
0.5
 24
0.5
 15
0.5
 25
0.5
 16
0.0
 26
0.0
 36
1.0
 17
0.0
 27
0.0
 37
0.0
 40
88.15909090909093
 41
1.6
 42
50.0
 43
0.0
 44
0.0
 50
0.0
 51
0.0
 71
     0
 72
   100
 73
     1
 74
     3
 75
     0
 76
     0
 77
     0
 78
     0
  0
ENDTAB
  0
TABLE
  2
LTYPE
 70
     1
  0
LTYPE
  2
CONTINUOUS
 70
     0
  3
Solid line
 72
    65
 73
     0
 40
0.0
  0
ENDTAB
  0
TABLE
  2
LAYER
 70
     1
  0
LAYER
  2
0
 70
     0
 62
     7
  6
CONTINUOUS
  0
ENDTAB
  0
TABLE
  2
STYLE
 70
     2
  0
STYLE
  2
STANDARD
 70
     0
 40
0.0
 41
1.0
 50
0.0
 71
     0
 42
0.2
  3
txt
  4

  0
STYLE
  2
ＭＳ_ゴシック
 70
     0
 40
0.0
 41
1.0
 50
0.0
 71
     0
 42
0.2
  3
ＭＳ ゴシック.shx
  4

  0
ENDTAB
  0
TABLE
  2
VIEW
 70
     0
  0
ENDTAB
  0
TABLE
  2
UCS
 70
     0
  0
ENDTAB
  0
ENDSEC
  0
SECTION
  2
BLOCKS
  0
BLOCK
  8
0
  2
D_FRAME_VIEW_1915
 70
     0
 10
0.0
 20
0.0
 30
0.0
  0
LINE
  5
70
  8
0
  6
CONTINUOUS
 62
     7
 10
429.1
 20
186.5
 30
0.0
 11
426.1
 21
186.5
 31
0.0
  0
LINE
  5
71
  8
0
  6
CONTINUOUS
 62
     7
 10
426.1
 20
174.5
 30
0.0
 11
429.1
 21
174.5
 31
0.0
  0
LINE
  5
72
  8
0
  6
CONTINUOUS
 62
     7
 10
426.1
 20
172.5000000000001
 30
0.0
 11
429.1
 21
172.5000000000001
 31
0.0
  0
LINE
  5
73
  8
0
  6
CONTINUOUS
 62
     7
 10
426.1
 20
162.5
 30
0.0
 11
429.1
 21
162.5
 31
0.0
  0
LINE
  5
74
  8
0
  6
CONTINUOUS
 62
     7
 10
426.1
 20
159.0
 30
0.0
 11
429.1
 21
159.0
 31
0.0
  0
LINE
  5
75
  8
0
  6
CONTINUOUS
 62
     7
 10
426.1
 20
154.5
 30
0.0
 11
429.1
 21
154.5
 31
0.0
  0
LINE
  5
76
  8
0
  6
CONTINUOUS
 62
     7
 10
429.1
 20
190.5
 30
0.0
 11
426.1
 21
190.5
 31
0.0
  0
ENDBLK
  8
0
  0
BLOCK
  8
0
  2
D_FRAME_VIEW_1819
 70
     0
 10
0.0
 20
0.0
 30
0.0
  0
ARC
  5
7B
  8
0
  6
CONTINUOUS
 62
     7
 10
395.5
 20
168.5
 30
0.0
 40
0.5000000000000004
 50
0.0
 51
180.0
  0
LINE
  5
7C
  8
0
  6
CONTINUOUS
 62
     7
 10
395.0
 20
168.5
 30
0.0
 11
395.0
 21
166.5
 31
0.0
  0
ARC
  5
7D
  8
0
  6
CONTINUOUS
 62
     7
 10
395.5
 20
166.5
 30
0.0
 40
0.5000000000000004
 50
180.0
 51
0.0
  0
LINE
  5
7E
  8
0
  6
CONTINUOUS
 62
     7
 10
396.0
 20
166.5
 30
0.0
 11
396.0
 21
168.5
 31
0.0
  0
LINE
  5
7F
  8
0
  6
CONTINUOUS
 62
     7
 10
285.0
 20
168.5
 30
0.0
 11
285.0
 21
166.5
 31
0.0
  0
ARC
  5
80
  8
0
  6
CONTINUOUS
 62
     7
 10
284.5
 20
168.5
 30
0.0
 40
0.5000000000000004
 50
0.0
 51
180.0
  0
LINE
  5
81
  8
0
  6
CONTINUOUS
 62
     7
 10
284.0
 20
166.5
 30
0.0
 11
284.0
 21
168.5
 31
0.0
  0
ARC
  5
82
  8
0
  6
CONTINUOUS
 62
     7
 10
284.5
 20
166.5
 30
0.0
 40
0.5000000000000004
 50
180.0
 51
0.0
  0
LINE
  5
83
  8
0
  6
CONTINUOUS
 62
     7
 10
282.8094607791386
 20
174.5
 30
0.0
 11
283.3443709089951
 21
172.5000000000001
 31
0.0
  0
LINE
  5
84
  8
0
  6
CONTINUOUS
 62
     7
 10
282.6177596978158
 20
185.4825475935627
 30
0.0
 11
282.8094607791386
 21
174.5
 31
0.0
  0
ARC
  5
85
  8
0
  6
CONTINUOUS
 62
     7
 10
283.6176073929722
 20
185.5
 30
0.0
 40
1.000000000000001
 50
90.0
 51
181.0000000000001
  0
LINE
  5
86
  8
0
  6
CONTINUOUS
 62
     7
 10
316.0
 20
186.5
 30
0.0
 11
283.6176073929722
 21
186.5
 31
0.0
  0
LINE
  5
87
  8
0
  6
CONTINUOUS
 62
     7
 10
316.0
 20
189.5
 30
0.0
 11
316.0
 21
186.5
 31
0.0
  0
ARC
  5
88
  8
0
  6
CONTINUOUS
 62
     7
 10
317.0
 20
189.5
 30
0.0
 40
1.000000000000001
 50
90.0
 51
180.0
  0
LINE
  5
89
  8
0
  6
CONTINUOUS
 62
     7
 10
363.0000000000001
 20
190.5
 30
0.0
 11
317.0000000000001
 21
190.5
 31
0.0
  0
ARC
  5
8A
  8
0
  6
CONTINUOUS
 62
     7
 10
363.0000000000001
 20
189.5
 30
0.0
 40
1.000000000000001
 50
0.0
 51
90.0
  0
LINE
  5
8B
  8
0
  6
CONTINUOUS
 62
     7
 10
364.0000000000001
 20
189.5
 30
0.0
 11
364.0000000000001
 21
186.5
 31
0.0
  0
LINE
  5
8C
  8
0
  6
CONTINUOUS
 62
     7
 10
364.0000000000001
 20
186.5
 30
0.0
 11
396.3823926070279
 21
186.5
 31
0.0
  0
ARC
  5
8D
  8
0
  6
CONTINUOUS
 62
     7
 10
396.3823926070279
 20
185.5
 30
0.0
 40
1.000000000000001
 50
358.9999999999999
 51
90.0
  0
LINE
  5
8E
  8
0
  6
CONTINUOUS
 62
     7
 10
397.3822403021842
 20
185.4825475935627
 30
0.0
 11
397.1905392208614
 21
174.5
 31
0.0
  0
LINE
  5
8F
  8
0
  6
CONTINUOUS
 62
     7
 10
397.1905392208614
 20
174.5
 30
0.0
 11
396.655629091005
 21
172.5000000000001
 31
0.0
  0
LINE
  5
90
  8
0
  6
CONTINUOUS
 62
     7
 10
396.655629091005
 20
172.5000000000001
 30
0.0
 11
396.4982288737635
 21
163.4825475935627
 31
0.0
  0
ARC
  5
91
  8
0
  6
CONTINUOUS
 62
     7
 10
395.4983811786071
 20
163.5
 30
0.0
 40
0.9999999999999977
 50
270.0
 51
358.9999999999999
  0
LINE
  5
92
  8
0
  6
CONTINUOUS
 62
     7
 10
395.4983811786071
 20
162.5
 30
0.0
 11
385.0
 21
162.5
 31
0.0
  0
LINE
  5
93
  8
0
  6
CONTINUOUS
 62
     7
 10
385.0
 20
162.5
 30
0.0
 11
385.0
 21
160.0
 31
0.0
  0
ARC
  5
94
  8
0
  6
CONTINUOUS
 62
     7
 10
384.0
 20
160.0
 30
0.0
 40
1.000000000000001
 50
270.0
 51
0.0
  0
LINE
  5
95
  8
0
  6
CONTINUOUS
 62
     7
 10
384.0
 20
159.0
 30
0.0
 11
372.5
 21
159.0
 31
0.0
  0
ARC
  5
96
  8
0
  6
CONTINUOUS
 62
     7
 10
372.5000000000001
 20
158.0
 30
0.0
 40
1.000000000000001
 50
90.0
 51
180.0
  0
LINE
  5
97
  8
0
  6
CONTINUOUS
 62
     7
 10
371.5000000000001
 20
158.0
 30
0.0
 11
371.5000000000001
 21
155.5
 31
0.0
  0
ARC
  5
98
  8
0
  6
CONTINUOUS
 62
     7
 10
370.5000000000001
 20
155.5
 30
0.0
 40
1.000000000000001
 50
270.0
 51
0.0
  0
LINE
  5
99
  8
0
  6
CONTINUOUS
 62
     7
 10
370.5000000000001
 20
154.5
 30
0.0
 11
355.3000000000001
 21
154.5
 31
0.0
  0
ARC
  5
9A
  8
0
  6
CONTINUOUS
 62
     7
 10
355.3
 20
155.5
 30
0.0
 40
1.000000000000001
 50
180.0
 51
270.0
  0
LINE
  5
9B
  8
0
  6
CONTINUOUS
 62
     7
 10
354.3
 20
155.5
 30
0.0
 11
354.3
 21
159.0
 31
0.0
  0
LINE
  5
9C
  8
0
  6
CONTINUOUS
 62
     7
 10
325.7
 20
159.0
 30
0.0
 11
354.3000000000001
 21
159.0
 31
0.0
  0
LINE
  5
9D
  8
0
  6
CONTINUOUS
 62
     7
 10
325.7
 20
155.5
 30
0.0
 11
325.7
 21
159.0
 31
0.0
  0
ARC
  5
9E
  8
0
  6
CONTINUOUS
 62
     7
 10
324.7
 20
155.5
 30
0.0
 40
1.000000000000001
 50
270.0
 51
0.0
  0
LINE
  5
9F
  8
0
  6
CONTINUOUS
 62
     7
 10
309.5
 20
154.5
 30
0.0
 11
324.7
 21
154.5
 31
0.0
  0
ARC
  5
A0
  8
0
  6
CONTINUOUS
 62
     7
 10
309.5
 20
155.5
 30
0.0
 40
1.000000000000001
 50
180.0
 51
270.0
  0
LINE
  5
A1
  8
0
  6
CONTINUOUS
 62
     7
 10
308.5
 20
158.0
 30
0.0
 11
308.5
 21
155.5
 31
0.0
  0
ARC
  5
A2
  8
0
  6
CONTINUOUS
 62
     7
 10
307.5
 20
158.0
 30
0.0
 40
1.000000000000001
 50
0.0
 51
90.0
  0
LINE
  5
A3
  8
0
  6
CONTINUOUS
 62
     7
 10
296.0000000000001
 20
159.0
 30
0.0
 11
307.5000000000001
 21
159.0
 31
0.0
  0
ARC
  5
A4
  8
0
  6
CONTINUOUS
 62
     7
 10
296.0000000000001
 20
160.0
 30
0.0
 40
1.000000000000001
 50
180.0
 51
270.0
  0
LINE
  5
A5
  8
0
  6
CONTINUOUS
 62
     7
 10
295.0000000000001
 20
162.5
 30
0.0
 11
295.0000000000001
 21
160.0
 31
0.0
  0
LINE
  5
A6
  8
0
  6
CONTINUOUS
 62
     7
 10
284.501618821393
 20
162.5
 30
0.0
 11
295.0000000000001
 21
162.5
 31
0.0
  0
ARC
  5
A7
  8
0
  6
CONTINUOUS
 62
     7
 10
284.501618821393
 20
163.5
 30
0.0
 40
0.9999999999999977
 50
181.0
 51
270.0
  0
LINE
  5
A8
  8
0
  6
CONTINUOUS
 62
     7
 10
283.3443709089951
 20
172.5000000000001
 30
0.0
 11
283.5017711262365
 21
163.4825475935627
 31
0.0
  0
ENDBLK
  8
0
  0
ENDSEC
  0
SECTION
  2
ENTITIES
  0
INSERT
  5
77
  8
0
  6
CONTINUOUS
 62
     7
  2
D_FRAME_VIEW_1915
 10
0.0
 20
0.0
 30
0.0
  0
INSERT
  5
A9
  8
0
  6
CONTINUOUS
 62
     7
  2
D_FRAME_VIEW_1819
 10
0.0
 20
0.0
 30
0.0
  0
LINE
  5
AA
  8
0
  6
CONTINUOUS
 62
     7
 10
429.1
 20
154.5
 30
0.0
 11
429.1
 21
190.5
 31
0.0
  0
LINE
  5
AB
  8
0
  6
CONTINUOUS
 62
     7
 10
426.1
 20
190.5
 30
0.0
 11
426.1
 21
154.5
 31
0.0
  0
TEXT
  5
AC
  8
0
  6
CONTINUOUS
 62
     7
 10
349.2058959609853
 20
101.6568400650244
 30
0.0
 40
6.0
  1
14M
  0
ENDSEC
  0
EOF
