  0
SECTION
  2
HEADER
  9
$ACADVER
  1
AC1006
  9
$DWGCODEPAGE
  3
ansi_932
  9
$INSBASE
 10
0.0
 20
0.0
 30
0.0
  9
$EXTMIN
 10
-66.0
 20
-87.71033499382729
  9
$EXTMAX
 10
102.7146759429999
 20
98.49999999999991
  9
$LIMMIN
 10
0.0
 20
0.0
  9
$LIMMAX
 10
12.0
 20
9.0
  9
$ORTHOMODE
 70
     0
  9
$REGENMODE
 70
     1
  9
$FILLMODE
 70
     1
  9
$QTEXTMODE
 70
     0
  9
$MIRRTEXT
 70
     1
  9
$DRAGMODE
 70
     2
  9
$LTSCALE
 40
1.0
  9
$OSMODE
 70
    37
  9
$ATTMODE
 70
     1
  9
$TEXTSIZE
 40
0.2
  9
$TRACEWID
 40
0.05
  9
$TEXTSTYLE
  7
STANDARD
  9
$CLAYER
  8
0
  9
$CELTYPE
  6
BYLAYER
  9
$CECOLOR
 62
   256
  9
$DIMSCALE
 40
1.0
  9
$DIMASZ
 40
1.5
  9
$DIMEXO
 40
0.0625
  9
$DIMDLI
 40
0.38
  9
$DIMRND
 40
0.0
  9
$DIMDLE
 40
0.0
  9
$DIMEXE
 40
0.75
  9
$DIMTP
 40
0.0
  9
$DIMTM
 40
0.0
  9
$DIMTXT
 40
3.5
  9
$DIMCEN
 40
0.09
  9
$DIMTSZ
 40
0.0
  9
$DIMTOL
 70
     0
  9
$DIMLIM
 70
     0
  9
$DIMTIH
 70
     1
  9
$DIMTOH
 70
     1
  9
$DIMSE1
 70
     0
  9
$DIMSE2
 70
     0
  9
$DIMTAD
 70
     1
  9
$DIMZIN
 70
     0
  9
$DIMBLK
  1

  9
$DIMASO
 70
     1
  9
$DIMSHO
 70
     1
  9
$DIMPOST
  1

  9
$DIMAPOST
  1

  9
$DIMALT
 70
     0
  9
$DIMALTD
 70
     2
  9
$DIMALTF
 40
25.4
  9
$DIMLFAC
 40
1.0
  9
$DIMTOFL
 70
     0
  9
$DIMTVP
 40
0.0
  9
$DIMTIX
 70
     0
  9
$DIMSOXD
 70
     0
  9
$DIMSAH
 70
     0
  9
$DIMBLK1
  1

  9
$DIMBLK2
  1

  9
$LUNITS
 70
     2
  9
$LUPREC
 70
     4
  9
$SKETCHINC
 40
0.1
  9
$FILLETRAD
 40
0.5
  9
$AUNITS
 70
     0
  9
$AUPREC
 70
     0
  9
$MENU
  1
.
  9
$ELEVATION
 40
0.0
  9
$THICKNESS
 40
0.0
  9
$LIMCHECK
 70
     0
  9
$CHAMFERA
 40
0.0
  9
$CHAMFERB
 40
0.0
  9
$SKPOLY
 70
     0
  9
$TDCREATE
 40
2460193.501989676
  9
$TDUPDATE
 40
2460193.501989861
  9
$TDINDWG
 40
0.0000000116
  9
$TDUSRTIMER
 40
0.0000000116
  9
$USRTIMER
 70
     1
  9
$ANGBASE
 50
0.0
  9
$ANGDIR
 70
     0
  9
$PDMODE
 70
     0
  9
$PDSIZE
 40
0.0
  9
$PLINEWID
 40
0.0
  9
$COORDS
 70
     1
  9
$SPLFRAME
 70
     0
  9
$SPLINETYPE
 70
     6
  9
$SPLINESEGS
 70
     8
  9
$ATTDIA
 70
     0
  9
$ATTREQ
 70
     1
  9
$HANDLING
 70
     1
  9
$HANDSEED
  5
A7
  9
$SURFTAB1
 70
     6
  9
$SURFTAB2
 70
     6
  9
$SURFTYPE
 70
     6
  9
$SURFU
 70
     6
  9
$SURFV
 70
     6
  9
$UCSNAME
  2

  9
$UCSORG
 10
0.0
 20
0.0
 30
0.0
  9
$UCSXDIR
 10
1.0
 20
0.0
 30
0.0
  9
$UCSYDIR
 10
0.0
 20
1.0
 30
0.0
  9
$USERI1
 70
     0
  9
$USERI2
 70
     0
  9
$USERI3
 70
     0
  9
$USERI4
 70
     0
  9
$USERI5
 70
     0
  9
$USERR1
 40
0.0
  9
$USERR2
 40
0.0
  9
$USERR3
 40
0.0
  9
$USERR4
 40
0.0
  9
$USERR5
 40
0.0
  9
$WORLDVIEW
 70
     1
  0
ENDSEC
  0
SECTION
  2
TABLES
  0
TABLE
  2
VPORT
 70
     1
  0
VPORT
  2
*ACTIVE
 70
     0
 10
0.0
 20
0.0
 11
1.0
 21
1.0
 12
18.35733797149994
 22
5.394832503086313
 13
0.0
 23
0.0
 14
0.5
 24
0.5
 15
0.5
 25
0.5
 16
0.0
 26
0.0
 36
1.0
 17
0.0
 27
0.0
 37
0.0
 40
186.2103349938272
 41
1.6
 42
50.0
 43
0.0
 44
0.0
 50
0.0
 51
0.0
 71
     0
 72
   100
 73
     1
 74
     3
 75
     0
 76
     0
 77
     0
 78
     0
  0
ENDTAB
  0
TABLE
  2
LTYPE
 70
     3
  0
LTYPE
  2
CONTINUOUS
 70
     0
  3
Solid line
 72
    65
 73
     0
 40
0.0
  0
LTYPE
  2
________________
 70
     0
  3

 72
    65
 73
     4
 40
6.0000000300003
 49
3.0
 49
-1.5
 49
0.0000000300003
 49
-1.5
  0
LTYPE
  2
DOT
 70
     0
  3

 72
    65
 73
     0
 40
0.0
  0
ENDTAB
  0
TABLE
  2
LAYER
 70
     3
  0
LAYER
  2
0
 70
     0
 62
     7
  6
CONTINUOUS
  0
LAYER
  2
DEFPOINTS
 70
     0
 62
     7
  6
CONTINUOUS
  0
LAYER
  2
2
 70
     0
 62
     7
  6
CONTINUOUS
  0
ENDTAB
  0
TABLE
  2
STYLE
 70
     2
  0
STYLE
  2
STANDARD
 70
     0
 40
0.0
 41
1.0
 50
0.0
 71
     0
 42
0.2
  3
txt
  4

  0
STYLE
  2
ＭＳ_ゴシック
 70
     0
 40
0.0
 41
1.0
 50
0.0
 71
     0
 42
0.2
  3
ＭＳ ゴシック.shx
  4

  0
ENDTAB
  0
TABLE
  2
VIEW
 70
     0
  0
ENDTAB
  0
TABLE
  2
UCS
 70
     0
  0
ENDTAB
  0
ENDSEC
  0
SECTION
  2
BLOCKS
  0
ENDSEC
  0
SECTION
  2
ENTITIES
  0
TEXT
  5
71
  8
2
  6
CONTINUOUS
 62
     7
 10
-4.504598857842532
 20
-88.05236950676964
 30
0.0
 40
3.0
  1
1520M
 41
0.871577
  0
POLYLINE
  5
72
  8
DEFPOINTS
  6
CONTINUOUS
 62
     7
 66
     1
 10
0.0
 20
0.0
 30
0.0
 70
     1
  0
VERTEX
  5
98
  8
DEFPOINTS
  6
CONTINUOUS
 62
     7
 10
89.25000000000004
 20
-75.00000000000001
 30
0.0
  0
VERTEX
  5
99
  8
DEFPOINTS
  6
CONTINUOUS
 62
     7
 10
100.7500000000001
 20
-75.00000000000001
 30
0.0
  0
VERTEX
  5
9A
  8
DEFPOINTS
  6
CONTINUOUS
 62
     7
 10
100.7500000000001
 20
65.0
 30
0.0
  0
VERTEX
  5
9B
  8
DEFPOINTS
  6
CONTINUOUS
 62
     7
 10
89.25000000000004
 20
65.0
 30
0.0
  0
SEQEND
  5
A4
  8
DEFPOINTS
  6
CONTINUOUS
 62
     7
  0
POLYLINE
  5
73
  8
DEFPOINTS
  6
CONTINUOUS
 62
     7
 66
     1
 10
0.0
 20
0.0
 30
0.0
 70
     1
  0
VERTEX
  5
9C
  8
DEFPOINTS
  6
CONTINUOUS
 62
     7
 10
-66.0
 20
-75.00000000000001
 30
0.0
  0
VERTEX
  5
9D
  8
DEFPOINTS
  6
CONTINUOUS
 62
     7
 10
66.0
 20
-75.00000000000001
 30
0.0
  0
VERTEX
  5
9E
  8
DEFPOINTS
  6
CONTINUOUS
 62
     7
 10
66.0
 20
65.0
 30
0.0
  0
VERTEX
  5
9F
  8
DEFPOINTS
  6
CONTINUOUS
 62
     7
 10
-66.0
 20
65.0
 30
0.0
  0
SEQEND
  5
A5
  8
DEFPOINTS
  6
CONTINUOUS
 62
     7
  0
POLYLINE
  5
74
  8
DEFPOINTS
  6
CONTINUOUS
 62
     7
 66
     1
 10
0.0
 20
0.0
 30
0.0
 70
     1
  0
VERTEX
  5
A0
  8
DEFPOINTS
  6
CONTINUOUS
 62
     7
 10
-66.0
 20
87.99999999999997
 30
0.0
  0
VERTEX
  5
A1
  8
DEFPOINTS
  6
CONTINUOUS
 62
     7
 10
66.0
 20
87.99999999999997
 30
0.0
  0
VERTEX
  5
A2
  8
DEFPOINTS
  6
CONTINUOUS
 62
     7
 10
66.0
 20
91.99999999999997
 30
0.0
  0
VERTEX
  5
A3
  8
DEFPOINTS
  6
CONTINUOUS
 62
     7
 10
-66.0
 20
91.99999999999997
 30
0.0
  0
SEQEND
  5
A6
  8
DEFPOINTS
  6
CONTINUOUS
 62
     7
  0
LINE
  5
75
  8
DEFPOINTS
  6
CONTINUOUS
 62
     7
 10
98.24999999999989
 20
90.99999999999997
 30
0.0
 11
98.24999999999989
 21
88.99999999999997
 31
0.0
  0
ARC
  5
76
  8
DEFPOINTS
  6
CONTINUOUS
 62
     7
 10
100.4499999999999
 20
98.19999999999995
 30
0.0
 40
0.299999999999967
 50
0.0
 51
158.2305235492
  0
LINE
  5
77
  8
DEFPOINTS
  6
CONTINUOUS
 62
     7
 10
100.7500000000001
 20
90.29999999999994
 30
0.0
 11
100.7500000000001
 21
98.22917960669994
 31
0.0
  0
LINE
  5
78
  8
DEFPOINTS
  6
CONTINUOUS
 62
     7
 10
98.44517931879987
 20
93.9887380565999
 30
0.0
 11
100.1713949390999
 21
98.31126194339991
 31
0.0
  0
LINE
  5
79
  8
DEFPOINTS
  6
CONTINUOUS
 62
     7
 10
100.7500000000001
 20
81.77082039319994
 30
0.0
 11
100.7500000000001
 21
89.69999999999993
 31
0.0
  0
LINE
  5
7A
  8
DEFPOINTS
  6
CONTINUOUS
 62
     7
 10
90.14999999999989
 20
91.99999999999997
 30
0.0
 11
98.24999999999994
 21
91.99999999999997
 31
0.0
  0
ARC
  5
7B
  8
DEFPOINTS
  6
CONTINUOUS
 62
     7
 10
100.4499999999999
 20
81.79999999999998
 30
0.0
 40
0.299999999999967
 50
201.7694764508
 51
0.0
  0
LINE
  5
7C
  8
DEFPOINTS
  6
CONTINUOUS
 62
     7
 10
98.44517931879987
 20
86.01126194339992
 30
0.0
 11
100.1713949390999
 21
81.68873805659993
 31
0.0
  0
LINE
  5
7D
  8
DEFPOINTS
  6
CONTINUOUS
 62
     7
 10
100.7500000000001
 20
90.29999999999994
 30
0.0
 11
100.45
 21
89.99999999999994
 31
0.0
  0
LINE
  5
7E
  8
DEFPOINTS
  6
CONTINUOUS
 62
     7
 10
100.4499999999999
 20
89.99999999999997
 30
0.0
 11
100.7499999999999
 21
89.69999999999996
 31
0.0
  0
LINE
  5
7F
  8
DEFPOINTS
  6
CONTINUOUS
 62
     7
 10
98.24999999999989
 20
88.99999999999997
 30
0.0
 11
98.54999999999991
 21
88.69999999999997
 31
0.0
  0
LINE
  5
80
  8
DEFPOINTS
  6
CONTINUOUS
 62
     7
 10
98.24999999999989
 20
90.99999999999997
 30
0.0
 11
98.54999999999991
 21
91.29999999999997
 31
0.0
  0
LINE
  5
81
  8
DEFPOINTS
  6
CONTINUOUS
 62
     7
 10
98.55000000000008
 20
91.29999999999994
 30
0.0
 11
98.55000000000008
 21
91.69999999999993
 31
0.0
  0
LINE
  5
82
  8
DEFPOINTS
  6
CONTINUOUS
 62
     7
 10
98.55000000000008
 20
88.7
 30
0.0
 11
98.55000000000008
 21
88.29999999999998
 31
0.0
  0
ARC
  5
83
  8
DEFPOINTS
  6
CONTINUOUS
 62
     7
 10
98.24999999999989
 20
91.69999999999989
 30
0.0
 40
0.299999999999967
 50
0.0
 51
90.0
  0
LINE
  5
84
  8
DEFPOINTS
  6
________________
 62
     1
 10
88.1959309305999
 20
89.99999999999997
 30
0.0
 11
102.7146759429999
 21
89.99999999999997
 31
0.0
  0
ARC
  5
86
  8
DEFPOINTS
  6
CONTINUOUS
 62
     7
 10
98.16657425790004
 20
85.89999999999998
 30
0.0
 40
0.300000000000189
 50
21.76947645079997
 51
90.0
  0
LINE
  5
87
  8
DEFPOINTS
  6
CONTINUOUS
 62
     7
 10
98.16657425790004
 20
93.8
 30
0.0
 11
90.15
 21
93.8
 31
0.0
  0
ARC
  5
88
  8
DEFPOINTS
  6
CONTINUOUS
 62
     7
 10
98.16657425790004
 20
94.09999999999997
 30
0.0
 40
0.300000000000189
 50
270.0
 51
338.2305235492
  0
ARC
  5
89
  8
DEFPOINTS
  6
CONTINUOUS
 62
     7
 10
90.14999999999989
 20
92.89999999999998
 30
0.0
 40
0.8999999999999009
 50
90.0
 51
270.0
  0
ARC
  5
8A
  8
DEFPOINTS
  6
CONTINUOUS
 62
     7
 10
90.14999999999989
 20
87.09999999999995
 30
0.0
 40
0.8999999999999009
 50
90.0
 51
270.0
  0
LINE
  5
8B
  8
DEFPOINTS
  6
CONTINUOUS
 62
     7
 10
98.16657425790004
 20
86.19999999999995
 30
0.0
 11
90.15
 21
86.19999999999995
 31
0.0
  0
ARC
  5
8C
  8
DEFPOINTS
  6
CONTINUOUS
 62
     7
 10
98.24999999999989
 20
88.29999999999993
 30
0.0
 40
0.299999999999967
 50
270.0
 51
0.0
  0
LINE
  5
8D
  8
DEFPOINTS
  6
CONTINUOUS
 62
     7
 10
90.14999999999989
 20
87.99999999999997
 30
0.0
 11
98.24999999999994
 21
87.99999999999997
 31
0.0
  0
LINE
  5
8E
  8
DEFPOINTS
  6
DOT
 62
     2
 10
98.25000000000006
 20
65.0
 30
0.0
 11
98.25000000000006
 21
-75.00000000000001
 31
0.0
  0
POINT
  5
90
  8
DEFPOINTS
 62
     7
 10
95.00000000000006
 20
-5.000000000000004
 30
0.0
  0
ENDSEC
  0
EOF
