  0
SECTION
  2
HEADER
  9
$ACADVER
  1
AC1004
  9
$INSBASE
 10
0.0
 20
0.0
  9
$EXTMIN
 10
707.1898654712538
 20
177.272257
  9
$EXTMAX
 10
834.6240359257
 20
234.9564114653
  9
$LIMMIN
 10
0.0
 20
0.0
  9
$LIMMAX
 10
12.0
 20
9.0
  9
$ORTHOMODE
 70
     0
  9
$REGENMODE
 70
     1
  9
$FILLMODE
 70
     1
  9
$QTEXTMODE
 70
     0
  9
$DRAGMODE
 70
     2
  9
$LTSCALE
 40
1.0
  9
$OSMODE
 70
    37
  9
$ATTMODE
 70
     1
  9
$TEXTSIZE
 40
0.2
  9
$TRACEWID
 40
0.05
  9
$TEXTSTYLE
  7
STANDARD
  9
$CLAYER
  8
0
  9
$CELTYPE
  6
BYLAYER
  9
$CECOLOR
 62
   256
  9
$DIMSCALE
 40
1.0
  9
$DIMASZ
 40
2.5
  9
$DIMEXO
 40
0.0625
  9
$DIMDLI
 40
0.38
  9
$DIMRND
 40
0.0
  9
$DIMDLE
 40
0.0
  9
$DIMEXE
 40
1.25
  9
$DIMTP
 40
0.0
  9
$DIMTM
 40
0.0
  9
$DIMTXT
 40
3.5
  9
$DIMCEN
 40
0.09
  9
$DIMTSZ
 40
0.0
  9
$DIMTOL
 70
     0
  9
$DIMLIM
 70
     0
  9
$DIMTIH
 70
     1
  9
$DIMTOH
 70
     1
  9
$DIMSE1
 70
     0
  9
$DIMSE2
 70
     0
  9
$DIMTAD
 70
     1
  9
$DIMZIN
 70
     0
  9
$DIMBLK
  1

  9
$DIMASO
 70
     1
  9
$DIMSHO
 70
     1
  9
$DIMPOST
  1

  9
$DIMAPOST
  1

  9
$DIMALT
 70
     0
  9
$DIMALTD
 70
     2
  9
$DIMALTF
 40
25.4
  9
$DIMLFAC
 40
1.0
  9
$DIMTOFL
 70
     0
  9
$DIMTVP
 40
0.0
  9
$DIMTIX
 70
     0
  9
$DIMSOXD
 70
     0
  9
$DIMSAH
 70
     0
  9
$DIMBLK1
  1

  9
$DIMBLK2
  1

  9
$LUNITS
 70
     2
  9
$LUPREC
 70
     4
  9
$SKETCHINC
 40
0.1
  9
$FILLETRAD
 40
0.5
  9
$AUNITS
 70
     0
  9
$AUPREC
 70
     0
  9
$MENU
  1
.
  9
$ELEVATION
 40
0.0
  9
$THICKNESS
 40
0.0
  9
$LIMCHECK
 70
     0
  9
$CHAMFERA
 40
0.0
  9
$CHAMFERB
 40
0.0
  9
$SKPOLY
 70
     0
  9
$TDCREATE
 40
2460262.466286643
  9
$TDUPDATE
 40
2460262.466286748
  9
$TDINDWG
 40
0.0000000116
  9
$TDUSRTIMER
 40
0.0000000116
  9
$USRTIMER
 70
     1
  9
$ANGBASE
 50
0.0
  9
$ANGDIR
 70
     0
  9
$PDMODE
 70
     0
  9
$PDSIZE
 40
0.0
  9
$PLINEWID
 40
0.0
  9
$COORDS
 70
     1
  9
$SPLFRAME
 70
     0
  9
$SPLINETYPE
 70
     6
  9
$SPLINESEGS
 70
     8
  9
$ATTDIA
 70
     0
  9
$ATTREQ
 70
     1
  9
$SURFTAB1
 70
     6
  9
$SURFTAB2
 70
     6
  9
$SURFTYPE
 70
     6
  9
$SURFU
 70
     6
  9
$SURFV
 70
     6
  9
$UCSNAME
  2

  9
$UCSORG
 10
0.0
 20
0.0
 30
0.0
  9
$UCSXDIR
 10
1.0
 20
0.0
 30
0.0
  9
$UCSYDIR
 10
0.0
 20
1.0
 30
0.0
  9
$USERI1
 70
     0
  9
$USERI2
 70
     0
  9
$USERI3
 70
     0
  9
$USERI4
 70
     0
  9
$USERI5
 70
     0
  9
$USERR1
 40
0.0
  9
$USERR2
 40
0.0
  9
$USERR3
 40
0.0
  9
$USERR4
 40
0.0
  9
$USERR5
 40
0.0
  9
$WORLDVIEW
 70
     1
  0
ENDSEC
  0
SECTION
  2
TABLES
  0
TABLE
  2
LTYPE
 70
     2
  0
LTYPE
  2
CONTINUOUS
 70
     0
  3
Solid line
 72
    65
 73
     0
 40
0.0
  0
LTYPE
  2
CENTER
 70
     0
  3

 72
    65
 73
     0
 40
0.0
  0
ENDTAB
  0
TABLE
  2
LAYER
 70
     2
  0
LAYER
  2
0
 70
     0
 62
     7
  6
CONTINUOUS
  0
LAYER
  2
1
 70
     0
 62
     7
  6
CONTINUOUS
  0
ENDTAB
  0
TABLE
  2
STYLE
 70
     2
  0
STYLE
  2
STANDARD
 70
     0
 40
0.0
 41
1.0
 50
0.0
 71
     0
 42
0.2
  3
txt
  4

  0
STYLE
  2
ＭＳ_ゴシック
 70
     0
 40
0.0
 41
1.0
 50
0.0
 71
     0
 42
0.2
  3
ＭＳ ゴシック.shx
  4

  0
ENDTAB
  0
TABLE
  2
VIEW
 70
     0
  0
ENDTAB
  0
ENDSEC
  0
SECTION
  2
BLOCKS
  0
ENDSEC
  0
SECTION
  2
ENTITIES
  0
LINE
  8
1
  6
CONTINUOUS
 62
     7
 10
733.6150129632529
 20
227.5788213502232
 11
733.6217620220209
 21
227.6506603505074
  0
LINE
  8
1
  6
CONTINUOUS
 62
     7
 10
733.1240359256999
 20
228.5475562580047
 11
725.6240359257
 21
228.5475562580047
  0
LINE
  8
1
  6
CONTINUOUS
 62
     7
 10
733.2460107274983
 20
226.8977315724452
 11
733.2595598352979
 21
226.9047553866639
  0
ARC
  8
1
  6
CONTINUOUS
 62
     7
 10
733.1240359256999
 20
228.0475562580047
 40
0.500000000000056
 50
0.0
 51
90.0
  0
LINE
  8
1
  6
CONTINUOUS
 62
     7
 10
733.2726959750466
 20
226.9123093459181
 11
733.2853862616691
 21
226.920326950277
  0
LINE
  8
1
  6
CONTINUOUS
 62
     7
 10
733.299924725558
 20
226.9304020813873
 11
733.3139434378016
 21
226.9410289718306
  0
LINE
  8
1
  6
CONTINUOUS
 62
     7
 10
733.2853862616691
 20
226.920326950277
 11
733.299924725558
 21
226.9304020813873
  0
LINE
  8
1
  6
CONTINUOUS
 62
     7
 10
733.6217620220209
 20
227.6506603505074
 11
733.6240359257
 21
227.7219470570283
  0
LINE
  8
1
  6
CONTINUOUS
 62
     7
 10
733.2320815367232
 20
226.8913044031929
 11
733.2460107274983
 21
226.8977315724452
  0
LINE
  8
1
  6
CONTINUOUS
 62
     7
 10
733.3139434378016
 20
226.9410289718306
 11
733.3274464474729
 21
226.9521347715537
  0
LINE
  8
1
  6
CONTINUOUS
 62
     7
 10
733.1565124384765
 20
226.870203624533
 11
733.1672402391596
 21
226.8718001547844
  0
LINE
  8
1
  6
CONTINUOUS
 62
     7
 10
733.3274464474729
 20
226.9521347715537
 11
733.3521960345025
 21
226.9746998726108
  0
LINE
  8
1
  6
CONTINUOUS
 62
     7
 10
733.6038977277996
 20
227.5067438059396
 11
733.6150129632529
 21
227.5788213502232
  0
LINE
  8
1
  6
CONTINUOUS
 62
     7
 10
733.1672402391596
 20
226.8718001547844
 11
733.1778616969809
 21
226.873825592422
  0
LINE
  8
1
  6
CONTINUOUS
 62
     7
 10
733.6286342033524
 20
227.9595932398929
 11
733.6235179420886
 21
228.0409379342193
  0
LINE
  8
1
  6
CONTINUOUS
 62
     7
 10
733.3521960345025
 20
226.9746998726108
 11
733.3753425760628
 21
226.99855470351
  0
LINE
  8
1
  6
CONTINUOUS
 62
     7
 10
733.535576672384
 20
227.2675293213291
 11
733.5560300473431
 21
227.3229394337988
  0
LINE
  8
1
  6
CONTINUOUS
 62
     7
 10
733.3753425760628
 20
226.99855470351
 11
733.3969735958392
 21
227.0235242156268
  0
LINE
  8
1
  6
CONTINUOUS
 62
     7
 10
733.5121063370716
 20
227.2127863150992
 11
733.535576672384
 21
227.2675293213291
  0
ARC
  8
1
  6
CONTINUOUS
 62
     7
 10
725.6240359257
 20
229.5475562580047
 40
1.000000000000001
 50
180.0
 51
270.0
  0
LINE
  8
1
  6
CONTINUOUS
 62
     7
 10
733.6240359257
 20
228.0475562580047
 11
733.6240359257
 21
227.7219470570282
  0
LINE
  8
1
  6
CONTINUOUS
 62
     7
 10
733.1240359256999
 20
226.868109207117
 11
733.1348757871027
 21
226.8683459777972
  0
LINE
  8
1
  6
CONTINUOUS
 62
     7
 10
733.1457127895762
 20
226.8690481745699
 11
733.1565124384765
 21
226.870203624533
  0
LINE
  8
1
  6
CONTINUOUS
 62
     7
 10
733.1778616969809
 20
226.873825592422
 11
733.1883423172968
 21
226.8762677645439
  0
LINE
  8
1
  6
CONTINUOUS
 62
     7
 10
733.1883423172968
 20
226.8762677645439
 11
733.203214446547
 21
226.8805059993114
  0
LINE
  8
1
  6
CONTINUOUS
 62
     7
 10
733.203214446547
 20
226.8805059993114
 11
733.2178051480475
 21
226.885540378838
  0
LINE
  8
1
  6
CONTINUOUS
 62
     7
 10
733.2178051480475
 20
226.885540378838
 11
733.2320815367232
 21
226.8913044031929
  0
LINE
  8
1
  6
CONTINUOUS
 62
     7
 10
733.2595598352979
 20
226.9047553866639
 11
733.2726959750466
 21
226.9123093459181
  0
LINE
  8
1
  6
CONTINUOUS
 62
     7
 10
733.5736263064148
 20
227.378761774999
 11
733.5885252940647
 21
227.4347414674204
  0
LINE
  8
1
  6
CONTINUOUS
 62
     7
 10
733.5885252940647
 20
227.4347414674204
 11
733.6038977277996
 21
227.5067438059396
  0
LINE
  8
1
  6
CONTINUOUS
 62
     7
 10
733.1348757871027
 20
226.8683459777972
 11
733.1457127895762
 21
226.8690481745699
  0
LINE
  8
1
  6
CONTINUOUS
 62
     7
 10
733.5560300473431
 20
227.3229394337988
 11
733.5736263064148
 21
227.378761774999
  0
LINE
  8
1
  6
CONTINUOUS
 62
     7
 10
733.4854591969399
 20
227.1589652926184
 11
733.5121063370716
 21
227.2127863150992
  0
LINE
  8
1
  6
CONTINUOUS
 62
     7
 10
733.4360391647803
 20
227.0761070890152
 11
733.4536487613153
 21
227.103370353038
  0
LINE
  8
1
  6
CONTINUOUS
 62
     7
 10
733.4171766175167
 20
227.0494333603367
 11
733.4360391647803
 21
227.0761070890152
  0
LINE
  8
1
  6
CONTINUOUS
 62
     7
 10
733.3969735958392
 20
227.0235242156268
 11
733.4171766175167
 21
227.0494333603367
  0
LINE
  8
1
  6
CONTINUOUS
 62
     7
 10
733.4536487613153
 20
227.103370353038
 11
733.4700929308068
 21
227.1310481037806
  0
LINE
  8
1
  6
CONTINUOUS
 62
     7
 10
733.4700929308068
 20
202.7817748268194
 11
733.4854591969399
 21
202.7538576379816
  0
LINE
  8
1
  6
CONTINUOUS
 62
     7
 10
733.2726959750466
 20
203.0005135846818
 11
733.2853862616691
 21
202.992495980323
  0
LINE
  8
1
  6
CONTINUOUS
 62
     7
 10
733.2853862616691
 20
202.992495980323
 11
733.299924725558
 21
202.9824208492127
  0
LINE
  8
1
  6
CONTINUOUS
 62
     7
 10
733.3969735958392
 20
202.8892987149733
 11
733.4171766175167
 21
202.8633895702633
  0
LINE
  8
1
  6
CONTINUOUS
 62
     7
 10
733.3753425760628
 20
202.91426822709
 11
733.3969735958392
 21
202.8892987149733
  0
LINE
  8
1
  6
CONTINUOUS
 62
     7
 10
733.5736263064148
 20
202.5340611556011
 11
733.5885252940647
 21
202.4780814631796
  0
LINE
  8
1
  6
CONTINUOUS
 62
     7
 10
733.4536487613153
 20
202.809452577562
 11
733.4700929308068
 21
202.7817748268194
  0
LINE
  8
1
  6
CONTINUOUS
 62
     7
 10
733.5121063370716
 20
202.7000366155008
 11
733.535576672384
 21
202.645293609271
  0
LINE
  8
1
  6
CONTINUOUS
 62
     7
 10
733.5885252940647
 20
202.4780814631796
 11
733.6038977277996
 21
202.4060791246604
  0
ARC
  8
1
  6
CONTINUOUS
 62
     7
 10
725.6240359257
 20
200.3652666725953
 40
1.000000000000001
 50
90.0
 51
180.0
  0
LINE
  8
1
  6
CONTINUOUS
 62
     7
 10
733.1240359256999
 20
201.3652666725953
 11
725.6240359257
 21
201.3652666725953
  0
LINE
  8
1
  6
CONTINUOUS
 62
     7
 10
733.6240359257
 20
201.8652666725953
 11
733.6240359257
 21
202.1908758735718
  0
LINE
  8
1
  6
CONTINUOUS
 62
     7
 10
733.1457127895762
 20
203.0437747560301
 11
733.1565124384765
 21
203.042619306067
  0
LINE
  8
1
  6
CONTINUOUS
 62
     7
 10
733.5560300473431
 20
202.5898834968013
 11
733.5736263064148
 21
202.5340611556011
  0
LINE
  8
1
  6
CONTINUOUS
 62
     7
 10
733.1565124384765
 20
203.042619306067
 11
733.1672402391596
 21
203.0410227758156
  0
LINE
  8
1
  6
CONTINUOUS
 62
     7
 10
733.6217620220209
 20
202.2621625800926
 11
733.6240359257
 21
202.1908758735717
  0
LINE
  8
1
  6
CONTINUOUS
 62
     7
 10
733.4171766175167
 20
202.8633895702633
 11
733.4360391647803
 21
202.8367158415848
  0
ARC
  8
1
  6
CONTINUOUS
 62
     7
 10
733.1240359256999
 20
201.8652666725953
 40
0.500000000000056
 50
270.0
 51
0.0
  0
LINE
  8
1
  6
CONTINUOUS
 62
     7
 10
733.1672402391596
 20
203.0410227758156
 11
733.1778616969809
 21
203.038997338178
  0
LINE
  8
1
  6
CONTINUOUS
 62
     7
 10
733.1240359256999
 20
203.044713723483
 11
733.1348757871027
 21
203.0444769528027
  0
LINE
  8
1
  6
CONTINUOUS
 62
     7
 10
733.1778616969809
 20
203.038997338178
 11
733.1883423172968
 21
203.036555166056
  0
LINE
  8
1
  6
CONTINUOUS
 62
     7
 10
733.1348757871027
 20
203.0444769528027
 11
733.1457127895762
 21
203.0437747560301
  0
LINE
  8
1
  6
CONTINUOUS
 62
     7
 10
733.6038977277996
 20
202.4060791246604
 11
733.6150129632529
 21
202.3340015803768
  0
LINE
  8
1
  6
CONTINUOUS
 62
     7
 10
733.535576672384
 20
202.645293609271
 11
733.5560300473431
 21
202.5898834968013
  0
LINE
  8
1
  6
CONTINUOUS
 62
     7
 10
733.6150129632529
 20
202.3340015803768
 11
733.6217620220209
 21
202.2621625800926
  0
LINE
  8
1
  6
CONTINUOUS
 62
     7
 10
733.203214446547
 20
203.0323169312886
 11
733.2178051480475
 21
203.027282551762
  0
LINE
  8
1
  6
CONTINUOUS
 62
     7
 10
733.2178051480475
 20
203.027282551762
 11
733.2320815367232
 21
203.0215185274071
  0
LINE
  8
1
  6
CONTINUOUS
 62
     7
 10
733.4360391647803
 20
202.8367158415848
 11
733.4536487613153
 21
202.809452577562
  0
LINE
  8
1
  6
CONTINUOUS
 62
     7
 10
733.6286342033524
 20
201.953229690707
 11
733.6235179420886
 21
201.8718849963807
  0
LINE
  8
1
  6
CONTINUOUS
 62
     7
 10
733.1883423172968
 20
203.036555166056
 11
733.203214446547
 21
203.0323169312886
  0
LINE
  8
1
  6
CONTINUOUS
 62
     7
 10
733.2320815367232
 20
203.0215185274071
 11
733.2460107274983
 21
203.0150913581548
  0
LINE
  8
1
  6
CONTINUOUS
 62
     7
 10
733.2460107274983
 20
203.0150913581548
 11
733.2595598352979
 21
203.0080675439361
  0
LINE
  8
1
  6
CONTINUOUS
 62
     7
 10
733.2595598352979
 20
203.0080675439361
 11
733.2726959750466
 21
203.0005135846818
  0
LINE
  8
1
  6
CONTINUOUS
 62
     7
 10
733.4854591969399
 20
202.7538576379816
 11
733.5121063370716
 21
202.7000366155008
  0
LINE
  8
1
  6
CONTINUOUS
 62
     7
 10
733.2048441585183
 20
208.6776629666782
 11
733.1908975030475
 21
208.675396924584
  0
LINE
  8
1
  6
CONTINUOUS
 62
     7
 10
733.5121063370716
 20
202.7000366155008
 11
733.535576672384
 21
202.645293609271
  0
LINE
  8
1
  6
CONTINUOUS
 62
     7
 10
733.5736263064148
 20
202.5340611556011
 11
733.5885252940647
 21
202.4780814631796
  0
LINE
  8
1
  6
CONTINUOUS
 62
     7
 10
733.5757464371003
 20
208.9789728857948
 11
733.5567545194996
 21
208.9401111462704
  0
LINE
  8
1
  6
CONTINUOUS
 62
     7
 10
733.3669975627944
 20
208.7388609843161
 11
733.349567882176
 21
208.7288251587244
  0
LINE
  8
1
  6
CONTINUOUS
 62
     7
 10
733.349567882176
 20
208.7288251587244
 11
733.3311947059955
 21
208.7192588805236
  0
LINE
  8
1
  6
CONTINUOUS
 62
     7
 10
733.3521960345025
 20
202.9381230579892
 11
733.3753425760628
 21
202.91426822709
  0
LINE
  8
1
  6
CONTINUOUS
 62
     7
 10
733.1908975030475
 20
208.675396924584
 11
733.1800194300249
 21
208.6739371486037
  0
LINE
  8
1
  6
CONTINUOUS
 62
     7
 10
733.3835139996374
 20
208.7492827473346
 11
733.3669975627944
 21
208.7388609843161
  0
LINE
  8
1
  6
CONTINUOUS
 62
     7
 10
733.2577586788227
 20
208.6903070877916
 11
733.2450239028975
 21
208.6866689351406
  0
LINE
  8
1
  6
CONTINUOUS
 62
     7
 10
733.146593828937
 20
208.6710791398687
 11
733.1353166065137
 21
208.6706586664519
  0
LINE
  8
1
  6
CONTINUOUS
 62
     7
 10
733.5084686583392
 20
208.8656951960265
 11
733.4902428934284
 21
208.8433025881547
  0
LINE
  8
1
  6
CONTINUOUS
 62
     7
 10
733.3118477824667
 20
208.7102457596779
 11
733.2914968598033
 21
208.7018694061518
  0
LINE
  8
1
  6
CONTINUOUS
 62
     7
 10
733.6240359257
 20
209.2082725441954
 11
733.6240359257
 21
209.9943626932262
  0
LINE
  8
1
  6
CONTINUOUS
 62
     7
 10
733.1240359256999
 20
210.978367934822
 11
733.2261965978164
 21
210.9556338450982
  0
LINE
  8
1
  6
CONTINUOUS
 62
     7
 10
733.3969735958392
 20
202.8892987149733
 11
733.4171766175167
 21
202.8633895702633
  0
LINE
  8
1
  6
CONTINUOUS
 62
     7
 10
733.6150129632529
 20
202.3340015803768
 11
733.6217620220209
 21
202.2621625800926
  0
LINE
  8
1
  6
CONTINUOUS
 62
     7
 10
733.4249443012216
 20
208.7796659404993
 11
733.3991474444911
 21
208.7600068378155
  0
LINE
  8
1
  6
CONTINUOUS
 62
     7
 10
725.6240359257
 20
203.044713723483
 11
733.1240359257
 21
203.0447137234829
  0
LINE
  8
1
  6
CONTINUOUS
 62
     7
 10
733.270111686219
 20
208.6942134299094
 11
733.2577586788227
 21
208.6903070877916
  0
LINE
  8
1
  6
CONTINUOUS
 62
     7
 10
733.5567545194996
 20
208.9401111462704
 11
733.5343837617985
 21
208.902308180884
  0
LINE
  8
1
  6
CONTINUOUS
 62
     7
 10
733.4854591969399
 20
202.7538576379816
 11
733.5121063370716
 21
202.7000366155008
  0
LINE
  8
1
  6
CONTINUOUS
 62
     7
 10
733.6219529542262
 20
209.1594317547426
 11
733.6157720929833
 21
209.1114817814612
  0
LINE
  8
1
  6
CONTINUOUS
 62
     7
 10
733.3274464474729
 20
202.9606881590463
 11
733.3521960345025
 21
202.9381230579892
  0
LINE
  8
1
  6
CONTINUOUS
 62
     7
 10
733.6157720929833
 20
209.1114817814612
 11
733.6055954217383
 21
209.0645496017645
  0
LINE
  8
1
  6
CONTINUOUS
 62
     7
 10
733.5915250202584
 20
209.0187621930663
 11
733.5757464371003
 21
208.9789728857948
  0
LINE
  8
1
  6
CONTINUOUS
 62
     7
 10
733.4902428934284
 20
208.8433025881547
 11
733.4703449576393
 21
208.8214256320333
  0
LINE
  8
1
  6
CONTINUOUS
 62
     7
 10
733.3991474444911
 20
208.7600068378155
 11
733.3835139996374
 21
208.7492827473346
  0
LINE
  8
1
  6
CONTINUOUS
 62
     7
 10
733.2185351232882
 20
208.680316939315
 11
733.2048441585183
 21
208.6776629666782
  0
LINE
  8
1
  6
CONTINUOUS
 62
     7
 10
733.1689837722764
 20
208.6727259078724
 11
733.1578290613858
 21
208.6717707293181
  0
ARC
  8
1
  6
CONTINUOUS
 62
     7
 10
732.1897778088193
 20
210.0312314935562
 40
1.434731910245343
 50
358.5274885154157
 51
32.49510837536194
  0
LINE
  8
1
  6
CONTINUOUS
 62
     7
 10
733.1353166065137
 20
208.6706586664519
 11
733.1240359256999
 21
208.6705168359956
  0
LINE
  8
1
  6
CONTINUOUS
 62
     7
 10
733.6038977277996
 20
202.4060791246604
 11
733.6150129632529
 21
202.3340015803768
  0
LINE
  8
1
  6
CONTINUOUS
 62
     7
 10
733.2450239028975
 20
208.6866689351406
 11
733.2319388779002
 21
208.6833289072254
  0
LINE
  8
1
  6
CONTINUOUS
 62
     7
 10
733.6055954217383
 20
209.0645496017645
 11
733.5915250202584
 21
209.0187621930663
  0
LINE
  8
1
  6
CONTINUOUS
 62
     7
 10
725.6240359257
 20
210.978367934822
 11
733.1240359257
 21
210.978367934822
  0
LINE
  8
1
  6
CONTINUOUS
 62
     7
 10
733.5560300473431
 20
202.5898834968013
 11
733.5736263064148
 21
202.5340611556011
  0
LINE
  8
1
  6
CONTINUOUS
 62
     7
 10
733.3173436313045
 20
210.8950325102309
 11
733.399884238467
 21
210.8020090770401
  0
LINE
  8
1
  6
CONTINUOUS
 62
     7
 10
733.1240359256999
 20
218.9344549957781
 11
725.6240359257
 21
218.934454995778
  0
ARC
  8
1
  6
CONTINUOUS
 62
     7
 10
732.0402869597211
 20
219.9096651475011
 40
1.583773386834517
 50
333.6912286903421
 51
0.3181794342632998
  0
LINE
  8
1
  6
CONTINUOUS
 62
     7
 10
733.4600108674408
 20
219.2077234357515
 11
733.3991474444911
 21
219.1098107176865
  0
LINE
  8
1
  6
CONTINUOUS
 62
     7
 10
733.5343837617985
 20
208.902308180884
 11
733.5084686583392
 21
208.8656951960265
  0
LINE
  8
1
  6
CONTINUOUS
 62
     7
 10
733.3991474444911
 20
219.1098107176865
 11
733.3282774923887
 21
219.0278590839508
  0
LINE
  8
1
  6
CONTINUOUS
 62
     7
 10
733.3282774923887
 20
219.0278590839508
 11
733.2453048173405
 21
218.9666013971052
  0
LINE
  8
1
  6
CONTINUOUS
 62
     7
 10
733.2261965978164
 20
210.9556338450982
 11
733.3173436313045
 21
210.8950325102309
  0
LINE
  8
1
  6
CONTINUOUS
 62
     7
 10
733.3139434378016
 20
202.9717939587694
 11
733.3274464474729
 21
202.9606881590463
  0
LINE
  8
1
  6
CONTINUOUS
 62
     7
 10
733.6217620220209
 20
202.2621625800926
 11
733.6240359257
 21
202.1908758735717
  0
LINE
  8
1
  6
CONTINUOUS
 62
     7
 10
733.299924725558
 20
202.9824208492127
 11
733.3139434378016
 21
202.9717939587694
  0
LINE
  8
1
  6
CONTINUOUS
 62
     7
 10
733.4171766175167
 20
202.8633895702633
 11
733.4360391647803
 21
202.8367158415848
  0
LINE
  8
1
  6
CONTINUOUS
 62
     7
 10
733.4360391647803
 20
202.8367158415848
 11
733.4536487613153
 21
202.809452577562
  0
LINE
  8
1
  6
CONTINUOUS
 62
     7
 10
733.4536487613153
 20
202.809452577562
 11
733.4700929308068
 21
202.7817748268194
  0
LINE
  8
1
  6
CONTINUOUS
 62
     7
 10
733.4703449576393
 20
208.8214256320333
 11
733.4486277829207
 21
208.8001761440267
  0
LINE
  8
1
  6
CONTINUOUS
 62
     7
 10
733.3753425760628
 20
202.91426822709
 11
733.3969735958392
 21
202.8892987149733
  0
LINE
  8
1
  6
CONTINUOUS
 62
     7
 10
733.3311947059955
 20
208.7192588805236
 11
733.3118477824667
 21
208.7102457596779
  0
LINE
  8
1
  6
CONTINUOUS
 62
     7
 10
733.1240359256999
 20
208.6705168359956
 11
725.6240359257
 21
208.6705168359956
  0
LINE
  8
1
  6
CONTINUOUS
 62
     7
 10
733.5885252940647
 20
202.4780814631796
 11
733.6038977277996
 21
202.4060791246604
  0
LINE
  8
1
  6
CONTINUOUS
 62
     7
 10
733.4700929308068
 20
202.7817748268194
 11
733.4854591969399
 21
202.7538576379816
  0
LINE
  8
1
  6
CONTINUOUS
 62
     7
 10
733.4486277829207
 20
208.8001761440267
 11
733.4249443012216
 21
208.7796659404993
  0
LINE
  8
1
  6
CONTINUOUS
 62
     7
 10
733.2914968598033
 20
208.7018694061518
 11
733.270111686219
 21
208.6942134299094
  0
LINE
  8
1
  6
CONTINUOUS
 62
     7
 10
733.6240359257
 20
209.2082725441954
 11
733.6219529542262
 21
209.1594317547426
  0
LINE
  8
1
  6
CONTINUOUS
 62
     7
 10
733.2319388779002
 20
208.6833289072254
 11
733.2185351232882
 21
208.680316939315
  0
LINE
  8
1
  6
CONTINUOUS
 62
     7
 10
733.1800194300249
 20
208.6739371486037
 11
733.1689837722764
 21
208.6727259078724
  0
LINE
  8
1
  6
CONTINUOUS
 62
     7
 10
733.1578290613858
 20
208.6717707293181
 11
733.146593828937
 21
208.6710791398687
  0
LINE
  8
1
  6
CONTINUOUS
 62
     7
 10
733.535576672384
 20
202.645293609271
 11
733.5560300473431
 21
202.5898834968013
  0
LINE
  8
1
  6
CONTINUOUS
 62
     7
 10
733.3521960345025
 20
221.1825513481361
 11
733.3753425760628
 21
221.1689294615915
  0
LINE
  8
1
  6
CONTINUOUS
 62
     7
 10
733.6157720929833
 20
227.5851249198425
 11
733.6055954217383
 21
227.5162228333348
  0
LINE
  8
1
  6
CONTINUOUS
 62
     7
 10
733.5343837617985
 20
227.2647317435527
 11
733.5084686583392
 21
227.2050668515047
  0
LINE
  8
1
  6
CONTINUOUS
 62
     7
 10
733.3311947059955
 20
226.9552809865
 11
733.3118477824667
 21
226.9393183951309
  0
LINE
  8
1
  6
CONTINUOUS
 62
     7
 10
733.270111686219
 20
226.9107522311785
 11
733.2577586788227
 21
226.9037561407934
  0
LINE
  8
1
  6
CONTINUOUS
 62
     7
 10
733.2577586788227
 20
226.9037561407934
 11
733.2450239028975
 21
226.8972284377851
  0
LINE
  8
1
  6
CONTINUOUS
 62
     7
 10
733.2853862616691
 20
221.2132512700997
 11
733.299924725558
 21
221.2075978695124
  0
LINE
  8
1
  6
CONTINUOUS
 62
     7
 10
733.4536487613153
 20
221.1080150400665
 11
733.4700929308068
 21
221.0916305910108
  0
LINE
  8
1
  6
CONTINUOUS
 62
     7
 10
733.1565124384765
 20
221.2411488129445
 11
733.1672402391596
 21
221.2402659501026
  0
LINE
  8
1
  6
CONTINUOUS
 62
     7
 10
733.4700929308068
 20
221.0916305910108
 11
733.4854591969399
 21
221.0749641545501
  0
LINE
  8
1
  6
CONTINUOUS
 62
     7
 10
733.5560300473431
 20
220.9741308263686
 11
733.5736263064148
 21
220.9386115852231
  0
LINE
  8
1
  6
CONTINUOUS
 62
     7
 10
733.5736263064148
 20
220.9386115852231
 11
733.5885252940647
 21
220.9023329100241
  0
LINE
  8
1
  6
CONTINUOUS
 62
     7
 10
733.1778616969809
 20
221.239145314314
 11
733.1883423172968
 21
221.237793372497
  0
LINE
  8
1
  6
CONTINUOUS
 62
     7
 10
733.1457127895762
 20
221.241787435921
 11
733.1565124384765
 21
221.2411488129445
  0
LINE
  8
1
  6
CONTINUOUS
 62
     7
 10
733.3969735958392
 20
221.1545747124799
 11
733.4171766175167
 21
221.1395772758335
  0
LINE
  8
1
  6
CONTINUOUS
 62
     7
 10
733.6150129632529
 20
220.8056813215204
 11
733.6217620220209
 21
220.7556034301134
  0
LINE
  8
1
  6
CONTINUOUS
 62
     7
 10
733.1672402391596
 20
221.2402659501026
 11
733.1778616969809
 21
221.239145314314
  0
LINE
  8
1
  6
CONTINUOUS
 62
     7
 10
725.6240359257
 20
221.2423060946044
 11
733.1240359257
 21
221.2423060946044
  0
ARC
  8
1
  6
CONTINUOUS
 62
     7
 10
725.6240359257
 20
229.5475562580048
 40
1.000000000000001
 50
180.0
 51
270.0
  0
LINE
  8
1
  6
CONTINUOUS
 62
     7
 10
733.6219529542262
 20
227.6537909946058
 11
733.6157720929833
 21
227.5851249198425
  0
LINE
  8
1
  6
CONTINUOUS
 62
     7
 10
733.5567545194996
 20
227.3251967819247
 11
733.5343837617985
 21
227.2647317435527
  0
LINE
  8
1
  6
CONTINUOUS
 62
     7
 10
733.1240359256999
 20
221.2423060946044
 11
733.1348757871027
 21
221.2421753521138
  0
LINE
  8
1
  6
CONTINUOUS
 62
     7
 10
733.5084686583392
 20
227.2050668515047
 11
733.4902428934284
 21
227.168026483021
  0
LINE
  8
1
  6
CONTINUOUS
 62
     7
 10
733.6240359257
 20
219.9184602373739
 11
733.6240359257
 21
220.7045503864047
  0
LINE
  8
1
  6
CONTINUOUS
 62
     7
 10
733.146862067786
 20
218.9355819125284
 11
733.1240359256999
 21
218.9344549957781
  0
ARC
  8
1
  6
CONTINUOUS
 62
     7
 10
733.1240359256999
 20
228.0475562580048
 40
0.500000000000056
 50
0.0
 51
90.0
  0
LINE
  8
1
  6
CONTINUOUS
 62
     7
 10
733.4360391647803
 20
221.1240273266849
 11
733.4536487613153
 21
221.1080150400665
  0
LINE
  8
1
  6
CONTINUOUS
 62
     7
 10
725.6240359257
 20
228.5475562580048
 11
733.1240359256999
 21
228.5475562580048
  0
LINE
  8
1
  6
CONTINUOUS
 62
     7
 10
733.535576672384
 20
221.0087738543672
 11
733.5560300473431
 21
220.9741308263686
  0
LINE
  8
1
  6
CONTINUOUS
 62
     7
 10
733.4703449576393
 20
227.1314381316497
 11
733.4486277829207
 21
227.0955242439159
  0
LINE
  8
1
  6
CONTINUOUS
 62
     7
 10
733.2178051480475
 20
221.2326522872671
 11
733.2320815367232
 21
221.2294499949624
  0
LINE
  8
1
  6
CONTINUOUS
 62
     7
 10
733.2595598352979
 20
221.2219580771781
 11
733.2726959750466
 21
221.2177389181802
  0
LINE
  8
1
  6
CONTINUOUS
 62
     7
 10
733.2726959750466
 20
221.2177389181802
 11
733.2853862616691
 21
221.2132512700997
  0
LINE
  8
1
  6
CONTINUOUS
 62
     7
 10
733.5885252940647
 20
220.9023329100241
 11
733.6038977277996
 21
220.8546393762744
  0
LINE
  8
1
  6
CONTINUOUS
 62
     7
 10
733.2453048173405
 20
218.9666013971052
 11
733.146862067786
 21
218.9355819125284
  0
LINE
  8
1
  6
CONTINUOUS
 62
     7
 10
733.5915250202584
 20
227.447358735679
 11
733.5757464371003
 21
227.3861698261303
  0
LINE
  8
1
  6
CONTINUOUS
 62
     7
 10
733.3139434378016
 20
221.2016180572565
 11
733.3274464474729
 21
221.195350197081
  0
LINE
  8
1
  6
CONTINUOUS
 62
     7
 10
733.6217620220209
 20
220.7556034301134
 11
733.6240359257
 21
220.7045503864047
  0
LINE
  8
1
  6
CONTINUOUS
 62
     7
 10
733.2320815367232
 20
221.2294499949624
 11
733.2460107274983
 21
221.2258735138524
  0
LINE
  8
1
  6
CONTINUOUS
 62
     7
 10
733.299924725558
 20
221.2075978695124
 11
733.3139434378016
 21
221.2016180572565
  0
LINE
  8
1
  6
CONTINUOUS
 62
     7
 10
733.4854591969399
 20
221.0749641545501
 11
733.5121063370716
 21
221.0424238901255
  0
LINE
  8
1
  6
CONTINUOUS
 62
     7
 10
733.4171766175167
 20
221.1395772758335
 11
733.4360391647803
 21
221.1240273266849
  0
LINE
  8
1
  6
CONTINUOUS
 62
     7
 10
733.1883423172968
 20
221.237793372497
 11
733.203214446547
 21
221.2354451575255
  0
LINE
  8
1
  6
CONTINUOUS
 62
     7
 10
733.5121063370716
 20
221.0424238901255
 11
733.535576672384
 21
221.0087738543672
  0
LINE
  8
1
  6
CONTINUOUS
 62
     7
 10
733.6240359257
 20
227.7219470570283
 11
733.6240359257
 21
228.0475562580048
  0
LINE
  8
1
  6
CONTINUOUS
 62
     7
 10
733.6240359257
 20
227.7219470570283
 11
733.6219529542262
 21
227.6537909946058
  0
LINE
  8
1
  6
CONTINUOUS
 62
     7
 10
733.1348757871027
 20
221.2421753521138
 11
733.1457127895762
 21
221.241787435921
  0
LINE
  8
1
  6
CONTINUOUS
 62
     7
 10
733.203214446547
 20
221.2354451575255
 11
733.2178051480475
 21
221.2326522872671
  0
LINE
  8
1
  6
CONTINUOUS
 62
     7
 10
733.6055954217383
 20
227.5162228333348
 11
733.5915250202584
 21
227.447358735679
  0
LINE
  8
1
  6
CONTINUOUS
 62
     7
 10
733.5757464371003
 20
227.3861698261303
 11
733.5567545194996
 21
227.3251967819247
  0
LINE
  8
1
  6
CONTINUOUS
 62
     7
 10
733.6038977277996
 20
220.8546393762744
 11
733.6150129632529
 21
220.8056813215204
  0
LINE
  8
1
  6
CONTINUOUS
 62
     7
 10
733.4486277829207
 20
227.0955242439159
 11
733.4249443012216
 21
227.0605072663442
  0
LINE
  8
1
  6
CONTINUOUS
 62
     7
 10
733.4249443012216
 20
227.0605072663442
 11
733.3991474444911
 21
227.0266096454598
  0
LINE
  8
1
  6
CONTINUOUS
 62
     7
 10
733.3274464474729
 20
221.195350197081
 11
733.3521960345025
 21
221.1825513481361
  0
LINE
  8
1
  6
CONTINUOUS
 62
     7
 10
733.3991474444911
 20
227.0266096454598
 11
733.3835139996374
 21
227.0079744597662
  0
LINE
  8
1
  6
CONTINUOUS
 62
     7
 10
733.3835139996374
 20
227.0079744597662
 11
733.3669975627944
 21
226.989768380352
  0
LINE
  8
1
  6
CONTINUOUS
 62
     7
 10
733.3669975627944
 20
226.989768380352
 11
733.349567882176
 21
226.9721507687518
  0
LINE
  8
1
  6
CONTINUOUS
 62
     7
 10
733.349567882176
 20
226.9721507687518
 11
733.3311947059955
 21
226.9552809865
  0
LINE
  8
1
  6
CONTINUOUS
 62
     7
 10
733.4902428934284
 20
227.168026483021
 11
733.4703449576393
 21
227.1314381316497
  0
LINE
  8
1
  6
CONTINUOUS
 62
     7
 10
733.3118477824667
 20
226.9393183951309
 11
733.2914968598033
 21
226.9244223561789
  0
LINE
  8
1
  6
CONTINUOUS
 62
     7
 10
733.2914968598033
 20
226.9244223561789
 11
733.270111686219
 21
226.9107522311785
  0
LINE
  8
1
  6
CONTINUOUS
 62
     7
 10
733.2460107274983
 20
221.2258735138524
 11
733.2595598352979
 21
221.2219580771781
  0
LINE
  8
1
  6
CONTINUOUS
 62
     7
 10
733.3753425760628
 20
221.1689294615915
 11
733.3969735958392
 21
221.1545747124799
  0
LINE
  8
1
  6
CONTINUOUS
 62
     7
 10
733.2178051480475
 20
203.027282551762
 11
733.2320815367232
 21
203.0215185274071
  0
LINE
  8
1
  6
CONTINUOUS
 62
     7
 10
733.2460107274983
 20
203.0150913581548
 11
733.2595598352979
 21
203.0080675439361
  0
LINE
  8
1
  6
CONTINUOUS
 62
     7
 10
733.2726959750466
 20
203.0005135846818
 11
733.2853862616691
 21
202.992495980323
  0
LINE
  8
1
  6
CONTINUOUS
 62
     7
 10
733.2853862616691
 20
202.992495980323
 11
733.299924725558
 21
202.9824208492127
  0
LINE
  8
1
  6
CONTINUOUS
 62
     7
 10
733.299924725558
 20
202.9824208492127
 11
733.3139434378016
 21
202.9717939587694
  0
LINE
  8
1
  6
CONTINUOUS
 62
     7
 10
733.1883423172968
 20
203.036555166056
 11
733.203214446547
 21
203.0323169312886
  0
LINE
  8
1
  6
CONTINUOUS
 62
     7
 10
733.3521960345025
 20
202.9381230579892
 11
733.3753425760628
 21
202.91426822709
  0
LINE
  8
1
  6
CONTINUOUS
 62
     7
 10
733.1778616969809
 20
203.038997338178
 11
733.1883423172968
 21
203.036555166056
  0
LINE
  8
1
  6
CONTINUOUS
 62
     7
 10
733.2595598352979
 20
203.0080675439361
 11
733.2726959750466
 21
203.0005135846818
  0
LINE
  8
1
  6
CONTINUOUS
 62
     7
 10
733.203214446547
 20
203.0323169312886
 11
733.2178051480475
 21
203.027282551762
  0
LINE
  8
1
  6
CONTINUOUS
 62
     7
 10
733.3139434378016
 20
202.9717939587694
 11
733.3274464474729
 21
202.9606881590463
  0
LINE
  8
1
  6
CONTINUOUS
 62
     7
 10
733.3274464474729
 20
202.9606881590463
 11
733.3521960345025
 21
202.9381230579892
  0
LINE
  8
1
  6
CONTINUOUS
 62
     7
 10
733.2320815367232
 20
203.0215185274071
 11
733.2460107274983
 21
203.0150913581548
  0
LINE
  8
1
  6
CONTINUOUS
 62
     7
 10
733.6217620220209
 20
227.6506603505074
 11
733.6240359257
 21
227.7219470570283
  0
LINE
  8
1
  6
CONTINUOUS
 62
     7
 10
733.5736263064148
 20
227.378761774999
 11
733.5885252940647
 21
227.4347414674204
  0
LINE
  8
1
  6
CONTINUOUS
 62
     7
 10
733.5560300473431
 20
227.3229394337988
 11
733.5736263064148
 21
227.378761774999
  0
LINE
  8
1
  6
CONTINUOUS
 62
     7
 10
733.6038977277996
 20
227.5067438059396
 11
733.6150129632529
 21
227.5788213502232
  0
LINE
  8
1
  6
CONTINUOUS
 62
     7
 10
733.4700929308068
 20
227.1310481037806
 11
733.4854591969399
 21
227.1589652926184
  0
LINE
  8
1
  6
CONTINUOUS
 62
     7
 10
733.5885252940647
 20
227.4347414674204
 11
733.6038977277996
 21
227.5067438059396
  0
LINE
  8
1
  6
CONTINUOUS
 62
     7
 10
733.535576672384
 20
227.2675293213291
 11
733.5560300473431
 21
227.3229394337988
  0
LINE
  8
1
  6
CONTINUOUS
 62
     7
 10
725.6240359257
 20
226.868109207117
 11
733.1240359257
 21
226.8681092071171
  0
LINE
  8
1
  6
CONTINUOUS
 62
     7
 10
733.6150129632529
 20
227.5788213502232
 11
733.6217620220209
 21
227.6506603505074
  0
LINE
  8
1
  6
CONTINUOUS
 62
     7
 10
733.5121063370716
 20
227.2127863150992
 11
733.535576672384
 21
227.2675293213291
  0
LINE
  8
1
  6
CONTINUOUS
 62
     7
 10
733.4854591969399
 20
227.1589652926184
 11
733.5121063370716
 21
227.2127863150992
  0
LINE
  8
1
  6
CONTINUOUS
 62
     7
 10
733.5567545194996
 20
202.5876261486753
 11
733.5343837617985
 21
202.6480911870473
  0
LINE
  8
1
  6
CONTINUOUS
 62
     7
 10
733.5343837617985
 20
202.6480911870473
 11
733.5084686583392
 21
202.7077560790953
  0
LINE
  8
1
  6
CONTINUOUS
 62
     7
 10
733.5757464371003
 20
202.5266531044697
 11
733.5567545194996
 21
202.5876261486753
  0
LINE
  8
1
  6
CONTINUOUS
 62
     7
 10
733.5084686583392
 20
202.7077560790953
 11
733.4902428934284
 21
202.744796447579
  0
LINE
  8
1
  6
CONTINUOUS
 62
     7
 10
733.4703449576393
 20
202.7813847989503
 11
733.4486277829207
 21
202.8172986866842
  0
LINE
  8
1
  6
CONTINUOUS
 62
     7
 10
733.4486277829207
 20
202.8172986866842
 11
733.4249443012216
 21
202.8523156642558
  0
LINE
  8
1
  6
CONTINUOUS
 62
     7
 10
733.4902428934284
 20
202.744796447579
 11
733.4703449576393
 21
202.7813847989503
  0
LINE
  8
1
  6
CONTINUOUS
 62
     7
 10
733.3835139996374
 20
202.9048484708338
 11
733.3669975627944
 21
202.923054550248
  0
LINE
  8
1
  6
CONTINUOUS
 62
     7
 10
733.2450239028975
 20
203.0155944928149
 11
733.2319388779002
 21
203.0215973262188
  0
LINE
  8
1
  6
CONTINUOUS
 62
     7
 10
733.2319388779002
 20
203.0215973262188
 11
733.2185351232882
 21
203.0270188077907
  0
LINE
  8
1
  6
CONTINUOUS
 62
     7
 10
733.2048441585183
 20
203.0318024553033
 11
733.1908975030475
 21
203.035891786529
  0
LINE
  8
1
  6
CONTINUOUS
 62
     7
 10
733.1908975030475
 20
203.035891786529
 11
733.1800194300249
 21
203.0385283431185
  0
LINE
  8
1
  6
CONTINUOUS
 62
     7
 10
733.1800194300249
 20
203.0385283431185
 11
733.1689837722764
 21
203.0407172974848
  0
LINE
  8
1
  6
CONTINUOUS
 62
     7
 10
733.1689837722764
 20
203.0407172974848
 11
733.1578290613858
 21
203.0424444811663
  0
LINE
  8
1
  6
CONTINUOUS
 62
     7
 10
733.270111686219
 20
203.0020706994215
 11
733.2577586788227
 21
203.0090667898066
  0
LINE
  8
1
  6
CONTINUOUS
 62
     7
 10
733.2185351232882
 20
203.0270188077907
 11
733.2048441585183
 21
203.0318024553033
  0
LINE
  8
1
  6
CONTINUOUS
 62
     7
 10
733.349567882176
 20
202.9406721618482
 11
733.3311947059955
 21
202.9575419441
  0
LINE
  8
1
  6
CONTINUOUS
 62
     7
 10
733.3669975627944
 20
202.923054550248
 11
733.349567882176
 21
202.9406721618482
  0
LINE
  8
1
  6
CONTINUOUS
 62
     7
 10
733.4249443012216
 20
202.8523156642558
 11
733.3991474444911
 21
202.8862132851402
  0
LINE
  8
1
  6
CONTINUOUS
 62
     7
 10
733.3991474444911
 20
202.8862132851402
 11
733.3835139996374
 21
202.9048484708338
  0
LINE
  8
1
  6
CONTINUOUS
 62
     7
 10
733.3118477824667
 20
202.9735045354691
 11
733.2914968598033
 21
202.9884005744211
  0
LINE
  8
1
  6
CONTINUOUS
 62
     7
 10
733.2914968598033
 20
202.9884005744211
 11
733.270111686219
 21
203.0020706994215
  0
LINE
  8
1
  6
CONTINUOUS
 62
     7
 10
733.2577586788227
 20
203.0090667898066
 11
733.2450239028975
 21
203.0155944928149
  0
LINE
  8
1
  6
CONTINUOUS
 62
     7
 10
733.3311947059955
 20
202.9575419441
 11
733.3118477824667
 21
202.9735045354691
  0
LINE
  8
1
  6
CONTINUOUS
 62
     7
 10
733.1578290613858
 20
203.0424444811663
 11
733.146593828937
 21
203.043695725701
  0
LINE
  8
1
  6
CONTINUOUS
 62
     7
 10
733.1672402391596
 20
203.0410227758156
 11
733.1778616969809
 21
203.038997338178
  0
LINE
  8
1
  6
CONTINUOUS
 62
     7
 10
725.6240359257
 20
203.044713723483
 11
733.1240359257
 21
203.0447137234829
  0
LINE
  8
1
  6
CONTINUOUS
 62
     7
 10
733.1348757871027
 20
203.0444769528027
 11
733.1457127895762
 21
203.0437747560301
  0
LINE
  8
1
  6
CONTINUOUS
 62
     7
 10
733.1565124384765
 20
203.042619306067
 11
733.1672402391596
 21
203.0410227758156
  0
LINE
  8
1
  6
CONTINUOUS
 62
     7
 10
733.1457127895762
 20
203.0437747560301
 11
733.1565124384765
 21
203.042619306067
  0
LINE
  8
1
  6
CONTINUOUS
 62
     7
 10
733.146593828937
 20
203.043695725701
 11
733.1353166065137
 21
203.0444568626272
  0
LINE
  8
1
  6
CONTINUOUS
 62
     7
 10
733.1353166065137
 20
203.0444568626272
 11
733.1240359256999
 21
203.0447137234829
  0
LINE
  8
1
  6
CONTINUOUS
 62
     7
 10
733.1240359256999
 20
203.0447137234829
 11
725.6240359257
 21
203.044713723483
  0
LINE
  8
1
  6
CONTINUOUS
 62
     7
 10
733.1240359256999
 20
201.3652666725953
 11
725.6240359257
 21
201.3652666725953
  0
LINE
  8
1
  6
CONTINUOUS
 62
     7
 10
733.1240359256999
 20
203.044713723483
 11
733.1348757871027
 21
203.0444769528027
  0
POLYLINE
  8
1
  6
CONTINUOUS
 62
     7
 66
     1
  0
VERTEX
  8
1
  6
CONTINUOUS
 62
     7
 10
725.6240359257
 20
218.934454995778
  0
VERTEX
  8
1
  6
CONTINUOUS
 62
     7
 10
725.4289456036839
 20
218.9214737193763
  0
VERTEX
  8
1
  6
CONTINUOUS
 62
     7
 10
725.241352493335
 20
218.8830287533435
  0
VERTEX
  8
1
  6
CONTINUOUS
 62
     7
 10
725.0684656926804
 20
218.8205975161639
  0
VERTEX
  8
1
  6
CONTINUOUS
 62
     7
 10
724.9169291445135
 20
218.7365792052706
  0
VERTEX
  8
1
  6
CONTINUOUS
 62
     7
 10
724.7925663133975
 20
218.6342025972332
  0
VERTEX
  8
1
  6
CONTINUOUS
 62
     7
 10
724.7001563931888
 20
218.5174019676849
  0
VERTEX
  8
1
  6
CONTINUOUS
 62
     7
 10
724.6432506452968
 20
218.390665899317
  0
VERTEX
  8
1
  6
CONTINUOUS
 62
     7
 10
724.6240359257
 20
218.2588647881624
  0
SEQEND
  8
1
  6
CONTINUOUS
 62
     7
  0
POLYLINE
  8
1
  6
CONTINUOUS
 62
     7
 66
     1
  0
VERTEX
  8
1
  6
CONTINUOUS
 62
     7
 10
724.6240359257
 20
222.2413543161863
  0
VERTEX
  8
1
  6
CONTINUOUS
 62
     7
 10
724.6432506452968
 20
222.0464496769282
  0
VERTEX
  8
1
  6
CONTINUOUS
 62
     7
 10
724.7001563931888
 20
221.8590351136531
  0
VERTEX
  8
1
  6
CONTINUOUS
 62
     7
 10
724.7925663133975
 20
221.6863128629242
  0
VERTEX
  8
1
  6
CONTINUOUS
 62
     7
 10
724.9169291445135
 20
221.5349205439734
  0
VERTEX
  8
1
  6
CONTINUOUS
 62
     7
 10
725.0684656926804
 20
221.4106760787161
  0
VERTEX
  8
1
  6
CONTINUOUS
 62
     7
 10
725.241352493335
 20
221.318354112275
  0
VERTEX
  8
1
  6
CONTINUOUS
 62
     7
 10
725.4289456036839
 20
221.2615025260458
  0
VERTEX
  8
1
  6
CONTINUOUS
 62
     7
 10
725.6240359257
 20
221.2423060946044
  0
SEQEND
  8
1
  6
CONTINUOUS
 62
     7
  0
POLYLINE
  8
1
  6
CONTINUOUS
 62
     9
 66
     1
  0
VERTEX
  8
1
  6
CONTINUOUS
 62
     9
 10
724.6240359257
 20
226.9117285944824
  0
VERTEX
  8
1
  6
CONTINUOUS
 62
     9
 10
724.6432506452969
 20
226.9032188741551
  0
VERTEX
  8
1
  6
CONTINUOUS
 62
     9
 10
724.7001563931889
 20
226.8950361776078
  0
VERTEX
  8
1
  6
CONTINUOUS
 62
     9
 10
724.7925663133976
 20
226.8874949612796
  0
VERTEX
  8
1
  6
CONTINUOUS
 62
     9
 10
724.9169291445137
 20
226.8808850298851
  0
VERTEX
  8
1
  6
CONTINUOUS
 62
     9
 10
725.0684656926807
 20
226.8754603993808
  0
VERTEX
  8
1
  6
CONTINUOUS
 62
     9
 10
725.2413524933351
 20
226.8714295352749
  0
VERTEX
  8
1
  6
CONTINUOUS
 62
     9
 10
725.4289456036839
 20
226.8689473414143
  0
VERTEX
  8
1
  6
CONTINUOUS
 62
     9
 10
725.6240359257
 20
226.868109207117
  0
SEQEND
  8
1
  6
CONTINUOUS
 62
     9
  0
LINE
  8
1
  6
CONTINUOUS
 62
     7
 10
808.4108324901
 20
229.9564114653
 11
799.6240359257
 21
221.1696149009
  0
LINE
  8
1
  6
CONTINUOUS
 62
     7
 10
799.6240359257
 20
221.1696149009
 11
799.6240359257
 21
208.7432080297
  0
POLYLINE
  8
1
  6
CONTINUOUS
 62
     7
 66
     1
  0
VERTEX
  8
1
  6
CONTINUOUS
 62
     7
 10
725.6240359257
 20
203.044713723483
  0
VERTEX
  8
1
  6
CONTINUOUS
 62
     7
 10
725.4289456036839
 20
203.0438755891857
  0
VERTEX
  8
1
  6
CONTINUOUS
 62
     7
 10
725.2413524933351
 20
203.0413933953251
  0
VERTEX
  8
1
  6
CONTINUOUS
 62
     7
 10
725.0684656926807
 20
203.0373625312192
  0
VERTEX
  8
1
  6
CONTINUOUS
 62
     7
 10
724.9169291445137
 20
203.0319379007149
  0
VERTEX
  8
1
  6
CONTINUOUS
 62
     7
 10
724.7925663133976
 20
203.0253279693204
  0
VERTEX
  8
1
  6
CONTINUOUS
 62
     7
 10
724.7001563931889
 20
203.0177867529923
  0
VERTEX
  8
1
  6
CONTINUOUS
 62
     7
 10
724.6432506452969
 20
203.0096040564449
  0
VERTEX
  8
1
  6
CONTINUOUS
 62
     7
 10
724.6240359257
 20
203.0010943361177
  0
SEQEND
  8
1
  6
CONTINUOUS
 62
     7
  0
LINE
  8
1
  6
CONTINUOUS
 62
     7
 10
820.8372393613
 20
199.9564114653
 11
829.6240359257
 21
208.7432080297
  0
POLYLINE
  8
1
  6
CONTINUOUS
 62
     7
 66
     1
  0
VERTEX
  8
1
  6
CONTINUOUS
 62
     7
 10
725.6240359257
 20
203.044713723483
  0
VERTEX
  8
1
  6
CONTINUOUS
 62
     7
 10
725.4289456036839
 20
203.0438755891857
  0
VERTEX
  8
1
  6
CONTINUOUS
 62
     7
 10
725.2413524933351
 20
203.0413933953251
  0
VERTEX
  8
1
  6
CONTINUOUS
 62
     7
 10
725.0684656926807
 20
203.0373625312192
  0
VERTEX
  8
1
  6
CONTINUOUS
 62
     7
 10
724.9169291445137
 20
203.0319379007149
  0
VERTEX
  8
1
  6
CONTINUOUS
 62
     7
 10
724.7925663133976
 20
203.0253279693204
  0
VERTEX
  8
1
  6
CONTINUOUS
 62
     7
 10
724.7001563931889
 20
203.0177867529923
  0
VERTEX
  8
1
  6
CONTINUOUS
 62
     7
 10
724.6432506452969
 20
203.0096040564449
  0
VERTEX
  8
1
  6
CONTINUOUS
 62
     7
 10
724.6240359257
 20
203.0010943361177
  0
SEQEND
  8
1
  6
CONTINUOUS
 62
     7
  0
POLYLINE
  8
1
  6
CONTINUOUS
 62
     7
 66
     1
  0
VERTEX
  8
1
  6
CONTINUOUS
 62
     7
 10
725.6240359257
 20
218.934454995778
  0
VERTEX
  8
1
  6
CONTINUOUS
 62
     7
 10
725.4289456036839
 20
218.9214737193764
  0
VERTEX
  8
1
  6
CONTINUOUS
 62
     7
 10
725.241352493335
 20
218.8830287533435
  0
VERTEX
  8
1
  6
CONTINUOUS
 62
     7
 10
725.0684656926804
 20
218.820597516164
  0
VERTEX
  8
1
  6
CONTINUOUS
 62
     7
 10
724.9169291445135
 20
218.7365792052706
  0
VERTEX
  8
1
  6
CONTINUOUS
 62
     7
 10
724.7925663133975
 20
218.6342025972332
  0
VERTEX
  8
1
  6
CONTINUOUS
 62
     7
 10
724.7001563931888
 20
218.517401967685
  0
VERTEX
  8
1
  6
CONTINUOUS
 62
     7
 10
724.6432506452968
 20
218.390665899317
  0
VERTEX
  8
1
  6
CONTINUOUS
 62
     7
 10
724.6240359257
 20
218.2588647881624
  0
SEQEND
  8
1
  6
CONTINUOUS
 62
     7
  0
LINE
  8
1
  6
CONTINUOUS
 62
     7
 10
829.6240359257
 20
208.7432080297
 11
829.6240359257
 21
221.1696149009
  0
LINE
  8
1
  6
CONTINUOUS
 62
     7
 10
820.8372393613
 20
229.9564114653
 11
808.4108324901
 21
229.9564114653
  0
LINE
  8
1
  6
CONTINUOUS
 62
     7
 10
829.6240359257
 20
221.1696149009
 11
820.8372393613
 21
229.9564114653
  0
POLYLINE
  8
1
  6
CONTINUOUS
 62
     9
 66
     1
  0
VERTEX
  8
1
  6
CONTINUOUS
 62
     9
 10
724.6240359257
 20
226.9117285944824
  0
VERTEX
  8
1
  6
CONTINUOUS
 62
     9
 10
724.6432506452969
 20
226.9032188741551
  0
VERTEX
  8
1
  6
CONTINUOUS
 62
     9
 10
724.7001563931889
 20
226.8950361776078
  0
VERTEX
  8
1
  6
CONTINUOUS
 62
     9
 10
724.7925663133976
 20
226.8874949612796
  0
VERTEX
  8
1
  6
CONTINUOUS
 62
     9
 10
724.9169291445137
 20
226.8808850298851
  0
VERTEX
  8
1
  6
CONTINUOUS
 62
     9
 10
725.0684656926807
 20
226.8754603993808
  0
VERTEX
  8
1
  6
CONTINUOUS
 62
     9
 10
725.2413524933351
 20
226.8714295352749
  0
VERTEX
  8
1
  6
CONTINUOUS
 62
     9
 10
725.4289456036839
 20
226.8689473414143
  0
VERTEX
  8
1
  6
CONTINUOUS
 62
     9
 10
725.6240359257
 20
226.868109207117
  0
SEQEND
  8
1
  6
CONTINUOUS
 62
     9
  0
POLYLINE
  8
1
  6
CONTINUOUS
 62
     7
 66
     1
  0
VERTEX
  8
1
  6
CONTINUOUS
 62
     7
 10
725.6240359257
 20
203.044713723483
  0
VERTEX
  8
1
  6
CONTINUOUS
 62
     7
 10
725.4289456036839
 20
203.0438755891857
  0
VERTEX
  8
1
  6
CONTINUOUS
 62
     7
 10
725.2413524933351
 20
203.0413933953251
  0
VERTEX
  8
1
  6
CONTINUOUS
 62
     7
 10
725.0684656926807
 20
203.0373625312192
  0
VERTEX
  8
1
  6
CONTINUOUS
 62
     7
 10
724.9169291445137
 20
203.0319379007149
  0
VERTEX
  8
1
  6
CONTINUOUS
 62
     7
 10
724.7925663133976
 20
203.0253279693204
  0
VERTEX
  8
1
  6
CONTINUOUS
 62
     7
 10
724.7001563931889
 20
203.0177867529923
  0
VERTEX
  8
1
  6
CONTINUOUS
 62
     7
 10
724.6432506452969
 20
203.0096040564449
  0
VERTEX
  8
1
  6
CONTINUOUS
 62
     7
 10
724.6240359257
 20
203.0010943361177
  0
SEQEND
  8
1
  6
CONTINUOUS
 62
     7
  0
LINE
  8
1
  6
CONTINUOUS
 62
     7
 10
764.6240359257
 20
203.9564114653
 11
764.6240359257
 21
225.9564114653
  0
LINE
  8
1
  6
CONTINUOUS
 62
     7
 10
724.6240359257
 20
199.9564114653
 11
724.6240359257
 21
229.9564114653
  0
POLYLINE
  8
1
  6
CONTINUOUS
 62
     9
 66
     1
  0
VERTEX
  8
1
  6
CONTINUOUS
 62
     9
 10
724.6240359257
 20
226.9117285944824
  0
VERTEX
  8
1
  6
CONTINUOUS
 62
     9
 10
724.6432506452969
 20
226.9032188741551
  0
VERTEX
  8
1
  6
CONTINUOUS
 62
     9
 10
724.7001563931889
 20
226.8950361776078
  0
VERTEX
  8
1
  6
CONTINUOUS
 62
     9
 10
724.7925663133976
 20
226.8874949612796
  0
VERTEX
  8
1
  6
CONTINUOUS
 62
     9
 10
724.9169291445137
 20
226.8808850298851
  0
VERTEX
  8
1
  6
CONTINUOUS
 62
     9
 10
725.0684656926807
 20
226.8754603993808
  0
VERTEX
  8
1
  6
CONTINUOUS
 62
     9
 10
725.2413524933351
 20
226.8714295352749
  0
VERTEX
  8
1
  6
CONTINUOUS
 62
     9
 10
725.4289456036839
 20
226.8689473414143
  0
VERTEX
  8
1
  6
CONTINUOUS
 62
     9
 10
725.6240359257
 20
226.868109207117
  0
SEQEND
  8
1
  6
CONTINUOUS
 62
     9
  0
LINE
  8
1
  6
CONTINUOUS
 62
     7
 10
799.6240359257
 20
208.7432080297
 11
808.4108324901
 21
199.9564114653
  0
ARC
  8
1
  6
CONTINUOUS
 62
     7
 10
737.6240359257
 20
202.9564114653
 40
1.000000000000001
 50
270.0
 51
0.0
  0
LINE
  8
1
  6
CONTINUOUS
 62
     7
 10
739.6240359257
 20
203.9564114653
 11
764.6240359257
 21
203.9564114653
  0
LINE
  8
1
  6
CONTINUOUS
 62
     7
 10
721.6240359257
 20
199.9564114653
 11
724.6240359257
 21
199.9564114653
  0
POLYLINE
  8
1
  6
CONTINUOUS
 62
     7
 66
     1
  0
VERTEX
  8
1
  6
CONTINUOUS
 62
     7
 10
724.6240359257
 20
211.6539581424376
  0
VERTEX
  8
1
  6
CONTINUOUS
 62
     7
 10
724.6432506452968
 20
211.5221570312829
  0
VERTEX
  8
1
  6
CONTINUOUS
 62
     7
 10
724.7001563931888
 20
211.395420962915
  0
VERTEX
  8
1
  6
CONTINUOUS
 62
     7
 10
724.7925663133975
 20
211.2786203333668
  0
VERTEX
  8
1
  6
CONTINUOUS
 62
     7
 10
724.9169291445135
 20
211.1762437253294
  0
VERTEX
  8
1
  6
CONTINUOUS
 62
     7
 10
725.0684656926804
 20
211.0922254144361
  0
VERTEX
  8
1
  6
CONTINUOUS
 62
     7
 10
725.241352493335
 20
211.0297941772565
  0
VERTEX
  8
1
  6
CONTINUOUS
 62
     7
 10
725.4289456036839
 20
210.9913492112236
  0
VERTEX
  8
1
  6
CONTINUOUS
 62
     7
 10
725.6240359257
 20
210.978367934822
  0
SEQEND
  8
1
  6
CONTINUOUS
 62
     7
  0
ARC
  8
1
  6
CONTINUOUS
 62
     7
 10
739.6240359257
 20
202.9564114653
 40
1.000000000000001
 50
90.0
 51
180.0
  0
LINE
  8
1
  6
CONTINUOUS
 62
     7
 10
808.4108324901
 20
199.9564114653
 11
820.8372393613
 21
199.9564114653
  0
POLYLINE
  8
1
  6
CONTINUOUS
 62
     7
 66
     1
  0
VERTEX
  8
1
  6
CONTINUOUS
 62
     7
 10
725.6240359257
 20
208.6705168359956
  0
VERTEX
  8
1
  6
CONTINUOUS
 62
     7
 10
725.4289456036839
 20
208.6513204045542
  0
VERTEX
  8
1
  6
CONTINUOUS
 62
     7
 10
725.241352493335
 20
208.594468818325
  0
VERTEX
  8
1
  6
CONTINUOUS
 62
     7
 10
725.0684656926804
 20
208.5021468518839
  0
VERTEX
  8
1
  6
CONTINUOUS
 62
     7
 10
724.9169291445135
 20
208.3779023866266
  0
VERTEX
  8
1
  6
CONTINUOUS
 62
     7
 10
724.7925663133975
 20
208.2265100676757
  0
VERTEX
  8
1
  6
CONTINUOUS
 62
     7
 10
724.7001563931888
 20
208.0537878169469
  0
VERTEX
  8
1
  6
CONTINUOUS
 62
     7
 10
724.6432506452968
 20
207.8663732536718
  0
VERTEX
  8
1
  6
CONTINUOUS
 62
     7
 10
724.6240359257
 20
207.6714686144137
  0
SEQEND
  8
1
  6
CONTINUOUS
 62
     7
  0
POLYLINE
  8
1
  6
CONTINUOUS
 62
     9
 66
     1
  0
VERTEX
  8
1
  6
CONTINUOUS
 62
     9
 10
724.6240359257
 20
226.9117285944824
  0
VERTEX
  8
1
  6
CONTINUOUS
 62
     9
 10
724.6432506452969
 20
226.9032188741551
  0
VERTEX
  8
1
  6
CONTINUOUS
 62
     9
 10
724.7001563931889
 20
226.8950361776078
  0
VERTEX
  8
1
  6
CONTINUOUS
 62
     9
 10
724.7925663133976
 20
226.8874949612796
  0
VERTEX
  8
1
  6
CONTINUOUS
 62
     9
 10
724.9169291445137
 20
226.8808850298851
  0
VERTEX
  8
1
  6
CONTINUOUS
 62
     9
 10
725.0684656926807
 20
226.8754603993808
  0
VERTEX
  8
1
  6
CONTINUOUS
 62
     9
 10
725.2413524933351
 20
226.8714295352749
  0
VERTEX
  8
1
  6
CONTINUOUS
 62
     9
 10
725.4289456036839
 20
226.8689473414143
  0
VERTEX
  8
1
  6
CONTINUOUS
 62
     9
 10
725.6240359257
 20
226.868109207117
  0
SEQEND
  8
1
  6
CONTINUOUS
 62
     9
  0
LINE
  8
1
  6
CONTINUOUS
 62
     7
 10
733.6240359257
 20
201.9564114653
 11
737.6240359257
 21
201.9564114653
  0
POLYLINE
  8
1
  6
CONTINUOUS
 62
     7
 66
     1
  0
VERTEX
  8
1
  6
CONTINUOUS
 62
     7
 10
724.6240359257
 20
211.6539581424376
  0
VERTEX
  8
1
  6
CONTINUOUS
 62
     7
 10
724.6432506452968
 20
211.5221570312829
  0
VERTEX
  8
1
  6
CONTINUOUS
 62
     7
 10
724.7001563931888
 20
211.395420962915
  0
VERTEX
  8
1
  6
CONTINUOUS
 62
     7
 10
724.7925663133975
 20
211.2786203333668
  0
VERTEX
  8
1
  6
CONTINUOUS
 62
     7
 10
724.9169291445135
 20
211.1762437253294
  0
VERTEX
  8
1
  6
CONTINUOUS
 62
     7
 10
725.0684656926804
 20
211.092225414436
  0
VERTEX
  8
1
  6
CONTINUOUS
 62
     7
 10
725.241352493335
 20
211.0297941772565
  0
VERTEX
  8
1
  6
CONTINUOUS
 62
     7
 10
725.4289456036839
 20
210.9913492112236
  0
VERTEX
  8
1
  6
CONTINUOUS
 62
     7
 10
725.6240359257
 20
210.978367934822
  0
SEQEND
  8
1
  6
CONTINUOUS
 62
     7
  0
POLYLINE
  8
1
  6
CONTINUOUS
 62
     7
 66
     1
  0
VERTEX
  8
1
  6
CONTINUOUS
 62
     7
 10
724.6240359257
 20
222.2413543161863
  0
VERTEX
  8
1
  6
CONTINUOUS
 62
     7
 10
724.6432506452968
 20
222.0464496769283
  0
VERTEX
  8
1
  6
CONTINUOUS
 62
     7
 10
724.7001563931886
 20
221.8590351136532
  0
VERTEX
  8
1
  6
CONTINUOUS
 62
     7
 10
724.7925663133974
 20
221.6863128629243
  0
VERTEX
  8
1
  6
CONTINUOUS
 62
     7
 10
724.9169291445135
 20
221.5349205439734
  0
VERTEX
  8
1
  6
CONTINUOUS
 62
     7
 10
725.0684656926803
 20
221.4106760787161
  0
VERTEX
  8
1
  6
CONTINUOUS
 62
     7
 10
725.2413524933348
 20
221.318354112275
  0
VERTEX
  8
1
  6
CONTINUOUS
 62
     7
 10
725.4289456036838
 20
221.2615025260457
  0
VERTEX
  8
1
  6
CONTINUOUS
 62
     7
 10
725.6240359256999
 20
221.2423060946044
  0
SEQEND
  8
1
  6
CONTINUOUS
 62
     7
  0
POLYLINE
  8
1
  6
CONTINUOUS
 62
     7
 66
     1
  0
VERTEX
  8
1
  6
CONTINUOUS
 62
     7
 10
725.6240359256999
 20
208.6705168359956
  0
VERTEX
  8
1
  6
CONTINUOUS
 62
     7
 10
725.4289456036838
 20
208.6513204045542
  0
VERTEX
  8
1
  6
CONTINUOUS
 62
     7
 10
725.2413524933348
 20
208.594468818325
  0
VERTEX
  8
1
  6
CONTINUOUS
 62
     7
 10
725.0684656926803
 20
208.5021468518839
  0
VERTEX
  8
1
  6
CONTINUOUS
 62
     7
 10
724.9169291445135
 20
208.3779023866266
  0
VERTEX
  8
1
  6
CONTINUOUS
 62
     7
 10
724.7925663133974
 20
208.2265100676757
  0
VERTEX
  8
1
  6
CONTINUOUS
 62
     7
 10
724.7001563931886
 20
208.0537878169469
  0
VERTEX
  8
1
  6
CONTINUOUS
 62
     7
 10
724.6432506452968
 20
207.8663732536717
  0
VERTEX
  8
1
  6
CONTINUOUS
 62
     7
 10
724.6240359257
 20
207.6714686144136
  0
SEQEND
  8
1
  6
CONTINUOUS
 62
     7
  0
LINE
  8
1
  6
CONTINUOUS
 62
     7
 10
721.6240359257
 20
208.7432080297
 11
724.6240359257
 21
208.7432080297
  0
LINE
  8
1
  6
CONTINUOUS
 62
     7
 10
714.6240359257
 20
229.9564114653
 11
714.6240359257
 21
199.9564114653
  0
LINE
  8
1
  6
CONTINUOUS
 62
     7
 10
738.6240359257
 20
202.9564114653
 11
738.6240359257
 21
226.9564114653
  0
LINE
  8
1
  6
CONTINUOUS
 62
     7
 10
714.6240359257
 20
199.9564114653
 11
717.6240359257
 21
199.9564114653
  0
LINE
  8
1
  6
CONTINUOUS
 62
     7
 10
717.6240359257
 20
199.9564114653
 11
717.6240359257
 21
229.9564114653
  0
LINE
  8
1
  6
CONTINUOUS
 62
     7
 10
717.6240359257
 20
201.7064114653
 11
718.6240359257
 21
201.7064114653
  0
LINE
  8
1
  6
CONTINUOUS
 62
     7
 10
718.6240359257
 20
204.4789114653
 11
721.6240359257
 21
204.4789114653
  0
LINE
  8
1
  6
CONTINUOUS
 62
     7
 10
718.6240359257
 20
201.7064114653
 11
718.6240359257
 21
228.2064114653
  0
LINE
  8
1
  6
CONTINUOUS
 62
     7
 10
721.6240359257
 20
229.9564114653
 11
721.6240359257
 21
199.9564114653
  0
LINE
  8
1
  6
CONTINUOUS
 62
     7
 10
719.6240359257
 20
204.4789114653
 11
720.6240359257
 21
205.6409114653
  0
LINE
  8
1
  6
CONTINUOUS
 62
     7
 10
720.6240359257
 20
205.6409114653
 11
721.6240359257
 21
205.6409114653
  0
ARC
  8
1
  6
CONTINUOUS
 62
     7
 10
737.6240359257
 20
226.9564114653
 40
1.000000000000001
 50
0.0
 51
90.0
  0
LINE
  8
1
  6
CONTINUOUS
 62
     7
 10
717.6240359257
 20
228.2064114653
 11
718.6240359257
 21
228.2064114653
  0
LINE
  8
1
  6
CONTINUOUS
 62
     7
 10
733.6286342033524
 20
227.9595932398929
 11
733.6235179420886
 21
228.0409379342193
  0
LINE
  8
1
  6
CONTINUOUS
 62
     7
 10
733.1565124384765
 20
226.870203624533
 11
733.1672402391596
 21
226.8718001547844
  0
LINE
  8
1
  6
CONTINUOUS
 62
     7
 10
733.1672402391596
 20
226.8718001547844
 11
733.1778616969809
 21
226.873825592422
  0
LINE
  8
1
  6
CONTINUOUS
 62
     7
 10
733.203214446547
 20
226.8805059993114
 11
733.2178051480475
 21
226.885540378838
  0
LINE
  8
1
  6
CONTINUOUS
 62
     7
 10
733.2595598352979
 20
226.9047553866639
 11
733.2726959750466
 21
226.9123093459181
  0
LINE
  8
1
  6
CONTINUOUS
 62
     7
 10
733.2853862616691
 20
226.920326950277
 11
733.299924725558
 21
226.9304020813873
  0
LINE
  8
1
  6
CONTINUOUS
 62
     7
 10
733.3521960345025
 20
226.9746998726108
 11
733.3753425760628
 21
226.99855470351
  0
LINE
  8
1
  6
CONTINUOUS
 62
     7
 10
719.6240359257
 20
225.4339114653
 11
720.6240359257
 21
224.2719114653
  0
LINE
  8
1
  6
CONTINUOUS
 62
     7
 10
733.2726959750466
 20
226.9123093459181
 11
733.2853862616691
 21
226.920326950277
  0
LINE
  8
1
  6
CONTINUOUS
 62
     7
 10
733.1240359256999
 20
226.868109207117
 11
733.1348757871027
 21
226.8683459777972
  0
CIRCLE
  8
1
  6
CONTINUOUS
 62
     7
 10
814.6240359257
 20
214.9564114653
 40
7.0
  0
LINE
  8
1
  6
CONTINUOUS
 62
     7
 10
739.6240359257
 20
225.9564114653
 11
764.6240359257
 21
225.9564114653
  0
CIRCLE
  8
1
  6
CONTINUOUS
 62
     7
 10
814.6240359257
 20
214.9564114653
 40
13.0
  0
LINE
  8
1
  6
CONTINUOUS
 62
     7
 10
733.1457127895762
 20
226.8690481745699
 11
733.1565124384765
 21
226.870203624533
  0
LINE
  8
1
  6
CONTINUOUS
 62
     7
 10
733.1778616969809
 20
226.873825592422
 11
733.1883423172968
 21
226.8762677645439
  0
ARC
  8
1
  6
CONTINUOUS
 62
     7
 10
733.1240359256999
 20
228.0475562580047
 40
0.500000000000056
 50
0.0
 51
90.0
  0
LINE
  8
1
  6
CONTINUOUS
 62
     7
 10
733.2178051480475
 20
226.885540378838
 11
733.2320815367232
 21
226.8913044031929
  0
LINE
  8
1
  6
CONTINUOUS
 62
     7
 10
733.2320815367232
 20
226.8913044031929
 11
733.2460107274983
 21
226.8977315724452
  0
LINE
  8
1
  6
CONTINUOUS
 62
     7
 10
733.2460107274983
 20
226.8977315724452
 11
733.2595598352979
 21
226.9047553866639
  0
LINE
  8
1
  6
CONTINUOUS
 62
     7
 10
733.299924725558
 20
226.9304020813873
 11
733.3139434378016
 21
226.9410289718306
  0
LINE
  8
1
  6
CONTINUOUS
 62
     7
 10
733.3139434378016
 20
226.9410289718306
 11
733.3274464474729
 21
226.9521347715537
  0
LINE
  8
1
  6
CONTINUOUS
 62
     7
 10
733.3274464474729
 20
226.9521347715537
 11
733.3521960345025
 21
226.9746998726108
  0
LINE
  8
1
  6
CONTINUOUS
 62
     7
 10
733.1883423172968
 20
226.8762677645439
 11
733.203214446547
 21
226.8805059993114
  0
LINE
  8
1
  6
CONTINUOUS
 62
     7
 10
719.6240359257
 20
204.4789114653
 11
719.6240359257
 21
225.4339114653
  0
LINE
  8
1
  6
CONTINUOUS
 62
     7
 10
721.6240359257
 20
229.9564114653
 11
724.6240359257
 21
229.9564114653
  0
ARC
  8
1
  6
CONTINUOUS
 62
     7
 10
739.6240359257
 20
226.9564114653
 40
1.000000000000001
 50
180.0
 51
270.0
  0
LINE
  8
1
  6
CONTINUOUS
 62
     7
 10
733.6240359257
 20
227.9564114653
 11
737.6240359257
 21
227.9564114653
  0
LINE
  8
1
  6
CONTINUOUS
 62
     7
 10
721.6240359257
 20
221.1696149009
 11
724.6240359257
 21
221.1696149009
  0
LINE
  8
1
  6
CONTINUOUS
 62
     7
 10
720.6240359257
 20
224.2719114653
 11
721.6240359257
 21
224.2719114653
  0
LINE
  8
1
  6
CENTER
 62
     7
 10
709.6240359257
 20
214.9564114653
 11
767.1240359257
 21
214.9564114653
  0
LINE
  8
1
  6
CONTINUOUS
 62
     7
 10
733.6240359257
 20
228.0475562580047
 11
733.6240359257
 21
227.7219470570282
  0
LINE
  8
1
  6
CENTER
 62
     7
 10
794.6240359257
 20
214.9564114653
 11
834.6240359257
 21
214.9564114653
  0
LINE
  8
1
  6
CONTINUOUS
 62
     7
 10
733.1240359256999
 20
228.5475562580047
 11
725.6240359257
 21
228.5475562580047
  0
LINE
  8
1
  6
CONTINUOUS
 62
     7
 10
714.6240359257
 20
221.1696149009
 11
717.6240359257
 21
221.1696149009
  0
LINE
  8
1
  6
CONTINUOUS
 62
     7
 10
733.1348757871027
 20
226.8683459777972
 11
733.1457127895762
 21
226.8690481745699
  0
CIRCLE
  8
1
  6
CONTINUOUS
 62
     7
 10
814.6240359257
 20
214.9564114653
 40
10.1847337208
  0
LINE
  8
1
  6
CONTINUOUS
 62
     7
 10
714.6240359257
 20
208.7432080297
 11
717.6240359257
 21
208.7432080297
  0
CIRCLE
  8
1
  6
CONTINUOUS
 62
     7
 10
814.6240359257
 20
214.9564114653
 40
8.8
  0
LINE
  8
1
  6
CONTINUOUS
 62
     7
 10
714.6240359257
 20
229.9564114653
 11
717.6240359257
 21
229.9564114653
  0
LINE
  8
1
  6
CENTER
 62
     7
 10
814.6240359257
 20
234.9564114653
 11
814.6240359257
 21
194.9564114653
  0
ARC
  8
1
  6
CONTINUOUS
 62
     7
 10
725.6240359257
 20
229.5475562580047
 40
1.000000000000001
 50
180.0
 51
270.0
  0
LINE
  8
1
  6
CONTINUOUS
 62
     7
 10
718.6240359257
 20
225.4339114653
 11
721.6240359257
 21
225.4339114653
  0
LINE
  8
1
  6
CONTINUOUS
 62
     7
 10
733.3753425760628
 20
226.99855470351
 11
733.3969735958392
 21
227.0235242156268
  0
LINE
  8
1
  6
CONTINUOUS
 62
     7
 10
733.5736263064148
 20
227.378761774999
 11
733.5885252940647
 21
227.4347414674204
  0
LINE
  8
1
  6
CONTINUOUS
 62
     7
 10
733.4700929308068
 20
227.1310481037806
 11
733.4854591969399
 21
227.1589652926184
  0
LINE
  8
1
  6
CONTINUOUS
 62
     7
 10
733.535576672384
 20
227.2675293213291
 11
733.5560300473431
 21
227.3229394337988
  0
LINE
  8
1
  6
CONTINUOUS
 62
     7
 10
733.4360391647803
 20
227.0761070890152
 11
733.4536487613153
 21
227.103370353038
  0
LINE
  8
1
  6
CONTINUOUS
 62
     7
 10
733.4854591969399
 20
227.1589652926184
 11
733.5121063370716
 21
227.2127863150992
  0
LINE
  8
1
  6
CONTINUOUS
 62
     7
 10
733.4171766175167
 20
227.0494333603367
 11
733.4360391647803
 21
227.0761070890152
  0
LINE
  8
1
  6
CONTINUOUS
 62
     7
 10
733.4536487613153
 20
227.103370353038
 11
733.4700929308068
 21
227.1310481037806
  0
LINE
  8
1
  6
CONTINUOUS
 62
     7
 10
733.5121063370716
 20
227.2127863150992
 11
733.535576672384
 21
227.2675293213291
  0
LINE
  8
1
  6
CONTINUOUS
 62
     7
 10
733.6038977277996
 20
227.5067438059396
 11
733.6150129632529
 21
227.5788213502232
  0
LINE
  8
1
  6
CONTINUOUS
 62
     7
 10
733.6150129632529
 20
227.5788213502232
 11
733.6217620220209
 21
227.6506603505074
  0
LINE
  8
1
  6
CONTINUOUS
 62
     7
 10
733.6217620220209
 20
227.6506603505074
 11
733.6240359257
 21
227.7219470570283
  0
LINE
  8
1
  6
CONTINUOUS
 62
     7
 10
733.1240359256999
 20
221.2423060946044
 11
725.6240359257
 21
221.2423060946044
  0
LINE
  8
1
  6
CONTINUOUS
 62
     7
 10
733.6240359257
 20
220.7045503864046
 11
733.6219529542262
 21
220.7533911758574
  0
LINE
  8
1
  6
CONTINUOUS
 62
     7
 10
733.6219529542262
 20
220.7533911758574
 11
733.6157720929833
 21
220.8013411491388
  0
LINE
  8
1
  6
CONTINUOUS
 62
     7
 10
733.3969735958392
 20
227.0235242156268
 11
733.4171766175167
 21
227.0494333603367
  0
LINE
  8
1
  6
CONTINUOUS
 62
     7
 10
733.5560300473431
 20
227.3229394337988
 11
733.5736263064148
 21
227.378761774999
  0
LINE
  8
1
  6
CONTINUOUS
 62
     7
 10
725.6240359257
 20
226.868109207117
 11
733.1240359257
 21
226.8681092071171
  0
LINE
  8
1
  6
CONTINUOUS
 62
     7
 10
733.5885252940647
 20
227.4347414674204
 11
733.6038977277996
 21
227.5067438059396
  0
LINE
  8
1
  6
CONTINUOUS
 62
     7
 10
733.6157720929833
 20
220.8013411491388
 11
733.6055954217383
 21
220.8482733288355
  0
LINE
  8
1
  6
CONTINUOUS
 62
     7
 10
733.5757464371003
 20
220.9338500448052
 11
733.5567545194996
 21
220.9727117843296
  0
LINE
  8
1
  6
CONTINUOUS
 62
     7
 10
733.4703449576393
 20
221.0913972985667
 11
733.4486277829207
 21
221.1126467865733
  0
LINE
  8
1
  6
CONTINUOUS
 62
     7
 10
733.5915250202584
 20
220.8940607375337
 11
733.5757464371003
 21
220.9338500448052
  0
LINE
  8
1
  6
CONTINUOUS
 62
     7
 10
733.5343837617985
 20
221.010514749716
 11
733.5084686583392
 21
221.0471277345735
  0
LINE
  8
1
  6
CONTINUOUS
 62
     7
 10
733.4902428934284
 20
221.0695203424453
 11
733.4703449576393
 21
221.0913972985667
  0
LINE
  8
1
  6
CONTINUOUS
 62
     7
 10
733.4486277829207
 20
221.1126467865733
 11
733.4249443012216
 21
221.1331569901007
  0
LINE
  8
1
  6
CONTINUOUS
 62
     7
 10
733.4249443012216
 20
221.1331569901007
 11
733.3991474444911
 21
221.1528160927845
  0
LINE
  8
1
  6
CONTINUOUS
 62
     7
 10
733.3991474444911
 20
221.1528160927845
 11
733.3835139996374
 21
221.1635401832654
  0
LINE
  8
1
  6
CONTINUOUS
 62
     7
 10
733.6055954217383
 20
220.8482733288355
 11
733.5915250202584
 21
220.8940607375337
  0
LINE
  8
1
  6
CONTINUOUS
 62
     7
 10
733.5567545194996
 20
220.9727117843296
 11
733.5343837617985
 21
221.010514749716
  0
LINE
  8
1
  6
CONTINUOUS
 62
     7
 10
733.5084686583392
 20
221.0471277345735
 11
733.4902428934284
 21
221.0695203424453
  0
LINE
  8
1
  6
CONTINUOUS
 62
     7
 10
733.1565124384765
 20
208.6716741176556
 11
733.1672402391596
 21
208.6725569804974
  0
LINE
  8
1
  6
CONTINUOUS
 62
     7
 10
733.6240359257
 20
209.9943626932261
 11
733.6240359257
 21
209.2082725441953
  0
LINE
  8
1
  6
CONTINUOUS
 62
     7
 10
733.3669975627944
 20
221.1739619462839
 11
733.349567882176
 21
221.1839977718756
  0
LINE
  8
1
  6
CONTINUOUS
 62
     7
 10
725.6240359257
 20
218.934454995778
 11
733.1240359257
 21
218.934454995778
  0
LINE
  8
1
  6
CONTINUOUS
 62
     7
 10
733.4600108674408
 20
210.7050994948485
 11
733.3991474444911
 21
210.8030122129135
  0
LINE
  8
1
  6
CONTINUOUS
 62
     7
 10
733.146593828937
 20
221.2417437907314
 11
733.1353166065137
 21
221.2421642641482
  0
LINE
  8
1
  6
CONTINUOUS
 62
     7
 10
733.1240359256999
 20
208.6705168359956
 11
733.1348757871027
 21
208.6706475784862
  0
LINE
  8
1
  6
CONTINUOUS
 62
     7
 10
733.1883423172968
 20
208.675029558103
 11
733.203214446547
 21
208.6773777730745
  0
LINE
  8
1
  6
CONTINUOUS
 62
     7
 10
733.3521960345025
 20
208.7302715824639
 11
733.3753425760628
 21
208.7438934690085
  0
LINE
  8
1
  6
CONTINUOUS
 62
     7
 10
733.1778616969809
 20
208.673677616286
 11
733.1883423172968
 21
208.675029558103
  0
LINE
  8
1
  6
CONTINUOUS
 62
     7
 10
733.2450239028975
 20
221.2261539954594
 11
733.2319388779002
 21
221.2294940233746
  0
LINE
  8
1
  6
CONTINUOUS
 62
     7
 10
733.1689837722764
 20
221.2400970227276
 11
733.1578290613858
 21
221.2410522012819
  0
LINE
  8
1
  6
CONTINUOUS
 62
     7
 10
733.2453048173405
 20
210.9462215334948
 11
733.146862067786
 21
210.9772410180716
  0
LINE
  8
1
  6
CONTINUOUS
 62
     7
 10
733.3311947059955
 20
221.1935640500764
 11
733.3118477824667
 21
221.2025771709221
  0
LINE
  8
1
  6
CONTINUOUS
 62
     7
 10
733.3835139996374
 20
221.1635401832654
 11
733.3669975627944
 21
221.1739619462839
  0
LINE
  8
1
  6
CONTINUOUS
 62
     7
 10
733.1348757871027
 20
208.6706475784862
 11
733.1457127895762
 21
208.671035494679
  0
LINE
  8
1
  6
CONTINUOUS
 62
     7
 10
733.1457127895762
 20
208.671035494679
 11
733.1565124384765
 21
208.6716741176556
  0
ARC
  8
1
  6
CONTINUOUS
 62
     7
 10
732.0402869597211
 20
210.0031577830989
 40
1.583773386834467
 50
359.6818205657367
 51
26.3087713096578
  0
LINE
  8
1
  6
CONTINUOUS
 62
     7
 10
733.6240359257
 20
220.7045503864046
 11
733.6240359257
 21
219.9184602373738
  0
LINE
  8
1
  6
CONTINUOUS
 62
     7
 10
733.1672402391596
 20
208.6725569804974
 11
733.1778616969809
 21
208.673677616286
  0
LINE
  8
1
  6
CONTINUOUS
 62
     7
 10
733.270111686219
 20
221.2186095006906
 11
733.2577586788227
 21
221.2225158428085
  0
LINE
  8
1
  6
CONTINUOUS
 62
     7
 10
733.2320815367232
 20
208.6833729356376
 11
733.2460107274983
 21
208.6869494167476
  0
LINE
  8
1
  6
CONTINUOUS
 62
     7
 10
733.2595598352979
 20
208.6908648534219
 11
733.2726959750466
 21
208.6950840124198
  0
LINE
  8
1
  6
CONTINUOUS
 62
     7
 10
733.2185351232882
 20
221.232505991285
 11
733.2048441585183
 21
221.2351599639217
  0
LINE
  8
1
  6
CONTINUOUS
 62
     7
 10
733.3991474444911
 20
210.8030122129135
 11
733.3282774923887
 21
210.8849638466492
  0
LINE
  8
1
  6
CONTINUOUS
 62
     7
 10
733.203214446547
 20
208.6773777730745
 11
733.2178051480475
 21
208.6801706433329
  0
LINE
  8
1
  6
CONTINUOUS
 62
     7
 10
733.2319388779002
 20
221.2294940233746
 11
733.2185351232882
 21
221.232505991285
  0
LINE
  8
1
  6
CONTINUOUS
 62
     7
 10
733.1240359256999
 20
210.9783679348219
 11
725.6240359257
 21
210.978367934822
  0
LINE
  8
1
  6
CONTINUOUS
 62
     7
 10
733.2726959750466
 20
208.6950840124198
 11
733.2853862616691
 21
208.6995716605003
  0
LINE
  8
1
  6
CONTINUOUS
 62
     7
 10
733.2460107274983
 20
208.6869494167476
 11
733.2595598352979
 21
208.6908648534219
  0
LINE
  8
1
  6
CONTINUOUS
 62
     7
 10
733.146862067786
 20
210.9772410180716
 11
733.1240359256999
 21
210.9783679348219
  0
LINE
  8
1
  6
CONTINUOUS
 62
     7
 10
733.1800194300249
 20
221.2388857819963
 11
733.1689837722764
 21
221.2400970227276
  0
LINE
  8
1
  6
CONTINUOUS
 62
     7
 10
733.3274464474729
 20
208.7174727335189
 11
733.3521960345025
 21
208.7302715824639
  0
LINE
  8
1
  6
CONTINUOUS
 62
     7
 10
733.1578290613858
 20
221.2410522012819
 11
733.146593828937
 21
221.2417437907314
  0
LINE
  8
1
  6
CONTINUOUS
 62
     7
 10
733.3969735958392
 20
208.7582482181201
 11
733.4171766175167
 21
208.7732456547665
  0
LINE
  8
1
  6
CONTINUOUS
 62
     7
 10
733.4360391647803
 20
208.7887956039151
 11
733.4536487613153
 21
208.8048078905335
  0
LINE
  8
1
  6
CONTINUOUS
 62
     7
 10
733.4536487613153
 20
208.8048078905335
 11
733.4700929308068
 21
208.8211923395892
  0
LINE
  8
1
  6
CONTINUOUS
 62
     7
 10
733.3118477824667
 20
221.2025771709221
 11
733.2914968598033
 21
221.2109535244482
  0
LINE
  8
1
  6
CONTINUOUS
 62
     7
 10
733.2048441585183
 20
221.2351599639217
 11
733.1908975030475
 21
221.2374260060159
  0
LINE
  8
1
  6
CONTINUOUS
 62
     7
 10
733.1353166065137
 20
221.2421642641482
 11
733.1240359256999
 21
221.2423060946044
  0
LINE
  8
1
  6
CONTINUOUS
 62
     7
 10
733.1908975030475
 20
221.2374260060159
 11
733.1800194300249
 21
221.2388857819963
  0
LINE
  8
1
  6
CONTINUOUS
 62
     7
 10
733.1240359256999
 20
218.934454995778
 11
733.2261965978164
 21
218.9571890855019
  0
LINE
  8
1
  6
CONTINUOUS
 62
     7
 10
733.2261965978164
 20
218.9571890855019
 11
733.3173436313045
 21
219.0177904203691
  0
LINE
  8
1
  6
CONTINUOUS
 62
     7
 10
733.3173436313045
 20
219.0177904203691
 11
733.399884238467
 21
219.11081385356
  0
ARC
  8
1
  6
CONTINUOUS
 62
     7
 10
732.1897778088193
 20
219.8815914370438
 40
1.43473191024531
 50
327.504891624638
 51
1.472511484584288
  0
LINE
  8
1
  6
CONTINUOUS
 62
     7
 10
733.2577586788227
 20
221.2225158428085
 11
733.2450239028975
 21
221.2261539954594
  0
LINE
  8
1
  6
CONTINUOUS
 62
     7
 10
733.2178051480475
 20
208.6801706433329
 11
733.2320815367232
 21
208.6833729356376
  0
LINE
  8
1
  6
CONTINUOUS
 62
     7
 10
733.2853862616691
 20
208.6995716605003
 11
733.299924725558
 21
208.7052250610876
  0
LINE
  8
1
  6
CONTINUOUS
 62
     7
 10
733.299924725558
 20
208.7052250610876
 11
733.3139434378016
 21
208.7112048733435
  0
LINE
  8
1
  6
CONTINUOUS
 62
     7
 10
733.349567882176
 20
221.1839977718756
 11
733.3311947059955
 21
221.1935640500764
  0
LINE
  8
1
  6
CONTINUOUS
 62
     7
 10
733.3139434378016
 20
208.7112048733435
 11
733.3274464474729
 21
208.7174727335189
  0
LINE
  8
1
  6
CONTINUOUS
 62
     7
 10
733.3282774923887
 20
210.8849638466492
 11
733.2453048173405
 21
210.9462215334948
  0
LINE
  8
1
  6
CONTINUOUS
 62
     7
 10
733.3753425760628
 20
208.7438934690085
 11
733.3969735958392
 21
208.7582482181201
  0
LINE
  8
1
  6
CONTINUOUS
 62
     7
 10
733.2914968598033
 20
221.2109535244482
 11
733.270111686219
 21
221.2186095006906
  0
LINE
  8
1
  6
CONTINUOUS
 62
     7
 10
733.4171766175167
 20
208.7732456547665
 11
733.4360391647803
 21
208.7887956039151
  0
LINE
  8
1
  6
CONTINUOUS
 62
     7
 10
733.5736263064148
 20
208.9742113453769
 11
733.5885252940647
 21
209.0104900205759
  0
LINE
  8
1
  6
CONTINUOUS
 62
     7
 10
733.6217620220209
 20
209.1572195004866
 11
733.6240359257
 21
209.2082725441953
  0
LINE
  8
1
  6
CONTINUOUS
 62
     7
 10
725.6240359257
 20
201.3652666725953
 11
733.1240359256999
 21
201.3652666725953
  0
LINE
  8
1
  6
CONTINUOUS
 62
     7
 10
725.6240359257
 20
208.6705168359956
 11
733.1240359257
 21
208.6705168359956
  0
LINE
  8
1
  6
CONTINUOUS
 62
     7
 10
733.6240359257
 20
202.1908758735717
 11
733.6219529542262
 21
202.2590319359942
  0
LINE
  8
1
  6
CONTINUOUS
 62
     7
 10
733.535576672384
 20
208.9040490762328
 11
733.5560300473431
 21
208.9386921042314
  0
LINE
  8
1
  6
CONTINUOUS
 62
     7
 10
733.6038977277996
 20
209.0581835543256
 11
733.6150129632529
 21
209.1071416090796
  0
LINE
  8
1
  6
CONTINUOUS
 62
     7
 10
733.6219529542262
 20
202.2590319359942
 11
733.6157720929833
 21
202.3276980107575
  0
LINE
  8
1
  6
CONTINUOUS
 62
     7
 10
733.6157720929833
 20
202.3276980107575
 11
733.6055954217383
 21
202.3966000972652
  0
LINE
  8
1
  6
CONTINUOUS
 62
     7
 10
733.4854591969399
 20
208.8378587760499
 11
733.5121063370716
 21
208.8703990404745
  0
LINE
  8
1
  6
CONTINUOUS
 62
     7
 10
733.6240359257
 20
202.1908758735717
 11
733.6240359257
 21
201.8652666725953
  0
LINE
  8
1
  6
CONTINUOUS
 62
     7
 10
733.4700929308068
 20
208.8211923395892
 11
733.4854591969399
 21
208.8378587760499
  0
LINE
  8
1
  6
CONTINUOUS
 62
     7
 10
733.5121063370716
 20
208.8703990404745
 11
733.535576672384
 21
208.9040490762328
  0
ARC
  8
1
  6
CONTINUOUS
 62
     7
 10
725.6240359257
 20
200.3652666725952
 40
1.000000000000001
 50
90.0
 51
180.0
  0
ARC
  8
1
  6
CONTINUOUS
 62
     7
 10
733.1240359256999
 20
201.8652666725953
 40
0.5000000000000004
 50
270.0
 51
0.0
  0
LINE
  8
1
  6
CONTINUOUS
 62
     7
 10
733.6150129632529
 20
209.1071416090796
 11
733.6217620220209
 21
209.1572195004866
  0
LINE
  8
1
  6
CONTINUOUS
 62
     7
 10
733.5885252940647
 20
209.0104900205759
 11
733.6038977277996
 21
209.0581835543256
  0
LINE
  8
1
  6
CONTINUOUS
 62
     7
 10
733.5560300473431
 20
208.9386921042314
 11
733.5736263064148
 21
208.9742113453769
  0
LINE
  8
1
  6
CONTINUOUS
 62
     7
 10
733.6055954217383
 20
202.3966000972652
 11
733.5915250202584
 21
202.465464194921
  0
LINE
  8
1
  6
CONTINUOUS
 62
     7
 10
733.5915250202584
 20
202.465464194921
 11
733.5757464371003
 21
202.5266531044697
  0
LINE
  8
1
  6
CONTINUOUS
 62
     7
 10
733.3969735958392
 20
227.0235242156268
 11
733.4171766175167
 21
227.0494333603367
  0
LINE
  8
1
  6
CONTINUOUS
 62
     7
 10
733.4171766175167
 20
227.0494333603367
 11
733.4360391647803
 21
227.0761070890152
  0
LINE
  8
1
  6
CONTINUOUS
 62
     7
 10
733.4536487613153
 20
227.103370353038
 11
733.4700929308068
 21
227.1310481037806
  0
LINE
  8
1
  6
CONTINUOUS
 62
     7
 10
733.3521960345025
 20
226.9746998726108
 11
733.3753425760628
 21
226.99855470351
  0
LINE
  8
1
  6
CONTINUOUS
 62
     7
 10
733.3753425760628
 20
226.99855470351
 11
733.3969735958392
 21
227.0235242156268
  0
LINE
  8
1
  6
CONTINUOUS
 62
     7
 10
733.4360391647803
 20
227.0761070890152
 11
733.4536487613153
 21
227.103370353038
  0
LINE
  8
1
  6
CONTINUOUS
 62
     7
 10
733.1883423172968
 20
226.8762677645439
 11
733.203214446547
 21
226.8805059993114
  0
LINE
  8
1
  6
CONTINUOUS
 62
     7
 10
733.4700929308068
 20
227.1310481037806
 11
733.4854591969399
 21
227.1589652926184
  0
LINE
  8
1
  6
CONTINUOUS
 62
     7
 10
733.2320815367232
 20
226.8913044031929
 11
733.2460107274983
 21
226.8977315724452
  0
LINE
  8
1
  6
CONTINUOUS
 62
     7
 10
733.2460107274983
 20
226.8977315724452
 11
733.2595598352979
 21
226.9047553866639
  0
LINE
  8
1
  6
CONTINUOUS
 62
     7
 10
733.2726959750466
 20
226.9123093459181
 11
733.2853862616691
 21
226.920326950277
  0
LINE
  8
1
  6
CONTINUOUS
 62
     7
 10
733.2853862616691
 20
226.920326950277
 11
733.299924725558
 21
226.9304020813873
  0
LINE
  8
1
  6
CONTINUOUS
 62
     7
 10
733.3274464474729
 20
226.9521347715537
 11
733.3521960345025
 21
226.9746998726108
  0
LINE
  8
1
  6
CONTINUOUS
 62
     7
 10
733.2178051480475
 20
226.885540378838
 11
733.2320815367232
 21
226.8913044031929
  0
LINE
  8
1
  6
CONTINUOUS
 62
     7
 10
733.2595598352979
 20
226.9047553866639
 11
733.2726959750466
 21
226.9123093459181
  0
LINE
  8
1
  6
CONTINUOUS
 62
     7
 10
733.299924725558
 20
226.9304020813873
 11
733.3139434378016
 21
226.9410289718306
  0
LINE
  8
1
  6
CONTINUOUS
 62
     7
 10
733.3139434378016
 20
226.9410289718306
 11
733.3274464474729
 21
226.9521347715537
  0
LINE
  8
1
  6
CONTINUOUS
 62
     7
 10
733.203214446547
 20
226.8805059993114
 11
733.2178051480475
 21
226.885540378838
  0
LINE
  8
1
  6
CONTINUOUS
 62
     7
 10
733.1800194300249
 20
226.8742945874815
 11
733.1689837722764
 21
226.8721056331152
  0
LINE
  8
1
  6
CONTINUOUS
 62
     7
 10
733.1689837722764
 20
226.8721056331152
 11
733.1578290613858
 21
226.8703784494338
  0
LINE
  8
1
  6
CONTINUOUS
 62
     7
 10
733.1240359256999
 20
228.5475562580047
 11
725.6240359257
 21
228.5475562580047
  0
LINE
  8
1
  6
CONTINUOUS
 62
     7
 10
733.1908975030475
 20
226.8769311440709
 11
733.1800194300249
 21
226.8742945874815
  0
LINE
  8
1
  6
CONTINUOUS
 62
     7
 10
733.2185351232882
 20
226.8858041228092
 11
733.2048441585183
 21
226.8810204752967
  0
LINE
  8
1
  6
CONTINUOUS
 62
     7
 10
725.6240359257
 20
226.868109207117
 11
733.1240359257
 21
226.8681092071171
  0
LINE
  8
1
  6
CONTINUOUS
 62
     7
 10
733.1348757871027
 20
226.8683459777972
 11
733.1457127895762
 21
226.8690481745699
  0
LINE
  8
1
  6
CONTINUOUS
 62
     7
 10
733.1240359256999
 20
226.8681092071171
 11
725.6240359257
 21
226.868109207117
  0
LINE
  8
1
  6
CONTINUOUS
 62
     7
 10
733.2048441585183
 20
226.8810204752967
 11
733.1908975030475
 21
226.8769311440709
  0
LINE
  8
1
  6
CONTINUOUS
 62
     7
 10
733.1672402391596
 20
226.8718001547844
 11
733.1778616969809
 21
226.873825592422
  0
LINE
  8
1
  6
CONTINUOUS
 62
     7
 10
733.1778616969809
 20
226.873825592422
 11
733.1883423172968
 21
226.8762677645439
  0
LINE
  8
1
  6
CONTINUOUS
 62
     7
 10
733.1240359256999
 20
226.868109207117
 11
733.1348757871027
 21
226.8683459777972
  0
LINE
  8
1
  6
CONTINUOUS
 62
     7
 10
733.2450239028975
 20
226.8972284377851
 11
733.2319388779002
 21
226.8912256043812
  0
LINE
  8
1
  6
CONTINUOUS
 62
     7
 10
733.146593828937
 20
226.869127204899
 11
733.1353166065137
 21
226.8683660679729
  0
LINE
  8
1
  6
CONTINUOUS
 62
     7
 10
733.1565124384765
 20
226.870203624533
 11
733.1672402391596
 21
226.8718001547844
  0
LINE
  8
1
  6
CONTINUOUS
 62
     7
 10
733.2319388779002
 20
226.8912256043812
 11
733.2185351232882
 21
226.8858041228092
  0
LINE
  8
1
  6
CONTINUOUS
 62
     7
 10
733.1578290613858
 20
226.8703784494338
 11
733.146593828937
 21
226.869127204899
  0
LINE
  8
1
  6
CONTINUOUS
 62
     7
 10
733.1353166065137
 20
226.8683660679729
 11
733.1240359256999
 21
226.868109207117
  0
LINE
  8
1
  6
CONTINUOUS
 62
     7
 10
733.1457127895762
 20
226.8690481745699
 11
733.1565124384765
 21
226.870203624533
  0
TEXT
  8
1
  6
CONTINUOUS
 62
     7
 10
706.613077071745
 20
176.9063479090909
 40
3.5
  1
２Ｋ－１４Ｓ
 41
0.75216
 51
15.0
  0
ENDSEC
  0
EOF
