  0
SECTION
  2
HEADER
  9
$ACADVER
  1
AC1004
  9
$INSBASE
 10
0.0
 20
0.0
  9
$EXTMIN
 10
-1337.980373528746
 20
-251.180653
  9
$EXTMAX
 10
-1219.5901000152
 20
-196.2079546132
  9
$LIMMIN
 10
0.0
 20
0.0
  9
$LIMMAX
 10
12.0
 20
9.0
  9
$ORTHOMODE
 70
     0
  9
$REGENMODE
 70
     1
  9
$FILLMODE
 70
     1
  9
$QTEXTMODE
 70
     0
  9
$DRAGMODE
 70
     2
  9
$LTSCALE
 40
1.0
  9
$OSMODE
 70
    37
  9
$ATTMODE
 70
     1
  9
$TEXTSIZE
 40
0.2
  9
$TRACEWID
 40
0.05
  9
$TEXTSTYLE
  7
STANDARD
  9
$CLAYER
  8
0
  9
$CELTYPE
  6
BYLAYER
  9
$CECOLOR
 62
   256
  9
$DIMSCALE
 40
1.0
  9
$DIMASZ
 40
3.0
  9
$DIMEXO
 40
0.0625
  9
$DIMDLI
 40
0.38
  9
$DIMRND
 40
0.0
  9
$DIMDLE
 40
0.0
  9
$DIMEXE
 40
1.5
  9
$DIMTP
 40
0.0
  9
$DIMTM
 40
0.0
  9
$DIMTXT
 40
3.5
  9
$DIMCEN
 40
0.09
  9
$DIMTSZ
 40
0.0
  9
$DIMTOL
 70
     0
  9
$DIMLIM
 70
     0
  9
$DIMTIH
 70
     1
  9
$DIMTOH
 70
     1
  9
$DIMSE1
 70
     0
  9
$DIMSE2
 70
     0
  9
$DIMTAD
 70
     1
  9
$DIMZIN
 70
     0
  9
$DIMBLK
  1

  9
$DIMASO
 70
     1
  9
$DIMSHO
 70
     1
  9
$DIMPOST
  1

  9
$DIMAPOST
  1

  9
$DIMALT
 70
     0
  9
$DIMALTD
 70
     2
  9
$DIMALTF
 40
25.4
  9
$DIMLFAC
 40
1.0
  9
$DIMTOFL
 70
     0
  9
$DIMTVP
 40
0.0
  9
$DIMTIX
 70
     0
  9
$DIMSOXD
 70
     0
  9
$DIMSAH
 70
     0
  9
$DIMBLK1
  1

  9
$DIMBLK2
  1

  9
$LUNITS
 70
     2
  9
$LUPREC
 70
     4
  9
$SKETCHINC
 40
0.1
  9
$FILLETRAD
 40
0.5
  9
$AUNITS
 70
     0
  9
$AUPREC
 70
     0
  9
$MENU
  1
.
  9
$ELEVATION
 40
0.0
  9
$THICKNESS
 40
0.0
  9
$LIMCHECK
 70
     0
  9
$CHAMFERA
 40
0.0
  9
$CHAMFERB
 40
0.0
  9
$SKPOLY
 70
     0
  9
$TDCREATE
 40
2460262.466600463
  9
$TDUPDATE
 40
2460262.466600579
  9
$TDINDWG
 40
0.0000000116
  9
$TDUSRTIMER
 40
0.0000000116
  9
$USRTIMER
 70
     1
  9
$ANGBASE
 50
0.0
  9
$ANGDIR
 70
     0
  9
$PDMODE
 70
     0
  9
$PDSIZE
 40
0.0
  9
$PLINEWID
 40
0.0
  9
$COORDS
 70
     1
  9
$SPLFRAME
 70
     0
  9
$SPLINETYPE
 70
     6
  9
$SPLINESEGS
 70
     8
  9
$ATTDIA
 70
     0
  9
$ATTREQ
 70
     1
  9
$SURFTAB1
 70
     6
  9
$SURFTAB2
 70
     6
  9
$SURFTYPE
 70
     6
  9
$SURFU
 70
     6
  9
$SURFV
 70
     6
  9
$UCSNAME
  2

  9
$UCSORG
 10
0.0
 20
0.0
 30
0.0
  9
$UCSXDIR
 10
1.0
 20
0.0
 30
0.0
  9
$UCSYDIR
 10
0.0
 20
1.0
 30
0.0
  9
$USERI1
 70
     0
  9
$USERI2
 70
     0
  9
$USERI3
 70
     0
  9
$USERI4
 70
     0
  9
$USERI5
 70
     0
  9
$USERR1
 40
0.0
  9
$USERR2
 40
0.0
  9
$USERR3
 40
0.0
  9
$USERR4
 40
0.0
  9
$USERR5
 40
0.0
  9
$WORLDVIEW
 70
     1
  0
ENDSEC
  0
SECTION
  2
TABLES
  0
TABLE
  2
LTYPE
 70
     2
  0
LTYPE
  2
CONTINUOUS
 70
     0
  3
Solid line
 72
    65
 73
     0
 40
0.0
  0
LTYPE
  2
CENTER
 70
     0
  3

 72
    65
 73
     0
 40
0.0
  0
ENDTAB
  0
TABLE
  2
LAYER
 70
     2
  0
LAYER
  2
0
 70
     0
 62
     7
  6
CONTINUOUS
  0
LAYER
  2
1
 70
     0
 62
     7
  6
CONTINUOUS
  0
ENDTAB
  0
TABLE
  2
STYLE
 70
     2
  0
STYLE
  2
STANDARD
 70
     0
 40
0.0
 41
1.0
 50
0.0
 71
     0
 42
0.2
  3
txt
  4

  0
STYLE
  2
ＭＳ_ゴシック
 70
     0
 40
0.0
 41
1.0
 50
0.0
 71
     0
 42
0.2
  3
ＭＳ ゴシック.shx
  4

  0
ENDTAB
  0
TABLE
  2
VIEW
 70
     0
  0
ENDTAB
  0
ENDSEC
  0
SECTION
  2
BLOCKS
  0
ENDSEC
  0
SECTION
  2
ENTITIES
  0
POLYLINE
  8
1
  6
CONTINUOUS
 62
     7
 66
     1
  0
VERTEX
  8
1
  6
CONTINUOUS
 62
     7
 10
-1323.5901000152
 20
-219.5104079360624
  0
VERTEX
  8
1
  6
CONTINUOUS
 62
     7
 10
-1323.570885295603
 20
-219.6422090472171
  0
VERTEX
  8
1
  6
CONTINUOUS
 62
     7
 10
-1323.513979547711
 20
-219.768945115585
  0
VERTEX
  8
1
  6
CONTINUOUS
 62
     7
 10
-1323.421569627503
 20
-219.8857457451332
  0
VERTEX
  8
1
  6
CONTINUOUS
 62
     7
 10
-1323.297206796387
 20
-219.9881223531707
  0
VERTEX
  8
1
  6
CONTINUOUS
 62
     7
 10
-1323.14567024822
 20
-220.072140664064
  0
VERTEX
  8
1
  6
CONTINUOUS
 62
     7
 10
-1322.972783447565
 20
-220.1345719012436
  0
VERTEX
  8
1
  6
CONTINUOUS
 62
     7
 10
-1322.785190337216
 20
-220.1730168672764
  0
VERTEX
  8
1
  6
CONTINUOUS
 62
     7
 10
-1322.5901000152
 20
-220.1859981436781
  0
SEQEND
  8
1
  6
CONTINUOUS
 62
     7
  0
POLYLINE
  8
1
  6
CONTINUOUS
 62
     7
 66
     1
  0
VERTEX
  8
1
  6
CONTINUOUS
 62
     7
 10
-1322.5901000152
 20
-212.2299110827219
  0
VERTEX
  8
1
  6
CONTINUOUS
 62
     7
 10
-1322.785190337216
 20
-212.2428923591236
  0
VERTEX
  8
1
  6
CONTINUOUS
 62
     7
 10
-1322.972783447565
 20
-212.2813373251564
  0
VERTEX
  8
1
  6
CONTINUOUS
 62
     7
 10
-1323.14567024822
 20
-212.343768562336
  0
VERTEX
  8
1
  6
CONTINUOUS
 62
     7
 10
-1323.297206796387
 20
-212.4277868732293
  0
VERTEX
  8
1
  6
CONTINUOUS
 62
     7
 10
-1323.421569627503
 20
-212.5301634812668
  0
VERTEX
  8
1
  6
CONTINUOUS
 62
     7
 10
-1323.513979547711
 20
-212.646964110815
  0
VERTEX
  8
1
  6
CONTINUOUS
 62
     7
 10
-1323.570885295603
 20
-212.7737001791829
  0
VERTEX
  8
1
  6
CONTINUOUS
 62
     7
 10
-1323.5901000152
 20
-212.9055012903376
  0
SEQEND
  8
1
  6
CONTINUOUS
 62
     7
  0
POLYLINE
  8
1
  6
CONTINUOUS
 62
     7
 66
     1
  0
VERTEX
  8
1
  6
CONTINUOUS
 62
     7
 10
-1323.5901000152
 20
-204.2526374840176
  0
VERTEX
  8
1
  6
CONTINUOUS
 62
     7
 10
-1323.570885295603
 20
-204.2611472043449
  0
VERTEX
  8
1
  6
CONTINUOUS
 62
     7
 10
-1323.513979547711
 20
-204.2693299008923
  0
VERTEX
  8
1
  6
CONTINUOUS
 62
     7
 10
-1323.421569627503
 20
-204.2768711172204
  0
VERTEX
  8
1
  6
CONTINUOUS
 62
     7
 10
-1323.297206796387
 20
-204.2834810486149
  0
VERTEX
  8
1
  6
CONTINUOUS
 62
     7
 10
-1323.14567024822
 20
-204.2889056791192
  0
VERTEX
  8
1
  6
CONTINUOUS
 62
     7
 10
-1322.972783447565
 20
-204.2929365432252
  0
VERTEX
  8
1
  6
CONTINUOUS
 62
     7
 10
-1322.785190337216
 20
-204.2954187370858
  0
VERTEX
  8
1
  6
CONTINUOUS
 62
     7
 10
-1322.5901000152
 20
-204.296256871383
  0
SEQEND
  8
1
  6
CONTINUOUS
 62
     7
  0
POLYLINE
  8
1
  6
CONTINUOUS
 62
     7
 66
     1
  0
VERTEX
  8
1
  6
CONTINUOUS
 62
     7
 10
-1322.5901000152
 20
-222.4938492425044
  0
VERTEX
  8
1
  6
CONTINUOUS
 62
     7
 10
-1322.785190337216
 20
-222.5130456739457
  0
VERTEX
  8
1
  6
CONTINUOUS
 62
     7
 10
-1322.972783447565
 20
-222.5698972601749
  0
VERTEX
  8
1
  6
CONTINUOUS
 62
     7
 10
-1323.14567024822
 20
-222.662219226616
  0
VERTEX
  8
1
  6
CONTINUOUS
 62
     7
 10
-1323.297206796387
 20
-222.7864636918733
  0
VERTEX
  8
1
  6
CONTINUOUS
 62
     7
 10
-1323.421569627503
 20
-222.9378560108241
  0
VERTEX
  8
1
  6
CONTINUOUS
 62
     7
 10
-1323.513979547711
 20
-223.110578261553
  0
VERTEX
  8
1
  6
CONTINUOUS
 62
     7
 10
-1323.570885295603
 20
-223.2979928248281
  0
VERTEX
  8
1
  6
CONTINUOUS
 62
     7
 10
-1323.5901000152
 20
-223.4928974640862
  0
SEQEND
  8
1
  6
CONTINUOUS
 62
     7
  0
POLYLINE
  8
1
  6
CONTINUOUS
 62
     7
 66
     1
  0
VERTEX
  8
1
  6
CONTINUOUS
 62
     7
 10
-1323.5901000152
 20
-208.9230117623138
  0
VERTEX
  8
1
  6
CONTINUOUS
 62
     7
 10
-1323.570885295603
 20
-209.1179164015718
  0
VERTEX
  8
1
  6
CONTINUOUS
 62
     7
 10
-1323.513979547711
 20
-209.305330964847
  0
VERTEX
  8
1
  6
CONTINUOUS
 62
     7
 10
-1323.421569627503
 20
-209.4780532155759
  0
VERTEX
  8
1
  6
CONTINUOUS
 62
     7
 10
-1323.297206796386
 20
-209.6294455345267
  0
VERTEX
  8
1
  6
CONTINUOUS
 62
     7
 10
-1323.14567024822
 20
-209.753689999784
  0
VERTEX
  8
1
  6
CONTINUOUS
 62
     7
 10
-1322.972783447565
 20
-209.8460119662251
  0
VERTEX
  8
1
  6
CONTINUOUS
 62
     7
 10
-1322.785190337216
 20
-209.9028635524543
  0
VERTEX
  8
1
  6
CONTINUOUS
 62
     7
 10
-1322.5901000152
 20
-209.9220599838957
  0
SEQEND
  8
1
  6
CONTINUOUS
 62
     7
  0
POLYLINE
  8
1
  6
CONTINUOUS
 62
     7
 66
     1
  0
VERTEX
  8
1
  6
CONTINUOUS
 62
     7
 10
-1322.5901000152
 20
-222.4938492425044
  0
VERTEX
  8
1
  6
CONTINUOUS
 62
     7
 10
-1322.785190337216
 20
-222.5130456739457
  0
VERTEX
  8
1
  6
CONTINUOUS
 62
     7
 10
-1322.972783447565
 20
-222.5698972601749
  0
VERTEX
  8
1
  6
CONTINUOUS
 62
     7
 10
-1323.14567024822
 20
-222.662219226616
  0
VERTEX
  8
1
  6
CONTINUOUS
 62
     7
 10
-1323.297206796387
 20
-222.7864636918733
  0
VERTEX
  8
1
  6
CONTINUOUS
 62
     7
 10
-1323.421569627503
 20
-222.9378560108242
  0
VERTEX
  8
1
  6
CONTINUOUS
 62
     7
 10
-1323.513979547711
 20
-223.110578261553
  0
VERTEX
  8
1
  6
CONTINUOUS
 62
     7
 10
-1323.570885295603
 20
-223.2979928248282
  0
VERTEX
  8
1
  6
CONTINUOUS
 62
     7
 10
-1323.5901000152
 20
-223.4928974640862
  0
SEQEND
  8
1
  6
CONTINUOUS
 62
     7
  0
POLYLINE
  8
1
  6
CONTINUOUS
 62
     7
 66
     1
  0
VERTEX
  8
1
  6
CONTINUOUS
 62
     7
 10
-1323.5901000152
 20
-219.5104079360624
  0
VERTEX
  8
1
  6
CONTINUOUS
 62
     7
 10
-1323.570885295603
 20
-219.6422090472171
  0
VERTEX
  8
1
  6
CONTINUOUS
 62
     7
 10
-1323.513979547711
 20
-219.768945115585
  0
VERTEX
  8
1
  6
CONTINUOUS
 62
     7
 10
-1323.421569627503
 20
-219.8857457451332
  0
VERTEX
  8
1
  6
CONTINUOUS
 62
     7
 10
-1323.297206796387
 20
-219.9881223531707
  0
VERTEX
  8
1
  6
CONTINUOUS
 62
     7
 10
-1323.14567024822
 20
-220.072140664064
  0
VERTEX
  8
1
  6
CONTINUOUS
 62
     7
 10
-1322.972783447565
 20
-220.1345719012436
  0
VERTEX
  8
1
  6
CONTINUOUS
 62
     7
 10
-1322.785190337216
 20
-220.1730168672764
  0
VERTEX
  8
1
  6
CONTINUOUS
 62
     7
 10
-1322.5901000152
 20
-220.1859981436781
  0
SEQEND
  8
1
  6
CONTINUOUS
 62
     7
  0
POLYLINE
  8
1
  6
CONTINUOUS
 62
     7
 66
     1
  0
VERTEX
  8
1
  6
CONTINUOUS
 62
     7
 10
-1323.5901000152
 20
-208.9230117623138
  0
VERTEX
  8
1
  6
CONTINUOUS
 62
     7
 10
-1323.570885295603
 20
-209.1179164015718
  0
VERTEX
  8
1
  6
CONTINUOUS
 62
     7
 10
-1323.513979547711
 20
-209.305330964847
  0
VERTEX
  8
1
  6
CONTINUOUS
 62
     7
 10
-1323.421569627503
 20
-209.4780532155759
  0
VERTEX
  8
1
  6
CONTINUOUS
 62
     7
 10
-1323.297206796386
 20
-209.6294455345267
  0
VERTEX
  8
1
  6
CONTINUOUS
 62
     7
 10
-1323.14567024822
 20
-209.753689999784
  0
VERTEX
  8
1
  6
CONTINUOUS
 62
     7
 10
-1322.972783447565
 20
-209.8460119662251
  0
VERTEX
  8
1
  6
CONTINUOUS
 62
     7
 10
-1322.785190337216
 20
-209.9028635524543
  0
VERTEX
  8
1
  6
CONTINUOUS
 62
     7
 10
-1322.5901000152
 20
-209.9220599838957
  0
SEQEND
  8
1
  6
CONTINUOUS
 62
     7
  0
POLYLINE
  8
1
  6
CONTINUOUS
 62
     7
 66
     1
  0
VERTEX
  8
1
  6
CONTINUOUS
 62
     7
 10
-1322.5901000152
 20
-228.119652355017
  0
VERTEX
  8
1
  6
CONTINUOUS
 62
     7
 10
-1322.785190337216
 20
-228.1204904893142
  0
VERTEX
  8
1
  6
CONTINUOUS
 62
     7
 10
-1322.972783447565
 20
-228.1229726831748
  0
VERTEX
  8
1
  6
CONTINUOUS
 62
     7
 10
-1323.14567024822
 20
-228.1270035472808
  0
VERTEX
  8
1
  6
CONTINUOUS
 62
     7
 10
-1323.297206796386
 20
-228.1324281777851
  0
VERTEX
  8
1
  6
CONTINUOUS
 62
     7
 10
-1323.421569627503
 20
-228.1390381091796
  0
VERTEX
  8
1
  6
CONTINUOUS
 62
     7
 10
-1323.513979547711
 20
-228.1465793255077
  0
VERTEX
  8
1
  6
CONTINUOUS
 62
     7
 10
-1323.570885295603
 20
-228.1547620220551
  0
VERTEX
  8
1
  6
CONTINUOUS
 62
     7
 10
-1323.5901000152
 20
-228.1632717423823
  0
SEQEND
  8
1
  6
CONTINUOUS
 62
     7
  0
POLYLINE
  8
1
  6
CONTINUOUS
 62
     7
 66
     1
  0
VERTEX
  8
1
  6
CONTINUOUS
 62
     7
 10
-1322.5901000152
 20
-212.2299110827219
  0
VERTEX
  8
1
  6
CONTINUOUS
 62
     7
 10
-1322.785190337216
 20
-212.2428923591236
  0
VERTEX
  8
1
  6
CONTINUOUS
 62
     7
 10
-1322.972783447565
 20
-212.2813373251564
  0
VERTEX
  8
1
  6
CONTINUOUS
 62
     7
 10
-1323.14567024822
 20
-212.343768562336
  0
VERTEX
  8
1
  6
CONTINUOUS
 62
     7
 10
-1323.297206796387
 20
-212.4277868732293
  0
VERTEX
  8
1
  6
CONTINUOUS
 62
     7
 10
-1323.421569627503
 20
-212.5301634812668
  0
VERTEX
  8
1
  6
CONTINUOUS
 62
     7
 10
-1323.513979547711
 20
-212.646964110815
  0
VERTEX
  8
1
  6
CONTINUOUS
 62
     7
 10
-1323.570885295603
 20
-212.7737001791829
  0
VERTEX
  8
1
  6
CONTINUOUS
 62
     7
 10
-1323.5901000152
 20
-212.9055012903376
  0
SEQEND
  8
1
  6
CONTINUOUS
 62
     7
  0
POLYLINE
  8
1
  6
CONTINUOUS
 62
     7
 66
     1
  0
VERTEX
  8
1
  6
CONTINUOUS
 62
     7
 10
-1322.5901000152
 20
-228.119652355017
  0
VERTEX
  8
1
  6
CONTINUOUS
 62
     7
 10
-1322.785190337216
 20
-228.1204904893142
  0
VERTEX
  8
1
  6
CONTINUOUS
 62
     7
 10
-1322.972783447565
 20
-228.1229726831748
  0
VERTEX
  8
1
  6
CONTINUOUS
 62
     7
 10
-1323.14567024822
 20
-228.1270035472808
  0
VERTEX
  8
1
  6
CONTINUOUS
 62
     7
 10
-1323.297206796386
 20
-228.1324281777851
  0
VERTEX
  8
1
  6
CONTINUOUS
 62
     7
 10
-1323.421569627503
 20
-228.1390381091796
  0
VERTEX
  8
1
  6
CONTINUOUS
 62
     7
 10
-1323.513979547711
 20
-228.1465793255077
  0
VERTEX
  8
1
  6
CONTINUOUS
 62
     7
 10
-1323.570885295603
 20
-228.1547620220551
  0
VERTEX
  8
1
  6
CONTINUOUS
 62
     7
 10
-1323.5901000152
 20
-228.1632717423823
  0
SEQEND
  8
1
  6
CONTINUOUS
 62
     7
  0
CIRCLE
  8
1
  6
CONTINUOUS
 62
     7
 10
-1239.5901000152
 20
-216.2079546132
 40
13.0
  0
CIRCLE
  8
1
  6
CONTINUOUS
 62
     7
 10
-1239.5901000152
 20
-216.2079546132
 40
10.8
  0
CIRCLE
  8
1
  6
CONTINUOUS
 62
     7
 10
-1239.5901000152
 20
-216.2079546132
 40
8.0
  0
CIRCLE
  8
1
  6
CONTINUOUS
 62
     7
 10
-1239.5901000152
 20
-216.2079546132
 40
11.2
  0
LINE
  8
1
  6
CONTINUOUS
 62
     7
 10
-1315.3541153131
 20
-209.9519574852757
 11
-1315.383441260291
 21
-209.9449374878195
  0
LINE
  8
1
  6
CONTINUOUS
 62
     7
 10
-1315.5901000152
 20
-228.1196523550171
 11
-1322.5901000152
 21
-228.1196523550171
  0
LINE
  8
1
  6
CONTINUOUS
 62
     7
 10
-1315.5901000152
 20
-209.9220599838957
 11
-1322.5901000152
 21
-209.9220599838957
  0
LINE
  8
1
  6
CONTINUOUS
 62
     7
 10
-1315.3541153131
 20
-228.1561272024419
 11
-1315.473953108938
 21
-228.1284345633968
  0
LINE
  8
1
  6
CONTINUOUS
 62
     7
 10
-1315.466666058792
 20
-204.286201492962
 11
-1315.347945828239
 21
-204.2578807295531
  0
LINE
  8
1
  6
CONTINUOUS
 62
     7
 10
-1314.626653304262
 20
-229.009935548124
 11
-1314.621854178648
 21
-228.9812341220775
  0
LINE
  8
1
  6
CONTINUOUS
 62
     7
 10
-1314.683483897391
 20
-203.6249495442651
 11
-1314.621854178648
 21
-203.5768661759329
  0
LINE
  8
1
  6
CONTINUOUS
 62
     7
 10
-1314.687802833158
 20
-203.2291381039681
 11
-1314.708715602495
 21
-203.1845268277042
  0
LINE
  8
1
  6
CONTINUOUS
 62
     7
 10
-1314.728495267205
 20
-203.1465309409755
 11
-1314.750076110921
 21
-203.1087798464822
  0
LINE
  8
1
  6
CONTINUOUS
 62
     7
 10
-1315.2562506673
 20
-228.1932472398925
 11
-1315.3541153131
 21
-228.1561272024419
  0
LINE
  8
1
  6
CONTINUOUS
 62
     7
 10
-1314.750076110921
 20
-203.1087798464822
 11
-1314.773556271809
 21
-203.0713007180432
  0
LINE
  8
1
  6
CONTINUOUS
 62
     7
 10
-1315.105441894354
 20
-210.0544292011706
 11
-1315.141085973644
 21
-210.0345813769812
  0
LINE
  8
1
  6
CONTINUOUS
 62
     7
 10
-1322.5901000152
 20
-222.4938492425043
 11
-1315.5901000152
 21
-222.4938492425043
  0
LINE
  8
1
  6
CONTINUOUS
 62
     7
 10
-1315.473953108938
 20
-228.1284345633968
 11
-1315.5901000152
 21
-228.1196523550171
  0
LINE
  8
1
  6
CONTINUOUS
 62
     7
 10
-1314.799048665701
 20
-203.0341288956146
 11
-1314.826683269398
 21
-202.9973094704216
  0
LINE
  8
1
  6
CONTINUOUS
 62
     7
 10
-1314.826683269398
 20
-202.9973094704216
 11
-1314.856610007001
 21
-202.9608993423708
  0
LINE
  8
1
  6
CONTINUOUS
 62
     7
 10
-1315.039539317288
 20
-202.794048942094
 11
-1315.073478477582
 21
-202.771040852551
  0
LINE
  8
1
  6
CONTINUOUS
 62
     7
 10
-1314.889002434316
 20
-202.9249699046863
 11
-1314.916240673442
 21
-202.8972061147081
  0
LINE
  8
1
  6
CONTINUOUS
 62
     7
 10
-1314.996201561639
 20
-210.1283545295027
 11
-1315.038546231483
 21
-210.0971759482515
  0
LINE
  8
1
  6
CONTINUOUS
 62
     7
 10
-1314.638652535827
 20
-203.362504922649
 11
-1314.652794755682
 21
-203.3184645847747
  0
LINE
  8
1
  6
CONTINUOUS
 62
     7
 10
-1315.108981267545
 20
-202.7490904845025
 11
-1315.146115843462
 21
-202.7282882415327
  0
LINE
  8
1
  6
CONTINUOUS
 62
     7
 10
-1314.621854178648
 20
-203.576866175933
 11
-1314.621854178648
 21
-203.4346751043226
  0
LINE
  8
1
  6
CONTINUOUS
 62
     7
 10
-1315.413245002668
 20
-209.9387804472141
 11
-1315.443443349221
 21
-209.9335300797339
  0
LINE
  8
1
  6
CONTINUOUS
 62
     7
 10
-1315.5901000152
 20
-204.296256871383
 11
-1315.466666058792
 21
-204.286201492962
  0
LINE
  8
1
  6
CONTINUOUS
 62
     7
 10
-1314.621854178648
 20
-228.9812341220775
 11
-1314.621854178648
 21
-228.8390430504671
  0
LINE
  8
1
  6
CONTINUOUS
 62
     7
 10
-1314.621854178648
 20
-203.4346751043225
 11
-1314.627957678308
 21
-203.400679558703
  0
LINE
  8
1
  6
CONTINUOUS
 62
     7
 10
-1314.652794755682
 20
-203.3184645847747
 11
-1314.669135597129
 21
-203.2739694390038
  0
LINE
  8
1
  6
CONTINUOUS
 62
     7
 10
-1315.071246632089
 20
-210.0753376450667
 11
-1315.105441894354
 21
-210.0544292011706
  0
LINE
  8
1
  6
CONTINUOUS
 62
     7
 10
-1315.146115843462
 20
-202.7282882415327
 11
-1315.184938168652
 21
-202.7087472436642
  0
LINE
  8
1
  6
CONTINUOUS
 62
     7
 10
-1315.184938168652
 20
-202.7087472436641
 11
-1315.221369669525
 21
-202.6923433968473
  0
LINE
  8
1
  6
CONTINUOUS
 62
     7
 10
-1315.297020728495
 20
-202.6638708311412
 11
-1315.33624069128
 21
-202.6519150269435
  0
LINE
  8
1
  6
CONTINUOUS
 62
     7
 10
-1314.918444031196
 20
-210.1953690630674
 11
-1314.956179294157
 21
-210.1611333880684
  0
LINE
  8
1
  6
CONTINUOUS
 62
     7
 10
-1314.683483897391
 20
-228.7909596821348
 11
-1314.743598430566
 21
-228.6742169399466
  0
LINE
  8
1
  6
CONTINUOUS
 62
     7
 10
-1315.2562506673
 20
-209.9827092268297
 11
-1315.297229568327
 21
-209.968411485644
  0
LINE
  8
1
  6
CONTINUOUS
 62
     7
 10
-1315.141085973644
 20
-228.2549706857645
 11
-1315.2562506673
 21
-228.1932472398926
  0
LINE
  8
1
  6
CONTINUOUS
 62
     7
 10
-1322.5901000152
 20
-204.296256871383
 11
-1315.5901000152
 21
-204.296256871383
  0
LINE
  8
1
  6
CONTINUOUS
 62
     7
 10
-1315.504691090807
 20
-209.925924229246
 11
-1315.533048598756
 21
-209.9237840682494
  0
LINE
  8
1
  6
CONTINUOUS
 62
     7
 10
-1315.178132825322
 20
-210.0159249329161
 11
-1315.216536404753
 21
-209.998590629393
  0
LINE
  8
1
  6
CONTINUOUS
 62
     7
 10
-1315.533048598756
 20
-209.9237840682494
 11
-1315.561550039789
 21
-209.922492665478
  0
LINE
  8
1
  6
CONTINUOUS
 62
     7
 10
-1315.561550039789
 20
-209.922492665478
 11
-1315.5901000152
 21
-209.9220599838956
  0
LINE
  8
1
  6
CONTINUOUS
 62
     7
 10
-1314.621854178648
 20
-228.8390430504671
 11
-1314.683483897391
 21
-228.7909596821349
  0
LINE
  8
1
  6
CONTINUOUS
 62
     7
 10
-1314.773556271809
 20
-203.0713007180432
 11
-1314.799048665701
 21
-203.0341288956147
  0
LINE
  8
1
  6
CONTINUOUS
 62
     7
 10
-1314.944928738602
 20
-202.8701165096271
 11
-1314.975006668288
 21
-202.8438574700083
  0
LINE
  8
1
  6
CONTINUOUS
 62
     7
 10
-1314.975006668288
 20
-202.8438574700083
 11
-1315.006525077112
 21
-202.818481199268
  0
LINE
  8
1
  6
CONTINUOUS
 62
     7
 10
-1315.443443349221
 20
-209.933530079734
 11
-1315.473953108938
 21
-209.9292301016532
  0
LINE
  8
1
  6
CONTINUOUS
 62
     7
 10
-1315.141085973644
 20
-210.0345813769812
 11
-1315.178132825322
 21
-210.0159249329161
  0
LINE
  8
1
  6
CONTINUOUS
 62
     7
 10
-1315.216536404753
 20
-209.998590629393
 11
-1315.2562506673
 21
-209.9827092268298
  0
LINE
  8
1
  6
CONTINUOUS
 62
     7
 10
-1315.347945828239
 20
-204.2578807295531
 11
-1315.216536404753
 21
-204.2036488401398
  0
LINE
  8
1
  6
CONTINUOUS
 62
     7
 10
-1315.325350352109
 20
-209.9597967233086
 11
-1315.3541153131
 21
-209.9519574852757
  0
LINE
  8
1
  6
CONTINUOUS
 62
     7
 10
-1315.216536404753
 20
-204.2036488401398
 11
-1315.105441894354
 21
-204.1376056238545
  0
LINE
  8
1
  6
CONTINUOUS
 62
     7
 10
-1314.627945485108
 20
-203.4007261513031
 11
-1314.638652535827
 21
-203.362504922649
  0
LINE
  8
1
  6
CONTINUOUS
 62
     7
 10
-1314.669135597129
 20
-203.2739694390037
 11
-1314.687802833158
 21
-203.2291381039681
  0
LINE
  8
1
  6
CONTINUOUS
 62
     7
 10
-1314.708715602495
 20
-203.1845268277042
 11
-1314.728495267205
 21
-203.1465309409755
  0
LINE
  8
1
  6
CONTINUOUS
 62
     7
 10
-1314.916240673442
 20
-202.8972061147082
 11
-1314.944928738601
 21
-202.8701165096272
  0
LINE
  8
1
  6
CONTINUOUS
 62
     7
 10
-1315.073478477582
 20
-202.7710408525511
 11
-1315.108981267545
 21
-202.7490904845025
  0
LINE
  8
1
  6
CONTINUOUS
 62
     7
 10
-1315.038546231483
 20
-210.0971759482516
 11
-1315.071246632088
 21
-210.0753376450667
  0
LINE
  8
1
  6
CONTINUOUS
 62
     7
 10
-1315.297229568328
 20
-209.968411485644
 11
-1315.325350352109
 21
-209.9597967233086
  0
LINE
  8
1
  6
CONTINUOUS
 62
     7
 10
-1315.383441260291
 20
-209.9449374878195
 11
-1315.413245002668
 21
-209.9387804472141
  0
LINE
  8
1
  6
CONTINUOUS
 62
     7
 10
-1315.221369669525
 20
-202.6923433968473
 11
-1315.2587302762
 21
-202.6773668873606
  0
LINE
  8
1
  6
CONTINUOUS
 62
     7
 10
-1315.473953108938
 20
-209.9292301016532
 11
-1315.504691090807
 21
-209.925924229246
  0
LINE
  8
1
  6
CONTINUOUS
 62
     7
 10
-1315.2587302762
 20
-202.6773668873606
 11
-1315.297020728495
 21
-202.6638708311411
  0
LINE
  8
1
  6
CONTINUOUS
 62
     7
 10
-1314.956179294157
 20
-210.1611333880684
 11
-1314.996201561639
 21
-210.1283545295027
  0
LINE
  8
1
  6
CONTINUOUS
 62
     7
 10
-1315.006525077112
 20
-202.818481199268
 11
-1315.039539317288
 21
-202.794048942094
  0
LINE
  8
1
  6
CONTINUOUS
 62
     7
 10
-1315.038546231483
 20
-228.3280143792758
 11
-1315.141085973644
 21
-228.2549706857645
  0
LINE
  8
1
  6
CONTINUOUS
 62
     7
 10
-1315.459457072074
 20
-202.6259935491915
 11
-1315.502369063634
 21
-202.6209421082089
  0
LINE
  8
1
  6
CONTINUOUS
 62
     7
 10
-1322.5901000152
 20
-229.7990994059047
 11
-1315.5901000152
 21
-229.7990994059047
  0
LINE
  8
1
  6
CONTINUOUS
 62
     7
 10
-1315.502369063634
 20
-202.6209421082089
 11
-1315.546033076397
 21
-202.6178517519052
  0
LINE
  8
1
  6
CONTINUOUS
 62
     7
 10
-1315.466666058792
 20
-222.4856451762969
 11
-1315.43628660069
 21
-222.4811622398625
  0
LINE
  8
1
  6
CONTINUOUS
 62
     7
 10
-1315.5901000152
 20
-229.7990985328085
 11
-1315.471866064614
 21
-229.7915834207884
  0
LINE
  8
1
  6
CONTINUOUS
 62
     7
 10
-1315.473953108938
 20
-220.1972781416655
 11
-1315.5901000152
 21
-220.1859981436781
  0
LINE
  8
1
  6
CONTINUOUS
 62
     7
 10
-1315.141085973644
 20
-212.0546619333522
 11
-1315.038546231483
 21
-211.9587511965368
  0
LINE
  8
1
  6
CONTINUOUS
 62
     7
 10
-1314.687661437648
 20
-221.894677980901
 11
-1314.683483897391
 21
-221.8859450516154
  0
LINE
  8
1
  6
CONTINUOUS
 62
     7
 10
-1315.528205803128
 20
-222.4917560336942
 11
-1315.49734012476
 21
-222.4891869889721
  0
LINE
  8
1
  6
CONTINUOUS
 62
     7
 10
-1315.347945828239
 20
-222.4623831299403
 11
-1315.322365086956
 21
-222.4552543055598
  0
LINE
  8
1
  6
CONTINUOUS
 62
     7
 10
-1315.216536404753
 20
-222.417318597007
 11
-1315.178132825322
 21
-222.3999842934839
  0
LINE
  8
1
  6
CONTINUOUS
 62
     7
 10
-1315.2562506673
 20
-222.4331999995702
 11
-1315.216536404753
 21
-222.4173185970069
  0
LINE
  8
1
  6
CONTINUOUS
 62
     7
 10
-1315.5901000152
 20
-222.4938492425043
 11
-1315.55916009843
 21
-222.4933206662695
  0
LINE
  8
1
  6
CONTINUOUS
 62
     7
 10
-1315.038546231483
 20
-222.3187332781484
 11
-1314.996201561639
 21
-222.2875546968972
  0
LINE
  8
1
  6
CONTINUOUS
 62
     7
 10
-1314.956179294157
 20
-222.2547758383316
 11
-1314.918444031196
 21
-222.2205401633326
  0
LINE
  8
1
  6
CONTINUOUS
 62
     7
 10
-1314.918444031196
 20
-222.2205401633326
 11
-1314.882960374911
 21
-222.1849911327813
  0
LINE
  8
1
  6
CONTINUOUS
 62
     7
 10
-1315.417462054122
 20
-202.6328984153635
 11
-1315.459457072074
 21
-202.6259935491915
  0
LINE
  8
1
  6
CONTINUOUS
 62
     7
 10
-1315.5901000152
 20
-212.2299110827219
 11
-1315.466666058792
 21
-212.2169997056045
  0
LINE
  8
1
  6
CONTINUOUS
 62
     7
 10
-1315.466666058792
 20
-212.2169997056045
 11
-1315.347945828239
 21
-212.1805251510266
  0
LINE
  8
1
  6
CONTINUOUS
 62
     7
 10
-1315.376823489947
 20
-222.4694995724905
 11
-1315.347945828239
 21
-222.4623831299403
  0
LINE
  8
1
  6
CONTINUOUS
 62
     7
 10
-1315.546033076397
 20
-202.6178517519052
 11
-1315.5901000152
 21
-202.6168106935914
  0
LINE
  8
1
  6
CONTINUOUS
 62
     7
 10
-1315.038546231483
 20
-220.4571580298633
 11
-1315.141085973644
 21
-220.3612472930478
  0
LINE
  8
1
  6
CONTINUOUS
 62
     7
 10
-1315.322365086956
 20
-222.4552543055597
 11
-1315.297229568328
 21
-222.4474977407559
  0
LINE
  8
1
  6
CONTINUOUS
 62
     7
 10
-1315.233803141535
 20
-229.7287536635323
 11
-1315.117852556725
 21
-229.671983590772
  0
LINE
  8
1
  6
CONTINUOUS
 62
     7
 10
-1315.071246632089
 20
-222.3405715813333
 11
-1315.038546231483
 21
-222.3187332781484
  0
LINE
  8
1
  6
CONTINUOUS
 62
     7
 10
-1314.818606291001
 20
-222.1105268485469
 11
-1314.779227988972
 21
-222.0569943159635
  0
LINE
  8
1
  6
CONTINUOUS
 62
     7
 10
-1314.711692203976
 20
-221.9445209568579
 11
-1314.683483897391
 21
-221.8859450516154
  0
LINE
  8
1
  6
CONTINUOUS
 62
     7
 10
-1314.779227988972
 20
-210.3589149104365
 11
-1314.818606291001
 21
-210.3053823778531
  0
LINE
  8
1
  6
CONTINUOUS
 62
     7
 10
-1314.683483897391
 20
-211.3253719437674
 11
-1314.621854178648
 21
-211.1181775465605
  0
LINE
  8
1
  6
CONTINUOUS
 62
     7
 10
-1314.882960374911
 20
-222.1849911327814
 11
-1314.84969292746
 21
-222.1482722075591
  0
LINE
  8
1
  6
CONTINUOUS
 62
     7
 10
-1314.779227988972
 20
-222.0569943159635
 11
-1314.743598430566
 21
-222.0015981985205
  0
LINE
  8
1
  6
CONTINUOUS
 62
     7
 10
-1315.352449255943
 20
-229.7683994377653
 11
-1315.233803141535
 21
-229.7287536635323
  0
LINE
  8
1
  6
CONTINUOUS
 62
     7
 10
-1314.743598430566
 20
-210.4143110278794
 11
-1314.779227988972
 21
-210.3589149104365
  0
LINE
  8
1
  6
CONTINUOUS
 62
     7
 10
-1315.336240691279
 20
-202.6519150269435
 11
-1315.376388681042
 21
-202.6415662069185
  0
LINE
  8
1
  6
CONTINUOUS
 62
     7
 10
-1315.5901000152
 20
-220.1859981436781
 11
-1322.5901000152
 21
-220.1859981436781
  0
LINE
  8
1
  6
CONTINUOUS
 62
     7
 10
-1315.471866064614
 20
-229.7915834207885
 11
-1315.352449255943
 21
-229.7683994377653
  0
LINE
  8
1
  6
CONTINUOUS
 62
     7
 10
-1315.55916009843
 20
-222.4933206662695
 11
-1315.528205803128
 21
-222.4917560336942
  0
LINE
  8
1
  6
CONTINUOUS
 62
     7
 10
-1314.996201561639
 20
-222.2875546968972
 11
-1314.956179294157
 21
-222.2547758383316
  0
LINE
  8
1
  6
CONTINUOUS
 62
     7
 10
-1314.621854178648
 20
-221.6410112933698
 11
-1314.621854178648
 21
-221.2977316798395
  0
LINE
  8
1
  6
CONTINUOUS
 62
     7
 10
-1315.3541153131
 20
-220.2329304816013
 11
-1315.473953108938
 21
-220.1972781416655
  0
LINE
  8
1
  6
CONTINUOUS
 62
     7
 10
-1315.2562506673
 20
-220.2809230767867
 11
-1315.3541153131
 21
-220.2329304816013
  0
LINE
  8
1
  6
CONTINUOUS
 62
     7
 10
-1314.687661437648
 20
-211.3293179339843
 11
-1314.683483897391
 21
-211.3253719437674
  0
LINE
  8
1
  6
CONTINUOUS
 62
     7
 10
-1315.178132825322
 20
-222.3999842934839
 11
-1315.141085973644
 21
-222.3813278494187
  0
LINE
  8
1
  6
CONTINUOUS
 62
     7
 10
-1314.621854178647
 20
-211.1181775465603
 11
-1314.621854178647
 21
-210.77489793303
  0
LINE
  8
1
  6
CONTINUOUS
 62
     7
 10
-1322.5901000152
 20
-212.2299110827219
 11
-1315.5901000152
 21
-212.2299110827219
  0
LINE
  8
1
  6
CONTINUOUS
 62
     7
 10
-1315.297229568328
 20
-222.447497740756
 11
-1315.2562506673
 21
-222.4331999995703
  0
LINE
  8
1
  6
CONTINUOUS
 62
     7
 10
-1315.105441894354
 20
-222.3614800252293
 11
-1315.071246632089
 21
-222.3405715813333
  0
LINE
  8
1
  6
CONTINUOUS
 62
     7
 10
-1314.84969292746
 20
-222.1482722075591
 11
-1314.818606291001
 21
-222.1105268485469
  0
LINE
  8
1
  6
CONTINUOUS
 62
     7
 10
-1314.683483897391
 20
-210.5299641747845
 11
-1314.711692203976
 21
-210.471388269542
  0
LINE
  8
1
  6
CONTINUOUS
 62
     7
 10
-1314.627818105344
 20
-229.0146956476165
 11
-1314.626595987649
 21
-229.0099742973901
  0
LINE
  8
1
  6
CONTINUOUS
 62
     7
 10
-1315.141085973644
 20
-220.3612472930478
 11
-1315.2562506673
 21
-220.2809230767867
  0
LINE
  8
1
  6
CONTINUOUS
 62
     7
 10
-1315.347945828239
 20
-212.1805251510266
 11
-1315.2562506673
 21
-212.1349861496132
  0
LINE
  8
1
  6
CONTINUOUS
 62
     7
 10
-1315.141085973644
 20
-222.3813278494187
 11
-1315.105441894354
 21
-222.3614800252293
  0
LINE
  8
1
  6
CONTINUOUS
 62
     7
 10
-1314.711692203976
 20
-210.471388269542
 11
-1314.743598430566
 21
-210.4143110278794
  0
LINE
  8
1
  6
CONTINUOUS
 62
     7
 10
-1315.406304745919
 20
-222.4757698238624
 11
-1315.376823489947
 21
-222.4694995724905
  0
LINE
  8
1
  6
CONTINUOUS
 62
     7
 10
-1315.117852556725
 20
-229.671983590772
 11
-1315.00966411693
 21
-229.5998427817783
  0
LINE
  8
1
  6
CONTINUOUS
 62
     7
 10
-1315.5901000152
 20
-202.6168098204953
 11
-1322.5901000152
 21
-202.6168098204953
  0
LINE
  8
1
  6
CONTINUOUS
 62
     7
 10
-1314.621854178648
 20
-210.7748979330301
 11
-1314.683483897391
 21
-210.5299641747846
  0
LINE
  8
1
  6
CONTINUOUS
 62
     7
 10
-1314.683483897391
 20
-221.8859450516154
 11
-1314.621854178648
 21
-221.6410112933698
  0
LINE
  8
1
  6
CONTINUOUS
 62
     7
 10
-1315.376388681043
 20
-202.6415662069185
 11
-1315.417462054122
 21
-202.6328984153635
  0
LINE
  8
1
  6
CONTINUOUS
 62
     7
 10
-1315.2562506673
 20
-212.1349861496132
 11
-1315.141085973644
 21
-212.0546619333521
  0
LINE
  8
1
  6
CONTINUOUS
 62
     7
 10
-1315.49734012476
 20
-222.4891869889721
 11
-1315.466666058792
 21
-222.485645176297
  0
LINE
  8
1
  6
CONTINUOUS
 62
     7
 10
-1315.43628660069
 20
-222.4811622398625
 11
-1315.406304745919
 21
-222.4757698238624
  0
LINE
  8
1
  6
CONTINUOUS
 62
     7
 10
-1314.621854178648
 20
-221.2977316798395
 11
-1314.683483897391
 21
-221.0905372826326
  0
LINE
  8
1
  6
CONTINUOUS
 62
     7
 10
-1314.621854178648
 20
-203.434675104322
 11
-1314.627957678308
 21
-203.4006795587029
  0
LINE
  8
1
  6
CONTINUOUS
 62
     7
 10
-1322.5901000152
 20
-222.4938492425043
 11
-1315.5901000152
 21
-222.4938492425043
  0
LINE
  8
1
  6
CONTINUOUS
 62
     7
 10
-1314.627945485108
 20
-203.4007261513031
 11
-1314.638652535827
 21
-203.362504922649
  0
LINE
  8
1
  6
CONTINUOUS
 62
     7
 10
-1314.621854178648
 20
-228.9812341220775
 11
-1314.621854178648
 21
-228.8390430504671
  0
LINE
  8
1
  6
CONTINUOUS
 62
     7
 10
-1314.626653304262
 20
-229.009935548124
 11
-1314.621854178648
 21
-228.981234122078
  0
LINE
  8
1
  6
CONTINUOUS
 62
     7
 10
-1314.638652535827
 20
-203.362504922649
 11
-1314.652794755682
 21
-203.3184645847747
  0
LINE
  8
1
  6
CONTINUOUS
 62
     7
 10
-1314.669135597129
 20
-203.2739694390038
 11
-1314.687802833158
 21
-203.2291381039681
  0
LINE
  8
1
  6
CONTINUOUS
 62
     7
 10
-1314.996201561639
 20
-210.1283545295027
 11
-1315.038546231483
 21
-210.0971759482515
  0
LINE
  8
1
  6
CONTINUOUS
 62
     7
 10
-1315.504691090807
 20
-209.925924229246
 11
-1315.533048598756
 21
-209.9237840682494
  0
LINE
  8
1
  6
CONTINUOUS
 62
     7
 10
-1315.5901000152
 20
-204.296256871383
 11
-1315.466666058792
 21
-204.286201492962
  0
LINE
  8
1
  6
CONTINUOUS
 62
     7
 10
-1314.652794755682
 20
-203.3184645847747
 11
-1314.669135597129
 21
-203.2739694390038
  0
LINE
  8
1
  6
CONTINUOUS
 62
     7
 10
-1315.383441260291
 20
-209.9449374878195
 11
-1315.413245002668
 21
-209.9387804472141
  0
LINE
  8
1
  6
CONTINUOUS
 62
     7
 10
-1315.297229568328
 20
-209.968411485644
 11
-1315.325350352109
 21
-209.9597967233086
  0
LINE
  8
1
  6
CONTINUOUS
 62
     7
 10
-1315.038546231483
 20
-228.3280143792759
 11
-1315.141085973644
 21
-228.2549706857644
  0
LINE
  8
1
  6
CONTINUOUS
 62
     7
 10
-1314.687802833158
 20
-203.2291381039681
 11
-1314.708715602495
 21
-203.1845268277042
  0
LINE
  8
1
  6
CONTINUOUS
 62
     7
 10
-1314.799048665701
 20
-203.0341288956146
 11
-1314.826683269398
 21
-202.9973094704216
  0
LINE
  8
1
  6
CONTINUOUS
 62
     7
 10
-1314.826683269398
 20
-202.9973094704216
 11
-1314.856610007001
 21
-202.9608993423708
  0
LINE
  8
1
  6
CONTINUOUS
 62
     7
 10
-1314.944928738602
 20
-202.8701165096271
 11
-1314.975006668288
 21
-202.8438574700083
  0
LINE
  8
1
  6
CONTINUOUS
 62
     7
 10
-1315.5901000152
 20
-228.1196523550171
 11
-1322.5901000152
 21
-228.1196523550171
  0
LINE
  8
1
  6
CONTINUOUS
 62
     7
 10
-1314.856610007001
 20
-202.9608993423708
 11
-1314.889002434316
 21
-202.9249699046863
  0
LINE
  8
1
  6
CONTINUOUS
 62
     7
 10
-1314.882960374911
 20
-210.2309180936186
 11
-1314.918444031195
 21
-210.1953690630674
  0
LINE
  8
1
  6
CONTINUOUS
 62
     7
 10
-1314.708715602495
 20
-203.1845268277042
 11
-1314.728495267205
 21
-203.1465309409755
  0
LINE
  8
1
  6
CONTINUOUS
 62
     7
 10
-1315.5901000152
 20
-209.9220599838957
 11
-1322.5901000152
 21
-209.9220599838957
  0
LINE
  8
1
  6
CONTINUOUS
 62
     7
 10
-1314.975006668288
 20
-202.8438574700083
 11
-1315.006525077112
 21
-202.818481199268
  0
LINE
  8
1
  6
CONTINUOUS
 62
     7
 10
-1315.006525077112
 20
-202.818481199268
 11
-1315.039539317288
 21
-202.794048942094
  0
LINE
  8
1
  6
CONTINUOUS
 62
     7
 10
-1315.039539317288
 20
-202.794048942094
 11
-1315.073478477582
 21
-202.771040852551
  0
LINE
  8
1
  6
CONTINUOUS
 62
     7
 10
-1315.073478477582
 20
-202.7710408525511
 11
-1315.108981267545
 21
-202.7490904845025
  0
LINE
  8
1
  6
CONTINUOUS
 62
     7
 10
-1315.108981267545
 20
-202.7490904845025
 11
-1315.146115843462
 21
-202.7282882415327
  0
LINE
  8
1
  6
CONTINUOUS
 62
     7
 10
-1315.473953108938
 20
-228.1284345633968
 11
-1315.5901000152
 21
-228.1196523550171
  0
LINE
  8
1
  6
CONTINUOUS
 62
     7
 10
-1314.621854178648
 20
-203.576866175933
 11
-1314.621854178648
 21
-203.4346751043226
  0
LINE
  8
1
  6
CONTINUOUS
 62
     7
 10
-1314.916240673442
 20
-202.8972061147082
 11
-1314.944928738601
 21
-202.8701165096272
  0
LINE
  8
1
  6
CONTINUOUS
 62
     7
 10
-1315.146115843462
 20
-202.7282882415327
 11
-1315.184938168652
 21
-202.7087472436642
  0
LINE
  8
1
  6
CONTINUOUS
 62
     7
 10
-1315.347945828239
 20
-204.2578807295531
 11
-1315.216536404753
 21
-204.2036488401399
  0
LINE
  8
1
  6
CONTINUOUS
 62
     7
 10
-1315.038546231483
 20
-210.0971759482516
 11
-1315.071246632088
 21
-210.0753376450667
  0
LINE
  8
1
  6
CONTINUOUS
 62
     7
 10
-1315.141085973644
 20
-210.0345813769812
 11
-1315.178132825322
 21
-210.0159249329161
  0
LINE
  8
1
  6
CONTINUOUS
 62
     7
 10
-1315.178132825322
 20
-210.0159249329161
 11
-1315.216536404753
 21
-209.998590629393
  0
LINE
  8
1
  6
CONTINUOUS
 62
     7
 10
-1315.2562506673
 20
-228.1932472398925
 11
-1315.3541153131
 21
-228.1561272024419
  0
LINE
  8
1
  6
CONTINUOUS
 62
     7
 10
-1315.3541153131
 20
-209.9519574852757
 11
-1315.383441260291
 21
-209.9449374878195
  0
LINE
  8
1
  6
CONTINUOUS
 62
     7
 10
-1315.533048598756
 20
-209.9237840682494
 11
-1315.561550039789
 21
-209.922492665478
  0
LINE
  8
1
  6
CONTINUOUS
 62
     7
 10
-1314.818606291001
 20
-210.3053823778531
 11
-1314.84969292746
 21
-210.2676370188409
  0
LINE
  8
1
  6
CONTINUOUS
 62
     7
 10
-1322.5901000152
 20
-204.296256871383
 11
-1315.5901000152
 21
-204.296256871383
  0
LINE
  8
1
  6
CONTINUOUS
 62
     7
 10
-1314.621854178648
 20
-228.8390430504671
 11
-1314.683483897391
 21
-228.7909596821349
  0
LINE
  8
1
  6
CONTINUOUS
 62
     7
 10
-1315.561550039789
 20
-209.922492665478
 11
-1315.5901000152
 21
-209.9220599838956
  0
LINE
  8
1
  6
CONTINUOUS
 62
     7
 10
-1314.683483897391
 20
-203.6249495442651
 11
-1314.621854178648
 21
-203.5768661759329
  0
LINE
  8
1
  6
CONTINUOUS
 62
     7
 10
-1314.728495267205
 20
-203.1465309409755
 11
-1314.750076110921
 21
-203.1087798464822
  0
LINE
  8
1
  6
CONTINUOUS
 62
     7
 10
-1315.2562506673
 20
-209.9827092268297
 11
-1315.297229568327
 21
-209.968411485644
  0
LINE
  8
1
  6
CONTINUOUS
 62
     7
 10
-1315.071246632089
 20
-210.0753376450667
 11
-1315.105441894354
 21
-210.0544292011706
  0
LINE
  8
1
  6
CONTINUOUS
 62
     7
 10
-1314.750076110921
 20
-203.1087798464822
 11
-1314.773556271809
 21
-203.0713007180432
  0
LINE
  8
1
  6
CONTINUOUS
 62
     7
 10
-1315.216536404753
 20
-204.2036488401398
 11
-1315.105441894354
 21
-204.1376056238546
  0
LINE
  8
1
  6
CONTINUOUS
 62
     7
 10
-1314.773556271809
 20
-203.0713007180432
 11
-1314.799048665701
 21
-203.0341288956147
  0
LINE
  8
1
  6
CONTINUOUS
 62
     7
 10
-1315.105441894354
 20
-210.0544292011706
 11
-1315.141085973644
 21
-210.0345813769812
  0
LINE
  8
1
  6
CONTINUOUS
 62
     7
 10
-1315.141085973644
 20
-228.2549706857645
 11
-1315.2562506673
 21
-228.1932472398926
  0
LINE
  8
1
  6
CONTINUOUS
 62
     7
 10
-1314.889002434316
 20
-202.9249699046863
 11
-1314.916240673442
 21
-202.8972061147081
  0
LINE
  8
1
  6
CONTINUOUS
 62
     7
 10
-1314.84969292746
 20
-210.2676370188408
 11
-1314.882960374911
 21
-210.2309180936186
  0
LINE
  8
1
  6
CONTINUOUS
 62
     7
 10
-1314.918444031196
 20
-210.1953690630674
 11
-1314.956179294157
 21
-210.1611333880684
  0
LINE
  8
1
  6
CONTINUOUS
 62
     7
 10
-1315.325350352109
 20
-209.9597967233086
 11
-1315.3541153131
 21
-209.9519574852757
  0
LINE
  8
1
  6
CONTINUOUS
 62
     7
 10
-1315.413245002668
 20
-209.9387804472141
 11
-1315.443443349221
 21
-209.9335300797339
  0
LINE
  8
1
  6
CONTINUOUS
 62
     7
 10
-1315.443443349221
 20
-209.933530079734
 11
-1315.473953108938
 21
-209.9292301016532
  0
LINE
  8
1
  6
CONTINUOUS
 62
     7
 10
-1315.473953108938
 20
-209.9292301016532
 11
-1315.504691090807
 21
-209.925924229246
  0
LINE
  8
1
  6
CONTINUOUS
 62
     7
 10
-1314.683483897391
 20
-228.7909596821348
 11
-1314.743598430566
 21
-228.6742169399465
  0
LINE
  8
1
  6
CONTINUOUS
 62
     7
 10
-1315.216536404753
 20
-209.998590629393
 11
-1315.2562506673
 21
-209.9827092268298
  0
LINE
  8
1
  6
CONTINUOUS
 62
     7
 10
-1315.3541153131
 20
-228.1561272024419
 11
-1315.473953108938
 21
-228.1284345633968
  0
LINE
  8
1
  6
CONTINUOUS
 62
     7
 10
-1314.956179294157
 20
-210.1611333880684
 11
-1314.996201561639
 21
-210.1283545295027
  0
LINE
  8
1
  6
CONTINUOUS
 62
     7
 10
-1315.466666058792
 20
-204.286201492962
 11
-1315.347945828239
 21
-204.2578807295531
  0
LINE
  8
1
  6
CONTINUOUS
 62
     7
 10
-1326.5901000152
 20
-201.2079546132
 11
-1323.5901000152
 21
-201.2079546132
  0
LINE
  8
1
  6
CONTINUOUS
 62
     7
 10
-1315.038546231483
 20
-220.4571580298633
 11
-1315.141085973644
 21
-220.3612472930478
  0
LINE
  8
1
  6
CONTINUOUS
 62
     7
 10
-1315.038546231483
 20
-228.3280143792757
 11
-1315.141085973644
 21
-228.2549706857644
  0
LINE
  8
1
  6
CONTINUOUS
 62
     7
 10
-1315.216536404753
 20
-204.2036488401398
 11
-1315.105441894354
 21
-204.1376056238545
  0
LINE
  8
1
  6
CONTINUOUS
 62
     7
 10
-1322.5901000152
 20
-212.2299110827219
 11
-1315.5901000152
 21
-212.2299110827219
  0
LINE
  8
1
  6
CONTINUOUS
 62
     7
 10
-1314.683483897391
 20
-221.8859450516154
 11
-1314.621854178648
 21
-221.6410112933698
  0
LINE
  8
1
  6
CONTINUOUS
 62
     7
 10
-1315.55916009843
 20
-222.4933206662696
 11
-1315.528205803128
 21
-222.4917560336942
  0
LINE
  8
1
  6
CONTINUOUS
 62
     7
 10
-1326.5901000152
 20
-231.2079546132
 11
-1326.5901000152
 21
-201.2079546132
  0
LINE
  8
1
  6
CONTINUOUS
 62
     7
 10
-1330.5901000152
 20
-231.2079546132
 11
-1330.5901000152
 21
-201.2079546132
  0
LINE
  8
1
  6
CONTINUOUS
 62
     7
 10
-1327.5901000152
 20
-201.2079546132
 11
-1330.5901000152
 21
-201.2079546132
  0
LINE
  8
1
  6
CONTINUOUS
 62
     7
 10
-1327.5901000152
 20
-231.2079546132
 11
-1327.5901000152
 21
-201.2079546132
  0
LINE
  8
1
  6
CONTINUOUS
 62
     7
 10
-1330.5901000152
 20
-209.9947511776
 11
-1327.5901000152
 21
-209.9947511776
  0
LINE
  8
1
  6
CONTINUOUS
 62
     7
 10
-1326.5901000152
 20
-202.9579546132
 11
-1327.5901000152
 21
-202.9579546132
  0
LINE
  8
1
  6
CONTINUOUS
 62
     7
 10
-1233.3768965796
 20
-201.2079546132
 11
-1224.5901000152
 21
-209.9947511776
  0
LINE
  8
1
  6
CONTINUOUS
 62
     7
 10
-1224.5901000152
 20
-222.4211580488
 11
-1233.3768965796
 21
-231.2079546132
  0
LINE
  8
1
  6
CONTINUOUS
 62
     7
 10
-1314.621854178648
 20
-221.6410112933698
 11
-1314.621854178648
 21
-221.2977316798395
  0
LINE
  8
1
  6
CONTINUOUS
 62
     7
 10
-1315.141085973644
 20
-220.3612472930478
 11
-1315.2562506673
 21
-220.2809230767867
  0
LINE
  8
1
  6
CONTINUOUS
 62
     7
 10
-1315.2562506673
 20
-220.2809230767867
 11
-1315.3541153131
 21
-220.2329304816014
  0
LINE
  8
1
  6
CONTINUOUS
 62
     7
 10
-1315.466666058792
 20
-212.2169997056045
 11
-1315.347945828239
 21
-212.1805251510266
  0
LINE
  8
1
  6
CONTINUOUS
 62
     7
 10
-1314.687661437648
 20
-221.894677980901
 11
-1314.683483897391
 21
-221.8859450516154
  0
LINE
  8
1
  6
CONTINUOUS
 62
     7
 10
-1315.528205803128
 20
-222.4917560336942
 11
-1315.49734012476
 21
-222.4891869889721
  0
LINE
  8
1
  6
CONTINUOUS
 62
     7
 10
-1314.696851068489
 20
-229.2079546132
 11
-1279.5901000152
 21
-229.2079546132
  0
LINE
  8
1
  6
CONTINUOUS
 62
     7
 10
-1315.49734012476
 20
-222.4891869889721
 11
-1315.466666058792
 21
-222.485645176297
  0
LINE
  8
1
  6
CONTINUOUS
 62
     7
 10
-1315.466666058792
 20
-222.4856451762969
 11
-1315.43628660069
 21
-222.4811622398625
  0
LINE
  8
1
  6
CONTINUOUS
 62
     7
 10
-1315.43628660069
 20
-222.4811622398625
 11
-1315.406304745919
 21
-222.4757698238624
  0
LINE
  8
1
  6
CONTINUOUS
 62
     7
 10
-1224.5901000152
 20
-209.9947511776
 11
-1224.5901000152
 21
-222.4211580488
  0
LINE
  8
1
  6
CONTINUOUS
 62
     7
 10
-1315.406304745919
 20
-222.4757698238624
 11
-1315.376823489947
 21
-222.4694995724905
  0
LINE
  8
1
  6
CONTINUOUS
 62
     7
 10
-1245.8033034508
 20
-201.2079546132
 11
-1233.3768965796
 21
-201.2079546132
  0
LINE
  8
1
  6
CONTINUOUS
 62
     7
 10
-1315.117852556725
 20
-229.671983590772
 11
-1315.00966411693
 21
-229.5998427817782
  0
LINE
  8
1
  6
CONTINUOUS
 62
     7
 10
-1315.5901000152
 20
-212.2299110827219
 11
-1315.466666058792
 21
-212.2169997056045
  0
LINE
  8
1
  6
CONTINUOUS
 62
     7
 10
-1326.5901000152
 20
-222.4211580488
 11
-1323.5901000152
 21
-222.4211580488
  0
LINE
  8
1
  6
CONTINUOUS
 62
     7
 10
-1315.5901000152
 20
-222.4938492425043
 11
-1315.55916009843
 21
-222.4933206662695
  0
LINE
  8
1
  6
CONTINUOUS
 62
     7
 10
-1314.683483897391
 20
-228.7909596821348
 11
-1314.743598430566
 21
-228.6742169399465
  0
LINE
  8
1
  6
CONTINUOUS
 62
     7
 10
-1314.621854178648
 20
-221.2977316798395
 11
-1314.683483897391
 21
-221.0905372826326
  0
LINE
  8
1
  6
CONTINUOUS
 62
     7
 10
-1314.687661437648
 20
-211.3293179339843
 11
-1314.683483897391
 21
-211.3253719437674
  0
LINE
  8
1
  6
CONTINUOUS
 62
     7
 10
-1315.2562506673
 20
-212.1349861496132
 11
-1315.141085973644
 21
-212.0546619333521
  0
LINE
  8
1
  6
CENTER
 62
     7
 10
-1259.5901000152
 20
-216.2079546132
 11
-1219.5901000152
 21
-216.2079546132
  0
LINE
  8
1
  6
CONTINUOUS
 62
     7
 10
-1254.5901000152
 20
-209.9947511776
 11
-1254.5901000152
 21
-222.4211580488
  0
LINE
  8
1
  6
CONTINUOUS
 62
     7
 10
-1279.5901000152
 20
-203.2079546132
 11
-1279.5901000152
 21
-229.2079546132
  0
LINE
  8
1
  6
CONTINUOUS
 62
     7
 10
-1326.5901000152
 20
-209.9947511776
 11
-1323.5901000152
 21
-209.9947511776
  0
LINE
  8
1
  6
CONTINUOUS
 62
     7
 10
-1315.038546231483
 20
-220.4571580298633
 11
-1315.141085973644
 21
-220.3612472930478
  0
LINE
  8
1
  6
CONTINUOUS
 62
     7
 10
-1315.5901000152
 20
-220.1859981436781
 11
-1322.5901000152
 21
-220.1859981436781
  0
LINE
  8
1
  6
CONTINUOUS
 62
     7
 10
-1314.621854178648
 20
-210.7748979330301
 11
-1314.683483897391
 21
-210.5299641747846
  0
LINE
  8
1
  6
CONTINUOUS
 62
     7
 10
-1330.5901000152
 20
-222.4211580488
 11
-1327.5901000152
 21
-222.4211580488
  0
LINE
  8
1
  6
CONTINUOUS
 62
     7
 10
-1314.69773318022
 20
-203.2079546132
 11
-1279.5901000152
 21
-203.2079546132
  0
LINE
  8
1
  6
CONTINUOUS
 62
     7
 10
-1245.8033034508
 20
-231.2079546132
 11
-1254.5901000152
 21
-222.4211580488
  0
LINE
  8
1
  6
CONTINUOUS
 62
     7
 10
-1314.683483897391
 20
-211.3253719437674
 11
-1314.621854178648
 21
-211.1181775465604
  0
LINE
  8
1
  6
CONTINUOUS
 62
     7
 10
-1323.5901000152
 20
-201.2079546132
 11
-1323.5901000152
 21
-231.2079546132
  0
LINE
  8
1
  6
CONTINUOUS
 62
     7
 10
-1326.5901000152
 20
-229.4579546132
 11
-1327.5901000152
 21
-229.4579546132
  0
LINE
  8
1
  6
CONTINUOUS
 62
     7
 10
-1315.347945828239
 20
-212.1805251510266
 11
-1315.2562506673
 21
-212.1349861496132
  0
LINE
  8
1
  6
CONTINUOUS
 62
     7
 10
-1245.8033034508
 20
-231.2079546132
 11
-1233.3768965796
 21
-231.2079546132
  0
LINE
  8
1
  6
CONTINUOUS
 62
     7
 10
-1327.5901000152
 20
-231.2079546132
 11
-1330.5901000152
 21
-231.2079546132
  0
LINE
  8
1
  6
CONTINUOUS
 62
     7
 10
-1315.141085973644
 20
-212.0546619333522
 11
-1315.038546231483
 21
-211.9587511965367
  0
LINE
  8
1
  6
CONTINUOUS
 62
     7
 10
-1326.5901000152
 20
-231.2079546132
 11
-1323.5901000152
 21
-231.2079546132
  0
LINE
  8
1
  6
CONTINUOUS
 62
     7
 10
-1254.5901000152
 20
-209.9947511776
 11
-1245.8033034508
 21
-201.2079546132
  0
LINE
  8
1
  6
CONTINUOUS
 62
     7
 10
-1315.3541153131
 20
-220.2329304816014
 11
-1315.473953108938
 21
-220.1972781416655
  0
LINE
  8
1
  6
CENTER
 62
     7
 10
-1335.5901000152
 20
-216.2079546132
 11
-1274.5901000152
 21
-216.2079546132
  0
LINE
  8
1
  6
CONTINUOUS
 62
     7
 10
-1315.141085973644
 20
-212.0546619333522
 11
-1315.038546231483
 21
-211.9587511965368
  0
LINE
  8
1
  6
CONTINUOUS
 62
     7
 10
-1314.621854178647
 20
-211.1181775465603
 11
-1314.621854178647
 21
-210.77489793303
  0
LINE
  8
1
  6
CENTER
 62
     7
 10
-1239.5901000152
 20
-196.2079546132
 11
-1239.5901000152
 21
-236.2079546132
  0
LINE
  8
1
  6
CONTINUOUS
 62
     7
 10
-1315.473953108938
 20
-220.1972781416655
 11
-1315.5901000152
 21
-220.1859981436781
  0
LINE
  8
1
  6
CONTINUOUS
 62
     7
 10
-1314.818606291001
 20
-222.1105268485469
 11
-1314.779227988972
 21
-222.0569943159635
  0
LINE
  8
1
  6
CONTINUOUS
 62
     7
 10
-1314.779227988972
 20
-222.0569943159635
 11
-1314.743598430566
 21
-222.0015981985206
  0
LINE
  8
1
  6
CONTINUOUS
 62
     7
 10
-1314.743598430566
 20
-210.4143110278794
 11
-1314.779227988972
 21
-210.3589149104365
  0
LINE
  8
1
  6
CONTINUOUS
 62
     7
 10
-1314.779227988972
 20
-210.3589149104365
 11
-1314.818606291001
 21
-210.3053823778531
  0
LINE
  8
1
  6
CONTINUOUS
 62
     7
 10
-1315.105441894354
 20
-222.3614800252293
 11
-1315.071246632089
 21
-222.3405715813333
  0
LINE
  8
1
  6
CONTINUOUS
 62
     7
 10
-1315.347945828239
 20
-222.4623831299403
 11
-1315.322365086956
 21
-222.4552543055598
  0
LINE
  8
1
  6
CONTINUOUS
 62
     7
 10
-1315.297229568328
 20
-222.447497740756
 11
-1315.2562506673
 21
-222.4331999995703
  0
LINE
  8
1
  6
CONTINUOUS
 62
     7
 10
-1315.178132825322
 20
-222.3999842934839
 11
-1315.141085973644
 21
-222.3813278494187
  0
LINE
  8
1
  6
CONTINUOUS
 62
     7
 10
-1314.996201561639
 20
-222.2875546968972
 11
-1314.956179294157
 21
-222.2547758383316
  0
LINE
  8
1
  6
CONTINUOUS
 62
     7
 10
-1314.882960374911
 20
-222.1849911327814
 11
-1314.84969292746
 21
-222.1482722075591
  0
LINE
  8
1
  6
CONTINUOUS
 62
     7
 10
-1314.711692203976
 20
-221.9445209568579
 11
-1314.683483897391
 21
-221.8859450516154
  0
LINE
  8
1
  6
CONTINUOUS
 62
     7
 10
-1315.216536404753
 20
-222.417318597007
 11
-1315.178132825322
 21
-222.3999842934839
  0
LINE
  8
1
  6
CONTINUOUS
 62
     7
 10
-1314.743598430566
 20
-222.0015981985206
 11
-1314.711692203976
 21
-221.944520956858
  0
LINE
  8
1
  6
CONTINUOUS
 62
     7
 10
-1315.322365086956
 20
-222.4552543055597
 11
-1315.297229568328
 21
-222.4474977407559
  0
LINE
  8
1
  6
CONTINUOUS
 62
     7
 10
-1314.818606291001
 20
-210.3053823778531
 11
-1314.84969292746
 21
-210.2676370188409
  0
LINE
  8
1
  6
CONTINUOUS
 62
     7
 10
-1314.84969292746
 20
-210.2676370188408
 11
-1314.882960374911
 21
-210.2309180936186
  0
LINE
  8
1
  6
CONTINUOUS
 62
     7
 10
-1314.683483897391
 20
-210.5299641747846
 11
-1314.711692203976
 21
-210.471388269542
  0
LINE
  8
1
  6
CONTINUOUS
 62
     7
 10
-1314.918444031196
 20
-222.2205401633326
 11
-1314.882960374911
 21
-222.1849911327813
  0
LINE
  8
1
  6
CONTINUOUS
 62
     7
 10
-1314.882960374911
 20
-210.2309180936186
 11
-1314.918444031195
 21
-210.1953690630674
  0
LINE
  8
1
  6
CONTINUOUS
 62
     7
 10
-1314.956179294157
 20
-222.2547758383316
 11
-1314.918444031196
 21
-222.2205401633326
  0
LINE
  8
1
  6
CONTINUOUS
 62
     7
 10
-1315.2562506673
 20
-222.4331999995702
 11
-1315.216536404753
 21
-222.4173185970069
  0
LINE
  8
1
  6
CONTINUOUS
 62
     7
 10
-1315.141085973644
 20
-222.3813278494187
 11
-1315.105441894354
 21
-222.3614800252293
  0
LINE
  8
1
  6
CONTINUOUS
 62
     7
 10
-1315.071246632089
 20
-222.3405715813333
 11
-1315.038546231483
 21
-222.3187332781484
  0
LINE
  8
1
  6
CONTINUOUS
 62
     7
 10
-1315.038546231483
 20
-222.3187332781484
 11
-1314.996201561639
 21
-222.2875546968972
  0
LINE
  8
1
  6
CONTINUOUS
 62
     7
 10
-1314.84969292746
 20
-222.1482722075591
 11
-1314.818606291001
 21
-222.1105268485469
  0
LINE
  8
1
  6
CONTINUOUS
 62
     7
 10
-1315.376823489947
 20
-222.4694995724905
 11
-1315.347945828239
 21
-222.4623831299403
  0
ARC
  8
1
  6
CONTINUOUS
 62
     7
 10
-1322.5901000152
 20
-201.6168098204953
 40
0.9999999999998899
 50
180.0
 51
270.0
  0
ARC
  8
1
  6
CONTINUOUS
 62
     7
 10
-1315.833101257447
 20
-229.3036786438652
 40
1.25826803443475
 50
30.01723119374528
 51
50.84154500438826
  0
ARC
  8
1
  6
CONTINUOUS
 62
     7
 10
-1315.671305759307
 20
-228.7509161343931
 40
1.076311346947988
 50
307.9323560669906
 51
345.8135961510349
  0
ARC
  8
1
  6
CONTINUOUS
 62
     7
 10
-1316.238938127686
 20
-210.8696198191839
 40
1.620847883548477
 50
317.782128176603
 51
343.6692786139679
  0
ARC
  8
1
  6
CONTINUOUS
 62
     7
 10
-1316.287134054787
 20
-221.5733072773078
 40
1.674741978656211
 50
16.75413037931735
 51
41.79446283010393
  0
ARC
  8
1
  6
CONTINUOUS
 62
     7
 10
-1322.5901000152
 20
-230.7990994059047
 40
1.000000000000001
 50
90.0
 51
180.0
  0
ARC
  8
1
  6
CONTINUOUS
 62
     7
 10
-1322.5901000152
 20
-201.6168098204953
 40
0.9999999999998899
 50
180.0
 51
270.0
  0
ARC
  8
1
  6
CONTINUOUS
 62
     7
 10
-1315.833101257447
 20
-229.3036786438652
 40
1.258268034434723
 50
30.0172311937431
 51
50.84154500439931
  0
ARC
  8
1
  6
CONTINUOUS
 62
     7
 10
-1316.238938127686
 20
-210.8696198191839
 40
1.620847883548642
 50
317.7821281766081
 51
343.6692786139673
  0
ARC
  8
1
  6
CONTINUOUS
 62
     7
 10
-1315.83037315109
 20
-203.1109466890388
 40
1.256803045600139
 50
305.2261901616269
 51
335.8594464413604
  0
ARC
  8
1
  6
CONTINUOUS
 62
     7
 10
-1322.5901000152
 20
-230.7990994059047
 40
1.000000000000001
 50
90.0
 51
180.0
  0
ARC
  8
1
  6
CONTINUOUS
 62
     7
 10
-1315.83037315109
 20
-203.1109466890386
 40
1.256803045600357
 50
305.2261901616322
 51
335.8594464413466
  0
ARC
  8
1
  6
CONTINUOUS
 62
     7
 10
-1316.287134054787
 20
-221.573307277308
 40
1.674741978656472
 50
16.7541303793206
 51
41.79446283010306
  0
LINE
  8
1
  6
CONTINUOUS
 62
     7
 10
-1315.5901000152
 20
-202.6168098204953
 11
-1322.5901000152
 21
-202.6168098204953
  0
LINE
  8
1
  6
CONTINUOUS
 62
     7
 10
-1315.352449255943
 20
-229.7683994377653
 11
-1315.233803141535
 21
-229.7287536635323
  0
LINE
  8
1
  6
CONTINUOUS
 62
     7
 10
-1315.233803141535
 20
-229.7287536635323
 11
-1315.117852556725
 21
-229.671983590772
  0
LINE
  8
1
  6
CONTINUOUS
 62
     7
 10
-1315.221369669525
 20
-202.6923433968473
 11
-1315.2587302762
 21
-202.6773668873606
  0
LINE
  8
1
  6
CONTINUOUS
 62
     7
 10
-1315.336240691279
 20
-202.6519150269435
 11
-1315.376388681042
 21
-202.6415662069185
  0
LINE
  8
1
  6
CONTINUOUS
 62
     7
 10
-1315.417462054122
 20
-202.6328984153635
 11
-1315.459457072074
 21
-202.6259935491915
  0
LINE
  8
1
  6
CONTINUOUS
 62
     7
 10
-1314.627818105344
 20
-229.0146956476165
 11
-1314.626595987649
 21
-229.0099742973902
  0
LINE
  8
1
  6
CONTINUOUS
 62
     7
 10
-1322.5901000152
 20
-229.7990994059047
 11
-1315.5901000152
 21
-229.7990994059047
  0
LINE
  8
1
  6
CONTINUOUS
 62
     7
 10
-1315.2587302762
 20
-202.6773668873606
 11
-1315.297020728495
 21
-202.6638708311412
  0
LINE
  8
1
  6
CONTINUOUS
 62
     7
 10
-1315.459457072074
 20
-202.6259935491915
 11
-1315.502369063634
 21
-202.6209421082089
  0
LINE
  8
1
  6
CONTINUOUS
 62
     7
 10
-1315.471866064614
 20
-229.7915834207885
 11
-1315.352449255943
 21
-229.7683994377653
  0
LINE
  8
1
  6
CONTINUOUS
 62
     7
 10
-1315.5901000152
 20
-229.7990985328085
 11
-1315.471866064614
 21
-229.7915834207884
  0
LINE
  8
1
  6
CONTINUOUS
 62
     7
 10
-1315.184938168652
 20
-202.7087472436641
 11
-1315.221369669525
 21
-202.6923433968473
  0
LINE
  8
1
  6
CONTINUOUS
 62
     7
 10
-1315.117852556725
 20
-229.671983590772
 11
-1315.00966411693
 21
-229.5998427817782
  0
LINE
  8
1
  6
CONTINUOUS
 62
     7
 10
-1315.376388681043
 20
-202.6415662069185
 11
-1315.417462054122
 21
-202.6328984153635
  0
LINE
  8
1
  6
CONTINUOUS
 62
     7
 10
-1315.297020728495
 20
-202.6638708311412
 11
-1315.33624069128
 21
-202.6519150269435
  0
LINE
  8
1
  6
CONTINUOUS
 62
     7
 10
-1315.546033076397
 20
-202.6178517519052
 11
-1315.5901000152
 21
-202.6168106935914
  0
LINE
  8
1
  6
CONTINUOUS
 62
     7
 10
-1315.502369063634
 20
-202.6209421082089
 11
-1315.546033076397
 21
-202.6178517519052
  0
TEXT
  8
1
  6
CONTINUOUS
 62
     7
 10
-1338.557161928255
 20
-251.5465620909091
 40
3.5
  1
２Ｋ－１６Ｓ
 41
0.75216
 51
15.0
  0
ENDSEC
  0
EOF
