  0
SECTION
  2
HEADER
  9
$ACADVER
  1
AC1006
  9
$DWGCODEPAGE
  3
ansi_932
  9
$INSBASE
 10
0.0
 20
0.0
 30
0.0
  9
$EXTMIN
 10
260.725495034
 20
-267.8987413341
  9
$EXTMAX
 10
1250.7320302028
 20
208.2587954365
  9
$LIMMIN
 10
0.0
 20
0.0
  9
$LIMMAX
 10
12.0
 20
9.0
  9
$ORTHOMODE
 70
     0
  9
$REGENMODE
 70
     1
  9
$FILLMODE
 70
     1
  9
$QTEXTMODE
 70
     0
  9
$MIRRTEXT
 70
     1
  9
$DRAGMODE
 70
     2
  9
$LTSCALE
 40
1.0
  9
$OSMODE
 70
    37
  9
$ATTMODE
 70
     1
  9
$TEXTSIZE
 40
0.2
  9
$TRACEWID
 40
0.05
  9
$TEXTSTYLE
  7
STANDARD
  9
$CLAYER
  8
0
  9
$CELTYPE
  6
BYLAYER
  9
$CECOLOR
 62
   256
  9
$DIMSCALE
 40
1.0
  9
$DIMASZ
 40
2.0
  9
$DIMEXO
 40
0.0625
  9
$DIMDLI
 40
0.38
  9
$DIMRND
 40
0.0
  9
$DIMDLE
 40
0.0
  9
$DIMEXE
 40
1.0
  9
$DIMTP
 40
0.0
  9
$DIMTM
 40
0.0
  9
$DIMTXT
 40
3.5
  9
$DIMCEN
 40
0.09
  9
$DIMTSZ
 40
0.0
  9
$DIMTOL
 70
     0
  9
$DIMLIM
 70
     0
  9
$DIMTIH
 70
     1
  9
$DIMTOH
 70
     1
  9
$DIMSE1
 70
     0
  9
$DIMSE2
 70
     0
  9
$DIMTAD
 70
     1
  9
$DIMZIN
 70
     0
  9
$DIMBLK
  1

  9
$DIMASO
 70
     1
  9
$DIMSHO
 70
     1
  9
$DIMPOST
  1

  9
$DIMAPOST
  1

  9
$DIMALT
 70
     0
  9
$DIMALTD
 70
     2
  9
$DIMALTF
 40
25.4
  9
$DIMLFAC
 40
1.0
  9
$DIMTOFL
 70
     0
  9
$DIMTVP
 40
0.0
  9
$DIMTIX
 70
     0
  9
$DIMSOXD
 70
     0
  9
$DIMSAH
 70
     0
  9
$DIMBLK1
  1

  9
$DIMBLK2
  1

  9
$LUNITS
 70
     2
  9
$LUPREC
 70
     4
  9
$SKETCHINC
 40
0.1
  9
$FILLETRAD
 40
0.5
  9
$AUNITS
 70
     0
  9
$AUPREC
 70
     0
  9
$MENU
  1
.
  9
$ELEVATION
 40
0.0
  9
$THICKNESS
 40
0.0
  9
$LIMCHECK
 70
     0
  9
$CHAMFERA
 40
0.0
  9
$CHAMFERB
 40
0.0
  9
$SKPOLY
 70
     0
  9
$TDCREATE
 40
2460445.538912187
  9
$TDUPDATE
 40
2460445.5389125
  9
$TDINDWG
 40
0.0000000116
  9
$TDUSRTIMER
 40
0.0000000116
  9
$USRTIMER
 70
     1
  9
$ANGBASE
 50
0.0
  9
$ANGDIR
 70
     0
  9
$PDMODE
 70
     0
  9
$PDSIZE
 40
0.0
  9
$PLINEWID
 40
0.0
  9
$COORDS
 70
     1
  9
$SPLFRAME
 70
     0
  9
$SPLINETYPE
 70
     6
  9
$SPLINESEGS
 70
     8
  9
$ATTDIA
 70
     0
  9
$ATTREQ
 70
     1
  9
$HANDLING
 70
     1
  9
$HANDSEED
  5
34C
  9
$SURFTAB1
 70
     6
  9
$SURFTAB2
 70
     6
  9
$SURFTYPE
 70
     6
  9
$SURFU
 70
     6
  9
$SURFV
 70
     6
  9
$UCSNAME
  2

  9
$UCSORG
 10
0.0
 20
0.0
 30
0.0
  9
$UCSXDIR
 10
1.0
 20
0.0
 30
0.0
  9
$UCSYDIR
 10
0.0
 20
1.0
 30
0.0
  9
$USERI1
 70
     0
  9
$USERI2
 70
     0
  9
$USERI3
 70
     0
  9
$USERI4
 70
     0
  9
$USERI5
 70
     0
  9
$USERR1
 40
0.0
  9
$USERR2
 40
0.0
  9
$USERR3
 40
0.0
  9
$USERR4
 40
0.0
  9
$USERR5
 40
0.0
  9
$WORLDVIEW
 70
     1
  0
ENDSEC
  0
SECTION
  2
TABLES
  0
TABLE
  2
VPORT
 70
     1
  0
VPORT
  2
*ACTIVE
 70
     0
 10
0.0
 20
0.0
 11
1.0
 21
1.0
 12
755.7287626184
 22
-29.81997294879997
 13
0.0
 23
0.0
 14
0.5
 24
0.5
 15
0.5
 25
0.5
 16
0.0
 26
0.0
 36
1.0
 17
0.0
 27
0.0
 37
0.0
 40
476.1575367706
 41
1.6
 42
50.0
 43
0.0
 44
0.0
 50
0.0
 51
0.0
 71
     0
 72
   100
 73
     1
 74
     3
 75
     0
 76
     0
 77
     0
 78
     0
  0
ENDTAB
  0
TABLE
  2
LTYPE
 70
     3
  0
LTYPE
  2
CONTINUOUS
 70
     0
  3
Solid line
 72
    65
 73
     0
 40
0.0
  0
LTYPE
  2
CENTER
 70
     0
  3

 72
    65
 73
     0
 40
0.0
  0
LTYPE
  2
DASHED
 70
     0
  3

 72
    65
 73
     0
 40
0.0
  0
ENDTAB
  0
TABLE
  2
LAYER
 70
     2
  0
LAYER
  2
0
 70
     0
 62
     7
  6
CONTINUOUS
  0
LAYER
  2
1
 70
     0
 62
     7
  6
CONTINUOUS
  0
ENDTAB
  0
TABLE
  2
STYLE
 70
     2
  0
STYLE
  2
STANDARD
 70
     0
 40
0.0
 41
1.0
 50
0.0
 71
     0
 42
0.2
  3
txt
  4

  0
STYLE
  2
ＭＳ_ゴシック
 70
     0
 40
0.0
 41
1.0
 50
0.0
 71
     0
 42
0.2
  3
ＭＳ ゴシック.shx
  4

  0
ENDTAB
  0
TABLE
  2
VIEW
 70
     0
  0
ENDTAB
  0
TABLE
  2
UCS
 70
     0
  0
ENDTAB
  0
ENDSEC
  0
SECTION
  2
BLOCKS
  0
ENDSEC
  0
SECTION
  2
ENTITIES
  0
ARC
  5
70
  8
1
  6
CONTINUOUS
 62
     7
 10
994.7823193938
 20
-72.6660403059
 30
0.0
 40
16.0
 50
270.0
 51
0.0
  0
ARC
  5
71
  8
1
  6
CONTINUOUS
 62
     7
 10
994.7823193938
 20
173.3339596941
 30
0.0
 40
16.0
 50
0.0
 51
90.0
  0
ARC
  5
72
  8
1
  6
CONTINUOUS
 62
     7
 10
730.7823193938
 20
173.3339596941
 30
0.0
 40
16.0
 50
90.0
 51
180.0
  0
LINE
  5
73
  8
1
  6
CONTINUOUS
 62
     7
 10
730.7823193938
 20
184.3339596941
 30
0.0
 11
994.7823193938
 21
184.3339596941
 31
0.0
  0
ARC
  5
74
  8
1
  6
CONTINUOUS
 62
     7
 10
730.7823193938
 20
173.3339596941
 30
0.0
 40
11.0
 50
90.0
 51
180.0
  0
LINE
  5
75
  8
1
  6
CONTINUOUS
 62
     7
 10
994.7823193938
 20
189.3339596941
 30
0.0
 11
730.7823193938
 21
189.3339596941
 31
0.0
  0
LINE
  5
76
  8
1
  6
CONTINUOUS
 62
     7
 10
1005.7823193938
 20
173.3339596941
 30
0.0
 11
1005.7823193938
 21
-72.66604030589998
 31
0.0
  0
ARC
  5
77
  8
1
  6
CONTINUOUS
 62
     7
 10
994.7823193938
 20
-72.6660403059
 30
0.0
 40
11.0
 50
270.0
 51
0.0
  0
ARC
  5
78
  8
1
  6
CONTINUOUS
 62
     7
 10
730.7823193938
 20
173.3339596941
 30
0.0
 40
6.0
 50
90.0
 51
180.0
  0
ARC
  5
79
  8
1
  6
CONTINUOUS
 62
     7
 10
994.7823193938
 20
173.3339596941
 30
0.0
 40
11.0
 50
0.0
 51
90.0
  0
LINE
  5
7A
  8
1
  6
CONTINUOUS
 62
     7
 10
730.7823193938
 20
179.3339596941
 30
0.0
 11
994.7823193938
 21
179.3339596941
 31
0.0
  0
ARC
  5
7B
  8
1
  6
CONTINUOUS
 62
     7
 10
994.7823193938
 20
173.3339596941
 30
0.0
 40
6.0
 50
0.0
 51
90.0
  0
TEXT
  5
7C
  8
1
  6
CONTINUOUS
 62
     7
 10
1164.087978829523
 20
-154.3702453126172
 30
0.0
 40
3.0
  1
２Ｙ－２Ｃ（Ｔ）
 41
0.884313
 51
14.999825
  0
TEXT
  5
7D
  8
1
  6
CONTINUOUS
 62
     7
 10
406.6560682063899
 20
-118.9012774708015
 30
0.0
 40
3.5
  1
%%Uｶﾊﾞｰを開いた状態
 41
0.780484
  0
LINE
  5
7E
  8
1
  6
CONTINUOUS
 62
     7
 10
1026.0323193938
 20
108.3339596941
 30
0.0
 11
1026.0323193938
 21
103.3339596941
 31
0.0
  0
LINE
  5
7F
  8
1
  6
CONTINUOUS
 62
     7
 10
730.7823193938
 20
-88.6660403059
 30
0.0
 11
994.7823193938
 21
-88.6660403059
 31
0.0
  0
LINE
  5
80
  8
1
  6
CONTINUOUS
 62
     7
 10
1010.7823193938
 20
-9.6660403059
 30
0.0
 11
1014.0823193938
 21
-9.6660403059
 31
0.0
  0
LINE
  5
81
  8
1
  6
CONTINUOUS
 62
     7
 10
1026.0323193938
 20
-39.6660403059
 30
0.0
 11
1010.7823193938
 21
-39.6660403059
 31
0.0
  0
ARC
  5
82
  8
1
  6
CONTINUOUS
 62
     7
 10
704.7823193938
 20
17.3339596941
 30
0.0
 40
5.0
 50
180.0
 51
270.0
  0
LINE
  5
83
  8
1
  6
CONTINUOUS
 62
     7
 10
1014.0823193938
 20
-9.6660403059
 30
0.0
 11
1014.0823193938
 21
-12.6660403059
 31
0.0
  0
LINE
  5
84
  8
1
  6
CONTINUOUS
 62
     7
 10
994.7823193938
 20
-78.6660403059
 30
0.0
 11
730.7823193938
 21
-78.6660403059
 31
0.0
  0
CIRCLE
  5
85
  8
1
  6
CONTINUOUS
 62
     7
 10
706.7823193938
 20
22.3339596941
 30
0.0
 40
4.0
  0
LINE
  5
86
  8
1
  6
CONTINUOUS
 62
     7
 10
704.7823193938
 20
68.3339596941
 30
0.0
 11
714.7823193938
 21
68.3339596941
 31
0.0
  0
ARC
  5
87
  8
1
  6
CONTINUOUS
 62
     7
 10
704.7823193938
 20
63.33395969410001
 30
0.0
 40
5.0
 50
90.0
 51
180.0
  0
LINE
  5
88
  8
1
  6
CONTINUOUS
 62
     7
 10
699.7823193938
 20
17.3339596941
 30
0.0
 11
699.7823193938
 21
63.33395969410001
 31
0.0
  0
LINE
  5
89
  8
1
  6
CONTINUOUS
 62
     7
 10
715.2823193938
 20
191.3339596941
 30
0.0
 11
1007.2823193938
 21
191.3339596941
 31
0.0
  0
LINE
  5
8A
  8
1
  6
CONTINUOUS
 62
     7
 10
1026.0323193938
 20
-34.6660403059
 30
0.0
 11
1026.0323193938
 21
-39.6660403059
 31
0.0
  0
LINE
  5
8B
  8
1
  6
CONTINUOUS
 62
     7
 10
704.7823193938
 20
12.3339596941
 30
0.0
 11
714.7823193938
 21
12.3339596941
 31
0.0
  0
LINE
  5
8C
  8
1
  6
CONTINUOUS
 62
     7
 10
724.7823193938
 20
-72.6660403059
 30
0.0
 11
724.7823193938
 21
173.3339596941
 31
0.0
  0
LINE
  5
8D
  8
1
  6
CONTINUOUS
 62
     7
 10
1010.2823193938
 20
192.3339596941
 30
0.0
 11
1007.2823193938
 21
191.3339596941
 31
0.0
  0
LINE
  5
8E
  8
1
  6
CONTINUOUS
 62
     7
 10
714.7823193938
 20
-72.6660403059
 30
0.0
 11
714.7823193938
 21
173.3339596941
 31
0.0
  0
LINE
  5
8F
  8
1
  6
CONTINUOUS
 62
     7
 10
1014.0823193938
 20
136.3339596941
 30
0.0
 11
1014.0823193938
 21
133.3339596941
 31
0.0
  0
LINE
  5
90
  8
1
  6
CONTINUOUS
 62
     7
 10
1014.0823193938
 20
-12.6660403059
 30
0.0
 11
1010.7823193938
 21
-12.6660403059
 31
0.0
  0
LINE
  5
91
  8
1
  6
CONTINUOUS
 62
     7
 10
1026.0323193938
 20
-24.6660403059
 30
0.0
 11
1010.7823193938
 21
-24.6660403059
 31
0.0
  0
LINE
  5
92
  8
1
  6
CONTINUOUS
 62
     7
 10
1010.2823193938
 20
194.3339596941
 30
0.0
 11
1010.2823193938
 21
177.3025866607
 31
0.0
  0
LINE
  5
93
  8
1
  6
CONTINUOUS
 62
     7
 10
1022.4823193938
 20
-34.6660403059
 30
0.0
 11
1022.4823193938
 21
-24.6660403059
 31
0.0
  0
LINE
  5
94
  8
1
  6
CONTINUOUS
 62
     7
 10
1010.2823193938
 20
194.3339596941
 30
0.0
 11
715.2823193938
 21
194.3339596941
 31
0.0
  0
LINE
  5
95
  8
1
  6
CONTINUOUS
 62
     7
 10
719.7823193938
 20
-72.6660403059
 30
0.0
 11
719.7823193938
 21
173.3339596941
 31
0.0
  0
LINE
  5
96
  8
1
  6
CONTINUOUS
 62
     7
 10
1010.7823193938
 20
-34.6660403059
 30
0.0
 11
1026.0323193938
 21
-34.6660403059
 31
0.0
  0
LINE
  5
97
  8
1
  6
CONTINUOUS
 62
     7
 10
1015.0823193938
 20
-34.6660403059
 30
0.0
 11
1015.0823193938
 21
-24.6660403059
 31
0.0
  0
LINE
  5
98
  8
1
  6
CONTINUOUS
 62
     7
 10
1017.7823193938
 20
-34.6660403059
 30
0.0
 11
1017.7823193938
 21
-24.6660403059
 31
0.0
  0
LINE
  5
99
  8
1
  6
CONTINUOUS
 62
     7
 10
994.7823193938
 20
-83.6660403059
 30
0.0
 11
730.7823193938
 21
-83.6660403059
 31
0.0
  0
LINE
  5
9A
  8
1
  6
CONTINUOUS
 62
     7
 10
452.2236863461
 20
162.2696312255
 30
0.0
 11
452.2236863461
 21
154.2696312255
 31
0.0
  0
ARC
  5
9B
  8
1
  6
CONTINUOUS
 62
     7
 10
423.225495034
 20
160.8339596941
 30
0.0
 40
5.0
 50
120.0
 51
180.1766867329
  0
LINE
  5
9C
  8
1
  6
CONTINUOUS
 62
     7
 10
469.4579114904
 20
52.8100128643
 30
0.0
 11
469.4579114904
 21
50.3191197886
 31
0.0
  0
LINE
  5
9D
  8
1
  6
CONTINUOUS
 62
     7
 10
477.725495034
 20
144.2978909064
 30
0.0
 11
477.725495034
 21
140.8339596941
 31
0.0
  0
LINE
  5
9E
  8
1
  6
CONTINUOUS
 62
     7
 10
476.2326227974
 20
56.6762212022
 30
0.0
 11
497.7515554639
 21
64.508472166
 31
0.0
  0
ARC
  5
9F
  8
1
  6
CONTINUOUS
 62
     7
 10
401.8338798916
 20
145.8508909064
 30
0.0
 40
8.0
 50
90.0
 51
180.0
  0
ARC
  5
A0
  8
1
  6
CONTINUOUS
 62
     7
 10
420.8338798916
 20
152.8226312255
 30
0.0
 40
8.0
 50
90.0
 51
180.0
  0
LINE
  5
A1
  8
1
  6
CONTINUOUS
 62
     7
 10
432.2236863461
 20
162.2696312255
 30
0.0
 11
452.2236863461
 21
162.2696312255
 31
0.0
  0
LINE
  5
A2
  8
1
  6
CONTINUOUS
 62
     7
 10
451.0620638375
 20
155.2167141579
 30
0.0
 11
431.0620638375
 21
155.2167141579
 31
0.0
  0
LINE
  5
A3
  8
1
  6
CONTINUOUS
 62
     7
 10
450.225495034
 20
162.2696312255
 30
0.0
 11
450.225495034
 21
180.8339596941
 31
0.0
  0
LINE
  5
A4
  8
1
  6
CONTINUOUS
 62
     7
 10
507.725495034
 20
151.297890904
 30
0.0
 11
451.062063834
 21
151.297890904
 31
0.0
  0
LINE
  5
A5
  8
1
  6
CONTINUOUS
 62
     7
 10
507.725495034
 20
154.2696312255
 30
0.0
 11
451.0620638315
 21
154.2696312255
 31
0.0
  0
LINE
  5
A6
  8
1
  6
CONTINUOUS
 62
     7
 10
473.725495034
 20
148.2978909064
 30
0.0
 11
451.0620638366
 21
148.2978909064
 31
0.0
  0
ARC
  5
A7
  8
1
  6
CONTINUOUS
 62
     7
 10
402.9404827059
 20
144.7448909063
 30
0.0
 40
4.0
 50
90.0
 51
180.0
  0
LINE
  5
A8
  8
1
  6
CONTINUOUS
 62
     7
 10
499.725495034
 20
67.3275500284
 30
0.0
 11
499.725495034
 21
70.8339596941
 31
0.0
  0
LINE
  5
A9
  8
1
  6
CONTINUOUS
 62
     7
 10
469.089830914
 20
57.2689908845
 30
0.0
 11
496.0675151773
 21
67.0880649458
 31
0.0
  0
ARC
  5
AA
  8
1
  6
CONTINUOUS
 62
     7
 10
492.725495034
 20
151.3508079801
 30
0.0
 40
4.0
 50
46.8617368492
 51
89.9999999999
  0
LINE
  5
AB
  8
1
  6
CONTINUOUS
 62
     7
 10
448.225495034
 20
162.2696312255
 30
0.0
 11
448.225495034
 21
178.8339596941
 31
0.0
  0
ARC
  5
AC
  8
1
  6
CONTINUOUS
 62
     7
 10
421.9404827059
 20
151.7166312255
 30
0.0
 40
4.0
 50
90.0
 51
180.0
  0
LINE
  5
AD
  8
1
  6
CONTINUOUS
 62
     7
 10
393.8338798916
 20
145.8508909064
 30
0.0
 11
393.8338798916
 21
140.8339596941
 31
0.0
  0
ARC
  5
AE
  8
1
  6
CONTINUOUS
 62
     7
 10
473.725495034
 20
144.2978909064
 30
0.0
 40
4.0
 50
0.0
 51
90.0
  0
ARC
  5
AF
  8
1
  6
CONTINUOUS
 62
     7
 10
470.4579114873
 20
53.5102204014
 30
0.0
 40
4.0
 50
164.6550563261
 51
180.0
  0
LINE
  5
B0
  8
1
  6
CONTINUOUS
 62
     7
 10
398.9404827059
 20
144.7448909063
 30
0.0
 11
398.9404827059
 21
140.8339596941
 31
0.0
  0
LINE
  5
B1
  8
1
  6
CONTINUOUS
 62
     7
 10
420.8338798916
 20
160.8226312255
 30
0.0
 11
432.2236863461
 21
160.8226312255
 31
0.0
  0
ARC
  5
B2
  8
1
  6
CONTINUOUS
 62
     7
 10
423.225495034
 20
160.8339596941
 30
0.0
 40
5.0
 50
359.8598386479
 51
60.0
  0
LINE
  5
B3
  8
1
  6
CONTINUOUS
 62
     7
 10
492.725495034
 20
155.350807974
 30
0.0
 11
452.2236863521
 21
155.350807974
 31
0.0
  0
LINE
  5
B4
  8
1
  6
CONTINUOUS
 62
     7
 10
463.225495034
 20
180.8339596941
 30
0.0
 11
463.225495034
 21
161.3225482931
 31
0.0
  0
LINE
  5
B5
  8
1
  6
CONTINUOUS
 62
     7
 10
518.725495034
 20
157.8339596941
 30
0.0
 11
494.5543535136
 21
157.8339596941
 31
0.0
  0
LINE
  5
B6
  8
1
  6
CONTINUOUS
 62
     7
 10
480.725495034
 20
145.297890904
 30
0.0
 11
480.725495034
 21
140.8339596941
 31
0.0
  0
ARC
  5
B7
  8
1
  6
CONTINUOUS
 62
     7
 10
470.4579114873
 20
53.5102204014
 30
0.0
 40
4.0
 50
110.0
 51
130.1259507511
  0
LINE
  5
B8
  8
1
  6
CONTINUOUS
 62
     7
 10
417.9404827059
 20
151.7166312255
 30
0.0
 11
417.9404827059
 21
140.8339596941
 31
0.0
  0
LINE
  5
B9
  8
1
  6
CONTINUOUS
 62
     7
 10
530.725495034
 20
154.3508079716
 30
0.0
 11
530.725495034
 21
140.8339596941
 31
0.0
  0
ARC
  5
BA
  8
1
  6
CONTINUOUS
 62
     7
 10
526.725495034
 20
154.3508079716
 30
0.0
 40
4.0
 50
0.0
 51
90.0
  0
LINE
  5
BB
  8
1
  6
CONTINUOUS
 62
     7
 10
432.2236863461
 20
155.2167141579
 30
0.0
 11
432.2236863461
 21
162.2696312255
 31
0.0
  0
LINE
  5
BC
  8
1
  6
CONTINUOUS
 62
     7
 10
412.8338798916
 20
152.8226312255
 30
0.0
 11
412.8338798916
 21
140.8339596941
 31
0.0
  0
LINE
  5
BD
  8
1
  6
CONTINUOUS
 62
     7
 10
509.3471626335
 20
67.8926334123
 30
0.0
 11
509.3471626335
 21
50.3339596941
 31
0.0
  0
LINE
  5
BE
  8
1
  6
CONTINUOUS
 62
     7
 10
421.278495034
 20
155.7166312255
 30
0.0
 11
432.2236863461
 21
155.7166312255
 31
0.0
  0
LINE
  5
BF
  8
1
  6
CONTINUOUS
 62
     7
 10
398.225495034
 20
178.8339596941
 30
0.0
 11
398.225495034
 21
153.6105003035
 31
0.0
  0
ARC
  5
C0
  8
1
  6
CONTINUOUS
 62
     7
 10
491.725495034
 20
150.3508079716
 30
0.0
 40
8.0
 50
29.3309140212
 51
90.0
  0
ARC
  5
C1
  8
1
  6
CONTINUOUS
 62
     7
 10
518.725495034
 20
137.8339596941
 30
0.0
 40
20.0
 50
53.1301023541
 51
90.0
  0
LINE
  5
C2
  8
1
  6
CONTINUOUS
 62
     7
 10
466.4579114873
 20
53.5102204014
 30
0.0
 11
466.4579114873
 21
50.3191197886
 31
0.0
  0
LINE
  5
C3
  8
1
  6
CONTINUOUS
 62
     7
 10
526.725495034
 20
161.3225482931
 30
0.0
 11
452.223686347
 21
161.3225482931
 31
0.0
  0
LINE
  5
C4
  8
1
  6
CONTINUOUS
 62
     7
 10
533.725495034
 20
154.3225482931
 30
0.0
 11
533.725495034
 21
140.8339596941
 31
0.0
  0
LINE
  5
C5
  8
1
  6
CONTINUOUS
 62
     7
 10
478.225495034
 20
150.1712880764
 30
0.0
 11
478.225495034
 21
151.297890904
 31
0.0
  0
LINE
  5
C6
  8
1
  6
CONTINUOUS
 62
     7
 10
431.0620638375
 20
147.2978909064
 30
0.0
 11
431.0620638375
 21
155.2167141579
 31
0.0
  0
LINE
  5
C7
  8
1
  6
CONTINUOUS
 62
     7
 10
511.725495034
 20
147.297890904
 30
0.0
 11
511.725495034
 21
140.8339596941
 31
0.0
  0
ARC
  5
C8
  8
1
  6
CONTINUOUS
 62
     7
 10
507.725495034
 20
147.297890904
 30
0.0
 40
4.0
 50
0.0
 51
90.0
  0
LINE
  5
C9
  8
1
  6
CONTINUOUS
 62
     7
 10
496.725495034
 20
151.297890904
 30
0.0
 11
496.725495034
 21
140.8339596941
 31
0.0
  0
LINE
  5
CA
  8
1
  6
CONTINUOUS
 62
     7
 10
499.725495034
 20
150.3508079716
 30
0.0
 11
499.725495034
 21
140.8339596941
 31
0.0
  0
LINE
  5
CB
  8
1
  6
CONTINUOUS
 62
     7
 10
451.0620638375
 20
147.2978909064
 30
0.0
 11
431.0620638375
 21
147.2978909064
 31
0.0
  0
LINE
  5
CC
  8
1
  6
CONTINUOUS
 62
     7
 10
451.0620638306
 20
155.2167141579
 30
0.0
 11
451.0620638375
 21
147.2978909064
 31
0.0
  0
LINE
  5
CD
  8
1
  6
CONTINUOUS
 62
     7
 10
429.225495034
 20
160.8226312255
 30
0.0
 11
429.225495034
 21
178.8339596941
 31
0.0
  0
LINE
  5
CE
  8
1
  6
CONTINUOUS
 62
     7
 10
514.725495034
 20
147.2696312255
 30
0.0
 11
514.725495034
 21
140.8339596941
 31
0.0
  0
ARC
  5
CF
  8
1
  6
CONTINUOUS
 62
     7
 10
491.725495034
 20
150.3508079716
 30
0.0
 40
8.0
 50
0.0
 51
6.798926648599999
  0
LINE
  5
D0
  8
1
  6
CONTINUOUS
 62
     7
 10
478.225495034
 20
154.2696312255
 30
0.0
 11
478.225495034
 21
155.350807974
 31
0.0
  0
ARC
  5
D1
  8
1
  6
CONTINUOUS
 62
     7
 10
518.725495034
 20
137.8339596941
 30
0.0
 40
20.0
 50
8.5307656099
 51
41.4096221093
  0
LINE
  5
D2
  8
1
  6
CONTINUOUS
 62
     7
 10
512.3471626335
 20
64.8926334123
 30
0.0
 11
512.3471626335
 21
50.3339596941
 31
0.0
  0
LINE
  5
D3
  8
1
  6
CONTINUOUS
 62
     7
 10
478.225495034
 20
161.3225482931
 30
0.0
 11
478.225495034
 21
180.8339596941
 31
0.0
  0
LINE
  5
D4
  8
1
  6
CONTINUOUS
 62
     7
 10
463.225495034
 20
155.350807974
 30
0.0
 11
463.225495034
 21
154.2696312255
 31
0.0
  0
ARC
  5
D5
  8
1
  6
CONTINUOUS
 62
     7
 10
471.4579114904
 20
52.8100128643
 30
0.0
 40
2.0
 50
118.4343903761
 51
180.0
  0
LINE
  5
D6
  8
1
  6
CONTINUOUS
 62
     7
 10
429.225495034
 20
153.8508909064
 30
0.0
 11
429.225495034
 21
155.7166312255
 31
0.0
  0
ARC
  5
D7
  8
1
  6
CONTINUOUS
 62
     7
 10
474.725495034
 20
145.297890904
 30
0.0
 40
6.0
 50
0.0
 51
90.0
  0
LINE
  5
D8
  8
1
  6
CONTINUOUS
 62
     7
 10
526.725495034
 20
158.3508079716
 30
0.0
 11
452.2236863495
 21
158.3508079716
 31
0.0
  0
LINE
  5
D9
  8
1
  6
CONTINUOUS
 62
     7
 10
496.725495034
 20
68.0277575666
 30
0.0
 11
496.725495034
 21
70.8339596941
 31
0.0
  0
LINE
  5
DA
  8
1
  6
CONTINUOUS
 62
     6
 10
455.8871812059
 20
140.8339596941
 30
0.0
 11
389.8871812059
 21
140.8339596941
 31
0.0
  0
ARC
  5
DB
  8
1
  6
CONTINUOUS
 62
     6
 10
389.8871812059
 20
125.8339596941
 30
0.0
 40
1.0
 50
90.0
 51
180.0
  0
LINE
  5
DC
  8
1
  6
CONTINUOUS
 62
     7
 10
478.7515554639
 20
61.8497488048
 30
0.0
 11
466.7738712007
 21
57.4902282576
 31
0.0
  0
LINE
  5
DD
  8
1
  6
CONTINUOUS
 62
     7
 10
401.8871812059
 20
140.8339596941
 30
0.0
 11
401.8871812059
 21
135.8339596941
 31
0.0
  0
LINE
  5
DE
  8
1
  6
CONTINUOUS
 62
     7
 10
417.9404827059
 20
148.7448909064
 30
0.0
 11
431.0620638375
 21
148.7448909064
 31
0.0
  0
ARC
  5
DF
  8
1
  6
CONTINUOUS
 62
     6
 10
419.3871812059
 20
127.8339596941
 30
0.0
 40
1.0
 50
270.0
 51
0.0
  0
LINE
  5
E0
  8
1
  6
CONTINUOUS
 62
     7
 10
409.5871812058
 20
95.8339596941
 30
0.0
 11
412.1371812058
 21
95.8339596941
 31
0.0
  0
LINE
  5
E1
  8
1
  6
CONTINUOUS
 62
     7
 10
412.1371812058
 20
95.8339596941
 30
0.0
 11
412.1371812058
 21
115.8339596941
 31
0.0
  0
LINE
  5
E2
  8
1
  6
CONTINUOUS
 62
     7
 10
396.225495034
 20
180.8339596941
 30
0.0
 11
396.225495034
 21
152.8097664802
 31
0.0
  0
LINE
  5
E3
  8
1
  6
CONTINUOUS
 62
     7
 10
401.8338798916
 20
153.8508909064
 30
0.0
 11
412.9002374729
 21
153.8508909064
 31
0.0
  0
LINE
  5
E4
  8
1
  6
CONTINUOUS
 62
     7
 10
417.8954585851
 20
153.8508909064
 30
0.0
 11
431.0620638375
 21
153.8508909064
 31
0.0
  0
LINE
  5
E5
  8
1
  6
CONTINUOUS
 62
     7
 10
462.4579114873
 20
54.5687387298
 30
0.0
 11
462.4579114873
 21
50.3339596941
 31
0.0
  0
LINE
  5
E6
  8
1
  6
CONTINUOUS
 62
     7
 10
417.225495034
 20
178.8339596941
 30
0.0
 11
417.225495034
 21
160.2602883582
 31
0.0
  0
LINE
  5
E7
  8
1
  6
CONTINUOUS
 62
     6
 10
388.8871812059
 20
71.8339596941
 30
0.0
 11
388.8871812059
 21
139.8339596941
 31
0.0
  0
LINE
  5
E8
  8
1
  6
CONTINUOUS
 62
     6
 10
388.8871812059
 20
87.8339596941
 30
0.0
 11
456.8871812059
 21
87.8339596941
 31
0.0
  0
LINE
  5
E9
  8
1
  6
CONTINUOUS
 62
     6
 10
402.1871812058
 20
91.3339596941
 30
0.0
 11
402.1871812058
 21
114.3339596941
 31
0.0
  0
LINE
  5
EA
  8
1
  6
CONTINUOUS
 62
     6
 10
436.8871812059
 20
108.8339596941
 30
0.0
 11
436.8871812059
 21
102.8339596941
 31
0.0
  0
LINE
  5
EB
  8
1
  6
CONTINUOUS
 62
     6
 10
419.3871812059
 20
126.8339596941
 30
0.0
 11
409.91831008
 21
126.8339596941
 31
0.0
  0
LINE
  5
EC
  8
1
  6
CONTINUOUS
 62
     6
 10
420.3871812059
 20
139.8339596941
 30
0.0
 11
420.3871812059
 21
127.8339596941
 31
0.0
  0
ARC
  5
ED
  8
1
  6
CONTINUOUS
 62
     6
 10
405.8871812059
 20
128.8339596941
 30
0.0
 40
4.5
 50
206.3877999611999
 51
333.6122000388
  0
LINE
  5
EE
  8
1
  6
CONTINUOUS
 62
     6
 10
509.5971626335
 20
14.8191197885
 30
0.0
 11
509.5971626335
 21
10.5691197885
 31
0.0
  0
ARC
  5
EF
  8
1
  6
CONTINUOUS
 62
     7
 10
466.4579114873
 20
56.3110505542
 30
0.0
 40
4.0
 50
110.0
 51
176.3063308555
  0
LINE
  5
F0
  8
1
  6
CONTINUOUS
 62
     7
 10
409.8871812059
 20
140.8339596941
 30
0.0
 11
409.8871812059
 21
135.8339596941
 31
0.0
  0
LINE
  5
F1
  8
1
  6
CONTINUOUS
 62
     7
 10
412.1371812058
 20
115.8339596941
 30
0.0
 11
399.6371812058
 21
115.8339596941
 31
0.0
  0
LINE
  5
F2
  8
1
  6
CONTINUOUS
 62
     7
 10
399.6371812058
 20
95.8339596941
 30
0.0
 11
399.6371812058
 21
115.8339596941
 31
0.0
  0
LINE
  5
F3
  8
1
  6
CONTINUOUS
 62
     6
 10
402.1871812058
 20
114.3339596941
 30
0.0
 11
409.5871812058
 21
114.3339596941
 31
0.0
  0
LINE
  5
F4
  8
1
  6
CONTINUOUS
 62
     7
 10
399.6371812058
 20
95.8339596941
 30
0.0
 11
402.1871812058
 21
95.8339596941
 31
0.0
  0
LINE
  5
F5
  8
1
  6
CONTINUOUS
 62
     7
 10
410.5871812058
 20
96.833959694
 30
0.0
 11
410.5871812058
 21
114.8339596941
 31
0.0
  0
LINE
  5
F6
  8
1
  6
CONTINUOUS
 62
     7
 10
480.725495034
 20
64.6688266672
 30
0.0
 11
480.725495034
 21
70.8339596941
 31
0.0
  0
LINE
  5
F7
  8
1
  6
CONTINUOUS
 62
     7
 10
409.5871812058
 20
96.833959694
 30
0.0
 11
410.5871812058
 21
96.833959694
 31
0.0
  0
LINE
  5
F8
  8
1
  6
CONTINUOUS
 62
     6
 10
409.5871812058
 20
94.8339596941
 30
0.0
 11
402.1871812058
 21
94.8339596941
 31
0.0
  0
LINE
  5
F9
  8
1
  6
CONTINUOUS
 62
     6
 10
442.8871812059
 20
108.8339596941
 30
0.0
 11
436.8871812059
 21
108.8339596941
 31
0.0
  0
LINE
  5
FA
  8
1
  6
CONTINUOUS
 62
     6
 10
455.8871812059
 20
70.8339596941
 30
0.0
 11
389.8871812059
 21
70.8339596941
 31
0.0
  0
ARC
  5
FB
  8
1
  6
CONTINUOUS
 62
     6
 10
421.3871812059
 20
139.8339596941
 30
0.0
 40
1.0
 50
90.0
 51
180.0
  0
LINE
  5
FC
  8
1
  6
CONTINUOUS
 62
     6
 10
436.8871812059
 20
102.8339596941
 30
0.0
 11
442.8871812059
 21
102.8339596941
 31
0.0
  0
LINE
  5
FD
  8
1
  6
CONTINUOUS
 62
     7
 10
465.4579114873
 20
54.5687387298
 30
0.0
 11
465.4579114873
 21
50.3191197886
 31
0.0
  0
LINE
  5
FE
  8
1
  6
CENTER
 62
     6
 10
439.8871812059
 20
110.2436772458
 30
0.0
 11
439.8871812059
 21
99.5667698263
 31
0.0
  0
LINE
  5
100
  8
1
  6
CONTINUOUS
 62
     7
 10
402.9404827059
 20
148.7448909064
 30
0.0
 11
412.8338798916
 21
148.7448909064
 31
0.0
  0
LINE
  5
101
  8
1
  6
CONTINUOUS
 62
     7
 10
477.725495034
 20
65.3690342054
 30
0.0
 11
477.725495034
 21
70.8339596941
 31
0.0
  0
LINE
  5
102
  8
1
  6
CONTINUOUS
 62
     7
 10
477.0675151773
 20
64.4293415846
 30
0.0
 11
465.089830914
 21
60.0698210374
 31
0.0
  0
LINE
  5
103
  8
1
  6
CONTINUOUS
 62
     6
 10
524.3471626335
 20
-28.6808802115
 30
0.0
 11
525.3471626335
 21
-28.6808802115
 31
0.0
  0
LINE
  5
104
  8
1
  6
CONTINUOUS
 62
     6
 10
409.5871812058
 20
114.3339596941
 30
0.0
 11
409.5871812058
 21
91.3339596941
 31
0.0
  0
LINE
  5
105
  8
1
  6
CONTINUOUS
 62
     6
 10
456.8871812059
 20
123.8339596941
 30
0.0
 11
388.8871812059
 21
123.8339596941
 31
0.0
  0
ARC
  5
106
  8
1
  6
CONTINUOUS
 62
     7
 10
467.4579114874
 20
55.610843016
 30
0.0
 40
2.0
 50
110.0
 51
151.3832925849
  0
LINE
  5
107
  8
1
  6
CONTINUOUS
 62
     6
 10
488.3471626335
 20
-36.6808802115
 30
0.0
 11
488.3471626335
 21
47.31911978859999
 31
0.0
  0
LINE
  5
108
  8
1
  6
CONTINUOUS
 62
     6
 10
456.8871812059
 20
139.8339596941
 30
0.0
 11
456.8871812059
 21
71.8339596941
 31
0.0
  0
LINE
  5
109
  8
1
  6
CONTINUOUS
 62
     6
 10
409.5871812058
 20
105.8339596941
 30
0.0
 11
402.1871812058
 21
105.8339596941
 31
0.0
  0
LINE
  5
10A
  8
1
  6
CONTINUOUS
 62
     6
 10
442.8871812059
 20
102.8339596941
 30
0.0
 11
442.8871812059
 21
108.8339596941
 31
0.0
  0
LINE
  5
10B
  8
1
  6
CONTINUOUS
 62
     6
 10
389.8871812059
 20
126.8339596941
 30
0.0
 11
401.8560523317
 21
126.8339596941
 31
0.0
  0
ARC
  5
10C
  8
1
  6
CONTINUOUS
 62
     7
 10
517.3471626367
 20
57.5664871059
 30
0.0
 40
1.0
 50
120.0000000047
 51
179.9999999521
  0
LINE
  5
10D
  8
1
  6
CONTINUOUS
 62
     6
 10
522.5971626335
 20
32.3191197887
 30
0.0
 11
517.5971626335
 21
32.3191197887
 31
0.0
  0
LINE
  5
10E
  8
1
  6
CONTINUOUS
 62
     6
 10
525.3471626335
 20
-28.6808802115
 30
0.0
 11
525.3471626335
 21
-29.6090834417
 31
0.0
  0
ARC
  5
10F
  8
1
  6
CONTINUOUS
 62
     7
 10
265.725495034
 20
17.3339596941
 30
0.0
 40
5.0
 50
180.0
 51
270.0
  0
ARC
  5
110
  8
1
  6
CONTINUOUS
 62
     7
 10
514.8471626354
 20
59.0098627782
 30
0.0
 40
1.5
 50
120.0
 51
179.9999999996
  0
LINE
  5
111
  8
1
  6
CONTINUOUS
 62
     7
 10
511.725495034
 20
69.2926334123
 30
0.0
 11
511.725495034
 21
70.8339596941
 31
0.0
  0
LINE
  5
112
  8
1
  6
CONTINUOUS
 62
     7
 10
513.3471626335
 20
65.8926334123
 30
0.0
 11
514.325495034
 21
65.8926334123
 31
0.0
  0
LINE
  5
113
  8
1
  6
CONTINUOUS
 62
     6
 10
510.0971626335
 20
-7.9308802113
 30
0.0
 11
505.0971626335
 21
-7.9308802113
 31
0.0
  0
LINE
  5
114
  8
1
  6
CONTINUOUS
 62
     6
 10
522.5971626335
 20
-17.9308802113
 30
0.0
 11
522.5971626335
 21
-7.9308802113
 31
0.0
  0
LINE
  5
115
  8
1
  6
CONTINUOUS
 62
     6
 10
517.5971626335
 20
22.3191197887
 30
0.0
 11
522.5971626335
 21
22.3191197887
 31
0.0
  0
LINE
  5
116
  8
1
  6
CONTINUOUS
 62
     6
 10
509.5971626335
 20
-25.4308802115
 30
0.0
 11
509.5971626335
 21
-29.6808802115
 31
0.0
  0
ARC
  5
117
  8
1
  6
CONTINUOUS
 62
     7
 10
511.325495034
 20
69.2926334123
 30
0.0
 40
0.4
 50
270.0
 51
0.0
  0
LINE
  5
118
  8
1
  6
CONTINUOUS
 62
     6
 10
505.0971626335
 20
20.3191197887
 30
0.0
 11
510.0971626335
 21
20.3191197887
 31
0.0
  0
LINE
  5
119
  8
1
  6
CONTINUOUS
 62
     6
 10
528.8471626335
 20
-32.6808802115
 30
0.0
 11
529.8471626335
 21
-32.6808802115
 31
0.0
  0
ARC
  5
11A
  8
1
  6
CONTINUOUS
 62
     7
 10
265.725495034
 20
27.3339596941
 30
0.0
 40
5.0
 50
90.0
 51
180.0
  0
ARC
  5
11B
  8
1
  6
CONTINUOUS
 62
     7
 10
514.325495034
 20
66.2926334123
 30
0.0
 40
0.4
 50
270.0
 51
0.0
  0
LINE
  5
11C
  8
1
  6
CONTINUOUS
 62
     7
 10
265.725495034
 20
12.3339596941
 30
0.0
 11
275.725495034
 21
12.3339596941
 31
0.0
  0
LINE
  5
11D
  8
1
  6
CONTINUOUS
 62
     7
 10
513.3471626336
 20
59.0098627782
 30
0.0
 11
513.3471626336
 21
50.3339596941
 31
0.0
  0
LINE
  5
11E
  8
1
  6
CONTINUOUS
 62
     6
 10
510.0971626335
 20
32.3191197887
 30
0.0
 11
505.0971626335
 21
32.3191197887
 31
0.0
  0
LINE
  5
11F
  8
1
  6
CONTINUOUS
 62
     6
 10
505.0971626335
 20
32.3191197887
 30
0.0
 11
505.0971626335
 21
20.3191197887
 31
0.0
  0
LINE
  5
120
  8
1
  6
CONTINUOUS
 62
     6
 10
518.0971626335
 20
-29.6808802084
 30
0.0
 11
518.0971626335
 21
-25.4308802115
 31
0.0
  0
LINE
  5
121
  8
1
  6
CONTINUOUS
 62
     6
 10
529.8471626335
 20
-28.6808802115
 30
0.0
 11
528.8471626335
 21
-28.6808802115
 31
0.0
  0
LINE
  5
122
  8
1
  6
CONTINUOUS
 62
     6
 10
530.8471626335
 20
-30.1808802115
 30
0.0
 11
533.6772896524
 21
-30.1808802115
 31
0.0
  0
LINE
  5
123
  8
1
  6
CONTINUOUS
 62
     6
 10
529.8471626335
 20
-29.1808802115
 30
0.0
 11
529.8471626335
 21
-28.6808802115
 31
0.0
  0
LINE
  5
124
  8
1
  6
CONTINUOUS
 62
     7
 10
260.725495034
 20
17.3339596941
 30
0.0
 11
260.725495034
 21
27.3339596941
 31
0.0
  0
LINE
  5
125
  8
1
  6
CONTINUOUS
 62
     7
 10
510.3471626335
 20
68.8926334123
 30
0.0
 11
511.325495034
 21
68.8926334123
 31
0.0
  0
LINE
  5
126
  8
1
  6
CONTINUOUS
 62
     6
 10
529.8471626335
 20
-32.1808802115
 30
0.0
 11
529.8471626335
 21
-32.6808802115
 31
0.0
  0
LINE
  5
127
  8
1
  6
CONTINUOUS
 62
     6
 10
527.8471626335
 20
-30.1808802115
 30
0.0
 11
525.0170356146
 21
-30.1808802115
 31
0.0
  0
LINE
  5
128
  8
1
  6
CONTINUOUS
 62
     7
 10
516.3471626367
 20
57.5664871067
 30
0.0
 11
516.3471626367
 21
50.3339596941
 31
0.0
  0
LINE
  5
129
  8
1
  6
CONTINUOUS
 62
     6
 10
528.8471626335
 20
-29.1808802115
 30
0.0
 11
528.8471626335
 21
-28.6808802115
 31
0.0
  0
LINE
  5
12A
  8
1
  6
CONTINUOUS
 62
     6
 10
527.6151118259
 20
-26.6808802115
 30
0.0
 11
531.0792134411
 21
-26.6808802115
 31
0.0
  0
LINE
  5
12B
  8
1
  6
CONTINUOUS
 62
     6
 10
517.5971626335
 20
-7.9308802113
 30
0.0
 11
517.5971626335
 21
-17.9308802113
 31
0.0
  0
LINE
  5
12C
  8
1
  6
CONTINUOUS
 62
     6
 10
509.5971626335
 20
-29.6808802115
 30
0.0
 11
518.0971626335
 21
-29.6808802084
 31
0.0
  0
LINE
  5
12D
  8
1
  6
CONTINUOUS
 62
     6
 10
526.7490864222
 20
-34.1808802115
 30
0.0
 11
525.0170356146
 21
-31.1808802115
 31
0.0
  0
LINE
  5
12E
  8
1
  6
CONTINUOUS
 62
     6
 10
527.8471626335
 20
-31.1808802115
 30
0.0
 11
525.0170356146
 21
-31.1808802115
 31
0.0
  0
LINE
  5
12F
  8
1
  6
CONTINUOUS
 62
     6
 10
531.0792134411
 20
-34.6808802115
 30
0.0
 11
527.6151118259
 21
-34.6808802115
 31
0.0
  0
LINE
  5
130
  8
1
  6
CONTINUOUS
 62
     6
 10
533.6772896524
 20
-30.1808802115
 30
0.0
 11
531.9452388449
 21
-27.1808802115
 31
0.0
  0
LINE
  5
131
  8
1
  6
CONTINUOUS
 62
     6
 10
532.8471626335
 20
-20.6808802115
 30
0.0
 11
525.9097772216
 21
-20.6808802115
 31
0.0
  0
LINE
  5
132
  8
1
  6
CENTER
 62
     4
 10
423.225495034
 20
194.3339596941
 30
0.0
 11
423.225495034
 21
-94.50344175140002
 31
0.0
  0
LINE
  5
133
  8
1
  6
CONTINUOUS
 62
     6
 10
530.8471626335
 20
-31.1808802115
 30
0.0
 11
533.6772896524
 21
-31.1808802115
 31
0.0
  0
LINE
  5
134
  8
1
  6
CONTINUOUS
 62
     6
 10
524.8419888417
 20
-21.6808802115
 30
0.0
 11
532.8471626335
 21
-21.6808802115
 31
0.0
  0
LINE
  5
135
  8
1
  6
CONTINUOUS
 62
     6
 10
532.8471626335
 20
-21.6808802115
 30
0.0
 11
537.3471626335
 21
-22.6808802115
 31
0.0
  0
LINE
  5
136
  8
1
  6
CONTINUOUS
 62
     7
 10
533.725495034
 20
69.3319228028
 30
0.0
 11
533.725495034
 21
70.8339596941
 31
0.0
  0
LINE
  5
137
  8
1
  6
CONTINUOUS
 62
     6
 10
505.0971626335
 20
-19.9308802113
 30
0.0
 11
510.0971626335
 21
-19.9308802113
 31
0.0
  0
LINE
  5
138
  8
1
  6
CONTINUOUS
 62
     6
 10
518.0971626335
 20
10.5691197916
 30
0.0
 11
518.0971626335
 21
14.8191197885
 31
0.0
  0
LINE
  5
139
  8
1
  6
CONTINUOUS
 62
     6
 10
533.6772896524
 20
-31.1808802115
 30
0.0
 11
531.9452388449
 21
-34.1808802115
 31
0.0
  0
LINE
  5
13A
  8
1
  6
CONTINUOUS
 62
     6
 10
535.3471626335
 20
-30.1808802115
 30
0.0
 11
537.3471626335
 21
-30.1808802115
 31
0.0
  0
LINE
  5
13B
  8
1
  6
CONTINUOUS
 62
     6
 10
522.5971626335
 20
-7.9308802113
 30
0.0
 11
517.5971626335
 21
-7.9308802113
 31
0.0
  0
LINE
  5
13C
  8
1
  6
CONTINUOUS
 62
     6
 10
517.5971626335
 20
-17.9308802113
 30
0.0
 11
522.5971626335
 21
-17.9308802113
 31
0.0
  0
LINE
  5
13D
  8
1
  6
CONTINUOUS
 62
     6
 10
505.0971626335
 20
-7.9308802113
 30
0.0
 11
505.0971626335
 21
-19.9308802113
 31
0.0
  0
LINE
  5
13E
  8
1
  6
CONTINUOUS
 62
     6
 10
510.0971626335
 20
20.3191197887
 30
0.0
 11
510.0971626335
 21
32.3191197887
 31
0.0
  0
LINE
  5
13F
  8
1
  6
CONTINUOUS
 62
     6
 10
525.3471626335
 20
-31.7526769812
 30
0.0
 11
525.3471626335
 21
-39.6808802115
 31
0.0
  0
LINE
  5
140
  8
1
  6
CONTINUOUS
 62
     6
 10
532.8471626335
 20
-19.6808802115
 30
0.0
 11
532.8471626335
 21
-20.6808802115
 31
0.0
  0
LINE
  5
141
  8
1
  6
CONTINUOUS
 62
     7
 10
514.725495034
 20
66.2926334123
 30
0.0
 11
514.725495034
 21
70.8339596941
 31
0.0
  0
LINE
  5
142
  8
1
  6
CONTINUOUS
 62
     6
 10
522.5971626335
 20
22.3191197887
 30
0.0
 11
522.5971626335
 21
32.3191197887
 31
0.0
  0
LINE
  5
143
  8
1
  6
CONTINUOUS
 62
     6
 10
517.5971626335
 20
32.3191197887
 30
0.0
 11
517.5971626335
 21
22.3191197887
 31
0.0
  0
LINE
  5
144
  8
1
  6
CONTINUOUS
 62
     6
 10
510.0971626335
 20
-19.9308802113
 30
0.0
 11
510.0971626335
 21
-7.9308802113
 31
0.0
  0
LINE
  5
145
  8
1
  6
CONTINUOUS
 62
     6
 10
509.5971626335
 20
10.5691197885
 30
0.0
 11
518.0971626335
 21
10.5691197916
 31
0.0
  0
LINE
  5
146
  8
1
  6
CONTINUOUS
 62
     6
 10
528.8471626335
 20
-32.1808802115
 30
0.0
 11
528.8471626335
 21
-32.6808802115
 31
0.0
  0
LINE
  5
147
  8
1
  6
CONTINUOUS
 62
     7
 10
530.725495034
 20
70.4866233413
 30
0.0
 11
530.725495034
 21
70.8339596941
 31
0.0
  0
LINE
  5
148
  8
1
  6
CONTINUOUS
 62
     6
 10
525.0170356146
 20
-30.1808802115
 30
0.0
 11
526.7490864222
 21
-27.1808802115
 31
0.0
  0
LINE
  5
149
  8
1
  6
CONTINUOUS
 62
     6
 10
537.3471626335
 20
-19.6808802115
 30
0.0
 11
532.8471626335
 21
-19.6808802115
 31
0.0
  0
LINE
  5
14A
  8
1
  6
CONTINUOUS
 62
     7
 10
532.7254950341
 20
67.5998719953
 30
0.0
 11
516.8471626366
 21
58.4325125096
 31
0.0
  0
LINE
  5
14B
  8
1
  6
CONTINUOUS
 62
     7
 10
514.0971626347
 20
60.3089008851
 30
0.0
 11
530.225495034
 21
69.6205979375
 31
0.0
  0
ARC
  5
14C
  8
1
  6
CONTINUOUS
 62
     6
 10
531.0792134411
 20
-27.6808802115
 30
0.0
 40
1.0
 50
30.0
 51
90.0
  0
ARC
  5
14D
  8
1
  6
CONTINUOUS
 62
     6
 10
530.8471626335
 20
-32.1808802115
 30
0.0
 40
1.0
 50
90.0
 51
180.0
  0
ARC
  5
14E
  8
1
  6
CONTINUOUS
 62
     6
 10
444.3471626335
 20
-36.6808802115
 30
0.0
 40
3.0
 50
180.0
 51
270.0
  0
LINE
  5
14F
  8
1
  6
CONTINUOUS
 62
     6
 10
493.3471626335
 20
-39.6808802115
 30
0.0
 11
527.8471626335
 21
-39.6808802115
 31
0.0
  0
ARC
  5
150
  8
1
  6
CONTINUOUS
 62
     6
 10
527.8471626335
 20
-32.1808802115
 30
0.0
 40
1.0
 50
0.0
 51
90.0
  0
ARC
  5
151
  8
1
  6
CONTINUOUS
 62
     6
 10
527.6151118259
 20
-27.6808802115
 30
0.0
 40
1.0
 50
90.0
 51
150.0
  0
ARC
  5
152
  8
1
  6
CONTINUOUS
 62
     6
 10
493.3471626335
 20
47.3191197885
 30
0.0
 40
3.0
 50
90.0
 51
180.0
  0
ARC
  5
153
  8
1
  6
CONTINUOUS
 62
     6
 10
532.8112642487
 20
-30.6808802115
 30
0.0
 40
1.0
 50
330.0
 51
30.0
  0
LINE
  5
154
  8
1
  6
CONTINUOUS
 62
     6
 10
524.3471626335
 20
-23.3313662831
 30
0.0
 11
524.3471626335
 21
-36.6808802115
 31
0.0
  0
LINE
  5
155
  8
1
  6
CONTINUOUS
 62
     6
 10
532.8471626335
 20
-26.6808802114
 30
0.0
 11
537.3471626335
 21
-25.6808802114
 31
0.0
  0
LINE
  5
156
  8
1
  6
CONTINUOUS
 62
     6
 10
526.3471626335
 20
-35.1808802115
 30
0.0
 11
527.3471626335
 21
-39.6808802115
 31
0.0
  0
LINE
  5
157
  8
1
  6
CONTINUOUS
 62
     6
 10
491.3471626335
 20
-36.6808802115
 30
0.0
 11
491.3471626335
 21
47.31911978859999
 31
0.0
  0
LINE
  5
158
  8
1
  6
CONTINUOUS
 62
     6
 10
526.3471626335
 20
-35.1808802115
 30
0.0
 11
525.3471626335
 21
-35.1808802115
 31
0.0
  0
LINE
  5
159
  8
1
  6
CONTINUOUS
 62
     6
 10
534.3471626335
 20
50.3191197886
 30
0.0
 11
493.3471626335
 21
50.3191197886
 31
0.0
  0
LINE
  5
15A
  8
1
  6
CONTINUOUS
 62
     6
 10
490.3471626335
 20
-36.6808802115
 30
0.0
 11
490.3471626335
 21
47.31911978849999
 31
0.0
  0
LINE
  5
15B
  8
1
  6
CONTINUOUS
 62
     6
 10
537.3471626335
 20
-36.6808802115
 30
0.0
 11
537.3471626335
 21
47.31911978859999
 31
0.0
  0
LINE
  5
15C
  8
1
  6
CONTINUOUS
 62
     6
 10
537.3471626335
 20
-35.1808802115
 30
0.0
 11
531.8471626335
 21
-35.1808802115
 31
0.0
  0
LINE
  5
15D
  8
1
  6
CONTINUOUS
 62
     6
 10
536.3471626335
 20
-11.9949739052
 30
0.0
 11
536.3471626335
 21
47.3191197887
 31
0.0
  0
ARC
  5
15E
  8
1
  6
CONTINUOUS
 62
     6
 10
525.8830610184
 20
-30.6808802115
 30
0.0
 40
1.0
 50
150.0
 51
210.0
  0
LINE
  5
15F
  8
1
  6
CONTINUOUS
 62
     6
 10
534.3471626335
 20
49.3191197887
 30
0.0
 11
493.3471626335
 21
49.3191197887
 31
0.0
  0
ARC
  5
160
  8
1
  6
CONTINUOUS
 62
     6
 10
527.6151118259
 20
-33.6808802115
 30
0.0
 40
1.0
 50
210.0
 51
269.9999999999
  0
ARC
  5
161
  8
1
  6
CONTINUOUS
 62
     6
 10
493.3471626335
 20
-36.6808802115
 30
0.0
 40
2.0
 50
180.0
 51
270.0
  0
ARC
  5
162
  8
1
  6
CONTINUOUS
 62
     6
 10
534.3471626335
 20
-36.6808802115
 30
0.0
 40
3.0
 50
270.0
 51
0.0
  0
ARC
  5
163
  8
1
  6
CONTINUOUS
 62
     6
 10
493.3471626335
 20
-36.6808802115
 30
0.0
 40
3.0
 50
180.0
 51
270.0
  0
ARC
  5
164
  8
1
  6
CONTINUOUS
 62
     6
 10
522.3471626335
 20
-36.6808802115
 30
0.0
 40
2.0
 50
270.0
 51
0.0
  0
ARC
  5
165
  8
1
  6
CONTINUOUS
 62
     6
 10
527.3471626335
 20
-23.3313662831
 30
0.0
 40
3.0
 50
124.2182452403
 51
180.0
  0
LINE
  5
166
  8
1
  6
CONTINUOUS
 62
     6
 10
485.3471626335
 20
50.3191197886
 30
0.0
 11
444.3471626335
 21
50.3191197886
 31
0.0
  0
ARC
  5
167
  8
1
  6
CONTINUOUS
 62
     6
 10
444.3471626335
 20
47.3191197885
 30
0.0
 40
3.0
 50
90.0
 51
180.0
  0
LINE
  5
168
  8
1
  6
CONTINUOUS
 62
     6
 10
532.8471626335
 20
-26.6808802114
 30
0.0
 11
532.8471626335
 21
-28.6808802114
 31
0.0
  0
LINE
  5
169
  8
1
  6
CONTINUOUS
 62
     6
 10
522.3471626335
 20
-38.6808802115
 30
0.0
 11
493.3471626335
 21
-38.6808802115
 31
0.0
  0
ARC
  5
16A
  8
1
  6
CONTINUOUS
 62
     6
 10
531.0792134411
 20
-33.6808802115
 30
0.0
 40
1.0
 50
270.0
 51
330.0
  0
ARC
  5
16B
  8
1
  6
CONTINUOUS
 62
     6
 10
534.3471626335
 20
47.3191197887
 30
0.0
 40
2.0
 50
0.0
 51
90.0
  0
ARC
  5
16C
  8
1
  6
CONTINUOUS
 62
     6
 10
513.8471626335
 20
14.8191197885
 30
0.0
 40
4.25
 50
0.0
 51
180.0
  0
CIRCLE
  5
16D
  8
1
  6
CONTINUOUS
 62
     6
 10
513.8471626335
 20
2.3191197887
 30
0.0
 40
3.0
  0
ARC
  5
16E
  8
1
  6
CONTINUOUS
 62
     6
 10
493.3471626335
 20
47.3191197886
 30
0.0
 40
2.0
 50
90.0000000002
 51
180.0
  0
LINE
  5
16F
  8
1
  6
CONTINUOUS
 62
     6
 10
532.8471626335
 20
-28.6808802114
 30
0.0
 11
535.3471626335
 21
-30.1808802115
 31
0.0
  0
ARC
  5
170
  8
1
  6
CONTINUOUS
 62
     6
 10
534.3471626335
 20
47.3191197886
 30
0.0
 40
3.0
 50
0.0
 51
90.0
  0
LINE
  5
171
  8
1
  6
CONTINUOUS
 62
     6
 10
534.3471626355
 20
-35.1808802115
 30
0.0
 11
534.3471626334
 21
-29.5808802115
 31
0.0
  0
ARC
  5
172
  8
1
  6
CONTINUOUS
 62
     6
 10
513.8471626335
 20
-25.4308802115
 30
0.0
 40
4.25
 50
0.0
 51
180.0
  0
ARC
  5
173
  8
1
  6
CONTINUOUS
 62
     6
 10
530.8471626335
 20
-29.1808802115
 30
0.0
 40
1.0
 50
180.0
 51
270.0
  0
ARC
  5
174
  8
1
  6
CONTINUOUS
 62
     6
 10
527.8471626335
 20
-29.1808802115
 30
0.0
 40
1.0
 50
270.0
 51
0.0
  0
LINE
  5
175
  8
1
  6
CONTINUOUS
 62
     6
 10
530.8471626335
 20
-39.6808802115
 30
0.0
 11
534.3471626335
 21
-39.6808802115
 31
0.0
  0
ARC
  5
176
  8
1
  6
CONTINUOUS
 62
     6
 10
533.3471626335
 20
-11.9949739052
 30
0.0
 40
3.0
 50
304.2182452403
 51
0.0
  0
LINE
  5
177
  8
1
  6
CONTINUOUS
 62
     6
 10
535.3471626335
 20
-35.1808802115
 30
0.0
 11
535.3471626335
 21
-30.1808802115
 31
0.0
  0
LINE
  5
178
  8
1
  6
CONTINUOUS
 62
     6
 10
444.3471626335
 20
-39.6808802115
 30
0.0
 11
485.3471626335
 21
-39.6808802115
 31
0.0
  0
ARC
  5
179
  8
1
  6
CONTINUOUS
 62
     6
 10
485.3471626335
 20
47.3191197886
 30
0.0
 40
3.0
 50
0.0
 51
90.0
  0
LINE
  5
17A
  8
1
  6
CONTINUOUS
 62
     6
 10
525.6601224601
 20
-20.8506616548
 30
0.0
 11
535.034202807
 21
-14.4756785335
 31
0.0
  0
LINE
  5
17B
  8
1
  6
CONTINUOUS
 62
     6
 10
441.3471626335
 20
-36.6808802115
 30
0.0
 11
441.3471626335
 21
47.31911978849999
 31
0.0
  0
ARC
  5
17C
  8
1
  6
CONTINUOUS
 62
     6
 10
485.3471626335
 20
-36.6808802115
 30
0.0
 40
3.0
 50
270.0
 51
0.0
  0
LINE
  5
17D
  8
1
  6
CONTINUOUS
 62
     7
 10
1022.4823193938
 20
137.3339596941
 30
0.0
 11
1022.4823193938
 21
132.3339596941
 31
0.0
  0
ARC
  5
17E
  8
1
  6
CONTINUOUS
 62
     7
 10
1012.7823193938
 20
126.3339596941
 30
0.0
 40
2.0
 50
90.0
 51
180.0
  0
LINE
  5
17F
  8
1
  6
CONTINUOUS
 62
     7
 10
1026.0323193938
 20
-8.6660403059
 30
0.0
 11
1007.5214498286
 21
-8.6660403059
 31
0.0
  0
LINE
  5
180
  8
1
  6
CONTINUOUS
 62
     7
 10
1009.7823193938
 20
137.3339596941
 30
0.0
 11
1009.7823193938
 21
132.3339596941
 31
0.0
  0
ARC
  5
181
  8
1
  6
CONTINUOUS
 62
     7
 10
1009.5214498286
 20
-19.6660403059
 30
0.0
 40
2.0
 50
90.0
 51
180.0
  0
LINE
  5
182
  8
1
  6
CONTINUOUS
 62
     7
 10
1009.7823193938
 20
-8.6660403059
 30
0.0
 11
1009.7823193938
 21
-13.6660403059
 31
0.0
  0
LINE
  5
183
  8
1
  6
CONTINUOUS
 62
     7
 10
1010.7823193938
 20
143.3339596941
 30
0.0
 11
1010.7823193938
 21
173.3339596941
 31
0.0
  0
LINE
  5
184
  8
1
  6
CONTINUOUS
 62
     7
 10
1009.5214498286
 20
141.3339596941
 30
0.0
 11
1026.0323193938
 21
141.3339596941
 31
0.0
  0
ARC
  5
185
  8
1
  6
CONTINUOUS
 62
     7
 10
1009.5214498286
 20
143.3339596941
 30
0.0
 40
2.0
 50
180.0
 51
270.0
  0
LINE
  5
186
  8
1
  6
CONTINUOUS
 62
     7
 10
1007.5214498286
 20
-13.6660403059
 30
0.0
 11
1026.0323193938
 21
-13.6660403059
 31
0.0
  0
ARC
  5
187
  8
1
  6
CONTINUOUS
 62
     7
 10
1009.5214498286
 20
126.3339596941
 30
0.0
 40
2.0
 50
90.0
 51
180.0
  0
LINE
  5
188
  8
1
  6
CONTINUOUS
 62
     7
 10
1026.0323193938
 20
-19.6660403059
 30
0.0
 11
1010.7823193938
 21
-19.6660403059
 31
0.0
  0
LINE
  5
189
  8
1
  6
CONTINUOUS
 62
     7
 10
1009.5214498286
 20
-4.6660403059
 30
0.0
 11
1026.0323193938
 21
-4.6660403059
 31
0.0
  0
LINE
  5
18A
  8
1
  6
CONTINUOUS
 62
     7
 10
1009.5214498286
 20
128.3339596941
 30
0.0
 11
1026.0323193938
 21
128.3339596941
 31
0.0
  0
ARC
  5
18B
  8
1
  6
CONTINUOUS
 62
     7
 10
1009.5214498286
 20
-2.6660403059
 30
0.0
 40
2.0
 50
180.0
 51
270.0
  0
LINE
  5
18C
  8
1
  6
CONTINUOUS
 62
     7
 10
1009.5214498286
 20
-17.6660403059
 30
0.0
 11
1026.0323193938
 21
-17.6660403059
 31
0.0
  0
ARC
  5
18D
  8
1
  6
CONTINUOUS
 62
     7
 10
1012.7823193938
 20
143.3339596941
 30
0.0
 40
2.0
 50
180.0
 51
270.0
  0
LINE
  5
18E
  8
1
  6
CONTINUOUS
 62
     7
 10
1026.0323193938
 20
-4.6660403059
 30
0.0
 11
1026.0323193938
 21
-8.6660403059
 31
0.0
  0
LINE
  5
18F
  8
1
  6
CONTINUOUS
 62
     7
 10
1010.7823193938
 20
-13.6660403059
 30
0.0
 11
1010.7823193938
 21
-8.6660403059
 31
0.0
  0
ARC
  5
190
  8
1
  6
CONTINUOUS
 62
     7
 10
1012.7823193938
 20
-19.6660403059
 30
0.0
 40
2.0
 50
90.0
 51
180.0
  0
LINE
  5
191
  8
1
  6
CONTINUOUS
 62
     7
 10
1022.4823193938
 20
-8.6660403059
 30
0.0
 11
1022.4823193938
 21
-13.6660403059
 31
0.0
  0
LINE
  5
192
  8
1
  6
CONTINUOUS
 62
     7
 10
1016.2823193938
 20
-8.6660403059
 30
0.0
 11
1016.2823193938
 21
-13.6660403059
 31
0.0
  0
LINE
  5
193
  8
1
  6
CONTINUOUS
 62
     7
 10
1026.0323193938
 20
-13.6660403059
 30
0.0
 11
1026.0323193938
 21
-24.6660403059
 31
0.0
  0
ARC
  5
194
  8
1
  6
CONTINUOUS
 62
     7
 10
1012.7823193938
 20
-2.6660403059
 30
0.0
 40
2.0
 50
180.0
 51
270.0
  0
LINE
  5
195
  8
1
  6
CONTINUOUS
 62
     7
 10
1010.7823193938
 20
132.3339596941
 30
0.0
 11
1010.7823193938
 21
137.3339596941
 31
0.0
  0
LINE
  5
196
  8
1
  6
CONTINUOUS
 62
     7
 10
1016.2823193938
 20
137.3339596941
 30
0.0
 11
1016.2823193938
 21
132.3339596941
 31
0.0
  0
LINE
  5
197
  8
1
  6
CONTINUOUS
 62
     7
 10
1010.7823193938
 20
126.3339596941
 30
0.0
 11
1010.7823193938
 21
-2.602351982000012
 31
0.0
  0
LINE
  5
198
  8
1
  6
CONTINUOUS
 62
     7
 10
1010.7823193938
 20
-19.6660403059
 30
0.0
 11
1010.7823193938
 21
-72.6660403059
 31
0.0
  0
LINE
  5
199
  8
1
  6
CONTINUOUS
 62
     7
 10
1186.7633232873
 20
-24.6660403059
 30
0.0
 11
1186.7633232873
 21
-34.6660403059
 31
0.0
  0
LINE
  5
19A
  8
1
  6
CONTINUOUS
 62
     7
 10
1190.3133232873
 20
-4.6660403059
 30
0.0
 11
1135.8133232873
 21
-4.6660403059
 31
0.0
  0
LINE
  5
19B
  8
1
  6
CONTINUOUS
 62
     7
 10
1198.4985066257
 20
-19.6660403059
 30
0.0
 11
1198.4985066257
 21
-24.6660403059
 31
0.0
  0
LINE
  5
19C
  8
1
  6
CONTINUOUS
 62
     7
 10
1179.3633232873
 20
108.3339596941
 30
0.0
 11
1179.3633232873
 21
121.3339596941
 31
0.0
  0
LINE
  5
19D
  8
1
  6
CONTINUOUS
 62
     7
 10
1161.8133232873
 20
-13.6660403059
 30
0.0
 11
1161.8133232873
 21
-8.6660403059
 31
0.0
  0
LINE
  5
19E
  8
1
  6
CONTINUOUS
 62
     7
 10
1179.3633232873
 20
-34.6660403059
 30
0.0
 11
1179.3633232873
 21
-24.6660403059
 31
0.0
  0
LINE
  5
19F
  8
1
  6
CONTINUOUS
 62
     7
 10
1178.8133232873
 20
-12.6660403059
 30
0.0
 11
1178.8133232873
 21
-8.6660403059
 31
0.0
  0
ARC
  5
1A0
  8
1
  6
CONTINUOUS
 62
     7
 10
291.725495034
 20
170.4729081108
 30
0.0
 40
10.0
 50
92.8864185439
 51
180.0
  0
LINE
  5
1A1
  8
1
  6
CONTINUOUS
 62
     7
 10
291.221933023
 20
180.4602213282
 30
0.0
 11
338.3010772804
 21
182.8339596941
 31
0.0
  0
LINE
  5
1A2
  8
1
  6
CONTINUOUS
 62
     7
 10
1198.4985066257
 20
-34.6660403059
 30
0.0
 11
1198.4985066257
 21
-39.6660403059
 31
0.0
  0
ARC
  5
1A3
  8
1
  6
CONTINUOUS
 62
     7
 10
730.7823193938
 20
-72.6660403059
 30
0.0
 40
16.0
 50
180.0
 51
270.0
  0
LINE
  5
1A4
  8
1
  6
CONTINUOUS
 62
     7
 10
1135.8133232873
 20
-17.6660403059
 30
0.0
 11
1183.0633232873
 21
-17.6660403059
 31
0.0
  0
LINE
  5
1A5
  8
1
  6
CONTINUOUS
 62
     7
 10
1175.8133232873
 20
128.3339596941
 30
0.0
 11
1175.8133232873
 21
-4.66604030590001
 31
0.0
  0
LINE
  5
1A6
  8
1
  6
CONTINUOUS
 62
     7
 10
1178.8133232873
 20
126.3339596941
 30
0.0
 11
1178.8133232873
 21
128.3339596941
 31
0.0
  0
LINE
  5
1A7
  8
1
  6
CONTINUOUS
 62
     7
 10
1198.4985066257
 20
-39.6660403059
 30
0.0
 11
1175.8133232873
 21
-39.6660403059
 31
0.0
  0
LINE
  5
1A8
  8
1
  6
CONTINUOUS
 62
     7
 10
1181.5633232873
 20
-12.6660403059
 30
0.0
 11
1181.5633232873
 21
-9.6660403059
 31
0.0
  0
LINE
  5
1A9
  8
1
  6
CONTINUOUS
 62
     7
 10
338.3010772804
 20
182.8339596941
 30
0.0
 11
508.1499127876
 21
182.8339596941
 31
0.0
  0
LINE
  5
1AA
  8
1
  6
CONTINUOUS
 62
     7
 10
1190.3133232873
 20
-8.6660403059
 30
0.0
 11
1190.3133232873
 21
-4.6660403059
 31
0.0
  0
ARC
  5
1AB
  8
1
  6
CONTINUOUS
 62
     7
 10
730.7823193938
 20
-72.6660403059
 30
0.0
 40
5.0
 50
180.0
 51
270.0
  0
LINE
  5
1AC
  8
1
  6
CONTINUOUS
 62
     7
 10
1175.8133232873
 20
-17.6660403059
 30
0.0
 11
1175.8133232873
 21
-88.1660403059
 31
0.0
  0
ARC
  5
1AD
  8
1
  6
CONTINUOUS
 62
     7
 10
554.725495034
 20
-72.1660403059
 30
0.0
 40
10.0
 50
270.0
 51
0.0
  0
LINE
  5
1AE
  8
1
  6
CONTINUOUS
 62
     7
 10
281.725495034
 20
-72.1660403059
 30
0.0
 11
281.725495034
 21
170.4729081108
 31
0.0
  0
LINE
  5
1AF
  8
1
  6
CONTINUOUS
 62
     7
 10
1175.8133232873
 20
137.3339596941
 30
0.0
 11
1175.8133232873
 21
132.3339596941
 31
0.0
  0
LINE
  5
1B0
  8
1
  6
CONTINUOUS
 62
     7
 10
1184.5633232873
 20
-12.6660403059
 30
0.0
 11
1178.8133232873
 21
-12.6660403059
 31
0.0
  0
LINE
  5
1B1
  8
1
  6
CONTINUOUS
 62
     7
 10
1179.3633232873
 20
-17.6660403059
 30
0.0
 11
1179.3633232873
 21
-19.6660403059
 31
0.0
  0
LINE
  5
1B2
  8
1
  6
CONTINUOUS
 62
     7
 10
1179.3633232873
 20
132.3339596941
 30
0.0
 11
1179.3633232873
 21
133.3339596941
 31
0.0
  0
LINE
  5
1B3
  8
1
  6
CONTINUOUS
 62
     7
 10
1161.8133232873
 20
-4.6660403059
 30
0.0
 11
1161.8133232873
 21
128.3339596941
 31
0.0
  0
ARC
  5
1B4
  8
1
  6
CONTINUOUS
 62
     7
 10
730.7823193938
 20
-72.6660403059
 30
0.0
 40
6.0
 50
180.0
 51
270.0
  0
ARC
  5
1B5
  8
1
  6
CONTINUOUS
 62
     7
 10
554.725495034
 20
170.4729081108
 30
0.0
 40
10.0
 50
0.0
 51
87.1135814561
  0
LINE
  5
1B6
  8
1
  6
CONTINUOUS
 62
     7
 10
1175.8133232873
 20
-19.6660403059
 30
0.0
 11
1198.4985066257
 21
-19.6660403059
 31
0.0
  0
LINE
  5
1B7
  8
1
  6
CONTINUOUS
 62
     7
 10
564.725495034
 20
170.4729081108
 30
0.0
 11
564.725495034
 21
-72.16604030590001
 31
0.0
  0
LINE
  5
1B8
  8
1
  6
CONTINUOUS
 62
     7
 10
1186.7633232873
 20
121.3339596941
 30
0.0
 11
1186.7633232873
 21
108.3339596941
 31
0.0
  0
LINE
  5
1B9
  8
1
  6
CONTINUOUS
 62
     7
 10
1178.8133232873
 20
132.3339596941
 30
0.0
 11
1178.8133232873
 21
133.3339596941
 31
0.0
  0
LINE
  5
1BA
  8
1
  6
CONTINUOUS
 62
     7
 10
1178.8133232873
 20
-9.6660403059
 30
0.0
 11
1184.5633232873
 21
-9.6660403059
 31
0.0
  0
LINE
  5
1BB
  8
1
  6
CONTINUOUS
 62
     7
 10
1175.8133232873
 20
-8.6660403059
 30
0.0
 11
1175.8133232873
 21
-13.6660403059
 31
0.0
  0
LINE
  5
1BC
  8
1
  6
CONTINUOUS
 62
     7
 10
554.725495034
 20
-82.1660403059
 30
0.0
 11
291.725495034
 21
-82.1660403059
 31
0.0
  0
LINE
  5
1BD
  8
1
  6
CONTINUOUS
 62
     7
 10
1161.8133232873
 20
-87.6660403059
 30
0.0
 11
1161.8133232873
 21
-17.66604030589999
 31
0.0
  0
LINE
  5
1BE
  8
1
  6
CONTINUOUS
 62
     7
 10
508.0995246233
 20
180.8339596941
 30
0.0
 11
555.1283446427
 21
178.4627586847
 31
0.0
  0
LINE
  5
1BF
  8
1
  6
CONTINUOUS
 62
     7
 10
1135.8133232873
 20
-13.6660403059
 30
0.0
 11
1135.8133232873
 21
-17.6660403059
 31
0.0
  0
ARC
  5
1C0
  8
1
  6
CONTINUOUS
 62
     7
 10
730.7823193938
 20
-72.6660403059
 30
0.0
 40
11.0
 50
180.0
 51
270.0
  0
LINE
  5
1C1
  8
1
  6
CONTINUOUS
 62
     7
 10
1161.8133232873
 20
132.3339596941
 30
0.0
 11
1161.8133232873
 21
137.3339596941
 31
0.0
  0
LINE
  5
1C2
  8
1
  6
CONTINUOUS
 62
     7
 10
1198.4985066257
 20
-24.6660403059
 30
0.0
 11
1175.8133232873
 21
-24.6660403059
 31
0.0
  0
LINE
  5
1C3
  8
1
  6
CONTINUOUS
 62
     7
 10
1161.8133232873
 20
141.3339596941
 30
0.0
 11
1161.8133232873
 21
188.3339596941
 31
0.0
  0
LINE
  5
1C4
  8
1
  6
CONTINUOUS
 62
     7
 10
1184.5633232873
 20
-9.6660403059
 30
0.0
 11
1184.5633232873
 21
-12.6660403059
 31
0.0
  0
LINE
  5
1C5
  8
1
  6
CONTINUOUS
 62
     7
 10
1186.7633232873
 20
-8.6660403059
 30
0.0
 11
1186.7633232873
 21
-13.6660403059
 31
0.0
  0
LINE
  5
1C6
  8
1
  6
CONTINUOUS
 62
     7
 10
1190.3133232873
 20
-19.6660403059
 30
0.0
 11
1190.3133232873
 21
-13.6660403059
 31
0.0
  0
ARC
  5
1C7
  8
1
  6
CONTINUOUS
 62
     7
 10
291.725495034
 20
-72.1660403059
 30
0.0
 40
10.0
 50
180.0
 51
270.0
  0
LINE
  5
1C8
  8
1
  6
CONTINUOUS
 62
     7
 10
338.3514654447
 20
180.8339596941
 30
0.0
 11
508.0995246233
 21
180.8339596941
 31
0.0
  0
LINE
  5
1C9
  8
1
  6
CONTINUOUS
 62
     7
 10
1179.3633232873
 20
-13.6660403059
 30
0.0
 11
1179.3633232873
 21
-12.6660403059
 31
0.0
  0
LINE
  5
1CA
  8
1
  6
CONTINUOUS
 62
     7
 10
508.1499127876
 20
182.8339596941
 30
0.0
 11
555.2290570449
 21
180.4602213282
 31
0.0
  0
ARC
  5
1CB
  8
1
  6
CONTINUOUS
 62
     7
 10
554.725495034
 20
170.4729081108
 30
0.0
 40
8.0
 50
0.0
 51
87.1135814561
  0
LINE
  5
1CC
  8
1
  6
CONTINUOUS
 62
     7
 10
1178.8133232873
 20
136.3339596941
 30
0.0
 11
1178.8133232873
 21
137.3339596941
 31
0.0
  0
LINE
  5
1CD
  8
1
  6
CONTINUOUS
 62
     7
 10
1135.8133232873
 20
-8.6660403059
 30
0.0
 11
1190.3133232873
 21
-8.6660403059
 31
0.0
  0
LINE
  5
1CE
  8
1
  6
CONTINUOUS
 62
     7
 10
1175.8133232873
 20
-34.6660403059
 30
0.0
 11
1198.4985066257
 21
-34.6660403059
 31
0.0
  0
LINE
  5
1CF
  8
1
  6
CONTINUOUS
 62
     7
 10
1135.8133232873
 20
-4.6660403059
 30
0.0
 11
1135.8133232873
 21
-8.6660403059
 31
0.0
  0
LINE
  5
1D0
  8
1
  6
CONTINUOUS
 62
     7
 10
1190.3133232873
 20
-13.6660403059
 30
0.0
 11
1135.8133232873
 21
-13.6660403059
 31
0.0
  0
ARC
  5
1D1
  8
1
  6
CONTINUOUS
 62
     7
 10
885.7823193938
 20
-75.7485964601
 30
0.0
 40
45.0
 50
255.5224878141
 51
284.4775121859
  0
ARC
  5
1D2
  8
1
  6
CONTINUOUS
 62
     7
 10
816.7823193938
 20
-75.7485964601
 30
0.0
 40
45.0
 50
255.5224878141
 51
284.4775121859
  0
LINE
  5
1D3
  8
1
  6
CONTINUOUS
 62
     7
 10
699.7823193938
 20
-182.254343207
 30
0.0
 11
699.7823193938
 21
-184.254343207
 31
0.0
  0
ARC
  5
1D4
  8
1
  6
CONTINUOUS
 62
     7
 10
828.2823193938
 20
-120.2879049415
 30
0.0
 40
1.0
 50
75.5224878141
 51
104.4775121859
  0
ARC
  5
1D5
  8
1
  6
CONTINUOUS
 62
     7
 10
839.7823193938
 20
-75.7485964601
 30
0.0
 40
45.0
 50
255.5224878141
 51
284.4775121859
  0
LINE
  5
1D6
  8
1
  6
CONTINUOUS
 62
     7
 10
722.0743620852
 20
-124.254343207
 30
0.0
 11
1003.4902767023
 21
-124.254343207
 31
0.0
  0
LINE
  5
1D7
  8
1
  6
CONTINUOUS
 62
     7
 10
832.5333524693
 20
-170.254343207
 30
0.0
 11
715.7823193938
 21
-170.254343207
 31
0.0
  0
LINE
  5
1D8
  8
1
  6
CONTINUOUS
 62
     7
 10
714.7823193938
 20
-171.254343207
 30
0.0
 11
714.7823193938
 21
-184.254343207
 31
0.0
  0
ARC
  5
1D9
  8
1
  6
CONTINUOUS
 62
     7
 10
793.7823193938
 20
-75.7485964601
 30
0.0
 40
45.0
 50
255.5224878141
 51
284.4775121859
  0
ARC
  5
1DA
  8
1
  6
CONTINUOUS
 62
     7
 10
931.7823193938
 20
-75.7485964601
 30
0.0
 40
45.0
 50
255.5224878141
 51
284.4775121859
  0
LINE
  5
1DB
  8
1
  6
CONTINUOUS
 62
     7
 10
1007.5214498286
 20
-144.254343207
 30
0.0
 11
1025.5049261328
 21
-188.789742199
 31
0.0
  0
LINE
  5
1DC
  8
1
  6
CONTINUOUS
 62
     7
 10
713.7823193938
 20
-189.854343207
 30
0.0
 11
713.7823193938
 21
-184.254343207
 31
0.0
  0
ARC
  5
1DD
  8
1
  6
CONTINUOUS
 62
     7
 10
700.7823193938
 20
-182.254343207
 30
0.0
 40
1.0
 50
90.0
 51
180.0
  0
LINE
  5
1DE
  8
1
  6
CONTINUOUS
 62
     7
 10
710.2823193938
 20
-185.254343207
 30
0.0
 11
710.2823193938
 21
-199.254343207
 31
0.0
  0
ARC
  5
1DF
  8
1
  6
CONTINUOUS
 62
     7
 10
728.8274043657
 20
-121.754343207
 30
0.0
 40
2.5
 50
90.0
 51
153.4349488229
  0
LINE
  5
1E0
  8
1
  6
CONTINUOUS
 62
     7
 10
719.5837606147
 20
-126.5377691661
 30
0.0
 11
715.7823193938
 21
-170.254343207
 31
0.0
  0
ARC
  5
1E1
  8
1
  6
CONTINUOUS
 62
     7
 10
893.0312863183
 20
-168.254343207
 30
0.0
 40
2.0
 50
217.2477808958
 51
270.0
  0
ARC
  5
1E2
  8
1
  6
CONTINUOUS
 62
     7
 10
897.2823193938
 20
-120.2879049415
 30
0.0
 40
1.0
 50
75.5224878141
 51
104.4775121859
  0
ARC
  5
1E3
  8
1
  6
CONTINUOUS
 62
     7
 10
722.0743620852
 20
-126.754343207
 30
0.0
 40
2.5
 50
90.0
 51
175.0302592719
  0
LINE
  5
1E4
  8
1
  6
CONTINUOUS
 62
     7
 10
736.1531101986
 20
-119.254343207
 30
0.0
 11
728.8274043657
 21
-119.254343207
 31
0.0
  0
ARC
  5
1E5
  8
1
  6
CONTINUOUS
 62
     7
 10
736.1531101986
 20
-120.254343207
 30
0.0
 40
1.0
 50
75.35620937569999
 51
90.0
  0
ARC
  5
1E6
  8
1
  6
CONTINUOUS
 62
     7
 10
954.7823193938
 20
-75.7485964601
 30
0.0
 40
45.0
 50
255.5224878141
 51
284.4775121859
  0
ARC
  5
1E7
  8
1
  6
CONTINUOUS
 62
     7
 10
770.7823193938
 20
-75.7485964601
 30
0.0
 40
45.0
 50
255.5224878141
 51
284.4775121859
  0
ARC
  5
1E8
  8
1
  6
CONTINUOUS
 62
     7
 10
715.7823193938
 20
-171.254343207
 30
0.0
 40
1.0
 50
90.0
 51
180.0
  0
LINE
  5
1E9
  8
1
  6
CONTINUOUS
 62
     7
 10
700.7823193938
 20
-181.254343207
 30
0.0
 11
714.7823193938
 21
-181.254343207
 31
0.0
  0
LINE
  5
1EA
  8
1
  6
CONTINUOUS
 62
     7
 10
713.7823193938
 20
-187.254343207
 30
0.0
 11
837.2823193938
 21
-187.254343207
 31
0.0
  0
ARC
  5
1EB
  8
1
  6
CONTINUOUS
 62
     7
 10
1093.8133232873
 20
-10.2016940588
 30
0.0
 40
20.0
 50
0.0
 51
31.7883306171
  0
LINE
  5
1EC
  8
1
  6
CONTINUOUS
 62
     7
 10
700.2823193938
 20
-187.254343207
 30
0.0
 11
710.2823193938
 21
-187.254343207
 31
0.0
  0
ARC
  5
1ED
  8
1
  6
CONTINUOUS
 62
     7
 10
782.2823193938
 20
-120.2879049415
 30
0.0
 40
1.0
 50
75.5224878141
 51
104.4775121859
  0
ARC
  5
1EE
  8
1
  6
CONTINUOUS
 62
     7
 10
862.7823193938
 20
-191.254343207
 30
0.0
 40
36.0
 50
37.2477808958
 51
142.7522191042
  0
ARC
  5
1EF
  8
1
  6
CONTINUOUS
 62
     7
 10
885.0309148551
 20
-182.254343207
 30
0.0
 40
2.0
 50
202.024312837
 51
270.0
  0
ARC
  5
1F0
  8
1
  6
CONTINUOUS
 62
     7
 10
709.2823193938
 20
-185.254343207
 30
0.0
 40
1.0
 50
0.0
 51
90.0
  0
ARC
  5
1F1
  8
1
  6
CONTINUOUS
 62
     7
 10
759.2823193938
 20
-120.2879049415
 30
0.0
 40
1.0
 50
75.5224878141
 51
104.4775121859
  0
ARC
  5
1F2
  8
1
  6
CONTINUOUS
 62
     7
 10
862.7823193938
 20
-191.254343207
 30
0.0
 40
22.0
 50
22.024312837
 51
157.975687163
  0
ARC
  5
1F3
  8
1
  6
CONTINUOUS
 62
     7
 10
747.7823193938
 20
-75.7485964601
 30
0.0
 40
45.0
 50
255.3562093757
 51
284.4775121859
  0
ARC
  5
1F4
  8
1
  6
CONTINUOUS
 62
     7
 10
862.7823193938
 20
-75.7485964601
 30
0.0
 40
45.0
 50
255.5224878141
 51
284.4775121859
  0
LINE
  5
1F5
  8
1
  6
CONTINUOUS
 62
     7
 10
893.0312863183
 20
-170.254343207
 30
0.0
 11
1009.7823193938
 21
-170.254343207
 31
0.0
  0
ARC
  5
1F6
  8
1
  6
CONTINUOUS
 62
     7
 10
851.2823193938
 20
-120.2879049415
 30
0.0
 40
1.0
 50
75.5224878141
 51
104.4775121859
  0
ARC
  5
1F7
  8
1
  6
CONTINUOUS
 62
     7
 10
989.411528589
 20
-120.254343207
 30
0.0
 40
1.0
 50
90.0
 51
104.6437906243
  0
LINE
  5
1F8
  8
1
  6
CONTINUOUS
 62
     7
 10
1010.7823193938
 20
-171.254343207
 30
0.0
 11
1010.7823193938
 21
-184.254343207
 31
0.0
  0
ARC
  5
1F9
  8
1
  6
CONTINUOUS
 62
     7
 10
1009.7823193938
 20
-171.254343207
 30
0.0
 40
1.0
 50
0.0
 51
90.0
  0
ARC
  5
1FA
  8
1
  6
CONTINUOUS
 62
     7
 10
977.7823193938
 20
-75.7485964601
 30
0.0
 40
45.0
 50
255.5224878141
 51
284.6437906243
  0
ARC
  5
1FB
  8
1
  6
CONTINUOUS
 62
     7
 10
908.7823193938
 20
-75.7485964601
 30
0.0
 40
45.0
 50
255.5224878141
 51
284.4775121859
  0
LINE
  5
1FC
  8
1
  6
CONTINUOUS
 62
     7
 10
710.2823193938
 20
-199.254343207
 30
0.0
 11
712.7823193938
 21
-199.254343207
 31
0.0
  0
ARC
  5
1FD
  8
1
  6
CONTINUOUS
 62
     7
 10
943.2823193938
 20
-120.2879049415
 30
0.0
 40
1.0
 50
75.5224878141
 51
104.4775121859
  0
LINE
  5
1FE
  8
1
  6
CONTINUOUS
 62
     7
 10
712.7823193938
 20
-199.254343207
 30
0.0
 11
717.2823193938
 21
-192.854343207
 31
0.0
  0
LINE
  5
1FF
  8
1
  6
CONTINUOUS
 62
     7
 10
717.2823193938
 20
-192.854343207
 30
0.0
 11
717.2823193938
 21
-189.854343207
 31
0.0
  0
LINE
  5
200
  8
1
  6
CONTINUOUS
 62
     7
 10
717.2823193938
 20
-189.854343207
 30
0.0
 11
713.7823193938
 21
-189.854343207
 31
0.0
  0
ARC
  5
201
  8
1
  6
CONTINUOUS
 62
     7
 10
920.2823193938
 20
-120.2879049415
 30
0.0
 40
1.0
 50
75.5224878141
 51
104.4775121859
  0
ARC
  5
202
  8
1
  6
CONTINUOUS
 62
     7
 10
966.2823193938
 20
-120.2879049415
 30
0.0
 40
1.0
 50
75.5224878141
 51
104.477512186
  0
LINE
  5
203
  8
1
  6
CONTINUOUS
 62
     7
 10
882.8571792937
 20
-182.254343207
 30
0.0
 11
842.7074594939
 21
-182.254343207
 31
0.0
  0
ARC
  5
204
  8
1
  6
CONTINUOUS
 62
     7
 10
805.2823193938
 20
-120.2879049415
 30
0.0
 40
1.0
 50
75.5224878141
 51
104.4775121859
  0
ARC
  5
205
  8
1
  6
CONTINUOUS
 62
     7
 10
840.5337239325
 20
-182.254343207
 30
0.0
 40
2.0
 50
270.0
 51
337.9756871629999
  0
ARC
  5
206
  8
1
  6
CONTINUOUS
 62
     7
 10
874.2823193938
 20
-120.2879049415
 30
0.0
 40
1.0
 50
75.5224878141
 51
104.4775121859
  0
ARC
  5
207
  8
1
  6
CONTINUOUS
 62
     7
 10
832.5333524693
 20
-168.254343207
 30
0.0
 40
2.0
 50
270.0
 51
322.7522191042
  0
LINE
  5
208
  8
1
  6
CONTINUOUS
 62
     7
 10
726.5913363882
 20
-120.6363092182
 30
0.0
 11
724.7823193938
 21
-124.254343207
 31
0.0
  0
LINE
  5
209
  8
1
  6
CONTINUOUS
 62
     7
 10
1005.9808781728
 20
-126.5377691661
 30
0.0
 11
1009.7823193938
 21
-170.254343207
 31
0.0
  0
LINE
  5
20A
  8
1
  6
CONTINUOUS
 62
     7
 10
989.411528589
 20
-119.254343207
 30
0.0
 11
996.7372344219
 21
-119.254343207
 31
0.0
  0
ARC
  5
20B
  8
1
  6
CONTINUOUS
 62
     7
 10
862.7823193938
 20
-206.254343207
 30
0.0
 40
21.5
 50
180.0
 51
0.0
  0
LINE
  5
20C
  8
1
  6
CONTINUOUS
 62
     7
 10
1018.7823193938
 20
-184.254343207
 30
0.0
 11
885.2823193938
 21
-184.254343207
 31
0.0
  0
LINE
  5
20D
  8
1
  6
CONTINUOUS
 62
     7
 10
884.2823193938
 20
-206.254343207
 30
0.0
 11
884.2823193938
 21
-184.254343207
 31
0.0
  0
CIRCLE
  5
20E
  8
1
  6
CONTINUOUS
 62
     7
 10
924.7823193938
 20
-224.254343207
 30
0.0
 40
11.5
  0
ARC
  5
20F
  8
1
  6
CONTINUOUS
 62
     7
 10
880.1316709667
 20
-189.254343207
 30
0.0
 40
2.0
 50
90.0
 51
133.9455195623
  0
ARC
  5
210
  8
1
  6
CONTINUOUS
 62
     7
 10
1018.7823193938
 20
-191.504343207
 30
0.0
 40
7.25
 50
300.0
 51
90.0
  0
LINE
  5
211
  8
1
  6
CONTINUOUS
 62
     7
 10
880.1316709667
 20
-187.254343207
 30
0.0
 11
885.2823193938
 21
-187.254343207
 31
0.0
  0
LINE
  5
212
  8
1
  6
CONTINUOUS
 62
     7
 10
845.4329678209
 20
-187.254343207
 30
0.0
 11
840.2823193938
 21
-187.254343207
 31
0.0
  0
ARC
  5
213
  8
1
  6
CONTINUOUS
 62
     7
 10
845.4329678209
 20
-189.254343207
 30
0.0
 40
2.0
 50
46.0544804377
 51
90.0
  0
LINE
  5
214
  8
1
  6
CONTINUOUS
 62
     7
 10
841.2823193938
 20
-184.254343207
 30
0.0
 11
841.2823193938
 21
-206.254343207
 31
0.0
  0
CIRCLE
  5
215
  8
1
  6
CONTINUOUS
 62
     7
 10
800.7823193938
 20
-224.254343207
 30
0.0
 40
11.5
  0
LINE
  5
216
  8
1
  6
CONTINUOUS
 62
     7
 10
880.1316709667
 20
-184.254343207
 30
0.0
 11
884.2823193938
 21
-184.254343207
 31
0.0
  0
LINE
  5
217
  8
1
  6
CONTINUOUS
 62
     7
 10
1022.4073193938
 20
-197.7830273844
 30
0.0
 11
1006.5477976274
 21
-206.9395265454
 31
0.0
  0
ARC
  5
218
  8
1
  6
CONTINUOUS
 62
     7
 10
880.1316709667
 20
-189.254343207
 30
0.0
 40
5.0
 50
90.0
 51
133.9455195623
  0
CIRCLE
  5
219
  8
1
  6
CONTINUOUS
 62
     7
 10
975.2823193938
 20
-221.754343207
 30
0.0
 40
14.0
  0
LINE
  5
21A
  8
1
  6
CONTINUOUS
 62
     7
 10
840.2823193938
 20
-184.254343207
 30
0.0
 11
699.7823193938
 21
-184.254343207
 31
0.0
  0
ARC
  5
21B
  8
1
  6
CONTINUOUS
 62
     7
 10
862.7823193938
 20
-171.254343207
 30
0.0
 40
23.0
 50
226.0544804377
 51
313.9455195622999
  0
LINE
  5
21C
  8
1
  6
CONTINUOUS
 62
     7
 10
845.4329678209
 20
-184.254343207
 30
0.0
 11
841.2823193938
 21
-184.254343207
 31
0.0
  0
LINE
  5
21D
  8
1
  6
CONTINUOUS
 62
     7
 10
888.2823193938
 20
-187.254343207
 30
0.0
 11
1010.2823193938
 21
-187.254343207
 31
0.0
  0
LINE
  5
21E
  8
1
  6
CONTINUOUS
 62
     7
 10
998.9733023994
 20
-120.6363092182
 30
0.0
 11
1000.7823193938
 21
-124.254343207
 31
0.0
  0
ARC
  5
21F
  8
1
  6
CONTINUOUS
 62
     7
 10
862.7823193938
 20
-171.254343207
 30
0.0
 40
20.0
 50
226.0544804377
 51
313.9455195622999
  0
ARC
  5
220
  8
1
  6
CONTINUOUS
 62
     7
 10
996.7372344219
 20
-121.754343207
 30
0.0
 40
2.5
 50
26.5650511771
 51
90.0
  0
ARC
  5
221
  8
1
  6
CONTINUOUS
 62
     7
 10
1003.4902767023
 20
-126.754343207
 30
0.0
 40
2.5
 50
4.9697407281
 51
90.0
  0
CIRCLE
  5
222
  8
1
  6
CONTINUOUS
 62
     7
 10
750.2823193938
 20
-221.754343207
 30
0.0
 40
14.0
  0
CIRCLE
  5
223
  8
1
  6
CONTINUOUS
 62
     7
 10
1018.7823193938
 20
-191.504343207
 30
0.0
 40
3.8
  0
ARC
  5
224
  8
1
  6
CONTINUOUS
 62
     7
 10
845.4329678209
 20
-189.254343207
 30
0.0
 40
5.0
 50
46.0544804377
 51
90.0
  0
LINE
  5
225
  8
1
  6
CONTINUOUS
 62
     7
 10
1014.0823193938
 20
133.3339596941
 30
0.0
 11
1010.7823193938
 21
133.3339596941
 31
0.0
  0
LINE
  5
226
  8
1
  6
CONTINUOUS
 62
     7
 10
1017.7823193938
 20
108.3339596941
 30
0.0
 11
1017.7823193938
 21
121.3339596941
 31
0.0
  0
LINE
  5
227
  8
1
  6
CONTINUOUS
 62
     7
 10
1022.4823193938
 20
108.3339596941
 30
0.0
 11
1022.4823193938
 21
121.3339596941
 31
0.0
  0
LINE
  5
228
  8
1
  6
CONTINUOUS
 62
     7
 10
1010.2823193938
 20
-187.254343207
 30
0.0
 11
1010.2823193938
 21
-184.254343207
 31
0.0
  0
LINE
  5
229
  8
1
  6
CONTINUOUS
 62
     7
 10
837.2823193938
 20
-206.254343207
 30
0.0
 11
837.2823193938
 21
-187.254343207
 31
0.0
  0
LINE
  5
22A
  8
1
  6
CENTER
 62
     4
 10
862.7823193938
 20
-110.1941592385
 30
0.0
 11
862.7823193938
 21
-267.8987413341
 31
0.0
  0
LINE
  5
22B
  8
1
  6
CONTINUOUS
 62
     7
 10
715.2823193938
 20
-189.254343207
 30
0.0
 11
715.2823193938
 21
-187.254343207
 31
0.0
  0
LINE
  5
22C
  8
1
  6
CONTINUOUS
 62
     7
 10
718.3002804482
 20
-187.7356994648
 30
0.0
 11
720.6745530674
 21
-251.3662056599
 31
0.0
  0
ARC
  5
22D
  8
1
  6
CONTINUOUS
 62
     7
 10
1001.8921719803
 20
-251.254343207
 30
0.0
 40
3.0
 50
270.0
 51
357.8630891462
  0
LINE
  5
22E
  8
1
  6
CONTINUOUS
 62
     7
 10
1026.0323193938
 20
103.3339596941
 30
0.0
 11
1010.7823193938
 21
103.3339596941
 31
0.0
  0
LINE
  5
22F
  8
1
  6
CONTINUOUS
 62
     7
 10
700.2823193938
 20
-184.254343207
 30
0.0
 11
700.2823193938
 21
-187.254343207
 31
0.0
  0
ARC
  5
230
  8
1
  6
CONTINUOUS
 62
     7
 10
862.7823193938
 20
-206.254343207
 30
0.0
 40
25.5
 50
180.0
 51
0.0
  0
LINE
  5
231
  8
1
  6
CONTINUOUS
 62
     7
 10
1019.7823193938
 20
108.3339596941
 30
0.0
 11
1019.7823193938
 21
121.3339596941
 31
0.0
  0
LINE
  5
232
  8
1
  6
CONTINUOUS
 62
     7
 10
1026.0323193938
 20
121.3339596941
 30
0.0
 11
1010.7823193938
 21
121.3339596941
 31
0.0
  0
LINE
  5
233
  8
1
  6
CONTINUOUS
 62
     7
 10
1001.8921719803
 20
-254.254343207
 30
0.0
 11
887.7823193938
 21
-254.254343207
 31
0.0
  0
LINE
  5
234
  8
1
  6
CONTINUOUS
 62
     7
 10
888.2823193938
 20
-187.254343207
 30
0.0
 11
888.2823193938
 21
-206.254343207
 31
0.0
  0
LINE
  5
235
  8
1
  6
CONTINUOUS
 62
     7
 10
723.6724668073
 20
-254.254343207
 30
0.0
 11
837.7823193938
 21
-254.254343207
 31
0.0
  0
LINE
  5
236
  8
1
  6
CONTINUOUS
 62
     7
 10
1007.2643583394
 20
-187.7356994648
 30
0.0
 11
1004.8900857202
 21
-251.3662056599
 31
0.0
  0
LINE
  5
237
  8
1
  6
CONTINUOUS
 62
     7
 10
887.7823193938
 20
-254.254343207
 30
0.0
 11
862.7823193938
 21
-249.254343207
 31
0.0
  0
ARC
  5
238
  8
1
  6
CONTINUOUS
 62
     7
 10
717.8006281582
 20
-187.754343207
 30
0.0
 40
0.5
 50
2.1369108538
 51
90.0
  0
LINE
  5
239
  8
1
  6
CONTINUOUS
 62
     7
 10
862.7823193938
 20
-249.254343207
 30
0.0
 11
837.7823193938
 21
-254.254343207
 31
0.0
  0
ARC
  5
23A
  8
1
  6
CONTINUOUS
 62
     7
 10
723.6724668073
 20
-251.254343207
 30
0.0
 40
3.0
 50
182.1369108538
 51
270.0
  0
LINE
  5
23B
  8
1
  6
CONTINUOUS
 62
     7
 10
1010.7823193938
 20
136.3339596941
 30
0.0
 11
1014.0823193938
 21
136.3339596941
 31
0.0
  0
LINE
  5
23C
  8
1
  6
CONTINUOUS
 62
     7
 10
1015.0823193938
 20
108.3339596941
 30
0.0
 11
1015.0823193938
 21
121.3339596941
 31
0.0
  0
LINE
  5
23D
  8
1
  6
CONTINUOUS
 62
     7
 10
718.3569462595
 20
-189.254343207
 30
0.0
 11
715.2823193938
 21
-189.254343207
 31
0.0
  0
LINE
  5
23E
  8
1
  6
CONTINUOUS
 62
     7
 10
715.2823193938
 20
194.3339596941
 30
0.0
 11
715.2823193938
 21
177.3025866607
 31
0.0
  0
LINE
  5
23F
  8
1
  6
CONTINUOUS
 62
     7
 10
1010.7823193938
 20
108.3339596941
 30
0.0
 11
1026.0323193938
 21
108.3339596941
 31
0.0
  0
LINE
  5
240
  8
1
  6
CONTINUOUS
 62
     7
 10
1019.7823193938
 20
-34.6660403059
 30
0.0
 11
1019.7823193938
 21
-24.6660403059
 31
0.0
  0
LINE
  5
241
  8
1
  6
CONTINUOUS
 62
     7
 10
1000.7823193938
 20
173.3339596941
 30
0.0
 11
1000.7823193938
 21
-72.66604030589998
 31
0.0
  0
LINE
  5
242
  8
1
  6
CENTER
 62
     4
 10
862.7823193938
 20
208.2587954365
 30
0.0
 11
862.7823193938
 21
-104.9199167842
 31
0.0
  0
LINE
  5
243
  8
1
  6
CENTER
 62
     4
 10
694.7823193938
 20
50.3339596941
 30
0.0
 11
1017.5966590784
 21
50.3339596941
 31
0.0
  0
LINE
  5
244
  8
1
  6
CONTINUOUS
 62
     7
 10
1026.0323193938
 20
141.3339596941
 30
0.0
 11
1026.0323193938
 21
137.3339596941
 31
0.0
  0
LINE
  5
245
  8
1
  6
CONTINUOUS
 62
     7
 10
1026.0323193938
 20
137.3339596941
 30
0.0
 11
1007.5214498286
 21
137.3339596941
 31
0.0
  0
LINE
  5
246
  8
1
  6
CONTINUOUS
 62
     7
 10
1007.5214498286
 20
132.3339596941
 30
0.0
 11
1026.0323193938
 21
132.3339596941
 31
0.0
  0
LINE
  5
247
  8
1
  6
CONTINUOUS
 62
     7
 10
1026.0323193938
 20
132.3339596941
 30
0.0
 11
1026.0323193938
 21
121.3339596941
 31
0.0
  0
ARC
  5
248
  8
1
  6
CONTINUOUS
 62
     7
 10
994.7823193938
 20
-72.6660403059
 30
0.0
 40
6.0
 50
270.0
 51
0.0
  0
LINE
  5
249
  8
1
  6
CONTINUOUS
 62
     7
 10
401.725495034
 20
-82.1660403059
 30
0.0
 11
401.725495034
 21
-88.1660403059
 31
0.0
  0
LINE
  5
24A
  8
1
  6
CONTINUOUS
 62
     7
 10
398.225495034
 20
-78.1660403059
 30
0.0
 11
448.225495034
 21
-78.1660403059
 31
0.0
  0
LINE
  5
24B
  8
1
  6
CONTINUOUS
 62
     7
 10
448.225495034
 20
178.8339596941
 30
0.0
 11
398.225495034
 21
178.8339596941
 31
0.0
  0
LINE
  5
24C
  8
1
  6
CONTINUOUS
 62
     7
 10
383.225495034
 20
-49.1660403059
 30
0.0
 11
368.225495034
 21
-49.1660403059
 31
0.0
  0
ARC
  5
24D
  8
1
  6
CONTINUOUS
 62
     7
 10
327.725495034
 20
137.8339596941
 30
0.0
 40
20.0
 50
90.0
 51
180.0
  0
LINE
  5
24E
  8
1
  6
CONTINUOUS
 62
     7
 10
463.225495034
 20
-49.1660403059
 30
0.0
 11
463.225495034
 21
-80.1660403059
 31
0.0
  0
LINE
  5
24F
  8
1
  6
CONTINUOUS
 62
     7
 10
275.725495034
 20
-72.1660403059
 30
0.0
 11
275.725495034
 21
12.3339596941
 31
0.0
  0
LINE
  5
250
  8
1
  6
CONTINUOUS
 62
     7
 10
518.725495034
 20
-59.1660403059
 30
0.0
 11
478.225495034
 21
-59.1660403059
 31
0.0
  0
LINE
  5
251
  8
1
  6
CONTINUOUS
 62
     7
 10
291.3226454252
 20
178.4627586847
 30
0.0
 11
338.3514654447
 21
180.8339596941
 31
0.0
  0
LINE
  5
252
  8
1
  6
CONTINUOUS
 62
     7
 10
283.725495034
 20
-72.1660403059
 30
0.0
 11
283.725495034
 21
170.4729081108
 31
0.0
  0
LINE
  5
253
  8
1
  6
CONTINUOUS
 62
     7
 10
275.725495034
 20
32.3339596941
 30
0.0
 11
275.725495034
 21
194.3339596941
 31
0.0
  0
ARC
  5
254
  8
1
  6
CONTINUOUS
 62
     7
 10
554.725495034
 20
-72.1660403059
 30
0.0
 40
8.0
 50
270.0
 51
0.0
  0
CIRCLE
  5
255
  8
1
  6
CONTINUOUS
 62
     7
 10
267.725495034
 20
22.3339596941
 30
0.0
 40
4.0
  0
LINE
  5
256
  8
1
  6
CONTINUOUS
 62
     7
 10
368.225495034
 20
-49.1660403059
 30
0.0
 11
368.225495034
 21
-80.1660403059
 31
0.0
  0
ARC
  5
257
  8
1
  6
CONTINUOUS
 62
     7
 10
291.725495034
 20
-72.1660403059
 30
0.0
 40
16.0
 50
180.0
 51
270.0
  0
LINE
  5
258
  8
1
  6
CONTINUOUS
 62
     7
 10
368.225495034
 20
180.8339596941
 30
0.0
 11
368.225495034
 21
149.8339596941
 31
0.0
  0
LINE
  5
259
  8
1
  6
CONTINUOUS
 62
     7
 10
265.725495034
 20
32.3339596941
 30
0.0
 11
275.725495034
 21
32.3339596941
 31
0.0
  0
LINE
  5
25A
  8
1
  6
CONTINUOUS
 62
     7
 10
478.225495034
 20
-49.1660403059
 30
0.0
 11
463.225495034
 21
-49.1660403059
 31
0.0
  0
LINE
  5
25B
  8
1
  6
CONTINUOUS
 62
     7
 10
327.725495034
 20
157.8339596941
 30
0.0
 11
368.225495034
 21
157.8339596941
 31
0.0
  0
LINE
  5
25C
  8
1
  6
CONTINUOUS
 62
     7
 10
478.225495034
 20
-80.1660403059
 30
0.0
 11
478.225495034
 21
-49.1660403059
 31
0.0
  0
LINE
  5
25D
  8
1
  6
CONTINUOUS
 62
     7
 10
383.225495034
 20
-80.1660403059
 30
0.0
 11
383.225495034
 21
-49.1660403059
 31
0.0
  0
LINE
  5
25E
  8
1
  6
CONTINUOUS
 62
     7
 10
570.725495034
 20
192.3339596941
 30
0.0
 11
567.725495034
 21
191.3339596941
 31
0.0
  0
LINE
  5
25F
  8
1
  6
CONTINUOUS
 62
     7
 10
425.725495034
 20
165.164086713
 30
0.0
 11
425.725495034
 21
170.8339596941
 31
0.0
  0
LINE
  5
260
  8
1
  6
CONTINUOUS
 62
     7
 10
420.725495034
 20
170.8339596941
 30
0.0
 11
420.725495034
 21
165.164086713
 31
0.0
  0
LINE
  5
261
  8
1
  6
CONTINUOUS
 62
     7
 10
450.225495034
 20
-80.1660403059
 30
0.0
 11
450.225495034
 21
-49.1660403059
 31
0.0
  0
LINE
  5
262
  8
1
  6
CONTINUOUS
 62
     7
 10
448.225495034
 20
-78.1660403059
 30
0.0
 11
448.225495034
 21
-51.1660403059
 31
0.0
  0
LINE
  5
263
  8
1
  6
CONTINUOUS
 62
     7
 10
429.225495034
 20
-78.1660403059
 30
0.0
 11
429.225495034
 21
-51.1660403059
 31
0.0
  0
ARC
  5
264
  8
1
  6
CONTINUOUS
 62
     7
 10
518.725495034
 20
-39.1660403059
 30
0.0
 40
20.0
 50
270.0
 51
0.0
  0
ARC
  5
265
  8
1
  6
CONTINUOUS
 62
     7
 10
423.225495034
 20
170.8339596941
 30
0.0
 40
2.5
 50
0.0
 51
180.0
  0
LINE
  5
266
  8
1
  6
CONTINUOUS
 62
     7
 10
554.725495034
 20
-88.1660403059
 30
0.0
 11
291.725495034
 21
-88.1660403059
 31
0.0
  0
LINE
  5
267
  8
1
  6
CONTINUOUS
 62
     7
 10
538.725495034
 20
137.8339596941
 30
0.0
 11
538.725495034
 21
-39.16604030589998
 31
0.0
  0
LINE
  5
268
  8
1
  6
CONTINUOUS
 62
     7
 10
398.225495034
 20
-51.1660403059
 30
0.0
 11
398.225495034
 21
-78.1660403059
 31
0.0
  0
ARC
  5
269
  8
1
  6
CONTINUOUS
 62
     7
 10
327.725495034
 20
-39.1660403059
 30
0.0
 40
20.0
 50
180.0
 51
270.0
  0
LINE
  5
26A
  8
1
  6
CONTINUOUS
 62
     7
 10
368.225495034
 20
149.8339596941
 30
0.0
 11
383.225495034
 21
149.8339596941
 31
0.0
  0
CIRCLE
  5
26B
  8
1
  6
CONTINUOUS
 62
     7
 10
333.225495034
 20
-6.6660403059
 30
0.0
 40
2.5
  0
LINE
  5
26C
  8
1
  6
CONTINUOUS
 62
     7
 10
400.725495034
 20
-88.1660403059
 30
0.0
 11
400.725495034
 21
-82.1660403059
 31
0.0
  0
LINE
  5
26D
  8
1
  6
CONTINUOUS
 62
     7
 10
448.225495034
 20
-51.1660403059
 30
0.0
 11
398.225495034
 21
-51.1660403059
 31
0.0
  0
LINE
  5
26E
  8
1
  6
CONTINUOUS
 62
     7
 10
554.725495034
 20
-80.1660403059
 30
0.0
 11
291.725495034
 21
-80.1660403059
 31
0.0
  0
LINE
  5
26F
  8
1
  6
CONTINUOUS
 62
     7
 10
275.725495034
 20
191.3339596941
 30
0.0
 11
567.725495034
 21
191.3339596941
 31
0.0
  0
ARC
  5
270
  8
1
  6
CONTINUOUS
 62
     7
 10
291.725495034
 20
-72.1660403059
 30
0.0
 40
8.0
 50
180.0
 51
270.0
  0
ARC
  5
271
  8
1
  6
CONTINUOUS
 62
     7
 10
554.725495034
 20
-72.1660403059
 30
0.0
 40
16.0
 50
270.0
 51
0.0
  0
LINE
  5
272
  8
1
  6
CONTINUOUS
 62
     7
 10
383.225495034
 20
149.8339596941
 30
0.0
 11
383.225495034
 21
180.8339596941
 31
0.0
  0
ARC
  5
273
  8
1
  6
CONTINUOUS
 62
     7
 10
291.725495034
 20
170.4729081108
 30
0.0
 40
8.0
 50
92.8864185439
 51
180.0
  0
LINE
  5
274
  8
1
  6
CONTINUOUS
 62
     7
 10
570.725495034
 20
194.3339596941
 30
0.0
 11
570.725495034
 21
-72.16604030590001
 31
0.0
  0
LINE
  5
275
  8
1
  6
CONTINUOUS
 62
     7
 10
327.725495034
 20
-59.1660403059
 30
0.0
 11
368.225495034
 21
-59.1660403059
 31
0.0
  0
LINE
  5
276
  8
1
  6
CONTINUOUS
 62
     7
 10
307.725495034
 20
-39.1660403059
 30
0.0
 11
307.725495034
 21
137.8339596941
 31
0.0
  0
CIRCLE
  5
277
  8
1
  6
CONTINUOUS
 62
     7
 10
423.225495034
 20
-6.6660403059
 30
0.0
 40
2.5
  0
LINE
  5
278
  8
1
  6
CONTINUOUS
 62
     7
 10
570.725495034
 20
194.3339596941
 30
0.0
 11
275.725495034
 21
194.3339596941
 31
0.0
  0
LINE
  5
279
  8
1
  6
CONTINUOUS
 62
     7
 10
562.725495034
 20
170.4729081108
 30
0.0
 11
562.725495034
 21
-72.16604030590001
 31
0.0
  0
LINE
  5
27A
  8
1
  6
CONTINUOUS
 62
     7
 10
445.725495034
 20
-88.1660403059
 30
0.0
 11
445.725495034
 21
-82.1660403059
 31
0.0
  0
CIRCLE
  5
27B
  8
1
  6
CONTINUOUS
 62
     7
 10
423.225495034
 20
-64.1660403059
 30
0.0
 40
2.5
  0
CIRCLE
  5
27C
  8
1
  6
CONTINUOUS
 62
     7
 10
333.225495034
 20
113.3339596941
 30
0.0
 40
2.5
  0
LINE
  5
27D
  8
1
  6
CONTINUOUS
 62
     7
 10
444.725495034
 20
-82.1660403059
 30
0.0
 11
444.725495034
 21
-88.1660403059
 31
0.0
  0
LINE
  5
27E
  8
1
  6
CONTINUOUS
 62
     7
 10
450.225495034
 20
-49.1660403059
 30
0.0
 11
396.225495034
 21
-49.1660403059
 31
0.0
  0
LINE
  5
27F
  8
1
  6
CONTINUOUS
 62
     7
 10
396.225495034
 20
-49.1660403059
 30
0.0
 11
396.225495034
 21
-80.1660403059
 31
0.0
  0
LINE
  5
280
  8
1
  6
CONTINUOUS
 62
     7
 10
417.225495034
 20
-51.1660403059
 30
0.0
 11
417.225495034
 21
-78.1660403059
 31
0.0
  0
LINE
  5
281
  8
1
  6
CONTINUOUS
 62
     7
 10
1198.4985066257
 20
108.3339596941
 30
0.0
 11
1198.4985066257
 21
103.3339596941
 31
0.0
  0
ARC
  5
282
  8
1
  6
CONTINUOUS
 62
     7
 10
1093.8133232873
 20
110.8696134469
 30
0.0
 40
20.0
 50
328.2116693829
 51
0.0
  0
LINE
  5
283
  8
1
  6
CONTINUOUS
 62
     7
 10
1135.8133232873
 20
137.3339596941
 30
0.0
 11
1190.3133232873
 21
137.3339596941
 31
0.0
  0
ARC
  5
284
  8
1
  6
CONTINUOUS
 62
     7
 10
1162.8133232873
 20
-87.6660403059
 30
0.0
 40
1.0
 50
180.0
 51
270.0
  0
LINE
  5
285
  8
1
  6
CONTINUOUS
 62
     7
 10
1190.3133232873
 20
137.3339596941
 30
0.0
 11
1190.3133232873
 21
141.3339596941
 31
0.0
  0
LINE
  5
286
  8
1
  6
CONTINUOUS
 62
     7
 10
1179.3633232873
 20
128.3339596941
 30
0.0
 11
1179.3633232873
 21
126.3339596941
 31
0.0
  0
LINE
  5
287
  8
1
  6
CONTINUOUS
 62
     7
 10
1190.3133232873
 20
126.3339596941
 30
0.0
 11
1190.3133232873
 21
132.3339596941
 31
0.0
  0
LINE
  5
288
  8
1
  6
CONTINUOUS
 62
     7
 10
1190.3133232873
 20
132.3339596941
 30
0.0
 11
1135.8133232873
 21
132.3339596941
 31
0.0
  0
LINE
  5
289
  8
1
  6
CONTINUOUS
 62
     7
 10
1135.8133232873
 20
132.3339596941
 30
0.0
 11
1135.8133232873
 21
128.3339596941
 31
0.0
  0
LINE
  5
28A
  8
1
  6
CONTINUOUS
 62
     7
 10
1177.8133232873
 20
194.3339596941
 30
0.0
 11
1155.8133232873
 21
194.3339596941
 31
0.0
  0
ARC
  5
28B
  8
1
  6
CONTINUOUS
 62
     7
 10
1177.8133232873
 20
193.3339596941
 30
0.0
 40
1.0
 50
0.0
 51
90.0
  0
ARC
  5
28C
  8
1
  6
CONTINUOUS
 62
     7
 10
1179.3133232873
 20
-85.6477315415
 30
0.0
 40
0.5
 50
92.13691085379999
 51
180.0
  0
LINE
  5
28D
  8
1
  6
CONTINUOUS
 62
     7
 10
1186.7633232873
 20
137.3339596941
 30
0.0
 11
1186.7633232873
 21
132.3339596941
 31
0.0
  0
ARC
  5
28E
  8
1
  6
CONTINUOUS
 62
     7
 10
1179.3133232873
 20
186.3156509297
 30
0.0
 40
0.5
 50
180.0
 51
267.8630891462
  0
LINE
  5
28F
  8
1
  6
CONTINUOUS
 62
     7
 10
1162.8133232873
 20
189.3339596941
 30
0.0
 11
1175.8133232873
 21
189.3339596941
 31
0.0
  0
LINE
  5
290
  8
1
  6
CONTINUOUS
 62
     7
 10
1118.0967492463
 20
184.5325184731
 30
0.0
 11
1161.8133232873
 21
188.3339596941
 31
0.0
  0
LINE
  5
291
  8
1
  6
CONTINUOUS
 62
     7
 10
1118.0967492463
 20
-83.864599085
 30
0.0
 11
1161.8133232873
 21
-87.6660403059
 31
0.0
  0
LINE
  5
292
  8
1
  6
CONTINUOUS
 62
     7
 10
1113.8133232873
 20
178.3339596941
 30
0.0
 11
1115.8133232873
 21
179.3339596941
 31
0.0
  0
LINE
  5
293
  8
1
  6
CONTINUOUS
 62
     7
 10
1178.8133232873
 20
-4.6660403059
 30
0.0
 11
1178.8133232873
 21
103.3339596941
 31
0.0
  0
LINE
  5
294
  8
1
  6
CONTINUOUS
 62
     7
 10
1198.4985066257
 20
103.3339596941
 30
0.0
 11
1175.8133232873
 21
103.3339596941
 31
0.0
  0
LINE
  5
295
  8
1
  6
CONTINUOUS
 62
     7
 10
1178.8133232873
 20
-88.1660403059
 30
0.0
 11
1178.8133232873
 21
-39.6660403059
 31
0.0
  0
LINE
  5
296
  8
1
  6
CONTINUOUS
 62
     7
 10
1162.8133232873
 20
-88.6660403059
 30
0.0
 11
1175.8133232873
 21
-88.6660403059
 31
0.0
  0
ARC
  5
297
  8
1
  6
CONTINUOUS
 62
     7
 10
1118.3133232873
 20
-81.3739976145
 30
0.0
 40
2.5
 50
180.0
 51
265.0302592719
  0
LINE
  5
298
  8
1
  6
CONTINUOUS
 62
     7
 10
1175.8133232873
 20
190.3339596941
 30
0.0
 11
1175.8133232873
 21
141.3339596941
 31
0.0
  0
ARC
  5
299
  8
1
  6
CONTINUOUS
 62
     7
 10
1242.8133232873
 20
180.4438122806
 30
0.0
 40
3.0
 50
0.0
 51
87.8630891462
  0
LINE
  5
29A
  8
1
  6
CONTINUOUS
 62
     7
 10
1178.8133232873
 20
136.3339596941
 30
0.0
 11
1184.5633232873
 21
136.3339596941
 31
0.0
  0
LINE
  5
29B
  8
1
  6
CONTINUOUS
 62
     7
 10
1178.8133232873
 20
108.3339596941
 30
0.0
 11
1178.8133232873
 21
121.3339596941
 31
0.0
  0
LINE
  5
29C
  8
1
  6
CONTINUOUS
 62
     7
 10
1115.8133232873
 20
-81.3739976145
 30
0.0
 11
1115.8133232873
 21
182.0419170027
 31
0.0
  0
LINE
  5
29D
  8
1
  6
CONTINUOUS
 62
     7
 10
1114.0897164895
 20
-77.804236907
 30
0.0
 11
1115.8133232873
 21
-78.6660403059
 31
0.0
  0
ARC
  5
29E
  8
1
  6
CONTINUOUS
 62
     7
 10
1118.3133232873
 20
182.0419170027
 30
0.0
 40
2.5
 50
94.96974072810002
 51
180.0
  0
LINE
  5
29F
  8
1
  6
CENTER
 62
     4
 10
1102.3136025251
 20
50.3339596941
 30
0.0
 11
1250.7320302028
 21
50.3339596941
 31
0.0
  0
LINE
  5
2A0
  8
1
  6
CONTINUOUS
 62
     7
 10
1178.8133232873
 20
141.3339596941
 30
0.0
 11
1178.8133232873
 21
193.3339596941
 31
0.0
  0
LINE
  5
2A1
  8
1
  6
CONTINUOUS
 62
     7
 10
1245.8133232873
 20
-79.7758928924
 30
0.0
 11
1245.8133232873
 21
180.4438122806
 31
0.0
  0
LINE
  5
2A2
  8
1
  6
CONTINUOUS
 62
     7
 10
1113.8133232873
 20
110.8696134469
 30
0.0
 11
1113.8133232873
 21
178.3339596941
 31
0.0
  0
LINE
  5
2A3
  8
1
  6
CONTINUOUS
 62
     7
 10
1198.4985066257
 20
121.3339596941
 30
0.0
 11
1175.8133232873
 21
121.3339596941
 31
0.0
  0
LINE
  5
2A4
  8
1
  6
CONTINUOUS
 62
     7
 10
1179.2946795451
 20
185.8159986397
 30
0.0
 11
1242.9251857402
 21
183.4417260205
 31
0.0
  0
LINE
  5
2A5
  8
1
  6
CONTINUOUS
 62
     7
 10
1242.9251857402
 20
-82.7738066323
 30
0.0
 11
1179.2946795451
 21
-85.1480792515
 31
0.0
  0
LINE
  5
2A6
  8
1
  6
CONTINUOUS
 62
     7
 10
1110.8133232873
 20
100.3339596941
 30
0.0
 11
1110.8133232873
 21
0.3339596940999945
 31
0.0
  0
LINE
  5
2A7
  8
1
  6
CONTINUOUS
 62
     7
 10
1175.8133232873
 20
-88.1660403059
 30
0.0
 11
1178.8133232873
 21
-88.1660403059
 31
0.0
  0
LINE
  5
2A8
  8
1
  6
CONTINUOUS
 62
     7
 10
1154.8133232873
 20
193.3339596941
 30
0.0
 11
1154.8133232873
 21
191.3339596941
 31
0.0
  0
ARC
  5
2A9
  8
1
  6
CONTINUOUS
 62
     7
 10
1155.8133232873
 20
193.3339596941
 30
0.0
 40
1.0
 50
90.0
 51
180.0
  0
LINE
  5
2AA
  8
1
  6
CONTINUOUS
 62
     7
 10
1174.8133232873
 20
191.3339596941
 30
0.0
 11
1154.8133232873
 21
191.3339596941
 31
0.0
  0
LINE
  5
2AB
  8
1
  6
CONTINUOUS
 62
     7
 10
1181.5633232873
 20
133.3339596941
 30
0.0
 11
1181.5633232873
 21
136.3339596941
 31
0.0
  0
LINE
  5
2AC
  8
1
  6
CONTINUOUS
 62
     7
 10
1184.5633232873
 20
136.3339596941
 30
0.0
 11
1184.5633232873
 21
133.3339596941
 31
0.0
  0
ARC
  5
2AD
  8
1
  6
CONTINUOUS
 62
     7
 10
1162.8133232873
 20
188.3339596941
 30
0.0
 40
1.0
 50
90.0
 51
180.0
  0
ARC
  5
2AE
  8
1
  6
CONTINUOUS
 62
     7
 10
1114.3133232873
 20
-77.3570233115
 30
0.0
 40
0.5
 50
180.0
 51
243.4349488229
  0
LINE
  5
2AF
  8
1
  6
CONTINUOUS
 62
     7
 10
1198.4985066257
 20
126.3339596941
 30
0.0
 11
1198.4985066257
 21
121.3339596941
 31
0.0
  0
LINE
  5
2B0
  8
1
  6
CONTINUOUS
 62
     7
 10
1184.5633232873
 20
133.3339596941
 30
0.0
 11
1178.8133232873
 21
133.3339596941
 31
0.0
  0
LINE
  5
2B1
  8
1
  6
CONTINUOUS
 62
     7
 10
1190.3133232873
 20
141.3339596941
 30
0.0
 11
1135.8133232873
 21
141.3339596941
 31
0.0
  0
ARC
  5
2B2
  8
1
  6
CONTINUOUS
 62
     7
 10
1242.8133232873
 20
-79.7758928924
 30
0.0
 40
3.0
 50
272.1369108538
 51
0.0
  0
LINE
  5
2B3
  8
1
  6
CONTINUOUS
 62
     7
 10
1135.8133232873
 20
128.3339596941
 30
0.0
 11
1183.0633232873
 21
128.3339596941
 31
0.0
  0
LINE
  5
2B4
  8
1
  6
CONTINUOUS
 62
     7
 10
1113.8133232873
 20
-77.3570233115
 30
0.0
 11
1113.8133232873
 21
-10.2016940588
 31
0.0
  0
ARC
  5
2B5
  8
1
  6
CONTINUOUS
 62
     7
 10
1174.8133232873
 20
190.3339596941
 30
0.0
 40
1.0
 50
0.0
 51
90.0
  0
LINE
  5
2B6
  8
1
  6
CONTINUOUS
 62
     7
 10
1135.8133232873
 20
141.3339596941
 30
0.0
 11
1135.8133232873
 21
137.3339596941
 31
0.0
  0
LINE
  5
2B7
  8
1
  6
CONTINUOUS
 62
     7
 10
1175.8133232873
 20
126.3339596941
 30
0.0
 11
1198.4985066257
 21
126.3339596941
 31
0.0
  0
LINE
  5
2B8
  8
1
  6
CONTINUOUS
 62
     7
 10
1175.8133232873
 20
108.3339596941
 30
0.0
 11
1198.4985066257
 21
108.3339596941
 31
0.0
  0
LINE
  5
2B9
  8
1
  6
CONTINUOUS
 62
     7
 10
1026.0323193938
 20
126.3339596941
 30
0.0
 11
1010.7823193938
 21
126.3339596941
 31
0.0
  0
LINE
  5
2BA
  8
1
  6
CONTINUOUS
 62
     7
 10
435.8871812059
 20
72.3339596941
 30
0.0
 11
425.3871812059
 21
72.3339596941
 31
0.0
  0
LINE
  5
2BB
  8
1
  6
CONTINUOUS
 62
     7
 10
410.5871812058
 20
114.8339596941
 30
0.0
 11
401.1871812058
 21
114.8339596941
 31
0.0
  0
LINE
  5
2BC
  8
1
  6
CONTINUOUS
 62
     7
 10
454.3871812059
 20
72.3339596941
 30
0.0
 11
442.3871812059
 21
72.3339596941
 31
0.0
  0
LINE
  5
2BD
  8
1
  6
CONTINUOUS
 62
     7
 10
435.8871812057
 20
101.3339596941
 30
0.0
 11
443.8871812059
 21
101.3339596941
 31
0.0
  0
LINE
  5
2BE
  8
1
  6
CENTER
 62
     7
 10
422.8871812059
 20
144.3588251043
 30
0.0
 11
422.8871812059
 21
67.2841492085
 31
0.0
  0
CIRCLE
  5
2BF
  8
1
  6
CONTINUOUS
 62
     7
 10
415.3871812059
 20
133.5839596941
 30
0.0
 40
4.0
  0
ARC
  5
2C0
  8
1
  6
CONTINUOUS
 62
     7
 10
435.8871812059
 20
109.833959702
 30
0.0
 40
0.5
 50
89.9999999998
 51
180.0
  0
CIRCLE
  5
2C1
  8
1
  6
DASHED
 62
     7
 10
430.3871812059
 20
78.0839596941
 30
0.0
 40
4.0
  0
CIRCLE
  5
2C3
  8
1
  6
DASHED
 62
     7
 10
439.8871812059
 20
82.8339596941
 30
0.0
 40
2.8
  0
LINE
  5
2C4
  8
1
  6
CONTINUOUS
 62
     6
 10
425.3871812059
 20
71.8339596941
 30
0.0
 11
425.3871812059
 21
83.8339596941
 31
0.0
  0
LINE
  5
2C5
  8
1
  6
CONTINUOUS
 62
     7
 10
454.3871812059
 20
84.8339596941
 30
0.0
 11
454.3871812059
 21
72.3339596941
 31
0.0
  0
ARC
  5
2C6
  8
1
  6
CONTINUOUS
 62
     7
 10
435.8871812057
 20
101.8339596941
 30
0.0
 40
0.5
 50
180.0
 51
270.0
  0
LINE
  5
2C7
  8
1
  6
CONTINUOUS
 62
     3
 10
504.725495034
 20
140.8339596941
 30
0.0
 11
504.725495034
 21
70.8339596941
 31
0.0
  0
ARC
  5
2C8
  8
1
  6
CONTINUOUS
 62
     3
 10
524.725495034
 20
76.3339596941
 30
0.0
 40
2.0
 50
0.0
 51
90.0
  0
ARC
  5
2C9
  8
1
  6
CONTINUOUS
 62
     3
 10
517.725495034
 20
71.8339596941
 30
0.0
 40
1.0
 50
270.0
 51
0.0
  0
LINE
  5
2CA
  8
1
  6
CONTINUOUS
 62
     7
 10
401.1871812058
 20
96.833959694
 30
0.0
 11
401.1871812058
 21
114.8339596941
 31
0.0
  0
CIRCLE
  5
2CB
  8
1
  6
CONTINUOUS
 62
     2
 10
439.8871812059
 20
75.8339596941
 30
0.0
 40
4.0
  0
LINE
  5
2CC
  8
1
  6
CONTINUOUS
 62
     3
 10
506.725495034
 20
70.8339596941
 30
0.0
 11
506.725495034
 21
140.8339596941
 31
0.0
  0
ARC
  5
2CD
  8
1
  6
CONTINUOUS
 62
     6
 10
455.8871812059
 20
71.8339596941
 30
0.0
 40
1.0
 50
270.0
 51
0.0
  0
LINE
  5
2CE
  8
1
  6
CONTINUOUS
 62
     3
 10
526.725495034
 20
71.8339596941
 30
0.0
 11
526.725495034
 21
76.3339596941
 31
0.0
  0
ARC
  5
2CF
  8
1
  6
CONTINUOUS
 62
     3
 10
527.725495034
 20
139.8339596941
 30
0.0
 40
1.0
 50
90.0
 51
180.0
  0
LINE
  5
2D0
  8
1
  6
CONTINUOUS
 62
     3
 10
524.4136893356
 20
127.8339596941
 30
0.0
 11
538.725495034
 21
127.8339596941
 31
0.0
  0
LINE
  5
2D1
  8
1
  6
CONTINUOUS
 62
     6
 10
426.3871812059
 20
84.8339596941
 30
0.0
 11
435.8560523317
 21
84.8339596941
 31
0.0
  0
ARC
  5
2D2
  8
1
  6
CONTINUOUS
 62
     7
 10
522.725495034
 20
130.4339596941
 30
0.0
 40
3.1
 50
237.0041145264
 51
302.9958854736
  0
CIRCLE
  5
2D3
  8
1
  6
CONTINUOUS
 62
     7
 10
396.3871812059
 20
133.5839596941
 30
0.0
 40
4.0
  0
ARC
  5
2D4
  8
1
  6
CONTINUOUS
 62
     3
 10
527.725495034
 20
71.8339596941
 30
0.0
 40
1.0
 50
180.0
 51
270.0
  0
LINE
  5
2D5
  8
1
  6
CONTINUOUS
 62
     3
 10
472.725495034
 20
140.8339596941
 30
0.0
 11
504.725495034
 21
140.8339596941
 31
0.0
  0
ARC
  5
2D6
  8
1
  6
CONTINUOUS
 62
     3
 10
524.725495034
 20
135.3339596941
 30
0.0
 40
2.0
 50
270.0
 51
0.0
  0
LINE
  5
2D7
  8
1
  6
CONTINUOUS
 62
     3
 10
526.725495034
 20
139.8339596941
 30
0.0
 11
526.725495034
 21
135.3339596941
 31
0.0
  0
LINE
  5
2D8
  8
1
  6
CONTINUOUS
 62
     7
 10
402.1871812058
 20
96.833959694
 30
0.0
 11
401.1871812058
 21
96.833959694
 31
0.0
  0
LINE
  5
2D9
  8
1
  6
CONTINUOUS
 62
     3
 10
524.725495034
 20
78.3339596941
 30
0.0
 11
520.725495034
 21
78.3339596941
 31
0.0
  0
LINE
  5
2DA
  8
1
  6
CONTINUOUS
 62
     3
 10
506.725495034
 20
127.8339596941
 30
0.0
 11
521.0373007324
 21
127.8339596941
 31
0.0
  0
LINE
  5
2DB
  8
1
  6
CONTINUOUS
 62
     3
 10
504.725495034
 20
70.8339596941
 30
0.0
 11
472.725495034
 21
70.8339596941
 31
0.0
  0
ARC
  5
2DC
  8
1
  6
CONTINUOUS
 62
     6
 10
439.8871812059
 20
82.8339596941
 30
0.0
 40
4.5
 50
26.3877999612
 51
153.6122000388
  0
ARC
  5
2DD
  8
1
  6
CONTINUOUS
 62
     6
 10
389.8871812059
 20
71.8339596941
 30
0.0
 40
1.0
 50
180.0
 51
270.0
  0
ARC
  5
2DE
  8
1
  6
CONTINUOUS
 62
     7
 10
443.8871812059
 20
101.8339596941
 30
0.0
 40
0.5
 50
270.0
 51
0.0
  0
LINE
  5
2DF
  8
1
  6
CONTINUOUS
 62
     7
 10
443.8871812059
 20
70.8339596941
 30
0.0
 11
443.8871812059
 21
75.8339596941
 31
0.0
  0
ARC
  5
2E0
  8
1
  6
CONTINUOUS
 62
     6
 10
389.8871812059
 20
139.8339596941
 30
0.0
 40
1.0
 50
90.0
 51
180.0
  0
ARC
  5
2E1
  8
1
  6
CONTINUOUS
 62
     7
 10
443.8871812059
 20
109.8339596941
 30
0.0
 40
0.5
 50
0.0
 51
90.0
  0
LINE
  5
2E2
  8
1
  6
CONTINUOUS
 62
     7
 10
409.8871812059
 20
139.3339596941
 30
0.0
 11
420.3871812059
 21
139.3339596941
 31
0.0
  0
LINE
  5
2E3
  8
1
  6
CONTINUOUS
 62
     3
 10
506.725495034
 20
140.8339596941
 30
0.0
 11
538.725495034
 21
140.8339596941
 31
0.0
  0
CIRCLE
  5
2E4
  8
1
  6
CONTINUOUS
 62
     7
 10
405.8871812059
 20
128.8339596941
 30
0.0
 40
2.8
  0
ARC
  5
2E5
  8
1
  6
CONTINUOUS
 62
     6
 10
455.8871812059
 20
139.8339596941
 30
0.0
 40
1.0
 50
0.0
 51
90.0
  0
ARC
  5
2E6
  8
1
  6
CONTINUOUS
 62
     7
 10
439.8871812059
 20
75.8339596941
 30
0.0
 40
4.0
 50
0.0
 51
180.0
  0
LINE
  5
2E7
  8
1
  6
CONTINUOUS
 62
     3
 10
506.725495034
 20
87.8339596941
 30
0.0
 11
538.725495034
 21
87.8339596941
 31
0.0
  0
ARC
  5
2E8
  8
1
  6
CONTINUOUS
 62
     6
 10
424.3871812059
 20
71.8339596941
 30
0.0
 40
1.0
 50
270.0
 51
0.0
  0
CIRCLE
  5
2E9
  8
1
  6
CONTINUOUS
 62
     3
 10
532.225495034
 20
77.3339596941
 30
0.0
 40
3.5
  0
CIRCLE
  5
2EA
  8
1
  6
CONTINUOUS
 62
     2
 10
405.8871812058
 20
135.8339596941
 30
0.0
 40
4.0
  0
ARC
  5
2EB
  8
1
  6
CONTINUOUS
 62
     6
 10
426.3871812059
 20
83.8339596941
 30
0.0
 40
1.0
 50
90.0
 51
180.0
  0
LINE
  5
2EC
  8
1
  6
CONTINUOUS
 62
     7
 10
443.8871812059
 20
110.3339596941
 30
0.0
 11
435.8871812059
 21
110.3339596941
 31
0.0
  0
CIRCLE
  5
2ED
  8
1
  6
DASHED
 62
     7
 10
449.3871812059
 20
78.0839596941
 30
0.0
 40
4.0
  0
LINE
  5
2EE
  8
1
  6
CONTINUOUS
 62
     7
 10
402.1871812058
 20
91.3339596941
 30
0.0
 11
409.5871812058
 21
91.3339596941
 31
0.0
  0
LINE
  5
2EF
  8
1
  6
CONTINUOUS
 62
     7
 10
435.8871812059
 20
70.8339596941
 30
0.0
 11
435.8871812059
 21
75.8339596941
 31
0.0
  0
LINE
  5
2F0
  8
1
  6
CONTINUOUS
 62
     6
 10
455.8871812059
 20
84.8339596941
 30
0.0
 11
443.91831008
 21
84.8339596941
 31
0.0
  0
LINE
  5
2F1
  8
1
  6
CONTINUOUS
 62
     7
 10
391.3871812059
 20
139.3339596941
 30
0.0
 11
401.8871812059
 21
139.3339596941
 31
0.0
  0
LINE
  5
2F2
  8
1
  6
CONTINUOUS
 62
     3
 10
538.725495034
 20
140.8339596941
 30
0.0
 11
538.725495034
 21
70.8339596941
 31
0.0
  0
LINE
  5
2F3
  8
1
  6
CONTINUOUS
 62
     3
 10
538.725495034
 20
70.8339596941
 30
0.0
 11
506.725495034
 21
70.8339596941
 31
0.0
  0
LINE
  5
2F4
  8
1
  6
CONTINUOUS
 62
     7
 10
444.3871812059
 20
101.8339596941
 30
0.0
 11
444.3871812059
 21
109.8339596941
 31
0.0
  0
LINE
  5
2F5
  8
1
  6
CONTINUOUS
 62
     3
 10
472.725495034
 20
70.8339596941
 30
0.0
 11
472.725495034
 21
140.8339596941
 31
0.0
  0
LINE
  5
2F6
  8
1
  6
CONTINUOUS
 62
     7
 10
391.3871812059
 20
126.8339596941
 30
0.0
 11
391.3871812059
 21
139.3339596941
 31
0.0
  0
LINE
  5
2F7
  8
1
  6
CONTINUOUS
 62
     3
 10
472.725495034
 20
87.8339596941
 30
0.0
 11
504.725495034
 21
87.8339596941
 31
0.0
  0
ARC
  5
2F8
  8
1
  6
CONTINUOUS
 62
     3
 10
520.725495034
 20
76.3339596941
 30
0.0
 40
2.0
 50
90.0
 51
180.0
  0
LINE
  5
2F9
  8
1
  6
CONTINUOUS
 62
     3
 10
518.725495034
 20
71.8339596941
 30
0.0
 11
518.725495034
 21
76.3339596941
 31
0.0
  0
LINE
  5
2FA
  8
1
  6
CONTINUOUS
 62
     7
 10
435.3871812059
 20
101.8339596941
 30
0.0
 11
435.3871812059
 21
109.833959702
 31
0.0
  0
LINE
  5
2FB
  8
1
  6
CONTINUOUS
 62
     3
 10
506.725495034
 20
83.8339596941
 30
0.0
 11
521.0373007324
 21
83.8339596941
 31
0.0
  0
ARC
  5
2FC
  8
1
  6
CONTINUOUS
 62
     3
 10
520.725495034
 20
135.3339596941
 30
0.0
 40
2.0
 50
180.0
 51
270.0
  0
ARC
  5
2FD
  8
1
  6
CONTINUOUS
 62
     7
 10
513.225495034
 20
77.3339596941
 30
0.0
 40
5.3
 50
180.0
 51
270.0
  0
LINE
  5
2FE
  8
1
  6
CONTINUOUS
 62
     3
 10
519.325495034
 20
112.8339596941
 30
0.0
 11
526.125495034
 21
112.8339596941
 31
0.0
  0
ARC
  5
2FF
  8
1
  6
CONTINUOUS
 62
     7
 10
507.725495034
 20
147.2696312255
 30
0.0
 40
7.0
 50
0.0
 51
90.0
  0
CIRCLE
  5
300
  8
1
  6
CONTINUOUS
 62
     3
 10
513.225495034
 20
134.3339596941
 30
0.0
 40
3.5
  0
ARC
  5
301
  8
1
  6
CONTINUOUS
 62
     7
 10
526.725495034
 20
154.3225482931
 30
0.0
 40
7.0
 50
0.0
 51
90.0
  0
ARC
  5
302
  8
1
  6
CONTINUOUS
 62
     7
 10
476.725495034
 20
65.3690342054
 30
0.0
 40
1.0
 50
289.9999999999999
 51
0.0
  0
ARC
  5
303
  8
1
  6
CONTINUOUS
 62
     7
 10
477.725495034
 20
64.6688266672
 30
0.0
 40
3.0
 50
289.9999999999999
 51
0.0
  0
ARC
  5
304
  8
1
  6
CONTINUOUS
 62
     7
 10
532.2254950339
 20
77.3339596941
 30
0.0
 40
5.3
 50
270.0
 51
0.0
  0
CIRCLE
  5
305
  8
1
  6
CONTINUOUS
 62
     7
 10
537.225495034
 20
139.3339596941
 30
0.0
 40
1.25
  0
ARC
  5
306
  8
1
  6
CONTINUOUS
 62
     7
 10
495.725495034
 20
68.0277575666
 30
0.0
 40
1.0
 50
289.9999999999999
 51
0.0
  0
ARC
  5
307
  8
1
  6
CONTINUOUS
 62
     7
 10
496.725495034
 20
67.3275500284
 30
0.0
 40
3.0
 50
289.9999999999999
 51
0.0
  0
ARC
  5
308
  8
1
  6
CONTINUOUS
 62
     7
 10
532.2254950339
 20
134.3339596941
 30
0.0
 40
5.3
 50
0.0
 51
90.0
  0
ARC
  5
309
  8
1
  6
CONTINUOUS
 62
     7
 10
450.0971617335
 20
54.5687387298
 30
0.0
 40
2.0
 50
90.0
 51
180.0
  0
ARC
  5
30A
  8
1
  6
CONTINUOUS
 62
     7
 10
497.8471626335
 20
54.5687387298
 30
0.0
 40
2.0
 50
0.0
 51
90.0
  0
LINE
  5
30B
  8
1
  6
CONTINUOUS
 62
     3
 10
519.325495034
 20
91.0137747758
 30
0.0
 11
519.325495034
 21
114.8339596941
 31
0.0
  0
LINE
  5
30C
  8
1
  6
CONTINUOUS
 62
     7
 10
532.2254950339
 20
72.0339596941
 30
0.0
 11
526.725495034
 21
72.0339596941
 31
0.0
  0
LINE
  5
30D
  8
1
  6
CONTINUOUS
 62
     7
 10
507.9254950339999
 20
77.3339596941
 30
0.0
 11
507.9254950339999
 21
83.8339596941
 31
0.0
  0
LINE
  5
30E
  8
1
  6
CONTINUOUS
 62
     3
 10
526.1254950339
 20
91.0137747758
 30
0.0
 11
519.3254950339
 21
91.0137747758
 31
0.0
  0
CIRCLE
  5
30F
  8
1
  6
CONTINUOUS
 62
     2
 10
522.725495034
 20
136.8339596941
 30
0.0
 40
4.0
  0
LINE
  5
310
  8
1
  6
CONTINUOUS
 62
     7
 10
532.2254950339
 20
139.6339596941
 30
0.0
 11
526.725495034
 21
139.6339596941
 31
0.0
  0
LINE
  5
311
  8
1
  6
CONTINUOUS
 62
     3
 10
519.3254950352
 20
96.0925174504
 30
0.0
 11
526.1254950352
 21
96.0925174504
 31
0.0
  0
CIRCLE
  5
312
  8
1
  6
CONTINUOUS
 62
     3
 10
532.225495034
 20
134.3339596941
 30
0.0
 40
3.5
  0
LINE
  5
313
  8
1
  6
CONTINUOUS
 62
     7
 10
513.225495034
 20
139.6339596941
 30
0.0
 11
518.725495034
 21
139.6339596941
 31
0.0
  0
LINE
  5
314
  8
1
  6
CONTINUOUS
 62
     7
 10
519.325495034
 20
114.8339596941
 30
0.0
 11
526.1254870103
 21
114.8339596941
 31
0.0
  0
LINE
  5
315
  8
1
  6
CONTINUOUS
 62
     7
 10
507.9254950339999
 20
134.3339596941
 30
0.0
 11
507.9254950339999
 21
127.8339596941
 31
0.0
  0
ARC
  5
316
  8
1
  6
CONTINUOUS
 62
     7
 10
513.225495034
 20
134.3339596941
 30
0.0
 40
5.3
 50
90.0
 51
180.0
  0
ARC
  5
317
  8
1
  6
CONTINUOUS
 62
     7
 10
522.725495034
 20
81.2339596941
 30
0.0
 40
3.1
 50
57.00411452640001
 51
122.9958854736
  0
LINE
  5
318
  8
1
  6
CONTINUOUS
 62
     3
 10
518.725495034
 20
139.8339596941
 30
0.0
 11
518.725495034
 21
135.3339596941
 31
0.0
  0
LINE
  5
319
  8
1
  6
CONTINUOUS
 62
     3
 10
526.125495034
 20
105.8339596941
 30
0.0
 11
519.325495034
 21
105.8339596941
 31
0.0
  0
ARC
  5
31A
  8
1
  6
CONTINUOUS
 62
     7
 10
529.725495034
 20
70.4866233413
 30
0.0
 40
1.0
 50
300.0000000001
 51
0.0
  0
ARC
  5
31B
  8
1
  6
CONTINUOUS
 62
     7
 10
510.3471626335
 20
67.8926334123
 30
0.0
 40
1.0
 50
90.0
 51
180.0
  0
CIRCLE
  5
31C
  8
1
  6
CONTINUOUS
 62
     2
 10
522.725495034
 20
74.8339596941
 30
0.0
 40
4.0
  0
ARC
  5
31D
  8
1
  6
CONTINUOUS
 62
     7
 10
531.725495034
 20
69.3319228028
 30
0.0
 40
2.0
 50
300.0000000047
 51
0.0
  0
LINE
  5
31E
  8
1
  6
CONTINUOUS
 62
     3
 10
526.125495498
 20
114.8339596941
 30
0.0
 11
526.1254868996
 21
91.0137747758
 31
0.0
  0
ARC
  5
31F
  8
1
  6
CONTINUOUS
 62
     3
 10
517.725495034
 20
139.8339596941
 30
0.0
 40
1.0
 50
0.0
 51
90.0
  0
LINE
  5
320
  8
1
  6
CONTINUOUS
 62
     3
 10
524.4136893356
 20
83.8339596941
 30
0.0
 11
538.725495034
 21
83.8339596941
 31
0.0
  0
CIRCLE
  5
321
  8
1
  6
CONTINUOUS
 62
     3
 10
513.225495034
 20
77.3339596941
 30
0.0
 40
3.5
  0
CIRCLE
  5
322
  8
1
  6
CONTINUOUS
 62
     7
 10
537.225495034
 20
72.3339596941
 30
0.0
 40
1.25
  0
CIRCLE
  5
323
  8
1
  6
CONTINUOUS
 62
     7
 10
522.725495034
 20
81.2339596941
 30
0.0
 40
2.6
  0
ARC
  5
324
  8
1
  6
CONTINUOUS
 62
     7
 10
513.3471626335
 20
64.8926334123
 30
0.0
 40
1.0
 50
90.0
 51
180.0
  0
LINE
  5
325
  8
1
  6
CONTINUOUS
 62
     7
 10
537.525495034
 20
134.3339596941
 30
0.0
 11
537.525495034
 21
127.8339596941
 31
0.0
  0
LINE
  5
326
  8
1
  6
CONTINUOUS
 62
     7
 10
513.225495034
 20
72.0339596941
 30
0.0
 11
518.725495034
 21
72.0339596941
 31
0.0
  0
CIRCLE
  5
327
  8
1
  6
CONTINUOUS
 62
     7
 10
508.2254950340001
 20
72.3339596941
 30
0.0
 40
1.25
  0
LINE
  5
328
  8
1
  6
CONTINUOUS
 62
     7
 10
537.525495034
 20
77.3339596941
 30
0.0
 11
537.525495034
 21
83.8339596941
 31
0.0
  0
LINE
  5
329
  8
1
  6
CONTINUOUS
 62
     3
 10
506.725495034
 20
123.8339596941
 30
0.0
 11
538.725495034
 21
123.8339596941
 31
0.0
  0
LINE
  5
32A
  8
1
  6
CONTINUOUS
 62
     3
 10
524.725495034
 20
133.3339596941
 30
0.0
 11
520.725495034
 21
133.3339596941
 31
0.0
  0
CIRCLE
  5
32B
  8
1
  6
CONTINUOUS
 62
     7
 10
508.2254950340001
 20
139.3339596941
 30
0.0
 40
1.25
  0
LINE
  5
32C
  8
1
  6
CONTINUOUS
 62
     7
 10
451.2622944886
 20
-44.6808802115
 30
0.0
 11
526.8471626682
 21
-44.6808802115
 31
0.0
  0
LINE
  5
32D
  8
1
  6
CONTINUOUS
 62
     7
 10
448.0971617335
 20
54.5687387298
 30
0.0
 11
448.0971617335
 21
50.3191197886
 31
0.0
  0
ARC
  5
32E
  8
1
  6
CONTINUOUS
 62
     7
 10
526.8471626682
 20
-43.6808802115
 30
0.0
 40
1.0
 50
270.0
 51
0.0
  0
LINE
  5
32F
  8
1
  6
CONTINUOUS
 62
     7
 10
451.2622944886
 20
-43.0779043632
 30
0.0
 11
517.8471626336
 21
-43.0779043632
 31
0.0
  0
LINE
  5
330
  8
1
  6
CONTINUOUS
 62
     6
 10
526.547255749
 20
-33.8312992311
 30
0.0
 11
527.8471626335
 21
-39.6808802115
 31
0.0
  0
LINE
  5
331
  8
1
  6
CONTINUOUS
 62
     7
 10
447.4622944886
 20
-43.0779043632
 30
0.0
 11
447.4622944886
 21
-44.6808802115
 31
0.0
  0
LINE
  5
332
  8
1
  6
CONTINUOUS
 62
     7
 10
517.8471626336
 20
-43.0779043632
 30
0.0
 11
517.8471626336
 21
-40.0779043632
 31
0.0
  0
LINE
  5
333
  8
1
  6
CONTINUOUS
 62
     6
 10
532.1470695181
 20
-33.831299231
 30
0.0
 11
530.8471626335
 21
-39.6808802115
 31
0.0
  0
LINE
  5
334
  8
1
  6
CONTINUOUS
 62
     7
 10
450.0971617335
 20
53.5687387298
 30
0.0
 11
450.0971617335
 21
50.3191197886
 31
0.0
  0
LINE
  5
335
  8
1
  6
CONTINUOUS
 62
     7
 10
451.0971617335
 20
54.5687387298
 30
0.0
 11
496.8471626335
 21
54.5687387298
 31
0.0
  0
ARC
  5
336
  8
1
  6
CONTINUOUS
 62
     7
 10
529.3471626335
 20
-39.6808802115
 30
0.0
 40
1.5
 50
180.0
 51
0.0
  0
LINE
  5
337
  8
1
  6
CONTINUOUS
 62
     7
 10
450.4622944886
 20
-40.0779043632
 30
0.0
 11
517.8471626336
 21
-40.0779043632
 31
0.0
  0
LINE
  5
338
  8
1
  6
CONTINUOUS
 62
     7
 10
499.8471626335
 20
54.5687387298
 30
0.0
 11
499.8471626335
 21
50.3191197885
 31
0.0
  0
LINE
  5
339
  8
1
  6
CONTINUOUS
 62
     7
 10
450.4622944886
 20
-47.6808802115
 30
0.0
 11
527.8471626335
 21
-47.6808802115
 31
0.0
  0
ARC
  5
33A
  8
1
  6
CONTINUOUS
 62
     7
 10
451.0971617335
 20
53.5687387298
 30
0.0
 40
1.0
 50
90.0
 51
180.0
  0
LINE
  5
33B
  8
1
  6
CONTINUOUS
 62
     7
 10
527.8471626335
 20
-43.6808802115
 30
0.0
 11
527.8471626335
 21
-39.6808802115
 31
0.0
  0
ARC
  5
33C
  8
1
  6
CONTINUOUS
 62
     7
 10
451.2622944886
 20
-43.8779043632
 30
0.0
 40
0.8
 50
90.0
 51
180.0
  0
ARC
  5
33D
  8
1
  6
CONTINUOUS
 62
     7
 10
527.8471626335
 20
-44.6808802115
 30
0.0
 40
3.0
 50
270.0
 51
0.0
  0
ARC
  5
33E
  8
1
  6
CONTINUOUS
 62
     7
 10
496.8471626335
 20
53.5687387298
 30
0.0
 40
1.0
 50
0.0
 51
90.0
  0
LINE
  5
33F
  8
1
  6
CONTINUOUS
 62
     7
 10
497.8471626335
 20
53.5687387298
 30
0.0
 11
497.8471626335
 21
50.3191197885
 31
0.0
  0
ARC
  5
340
  8
1
  6
CONTINUOUS
 62
     7
 10
451.2622944886
 20
-43.8808802115
 30
0.0
 40
0.8
 50
180.0
 51
270.0
  0
LINE
  5
341
  8
1
  6
CONTINUOUS
 62
     7
 10
530.8471626335
 20
-44.6808802115
 30
0.0
 11
530.8471626335
 21
-39.6808802115
 31
0.0
  0
ARC
  5
342
  8
1
  6
CONTINUOUS
 62
     7
 10
450.4622944886
 20
-43.0779043632
 30
0.0
 40
3.0
 50
90.0
 51
180.0
  0
LINE
  5
343
  8
1
  6
CONTINUOUS
 62
     7
 10
497.8471626335
 20
56.5687387298
 30
0.0
 11
450.0971617335
 21
56.5687387298
 31
0.0
  0
ARC
  5
344
  8
1
  6
CONTINUOUS
 62
     7
 10
450.4622944886
 20
-44.6808802115
 30
0.0
 40
3.0
 50
180.0
 51
270.0
  0
ENDSEC
  0
EOF
