  0
SECTION
  2
HEADER
  9
$ACADVER
  1
AC1006
  9
$DWGCODEPAGE
  3
ansi_932
  9
$INSBASE
 10
0.0
 20
0.0
 30
0.0
  9
$EXTMIN
 10
-504.3557667133001
 20
-737.4159090909093
  9
$EXTMAX
 10
84.3789183614001
 20
-144.8640419501999
  9
$LIMMIN
 10
0.0
 20
0.0
  9
$LIMMAX
 10
12.0
 20
9.0
  9
$ORTHOMODE
 70
     0
  9
$REGENMODE
 70
     1
  9
$FILLMODE
 70
     1
  9
$QTEXTMODE
 70
     0
  9
$MIRRTEXT
 70
     1
  9
$DRAGMODE
 70
     2
  9
$LTSCALE
 40
1.0
  9
$OSMODE
 70
    37
  9
$ATTMODE
 70
     1
  9
$TEXTSIZE
 40
0.2
  9
$TRACEWID
 40
0.05
  9
$TEXTSTYLE
  7
STANDARD
  9
$CLAYER
  8
0
  9
$CELTYPE
  6
BYLAYER
  9
$CECOLOR
 62
   256
  9
$DIMSCALE
 40
1.0
  9
$DIMASZ
 40
3.0
  9
$DIMEXO
 40
0.0625
  9
$DIMDLI
 40
0.38
  9
$DIMRND
 40
0.0
  9
$DIMDLE
 40
0.0
  9
$DIMEXE
 40
1.5
  9
$DIMTP
 40
0.0
  9
$DIMTM
 40
0.0
  9
$DIMTXT
 40
3.0
  9
$DIMCEN
 40
0.09
  9
$DIMTSZ
 40
0.0
  9
$DIMTOL
 70
     0
  9
$DIMLIM
 70
     0
  9
$DIMTIH
 70
     1
  9
$DIMTOH
 70
     1
  9
$DIMSE1
 70
     0
  9
$DIMSE2
 70
     0
  9
$DIMTAD
 70
     1
  9
$DIMZIN
 70
     0
  9
$DIMBLK
  1

  9
$DIMASO
 70
     1
  9
$DIMSHO
 70
     1
  9
$DIMPOST
  1

  9
$DIMAPOST
  1

  9
$DIMALT
 70
     0
  9
$DIMALTD
 70
     2
  9
$DIMALTF
 40
25.4
  9
$DIMLFAC
 40
1.0
  9
$DIMTOFL
 70
     0
  9
$DIMTVP
 40
0.0
  9
$DIMTIX
 70
     0
  9
$DIMSOXD
 70
     0
  9
$DIMSAH
 70
     0
  9
$DIMBLK1
  1

  9
$DIMBLK2
  1

  9
$LUNITS
 70
     2
  9
$LUPREC
 70
     4
  9
$SKETCHINC
 40
0.1
  9
$FILLETRAD
 40
0.5
  9
$AUNITS
 70
     0
  9
$AUPREC
 70
     0
  9
$MENU
  1
.
  9
$ELEVATION
 40
0.0
  9
$THICKNESS
 40
0.0
  9
$LIMCHECK
 70
     0
  9
$CHAMFERA
 40
0.0
  9
$CHAMFERB
 40
0.0
  9
$SKPOLY
 70
     0
  9
$TDCREATE
 40
2460773.790005382
  9
$TDUPDATE
 40
2460773.790005833
  9
$TDINDWG
 40
0.0000000116
  9
$TDUSRTIMER
 40
0.0000000116
  9
$USRTIMER
 70
     1
  9
$ANGBASE
 50
0.0
  9
$ANGDIR
 70
     0
  9
$PDMODE
 70
     0
  9
$PDSIZE
 40
0.0
  9
$PLINEWID
 40
0.0
  9
$COORDS
 70
     1
  9
$SPLFRAME
 70
     0
  9
$SPLINETYPE
 70
     6
  9
$SPLINESEGS
 70
     8
  9
$ATTDIA
 70
     0
  9
$ATTREQ
 70
     1
  9
$HANDLING
 70
     1
  9
$HANDSEED
  5
7E1
  9
$SURFTAB1
 70
     6
  9
$SURFTAB2
 70
     6
  9
$SURFTYPE
 70
     6
  9
$SURFU
 70
     6
  9
$SURFV
 70
     6
  9
$UCSNAME
  2

  9
$UCSORG
 10
0.0
 20
0.0
 30
0.0
  9
$UCSXDIR
 10
1.0
 20
0.0
 30
0.0
  9
$UCSYDIR
 10
0.0
 20
1.0
 30
0.0
  9
$USERI1
 70
     0
  9
$USERI2
 70
     0
  9
$USERI3
 70
     0
  9
$USERI4
 70
     0
  9
$USERI5
 70
     0
  9
$USERR1
 40
0.0
  9
$USERR2
 40
0.0
  9
$USERR3
 40
0.0
  9
$USERR4
 40
0.0
  9
$USERR5
 40
0.0
  9
$WORLDVIEW
 70
     1
  0
ENDSEC
  0
SECTION
  2
TABLES
  0
TABLE
  2
VPORT
 70
     1
  0
VPORT
  2
*ACTIVE
 70
     0
 10
0.0
 20
0.0
 11
1.0
 21
1.0
 12
-209.98842417595
 22
-441.1399755205546
 13
0.0
 23
0.0
 14
0.5
 24
0.5
 15
0.5
 25
0.5
 16
0.0
 26
0.0
 36
1.0
 17
0.0
 27
0.0
 37
0.0
 40
592.5518671407094
 41
1.6
 42
50.0
 43
0.0
 44
0.0
 50
0.0
 51
0.0
 71
     0
 72
   100
 73
     1
 74
     3
 75
     0
 76
     0
 77
     0
 78
     0
  0
ENDTAB
  0
TABLE
  2
LTYPE
 70
     4
  0
LTYPE
  2
CONTINUOUS
 70
     0
  3
Solid line
 72
    65
 73
     0
 40
0.0
  0
LTYPE
  2
CENTER
 70
     0
  3

 72
    65
 73
     0
 40
0.0
  0
LTYPE
  2
DASHED
 70
     0
  3

 72
    65
 73
     0
 40
0.0
  0
LTYPE
  2
PHANTOM
 70
     0
  3

 72
    65
 73
     0
 40
0.0
  0
ENDTAB
  0
TABLE
  2
LAYER
 70
     1
  0
LAYER
  2
0
 70
     0
 62
     7
  6
CONTINUOUS
  0
ENDTAB
  0
TABLE
  2
STYLE
 70
     2
  0
STYLE
  2
STANDARD
 70
     0
 40
0.0
 41
1.0
 50
0.0
 71
     0
 42
0.2
  3
txt
  4

  0
STYLE
  2
ＭＳ_ゴシック
 70
     0
 40
0.0
 41
1.0
 50
0.0
 71
     0
 42
0.2
  3
ＭＳ ゴシック.shx
  4

  0
ENDTAB
  0
TABLE
  2
VIEW
 70
     0
  0
ENDTAB
  0
TABLE
  2
UCS
 70
     0
  0
ENDTAB
  0
ENDSEC
  0
SECTION
  2
BLOCKS
  0
ENDSEC
  0
SECTION
  2
ENTITIES
  0
ARC
  5
6F
  8
0
  6
CONTINUOUS
 62
     7
 10
-343.9433853913002
 20
-315.8463774487
 30
0.0
 40
4.500000000000004
 50
180.0
 51
270.0
  0
LINE
  5
70
  8
0
  6
CONTINUOUS
 62
     7
 10
-55.97646750329987
 20
-172.3553701576002
 30
0.0
 11
-32.90666850989982
 21
-171.5497550247001
 31
0.0
  0
LINE
  5
71
  8
0
  6
CONTINUOUS
 62
     7
 10
-58.19619866089987
 20
-176.8741525658
 30
0.0
 11
-92.97646750329996
 21
-178.0887063169001
 31
0.0
  0
LINE
  5
72
  8
0
  6
CENTER
 62
     1
 10
84.3789183614001
 20
-352.0531643235001
 30
0.0
 11
-130.5071348554999
 21
-352.0531643235001
 31
0.0
  0
LINE
  5
74
  8
0
  6
CONTINUOUS
 62
     7
 10
-327.2148139627001
 20
-309.4314783329002
 30
0.0
 11
-327.2148139627001
 21
-312.5435615622002
 31
0.0
  0
LINE
  5
75
  8
0
  6
CONTINUOUS
 62
     7
 10
-32.90666850989976
 20
-171.5497550247005
 30
0.0
 11
-32.90666850989976
 21
-213.8640419502005
 31
0.0
  0
ARC
  5
76
  8
0
  6
CONTINUOUS
 62
     7
 10
-329.1005282485
 20
-322.3463774487001
 30
0.0
 40
4.500000000000004
 50
0.0
 51
90.0
  0
ARC
  5
77
  8
0
  6
CONTINUOUS
 62
     7
 10
50.0933314901002
 20
-256.2181439164004
 30
0.0
 40
1.500000000000057
 50
131.8103148958
 51
180.0
  0
ARC
  5
78
  8
0
  6
CONTINUOUS
 62
     7
 10
-324.1005282485
 20
-319.0435615622001
 30
0.0
 40
4.500000000000004
 50
0.0
 51
90.0
  0
LINE
  5
79
  8
0
  6
CONTINUOUS
 62
     7
 10
-329.7148139627001
 20
-309.4314783329002
 30
0.0
 11
-329.7148139627001
 21
-312.5435615622002
 31
0.0
  0
LINE
  5
7A
  8
0
  6
CONTINUOUS
 62
     7
 10
-32.90666850989976
 20
-181.3746674207999
 30
0.0
 11
-32.40666850959978
 21
-181.3877603816001
 31
0.0
  0
ARC
  5
7B
  8
0
  6
CONTINUOUS
 62
     7
 10
47.09333149009998
 20
-252.8640419502002
 30
0.0
 40
3.000000000000003
 50
311.8103148958
 51
228.1896851042
  0
ARC
  5
7C
  8
0
  6
CONTINUOUS
 62
     7
 10
-324.1005282485
 20
-319.0435615622001
 30
0.0
 40
2.000000000000002
 50
0.0
 51
90.0
  0
ARC
  5
7D
  8
0
  6
CONTINUOUS
 62
     7
 10
47.09333149009998
 20
-275.3640419502004
 30
0.0
 40
1.500000000000168
 50
180.0
 51
0.0
  0
LINE
  5
7E
  8
0
  6
CONTINUOUS
 62
     7
 10
45.59333149010014
 20
-256.2181439164004
 30
0.0
 11
45.59333149010014
 21
-275.3640419502006
 31
0.0
  0
TEXT
  5
7F
  8
0
  6
CONTINUOUS
 62
     7
 10
47.08746647938557
 20
-737.2522727272728
 30
0.0
 40
3.0
  1
３Ａ－２２ＣＢ＿
  0
ARC
  5
80
  8
0
  6
CONTINUOUS
 62
     7
 10
-343.9433853913002
 20
-315.8463774487
 30
0.0
 40
2.000000000000057
 50
180.0
 51
270.0
  0
LINE
  5
81
  8
0
  6
CONTINUOUS
 62
     7
 10
-41.90666850989988
 20
-421.8640419502
 30
0.0
 11
-41.90666850989988
 21
-241.8640419501005
 31
0.0
  0
LINE
  5
82
  8
0
  6
CONTINUOUS
 62
     7
 10
-41.90666850989988
 20
-226.8640419502002
 30
0.0
 11
-41.90666850989988
 21
-222.8640419502002
 31
0.0
  0
LINE
  5
83
  8
0
  6
CONTINUOUS
 62
     7
 10
-57.90666850989989
 20
-517.4025284432005
 30
0.0
 11
-57.90666850989989
 21
-174.3541518117004
 31
0.0
  0
ARC
  5
84
  8
0
  6
CONTINUOUS
 62
     7
 10
44.09333149009997
 20
-256.2181439164004
 30
0.0
 40
1.499999999999835
 50
0.0
 51
48.1896851042
  0
ARC
  5
85
  8
0
  6
CONTINUOUS
 62
     7
 10
-58.20666850989986
 20
-176.5743353177001
 30
0.0
 40
0.299999999999967
 50
271.9999999999
 51
0.0
  0
ARC
  5
86
  8
0
  6
CONTINUOUS
 62
     7
 10
-32.90666850989976
 20
-222.8640419502
 30
0.0
 40
8.999999999999785
 50
90.0
 51
180.0
  0
ARC
  5
87
  8
0
  6
CONTINUOUS
 62
     7
 10
-92.90666850989982
 20
-513.6405959294001
 30
0.0
 40
2.000000000000002
 50
180.0
 51
267.9999999999999
  0
ARC
  5
88
  8
0
  6
CONTINUOUS
 62
     7
 10
-55.90666850990011
 20
-174.3541518117001
 30
0.0
 40
2.000000000000113
 50
92.0
 51
180.0
  0
LINE
  5
89
  8
0
  6
CONTINUOUS
 62
     7
 10
54.59333149009993
 20
-510.0621483423
 30
0.0
 11
54.59333149009993
 21
-144.8640419502005
 31
0.0
  0
LINE
  5
8A
  8
0
  6
CONTINUOUS
 62
     7
 10
-95.90666850989993
 20
-185.6561104214001
 30
0.0
 11
-95.90666850989993
 21
-472.0719734790001
 31
0.0
  0
ARC
  5
8B
  8
0
  6
DASHED
 62
     6
 10
-361.0794211435002
 20
-340.4571926186
 30
0.0
 40
0.9999999999999454
 50
149.9999999999
 51
210.0
  0
ARC
  5
8D
  8
0
  6
CONTINUOUS
 62
     7
 10
-329.1005282485
 20
-322.3463774487001
 30
0.0
 40
1.999999999999946
 50
0.0
 51
90.0
  0
ARC
  5
8E
  8
0
  6
CONTINUOUS
 62
     7
 10
-355.6153195284001
 20
-324.7075736773
 30
0.0
 40
0.9999999999999454
 50
90.0
 51
180.0
  0
ARC
  5
8F
  8
0
  6
CONTINUOUS
 62
     7
 10
-92.90666850989982
 20
-180.0874879710007
 30
0.0
 40
2.000000000000002
 50
92.0
 51
180.0
  0
ARC
  5
90
  8
0
  6
CONTINUOUS
 62
     7
 10
-55.90666850990011
 20
-519.3739320887
 30
0.0
 40
2.000000000000113
 50
180.0
 51
267.9999999999999
  0
ARC
  5
91
  8
0
  6
CONTINUOUS
 62
     6
 10
-387.3505282485002
 20
-340.9571926184005
 30
0.0
 40
2.000000000000002
 50
90.0
 51
180.0
  0
LINE
  5
92
  8
0
  6
CONTINUOUS
 62
     7
 10
-41.90666850989988
 20
-521.8640419502001
 30
0.0
 11
-41.90666850989988
 21
-512.5890897737004
 31
0.0
  0
ARC
  5
93
  8
0
  6
CONTINUOUS
 62
     7
 10
-325.2148139627
 20
-312.5435615622004
 30
0.0
 40
4.499999999999893
 50
180.0
 51
270.0
  0
LINE
  5
94
  8
0
  6
CONTINUOUS
 62
     7
 10
-57.90666850989989
 20
-519.3739320887
 30
0.0
 11
-57.90666850989989
 21
-517.1537485826001
 31
0.0
  0
LINE
  5
95
  8
0
  6
CONTINUOUS
 62
     7
 10
-41.90666850989988
 20
-512.8469203238999
 30
0.0
 11
-41.90666850989988
 21
-436.8640419500999
 31
0.0
  0
LINE
  5
96
  8
0
  6
CONTINUOUS
 62
     7
 10
-322.1005282485001
 20
-319.0435615622001
 30
0.0
 11
-322.1005282485001
 21
-327.9571926185001
 31
0.0
  0
LINE
  5
97
  8
0
  6
CONTINUOUS
 62
     7
 10
48.59333149010014
 20
-256.2181439164004
 30
0.0
 11
48.59333149010014
 21
-275.3640419502006
 31
0.0
  0
LINE
  5
98
  8
0
  6
CONTINUOUS
 62
     7
 10
-92.97646750330001
 20
-515.6393775834
 30
0.0
 11
-58.19619866089992
 21
-516.8539313345
 31
0.0
  0
ARC
  5
99
  8
0
  6
CONTINUOUS
 62
     7
 10
-58.20666850989986
 20
-517.1537485825999
 30
0.0
 40
0.299999999999967
 50
0.0
 51
88.0000000001
  0
ARC
  5
9A
  8
0
  6
CONTINUOUS
 62
     7
 10
-325.2148139627
 20
-312.5435615622004
 30
0.0
 40
1.999999999999946
 50
180.0
 51
270.0
  0
LINE
  5
9B
  8
0
  6
CONTINUOUS
 62
     7
 10
-380.2474246622001
 20
-618.8631981220999
 30
0.0
 11
-380.0992976564002
 21
-616.8631981220999
 31
0.0
  0
LINE
  5
9C
  8
0
  6
CONTINUOUS
 62
     7
 10
-377.8076711056001
 20
-625.8631981221005
 30
0.0
 11
-377.8076711056001
 21
-622.8631981221005
 31
0.0
  0
ARC
  5
9D
  8
0
  6
CONTINUOUS
 62
     7
 10
-382.3076711056001
 20
-643.5753175289
 30
0.0
 40
0.9999999999999454
 50
0.0
 51
70.9108116001
  0
LINE
  5
9E
  8
0
  6
CONTINUOUS
 62
     7
 10
-366.8290996766001
 20
-471.2982150647001
 30
0.0
 11
-366.8290996766001
 21
-469.6952392164001
 31
0.0
  0
LINE
  5
9F
  8
0
  6
CONTINUOUS
 62
     7
 10
-379.2219568212002
 20
-464.8640419502
 30
0.0
 11
-379.2219568212002
 21
-463.8640419501999
 31
0.0
  0
LINE
  5
A0
  8
0
  6
CONTINUOUS
 62
     7
 10
-377.8076711056001
 20
-620.8631981221004
 30
0.0
 11
-377.8076711056001
 21
-618.8631981221004
 31
0.0
  0
LINE
  5
A1
  8
0
  6
CONTINUOUS
 62
     7
 10
-354.3719568212002
 20
-462.3640419502
 30
0.0
 11
-354.3719568212002
 21
-456.3640419502
 31
0.0
  0
LINE
  5
A2
  8
0
  6
CENTER
 62
     1
 10
-360.8719568212001
 20
-461.8640419502001
 30
0.0
 11
-360.8719568212001
 21
-456.8640419502001
 31
0.0
  0
LINE
  5
A3
  8
0
  6
CONTINUOUS
 62
     7
 10
-356.8719568212002
 20
-464.8640419502
 30
0.0
 11
-379.2219568212001
 21
-464.8640419502
 31
0.0
  0
LINE
  5
A4
  8
0
  6
CONTINUOUS
 62
     7
 10
-351.3076711056001
 20
-696.8631981221001
 30
0.0
 11
-351.3076711056001
 21
-695.8631981221001
 31
0.0
  0
LINE
  5
A5
  8
0
  6
CONTINUOUS
 62
     7
 10
-379.5409397236001
 20
-622.8631981221001
 30
0.0
 11
-379.7631302324
 21
-625.8631981221001
 31
0.0
  0
ARC
  5
A6
  8
0
  6
CONTINUOUS
 62
     7
 10
-356.8719568212002
 20
-456.3640419502005
 30
0.0
 40
2.499999999999947
 50
0.0
 51
90.0
  0
LINE
  5
A7
  8
0
  6
CONTINUOUS
 62
     7
 10
-379.2219568212002
 20
-454.8640419502002
 30
0.0
 11
-379.2219568212002
 21
-453.8640419502001
 31
0.0
  0
LINE
  5
A8
  8
0
  6
CONTINUOUS
 62
     7
 10
-374.3076711056
 20
-618.8631981220999
 30
0.0
 11
-374.3076711056
 21
-620.8631981220999
 31
0.0
  0
ARC
  5
A9
  8
0
  6
CONTINUOUS
 62
     7
 10
-378.8030436446001
 20
-612.8631981221001
 30
0.0
 40
1.000000000000001
 50
90.0
 51
180.0
  0
LINE
  5
AA
  8
0
  6
CONTINUOUS
 62
     7
 10
-381.9806315224002
 20
-642.6303068882
 30
0.0
 11
-385.5657603205001
 21
-641.3896023107001
 31
0.0
  0
LINE
  5
AB
  8
0
  6
CONTINUOUS
 62
     7
 10
-364.0716635373001
 20
-622.8631981221001
 30
0.0
 11
-380.5436786739002
 21
-622.8631981221001
 31
0.0
  0
ARC
  5
AC
  8
0
  6
CONTINUOUS
 62
     7
 10
-353.8426505295002
 20
-681.8631981221002
 30
0.0
 40
3.000000000000003
 50
0.0
 51
90.0
  0
LINE
  5
AD
  8
0
  6
CONTINUOUS
 62
     7
 10
-377.8290996766002
 20
-504.6640419473001
 30
0.0
 11
-377.8290996766002
 21
-474.3011909130001
 31
0.0
  0
ARC
  5
AE
  8
0
  6
CONTINUOUS
 62
     7
 10
-379.2219568212002
 20
-455.3640419501999
 30
0.0
 40
0.4999999999999449
 50
90.0
 51
180.0
  0
ARC
  5
AF
  8
0
  6
CONTINUOUS
 62
     7
 10
-383.8076711056002
 20
-638.3631981221001
 30
0.0
 40
3.499999999999948
 50
98.1301023542
 51
239.8469737933
  0
LINE
  5
B0
  8
0
  6
CONTINUOUS
 62
     7
 10
-378.9484317002002
 20
-614.8631981221004
 30
0.0
 11
-379.0965587060001
 21
-616.8631981221004
 31
0.0
  0
LINE
  5
B1
  8
0
  6
CONTINUOUS
 62
     7
 10
-380.0992976564001
 20
-616.8631981221001
 30
0.0
 11
-364.5160445549
 21
-616.8631981221001
 31
0.0
  0
LINE
  5
B2
  8
0
  6
CONTINUOUS
 62
     7
 10
-379.9511706505002
 20
-614.8631981221004
 30
0.0
 11
-364.6641715607002
 21
-614.8631981221004
 31
0.0
  0
LINE
  5
B3
  8
0
  6
CONTINUOUS
 62
     7
 10
-377.8290996766002
 20
-471.2982150647001
 30
0.0
 11
-377.8290996766002
 21
-469.6952392164001
 31
0.0
  0
LINE
  5
B4
  8
0
  6
CONTINUOUS
 62
     7
 10
-374.3076711056
 20
-614.8631981221004
 30
0.0
 11
-374.3076711056
 21
-616.8631981221004
 31
0.0
  0
LINE
  5
B5
  8
0
  6
CONTINUOUS
 62
     7
 10
-366.8290996766001
 20
-504.6640419473001
 30
0.0
 11
-366.8290996766001
 21
-474.3011909130001
 31
0.0
  0
LINE
  5
B6
  8
0
  6
CONTINUOUS
 62
     7
 10
-380.3955516681002
 20
-620.8631981221004
 30
0.0
 11
-364.2197905431001
 21
-620.8631981221004
 31
0.0
  0
LINE
  5
B7
  8
0
  6
CONTINUOUS
 62
     7
 10
-379.7219568212002
 20
-463.3640419502004
 30
0.0
 11
-379.7219568212002
 21
-455.3640419502003
 31
0.0
  0
LINE
  5
B8
  8
0
  6
CONTINUOUS
 62
     7
 10
-377.8290996766002
 20
-466.6952392164
 30
0.0
 11
-377.8290996766002
 21
-464.8640419502
 31
0.0
  0
LINE
  5
B9
  8
0
  6
CONTINUOUS
 62
     7
 10
-393.3076711056001
 20
-695.8631981221002
 30
0.0
 11
-393.3076711056001
 21
-696.8631981221002
 31
0.0
  0
LINE
  5
BA
  8
0
  6
CONTINUOUS
 62
     7
 10
-366.8076711056001
 20
-625.8631981221005
 30
0.0
 11
-366.8076711056001
 21
-622.8631981221005
 31
0.0
  0
LINE
  5
BB
  8
0
  6
CONTINUOUS
 62
     7
 10
-370.3076711056001
 20
-614.8631981221004
 30
0.0
 11
-370.3076711056001
 21
-616.8631981221004
 31
0.0
  0
LINE
  5
BC
  8
0
  6
CONTINUOUS
 62
     7
 10
-370.3076711056001
 20
-622.8631981221001
 30
0.0
 11
-370.3076711056001
 21
-625.8631981221001
 31
0.0
  0
LINE
  5
BD
  8
0
  6
CENTER
 62
     1
 10
-352.8719568212002
 20
-459.3640419502001
 30
0.0
 11
-381.2219568212002
 21
-459.3640419502001
 31
0.0
  0
LINE
  5
BE
  8
0
  6
CONTINUOUS
 62
     7
 10
-365.5219568212001
 20
-464.8640419502
 30
0.0
 11
-365.5219568212001
 21
-463.8640419501999
 31
0.0
  0
LINE
  5
BF
  8
0
  6
CONTINUOUS
 62
     7
 10
-380.2474246622001
 20
-618.8631981220999
 30
0.0
 11
-364.3679175490002
 21
-618.8631981220999
 31
0.0
  0
LINE
  5
C0
  8
0
  6
CONTINUOUS
 62
     7
 10
-399.3076711056001
 20
-695.8631981221002
 30
0.0
 11
-392.3122985666002
 21
-695.8631981221002
 31
0.0
  0
LINE
  5
C1
  8
0
  6
CONTINUOUS
 62
     7
 10
-366.8076711056001
 20
-616.8631981221001
 30
0.0
 11
-366.8076711056001
 21
-614.8631981221001
 31
0.0
  0
LINE
  5
C2
  8
0
  6
CONTINUOUS
 62
     7
 10
-377.8290996770001
 20
-501.5753510236
 30
0.0
 11
-377.8290996770001
 21
-505.8753510236
 31
0.0
  0
LINE
  5
C3
  8
0
  6
CONTINUOUS
 62
     7
 10
-356.3076711056001
 20
-678.8631981220999
 30
0.0
 11
-356.3076711056001
 21
-658.8631981220999
 31
0.0
  0
ARC
  5
C4
  8
0
  6
CONTINUOUS
 62
     7
 10
-351.3076711056001
 20
-693.3631981221001
 30
0.0
 40
2.499999999999947
 50
269.9999999998
 51
90.0
  0
ARC
  5
C5
  8
0
  6
CONTINUOUS
 62
     7
 10
-393.3076711056001
 20
-693.3631981221001
 30
0.0
 40
2.499999999999891
 50
90.0
 51
270.0000000002
  0
LINE
  5
C6
  8
0
  6
CONTINUOUS
 62
     7
 10
-365.0219568212002
 20
-463.8640419502001
 30
0.0
 11
-365.0219568212002
 21
-454.8640419502001
 31
0.0
  0
LINE
  5
C7
  8
0
  6
CONTINUOUS
 62
     7
 10
-388.3076711056001
 20
-658.8631981220999
 30
0.0
 11
-356.3076711056001
 21
-658.8631981220999
 31
0.0
  0
LINE
  5
C8
  8
0
  6
CONTINUOUS
 62
     7
 10
-366.8290996766001
 20
-466.6952392164
 30
0.0
 11
-366.8290996766001
 21
-464.8640419502
 31
0.0
  0
LINE
  5
C9
  8
0
  6
CONTINUOUS
 62
     7
 10
-384.3076711056001
 20
-632.8631981221001
 30
0.0
 11
-384.3076711056001
 21
-634.8631981221001
 31
0.0
  0
LINE
  5
CA
  8
0
  6
CONTINUOUS
 62
     7
 10
-370.3076711056001
 20
-618.8631981220999
 30
0.0
 11
-370.3076711056001
 21
-620.8631981220999
 31
0.0
  0
LINE
  5
CB
  8
0
  6
CONTINUOUS
 62
     7
 10
-364.329099677
 20
-505.8753510236005
 30
0.0
 11
-358.079099677
 21
-505.8753510236005
 31
0.0
  0
LINE
  5
CC
  8
0
  6
CONTINUOUS
 62
     7
 10
-372.3290996770001
 20
-501.3753510236005
 30
0.0
 11
-361.8290996770002
 21
-501.3753510236005
 31
0.0
  0
LINE
  5
CD
  8
0
  6
CONTINUOUS
 62
     7
 10
-380.5436786739001
 20
-622.8631981221001
 30
0.0
 11
-380.3955516681002
 21
-620.8631981221001
 31
0.0
  0
LINE
  5
CE
  8
0
  6
CONTINUOUS
 62
     7
 10
-399.3076711056001
 20
-696.8631981221001
 30
0.0
 11
-399.3076711056001
 21
-695.8631981221001
 31
0.0
  0
LINE
  5
CF
  8
0
  6
CONTINUOUS
 62
     7
 10
-364.3679175490001
 20
-618.8631981220999
 30
0.0
 11
-364.5160445549
 21
-616.8631981220999
 31
0.0
  0
LINE
  5
D0
  8
0
  6
CONTINUOUS
 62
     7
 10
-372.3290996770001
 20
-501.3753510236005
 30
0.0
 11
-382.8290996770002
 21
-501.3753510236005
 31
0.0
  0
LINE
  5
D1
  8
0
  6
CONTINUOUS
 62
     7
 10
-379.2219568212002
 20
-463.8640419502001
 30
0.0
 11
-360.8719568212002
 21
-463.8640419502001
 31
0.0
  0
LINE
  5
D2
  8
0
  6
CONTINUOUS
 62
     7
 10
-374.3076711056
 20
-622.8631981221001
 30
0.0
 11
-374.3076711056
 21
-625.8631981221001
 31
0.0
  0
LINE
  5
D3
  8
0
  6
CONTINUOUS
 62
     7
 10
-380.8076711056002
 20
-528.8640419502
 30
0.0
 11
-380.8076711056002
 21
-522.8640419502
 31
0.0
  0
LINE
  5
D4
  8
0
  6
CONTINUOUS
 62
     7
 10
-350.8426505295002
 20
-690.9068276566001
 30
0.0
 11
-350.8426505295002
 21
-681.8631981221
 31
0.0
  0
LINE
  5
D5
  8
0
  6
CONTINUOUS
 62
     7
 10
-384.3076711056001
 20
-634.8631981220999
 30
0.0
 11
-372.3076711056001
 21
-634.8631981220999
 31
0.0
  0
LINE
  5
D6
  8
0
  6
CONTINUOUS
 62
     7
 10
-366.8290996770002
 20
-501.5753510236
 30
0.0
 11
-364.3290996770001
 21
-501.5753510236
 31
0.0
  0
LINE
  5
D7
  8
0
  6
CONTINUOUS
 62
     7
 10
-380.8290996770001
 20
-501.3753510236005
 30
0.0
 11
-380.8290996770001
 21
-500.3753510236001
 31
0.0
  0
ARC
  5
D8
  8
0
  6
CONTINUOUS
 62
     7
 10
-365.8122985666002
 20
-612.8631981221001
 30
0.0
 40
0.9999999999999454
 50
0.0
 51
90.0
  0
LINE
  5
D9
  8
0
  6
CONTINUOUS
 62
     7
 10
-380.3290996770001
 20
-501.5753510236
 30
0.0
 11
-380.3290996770001
 21
-505.8753510236
 31
0.0
  0
LINE
  5
DA
  8
0
  6
CONTINUOUS
 62
     7
 10
-365.0744024876001
 20
-622.8631981221001
 30
0.0
 11
-364.8522119788003
 21
-625.8631981221001
 31
0.0
  0
LINE
  5
DB
  8
0
  6
CONTINUOUS
 62
     7
 10
-365.5219568212001
 20
-454.8640419502002
 30
0.0
 11
-365.5219568212001
 21
-453.8640419502001
 31
0.0
  0
LINE
  5
DC
  8
0
  6
CONTINUOUS
 62
     7
 10
-366.8290996770002
 20
-505.8753510236005
 30
0.0
 11
-372.3290996770001
 21
-505.8753510236005
 31
0.0
  0
LINE
  5
DD
  8
0
  6
CONTINUOUS
 62
     7
 10
-377.8076711056001
 20
-616.8631981221001
 30
0.0
 11
-377.8076711056001
 21
-614.8631981221001
 31
0.0
  0
LINE
  5
DE
  8
0
  6
CONTINUOUS
 62
     6
 10
-360.4719568212002
 20
-457.7640419502001
 30
0.0
 11
-361.2719568212001
 21
-457.7640419502001
 31
0.0
  0
LINE
  5
DF
  8
0
  6
CONTINUOUS
 62
     7
 10
-372.3076711056001
 20
-546.8640419502004
 30
0.0
 11
-379.3076711056001
 21
-546.8640419502004
 31
0.0
  0
LINE
  5
E0
  8
0
  6
CONTINUOUS
 62
     7
 10
-388.3076711056001
 20
-658.8631981220999
 30
0.0
 11
-381.3076711056001
 21
-644.8631981220999
 31
0.0
  0
LINE
  5
E1
  8
0
  6
CONTINUOUS
 62
     7
 10
-379.9511706505002
 20
-614.8631981221004
 30
0.0
 11
-379.8030436446002
 21
-612.8631981221004
 31
0.0
  0
LINE
  5
E2
  8
0
  6
CONTINUOUS
 62
     7
 10
-382.8076711056001
 20
-528.8640419502
 30
0.0
 11
-382.8076711056001
 21
-522.8640419502
 31
0.0
  0
ARC
  5
E3
  8
0
  6
CONTINUOUS
 62
     7
 10
-360.8719568212001
 20
-459.3640419502001
 30
0.0
 40
4.499999999999948
 50
270.0
 51
90.0
  0
LINE
  5
E4
  8
0
  6
CONTINUOUS
 62
     7
 10
-379.2219568212002
 20
-454.8640419502002
 30
0.0
 11
-360.8719568212002
 21
-454.8640419502002
 31
0.0
  0
CIRCLE
  5
E5
  8
0
  6
CONTINUOUS
 62
     6
 10
-360.8719568212001
 20
-459.3640419502001
 30
0.0
 40
3.000000000000003
  0
ARC
  5
E6
  8
0
  6
CONTINUOUS
 62
     7
 10
-379.2219568212002
 20
-463.3640419502004
 30
0.0
 40
0.4999999999999449
 50
180.0
 51
270.0
  0
LINE
  5
E7
  8
0
  6
CONTINUOUS
 62
     7
 10
-393.3076711056001
 20
-690.8631981221004
 30
0.0
 11
-351.3076711056001
 21
-690.8631981221004
 31
0.0
  0
LINE
  5
E8
  8
0
  6
CONTINUOUS
 62
     7
 10
-358.079099677
 20
-501.7728759722999
 30
0.0
 11
-358.7634837609002
 21
-501.3777466371999
 31
0.0
  0
ARC
  5
E9
  8
0
  6
CONTINUOUS
 62
     7
 10
-356.8719568212002
 20
-462.3640419502
 30
0.0
 40
2.499999999999947
 50
270.0
 51
0.0
  0
CIRCLE
  5
EA
  8
0
  6
CONTINUOUS
 62
     6
 10
-360.8719568212001
 20
-459.3640419502001
 30
0.0
 40
2.399999999999958
  0
LINE
  5
EB
  8
0
  6
CONTINUOUS
 62
     7
 10
-366.8076711056001
 20
-620.8631981221004
 30
0.0
 11
-366.8076711056001
 21
-618.8631981221004
 31
0.0
  0
LINE
  5
EC
  8
0
  6
CONTINUOUS
 62
     7
 10
-372.3719568204002
 20
-453.8640419502003
 30
0.0
 11
-379.2219568212002
 21
-453.8640419502003
 31
0.0
  0
LINE
  5
ED
  8
0
  6
CONTINUOUS
 62
     7
 10
-365.6669105110001
 20
-614.8631981221004
 30
0.0
 11
-365.5187835052002
 21
-616.8631981221004
 31
0.0
  0
LINE
  5
EE
  8
0
  6
CONTINUOUS
 62
     7
 10
-378.8030436446001
 20
-611.8631981221002
 30
0.0
 11
-372.3076711056
 21
-611.8631981221002
 31
0.0
  0
LINE
  5
EF
  8
0
  6
CONTINUOUS
 62
     7
 10
-386.579099677
 20
-501.7728759722999
 30
0.0
 11
-385.8947155932002
 21
-501.3777466371999
 31
0.0
  0
LINE
  5
F0
  8
0
  6
CONTINUOUS
 62
     7
 10
-381.3076711056001
 20
-637.8631981221
 30
0.0
 11
-381.3076711056001
 21
-644.8631981221
 31
0.0
  0
LINE
  5
F1
  8
0
  6
CONTINUOUS
 62
     7
 10
-372.3290996770001
 20
-500.3753510236
 30
0.0
 11
-382.8290996770002
 21
-500.3753510236
 31
0.0
  0
LINE
  5
F2
  8
0
  6
CONTINUOUS
 62
     7
 10
-366.8290996770002
 20
-501.5753510236
 30
0.0
 11
-366.8290996770002
 21
-505.8753510236
 31
0.0
  0
ARC
  5
F3
  8
0
  6
CONTINUOUS
 62
     7
 10
-384.3076711056001
 20
-637.8631981221
 30
0.0
 40
3.000000000000003
 50
0.0
 51
90.0
  0
ARC
  5
F4
  8
0
  6
CONTINUOUS
 62
     7
 10
-390.7726916817001
 20
-681.8631981221002
 30
0.0
 40
2.999999999999947
 50
90.0
 51
180.0
  0
ARC
  5
F5
  8
0
  6
CONTINUOUS
 62
     7
 10
-379.3076711056001
 20
-540.8640419502
 30
0.0
 40
6.00000000000006
 50
180.0
 51
270.0
  0
ARC
  5
F6
  8
0
  6
CONTINUOUS
 62
     7
 10
-386.5790874493002
 20
-599.1312189091004
 30
0.0
 40
97.75586788550005
 50
86.33431382130001
 51
89.5988789202
  0
ARC
  5
F7
  8
0
  6
CONTINUOUS
 62
     7
 10
-358.0791119047001
 20
-599.1312189091004
 30
0.0
 40
97.7558678855
 50
90.40112107980002
 51
93.66568617870001
  0
LINE
  5
F8
  8
0
  6
CONTINUOUS
 62
     7
 10
-388.3076711056001
 20
-678.8631981220999
 30
0.0
 11
-388.3076711056001
 21
-658.8631981220999
 31
0.0
  0
ARC
  5
F9
  8
0
  6
CONTINUOUS
 62
     7
 10
-372.3290996770001
 20
-577.1003510236003
 30
0.0
 40
75.72500000000015
 50
90.0
 51
94.1651305595
  0
LINE
  5
FA
  8
0
  6
CONTINUOUS
 62
     7
 10
-363.8290996770001
 20
-501.3753510236005
 30
0.0
 11
-363.8290996770001
 21
-500.3753510236001
 31
0.0
  0
LINE
  5
FB
  8
0
  6
CONTINUOUS
 62
     7
 10
-377.8290996770001
 20
-505.8753510236005
 30
0.0
 11
-372.329099677
 21
-505.8753510236005
 31
0.0
  0
LINE
  5
FC
  8
0
  6
CONTINUOUS
 62
     7
 10
-358.079099677
 20
-507.3753510236001
 30
0.0
 11
-358.079099677
 21
-501.7728759723001
 31
0.0
  0
LINE
  5
FD
  8
0
  6
CONTINUOUS
 62
     7
 10
-361.8290996770002
 20
-500.3753510236
 30
0.0
 11
-361.8290996770002
 21
-501.3753510236
 31
0.0
  0
LINE
  5
FE
  8
0
  6
CONTINUOUS
 62
     7
 10
-356.3076711056001
 20
-658.8631981220999
 30
0.0
 11
-363.3076711056001
 21
-644.8631981220999
 31
0.0
  0
LINE
  5
FF
  8
0
  6
CONTINUOUS
 62
     7
 10
-363.8076711056002
 20
-625.8631981221005
 30
0.0
 11
-380.8076711056002
 21
-625.8631981221005
 31
0.0
  0
LINE
  5
100
  8
0
  6
CONTINUOUS
 62
     7
 10
-380.8076711056002
 20
-625.8631981221005
 30
0.0
 11
-380.8076711056002
 21
-632.8631981221005
 31
0.0
  0
LINE
  5
101
  8
0
  6
CONTINUOUS
 62
     7
 10
-385.8947155932002
 20
-501.3777466372
 30
0.0
 11
-382.8290996770002
 21
-501.3753510236005
 31
0.0
  0
LINE
  5
102
  8
0
  6
CONTINUOUS
 62
     7
 10
-364.3290996771001
 20
-501.5753510236
 30
0.0
 11
-364.3290996770001
 21
-505.8753510236
 31
0.0
  0
LINE
  5
103
  8
0
  6
CONTINUOUS
 62
     7
 10
-386.579099677
 20
-507.3753510236001
 30
0.0
 11
-386.579099677
 21
-501.7728759723001
 31
0.0
  0
LINE
  5
104
  8
0
  6
CONTINUOUS
 62
     7
 10
-364.6641715607002
 20
-614.8631981221004
 30
0.0
 11
-364.8122985666002
 21
-612.8631981221004
 31
0.0
  0
LINE
  5
105
  8
0
  6
CONTINUOUS
 62
     7
 10
-363.3076711056001
 20
-637.8631981221
 30
0.0
 11
-363.3076711056001
 21
-644.8631981221
 31
0.0
  0
LINE
  5
106
  8
0
  6
CONTINUOUS
 62
     7
 10
-372.3076711056001
 20
-540.8640419502
 30
0.0
 11
-385.3076711056001
 21
-540.8640419502
 31
0.0
  0
LINE
  5
107
  8
0
  6
CONTINUOUS
 62
     7
 10
-360.3076711056001
 20
-632.8631981221001
 30
0.0
 11
-360.3076711056001
 21
-634.8631981221001
 31
0.0
  0
LINE
  5
108
  8
0
  6
CONTINUOUS
 62
     7
 10
-393.7726916817001
 20
-690.9068276566001
 30
0.0
 11
-393.7726916817001
 21
-681.8631981221
 31
0.0
  0
LINE
  5
109
  8
0
  6
CONTINUOUS
 62
     7
 10
-372.3290996770001
 20
-507.3753510236001
 30
0.0
 11
-358.0790996770002
 21
-507.3753510236001
 31
0.0
  0
LINE
  5
10A
  8
0
  6
CONTINUOUS
 62
     7
 10
-372.3290996770001
 20
-507.3753510236001
 30
0.0
 11
-386.579099677
 21
-507.3753510236001
 31
0.0
  0
LINE
  5
10B
  8
0
  6
CONTINUOUS
 62
     7
 10
-382.8290996770001
 20
-500.3753510236
 30
0.0
 11
-382.8290996770001
 21
-501.3753510236
 31
0.0
  0
LINE
  5
10C
  8
0
  6
CONTINUOUS
 62
     7
 10
-381.3076711056001
 20
-644.8631981220999
 30
0.0
 11
-363.3076711056001
 21
-644.8631981220999
 31
0.0
  0
LINE
  5
10D
  8
0
  6
CONTINUOUS
 62
     7
 10
-363.8076711056002
 20
-625.8631981221005
 30
0.0
 11
-363.8076711056002
 21
-632.8631981221005
 31
0.0
  0
ARC
  5
10E
  8
0
  6
CONTINUOUS
 62
     7
 10
-372.3290996770001
 20
-577.1003510236003
 30
0.0
 40
75.72500000000015
 50
85.83486944050001
 51
90.0
  0
LINE
  5
10F
  8
0
  6
CONTINUOUS
 62
     7
 10
-360.3076711056001
 20
-634.8631981220999
 30
0.0
 11
-372.3076711056001
 21
-634.8631981220999
 31
0.0
  0
LINE
  5
110
  8
0
  6
CONTINUOUS
 62
     7
 10
-377.8290996770001
 20
-501.5753510236
 30
0.0
 11
-380.329099677
 21
-501.5753510236
 31
0.0
  0
LINE
  5
111
  8
0
  6
CONTINUOUS
 62
     7
 10
-361.8290996770002
 20
-501.3753510236005
 30
0.0
 11
-358.7634837609002
 21
-501.3777466372
 31
0.0
  0
LINE
  5
112
  8
0
  6
CONTINUOUS
 62
     7
 10
-365.8122985666002
 20
-611.8631981221002
 30
0.0
 11
-372.3076711056001
 21
-611.8631981221002
 31
0.0
  0
LINE
  5
113
  8
0
  6
CONTINUOUS
 62
     7
 10
-364.0716635373001
 20
-622.8631981221001
 30
0.0
 11
-364.2197905431001
 21
-620.8631981221001
 31
0.0
  0
ARC
  5
114
  8
0
  6
CONTINUOUS
 62
     7
 10
-360.3076711056001
 20
-637.8631981221
 30
0.0
 40
3.000000000000003
 50
90.0
 51
180.0
  0
LINE
  5
115
  8
0
  6
CONTINUOUS
 62
     7
 10
-353.8426505295002
 20
-678.8631981220999
 30
0.0
 11
-390.7726916817001
 21
-678.8631981220999
 31
0.0
  0
LINE
  5
116
  8
0
  6
CONTINUOUS
 62
     7
 10
-380.3290996770001
 20
-505.8753510236005
 30
0.0
 11
-386.5790996770001
 21
-505.8753510236005
 31
0.0
  0
LINE
  5
117
  8
0
  6
CONTINUOUS
 62
     7
 10
-384.3076711056001
 20
-632.8631981221001
 30
0.0
 11
-360.3076711056003
 21
-632.8631981221001
 31
0.0
  0
LINE
  5
118
  8
0
  6
CONTINUOUS
 62
     6
 10
-306.2290996749001
 20
-460.5640419487001
 30
0.0
 11
-306.2290996749001
 21
-460.9640419502001
 31
0.0
  0
LINE
  5
119
  8
0
  6
CONTINUOUS
 62
     6
 10
-362.0719568212001
 20
-459.7640419502005
 30
0.0
 11
-363.2383887345001
 21
-459.7640419502005
 31
0.0
  0
LINE
  5
11A
  8
0
  6
DASHED
 62
     6
 10
-356.1153195284001
 20
-340.9571926185999
 30
0.0
 11
-353.2851925095001
 21
-340.9571926185999
 31
0.0
  0
LINE
  5
11B
  8
0
  6
CONTINUOUS
 62
     7
 10
-324.1790996749
 20
-454.8640419502002
 30
0.0
 11
-309.3351954737001
 21
-454.8640419502002
 31
0.0
  0
LINE
  5
11C
  8
0
  6
DASHED
 62
     6
 10
-359.1153195284001
 20
-339.9571926186001
 30
0.0
 11
-361.9454465473001
 21
-339.9571926186001
 31
0.0
  0
LINE
  5
11D
  8
0
  6
CONTINUOUS
 62
     7
 10
-299.3290996749001
 20
-462.3640419502
 30
0.0
 11
-299.3290996749001
 21
-456.3640419502
 31
0.0
  0
LINE
  5
11E
  8
0
  6
DASHED
 62
     6
 10
-360.2133957397002
 20
-336.9571926186002
 30
0.0
 11
-361.9454465473002
 21
-339.9571926186001
 31
0.0
  0
LINE
  5
11F
  8
0
  6
DASHED
 62
     6
 10
-356.1153195284001
 20
-339.9571926186001
 30
0.0
 11
-353.2851925095001
 21
-339.9571926186001
 31
0.0
  0
LINE
  5
120
  8
0
  6
CONTINUOUS
 62
     7
 10
-309.3351954737001
 20
-453.8640419502003
 30
0.0
 11
-317.3290996741001
 21
-453.8640419502003
 31
0.0
  0
ARC
  5
121
  8
0
  6
CONTINUOUS
 62
     6
 10
-362.0719568212001
 20
-458.1640419491
 30
0.0
 40
0.8000000000000229
 50
270.0000000004
 51
0.0
  0
LINE
  5
122
  8
0
  6
CONTINUOUS
 62
     7
 10
-361.7576711056001
 20
-309.4314783329002
 30
0.0
 11
-361.7576711056001
 21
-312.0973112026003
 31
0.0
  0
LINE
  5
123
  8
0
  6
CONTINUOUS
 62
     7
 10
-368.6005282485
 20
-324.5501557876003
 30
0.0
 11
-368.6005282485
 21
-327.9571926185998
 31
0.0
  0
ARC
  5
124
  8
0
  6
CONTINUOUS
 62
     6
 10
-307.0290996749
 20
-458.1640419491
 30
0.0
 40
0.7999999999999119
 50
330.1556203487
 51
0.0
  0
LINE
  5
125
  8
0
  6
CONTINUOUS
 62
     7
 10
-322.8290996766002
 20
-466.6952392164
 30
0.0
 11
-322.8290996766002
 21
-464.8640419502
 31
0.0
  0
LINE
  5
126
  8
0
  6
DASHED
 62
     6
 10
-358.1153195284002
 20
-338.4571926186
 30
0.0
 11
-357.1153195284002
 21
-338.4571926186
 31
0.0
  0
LINE
  5
127
  8
0
  6
DASHED
 62
     6
 10
-357.1153195284001
 20
-338.9571926185999
 30
0.0
 11
-357.1153195284001
 21
-338.4571926186
 31
0.0
  0
LINE
  5
128
  8
0
  6
CONTINUOUS
 62
     6
 10
-362.0719568212001
 20
-458.9640419501999
 30
0.0
 11
-363.2383887344002
 21
-458.9640419501999
 31
0.0
  0
ARC
  5
129
  8
0
  6
CONTINUOUS
 62
     6
 10
-362.0719568212001
 20
-460.5640419487001
 30
0.0
 40
0.8000000000000229
 50
0.0
 51
90.00000000039998
  0
LINE
  5
12A
  8
0
  6
CENTER
 62
     1
 10
-297.8290996749002
 20
-459.3640419502001
 30
0.0
 11
-326.1790996749
 21
-459.3640419502001
 31
0.0
  0
ARC
  5
12B
  8
0
  6
CONTINUOUS
 62
     6
 10
-305.8290996749002
 20
-459.3640419502001
 30
0.0
 40
2.400000000000013
 50
257.8264682037
 51
102.1735317963001
  0
LINE
  5
12C
  8
0
  6
CONTINUOUS
 62
     7
 10
-310.4790996749002
 20
-464.8640419502
 30
0.0
 11
-310.4790996749002
 21
-463.8640419501999
 31
0.0
  0
LINE
  5
12D
  8
0
  6
CONTINUOUS
 62
     6
 10
-304.6290996749001
 20
-459.7640419502005
 30
0.0
 11
-303.4626677616001
 21
-459.7640419502005
 31
0.0
  0
LINE
  5
12E
  8
0
  6
CONTINUOUS
 62
     6
 10
-305.4290996749
 20
-457.7640419502001
 30
0.0
 11
-306.2290996749001
 21
-457.7640419502001
 31
0.0
  0
LINE
  5
12F
  8
0
  6
DASHED
 62
     6
 10
-357.1153195284001
 20
-341.9571926186003
 30
0.0
 11
-357.1153195284001
 21
-342.4571926186002
 31
0.0
  0
LINE
  5
130
  8
0
  6
CENTER
 62
     1
 10
-305.8290996749002
 20
-461.8640419502001
 30
0.0
 11
-305.8290996749002
 21
-456.8640419502001
 31
0.0
  0
LINE
  5
131
  8
0
  6
CONTINUOUS
 62
     7
 10
-311.8290996766001
 20
-504.6640419473001
 30
0.0
 11
-311.8290996766001
 21
-474.3011909130001
 31
0.0
  0
ARC
  5
132
  8
0
  6
CONTINUOUS
 62
     7
 10
-324.1790996749
 20
-455.3640419501999
 30
0.0
 40
0.4999999999999449
 50
90.0
 51
180.0
  0
ARC
  5
133
  8
0
  6
CONTINUOUS
 62
     6
 10
-305.8290996749002
 20
-459.3640419502001
 30
0.0
 40
3.000000000000058
 50
260.2878384894
 51
99.71216151060001
  0
ARC
  5
134
  8
0
  6
DASHED
 62
     6
 10
-359.1153195284001
 20
-341.9571926186003
 30
0.0
 40
0.9999999999999454
 50
0.0
 51
90.0
  0
LINE
  5
135
  8
0
  6
CONTINUOUS
 62
     6
 10
-361.2719568212001
 20
-460.5640419487001
 30
0.0
 11
-361.2719568212001
 21
-460.9640419502001
 31
0.0
  0
ARC
  5
136
  8
0
  6
CONTINUOUS
 62
     6
 10
-359.6719568212001
 20
-458.1640419505999
 30
0.0
 40
0.8000000000000229
 50
180.0
 51
269.9999999996
  0
LINE
  5
137
  8
0
  6
DASHED
 62
     7
 10
-358.2158834801001
 20
-333.8121259680003
 30
0.0
 11
-359.0080869253001
 21
-336.4571926186002
 31
0.0
  0
ARC
  5
138
  8
0
  6
CONTINUOUS
 62
     7
 10
-378.1005282485001
 20
-325.2913597489003
 30
0.0
 40
4.499999999999948
 50
0.0
 51
33.0282406537
  0
ARC
  5
139
  8
0
  6
CONTINUOUS
 62
     6
 10
-304.6290996749001
 20
-460.5640419509001
 30
0.0
 40
0.8000000000000784
 50
89.99999999959999
 51
180.0
  0
LINE
  5
13A
  8
0
  6
CENTER
 62
     1
 10
-323.3505282485
 20
-322.9396644008
 30
0.0
 11
-323.3505282485
 21
-424.4158352564001
 31
0.0
  0
ARC
  5
13B
  8
0
  6
CONTINUOUS
 62
     6
 10
-359.6719568212001
 20
-460.5640419509001
 30
0.0
 40
0.8000000000000229
 50
89.99999999959999
 51
180.0
  0
ARC
  5
13C
  8
0
  6
CONTINUOUS
 62
     2
 10
-378.1005282485001
 20
-324.5501557876003
 30
0.0
 40
2.000000000000002
 50
0.0
 51
33.0282406537
  0
LINE
  5
13D
  8
0
  6
DASHED
 62
     6
 10
-353.2851925095001
 20
-340.9571926185999
 30
0.0
 11
-355.0172433170001
 21
-343.9571926185999
 31
0.0
  0
LINE
  5
13E
  8
0
  6
CONTINUOUS
 62
     7
 10
-301.8290996749002
 20
-464.8640419502
 30
0.0
 11
-306.3351954737001
 21
-464.8640419502
 31
0.0
  0
ARC
  5
13F
  8
0
  6
DASHED
 62
     6
 10
-354.1512179132001
 20
-340.4571926186
 30
0.0
 40
0.9999999999999454
 50
330.0
 51
30.0
  0
ARC
  5
140
  8
0
  6
CONTINUOUS
 62
     6
 10
-304.6290996749001
 20
-458.1640419505999
 30
0.0
 40
0.8000000000000784
 50
180.0
 51
269.9999999996
  0
ARC
  5
141
  8
0
  6
CONTINUOUS
 62
     7
 10
-305.8290996749002
 20
-459.3640419502001
 30
0.0
 40
4.500000000000004
 50
270.0
 51
90.0
  0
ARC
  5
142
  8
0
  6
DASHED
 62
     6
 10
-356.1153195284001
 20
-341.9571926186003
 30
0.0
 40
0.9999999999999454
 50
90.0
 51
180.0
  0
LINE
  5
143
  8
0
  6
CONTINUOUS
 62
     6
 10
-360.4719568212002
 20
-460.5640419509001
 30
0.0
 11
-360.4719568212002
 21
-460.9640419502001
 31
0.0
  0
LINE
  5
144
  8
0
  6
CONTINUOUS
 62
     7
 10
-356.8719568212002
 20
-453.8640419502003
 30
0.0
 11
-372.3719568204
 21
-453.8640419502003
 31
0.0
  0
LINE
  5
145
  8
0
  6
CONTINUOUS
 62
     7
 10
-309.3351954737001
 20
-464.8640419502
 30
0.0
 11
-324.1790996749
 21
-464.8640419502
 31
0.0
  0
LINE
  5
146
  8
0
  6
CONTINUOUS
 62
     7
 10
-306.3351954737
 20
-454.8640419502002
 30
0.0
 11
-305.8290996749001
 21
-454.8640419502002
 31
0.0
  0
LINE
  5
147
  8
0
  6
CONTINUOUS
 62
     6
 10
-305.4290996749
 20
-460.5640419509001
 30
0.0
 11
-305.4290996749
 21
-460.9640419502001
 31
0.0
  0
LINE
  5
148
  8
0
  6
CONTINUOUS
 62
     6
 10
-360.4719568212002
 20
-458.1640419505999
 30
0.0
 11
-360.4719568212002
 21
-457.7640419501999
 31
0.0
  0
LINE
  5
149
  8
0
  6
CONTINUOUS
 62
     7
 10
-324.1790996749
 20
-454.8640419502002
 30
0.0
 11
-324.1790996749
 21
-453.8640419502001
 31
0.0
  0
LINE
  5
14A
  8
0
  6
CONTINUOUS
 62
     7
 10
-309.9790996749002
 20
-463.8640419502001
 30
0.0
 11
-309.9790996749002
 21
-454.8640419502001
 31
0.0
  0
LINE
  5
14B
  8
0
  6
CONTINUOUS
 62
     7
 10
-301.8290996749002
 20
-453.8640419502003
 30
0.0
 11
-306.3351954737001
 21
-453.8640419502003
 31
0.0
  0
LINE
  5
14C
  8
0
  6
CONTINUOUS
 62
     7
 10
-310.4790996749002
 20
-454.8640419502002
 30
0.0
 11
-310.4790996749002
 21
-453.8640419502001
 31
0.0
  0
LINE
  5
14D
  8
0
  6
CONTINUOUS
 62
     6
 10
-306.2290996749001
 20
-458.1640419491
 30
0.0
 11
-306.2290996749001
 21
-457.7640419502
 31
0.0
  0
LINE
  5
14E
  8
0
  6
CONTINUOUS
 62
     7
 10
-322.8290996766002
 20
-471.2982150647001
 30
0.0
 11
-322.8290996766002
 21
-469.6952392164001
 31
0.0
  0
LINE
  5
14F
  8
0
  6
CONTINUOUS
 62
     7
 10
-324.6790996749001
 20
-463.3640419502004
 30
0.0
 11
-324.6790996749001
 21
-455.3640419502003
 31
0.0
  0
LINE
  5
150
  8
0
  6
CONTINUOUS
 62
     6
 10
-361.2719568212001
 20
-460.9640419502002
 30
0.0
 11
-360.4719568212002
 21
-460.9640419502002
 31
0.0
  0
LINE
  5
151
  8
0
  6
CONTINUOUS
 62
     6
 10
-306.2290996749001
 20
-460.9640419502002
 30
0.0
 11
-305.4290996749001
 21
-460.9640419502002
 31
0.0
  0
ARC
  5
152
  8
0
  6
CONTINUOUS
 62
     7
 10
-324.1790996749
 20
-463.3640419502004
 30
0.0
 40
0.4999999999999449
 50
180.0
 51
270.0
  0
LINE
  5
153
  8
0
  6
CONTINUOUS
 62
     7
 10
-306.3351954737
 20
-463.8640419502001
 30
0.0
 11
-305.8290996749001
 21
-463.8640419502001
 31
0.0
  0
LINE
  5
154
  8
0
  6
CONTINUOUS
 62
     7
 10
-311.8290996766001
 20
-471.2982150647001
 30
0.0
 11
-311.8290996766001
 21
-464.8640419502001
 31
0.0
  0
ARC
  5
155
  8
0
  6
CONTINUOUS
 62
     6
 10
-307.0290996749
 20
-460.5640419487001
 30
0.0
 40
0.7999999999999119
 50
0.0
 51
29.84437965129999
  0
CIRCLE
  5
156
  8
0
  6
CONTINUOUS
 62
     7
 10
-384.3076711056001
 20
-638.3631981221001
 30
0.0
 40
1.500000000000001
  0
LINE
  5
157
  8
0
  6
DASHED
 62
     6
 10
-357.1153195284001
 20
-342.4571926186
 30
0.0
 11
-358.1153195284002
 21
-342.4571926186
 31
0.0
  0
ARC
  5
158
  8
0
  6
DASHED
 62
     6
 10
-356.1153195284001
 20
-338.9571926185999
 30
0.0
 40
0.9999999999999454
 50
180.0
 51
270.0
  0
LINE
  5
159
  8
0
  6
CONTINUOUS
 62
     6
 10
-359.6719568212001
 20
-459.7640419502005
 30
0.0
 11
-358.5055249079001
 21
-459.7640419502005
 31
0.0
  0
LINE
  5
15A
  8
0
  6
CONTINUOUS
 62
     6
 10
-359.6719568212001
 20
-458.9640419501999
 30
0.0
 11
-358.5055249080002
 21
-458.9640419501999
 31
0.0
  0
LINE
  5
15B
  8
0
  6
CONTINUOUS
 62
     7
 10
-322.8290996766002
 20
-504.6640419473001
 30
0.0
 11
-322.8290996766002
 21
-474.3011909130001
 31
0.0
  0
LINE
  5
15C
  8
0
  6
CONTINUOUS
 62
     6
 10
-305.4290996749
 20
-458.1640419505999
 30
0.0
 11
-305.4290996749
 21
-457.7640419501999
 31
0.0
  0
ARC
  5
15D
  8
0
  6
CONTINUOUS
 62
     7
 10
-301.8290996749002
 20
-462.3640419502
 30
0.0
 40
2.499999999999947
 50
270.0
 51
0.0
  0
LINE
  5
15E
  8
0
  6
CONTINUOUS
 62
     7
 10
-324.1790996749
 20
-463.8640419502001
 30
0.0
 11
-309.3351954737001
 21
-463.8640419502001
 31
0.0
  0
LINE
  5
15F
  8
0
  6
CONTINUOUS
 62
     7
 10
-317.3290996741002
 20
-453.8640419502003
 30
0.0
 11
-324.1790996749001
 21
-453.8640419502003
 31
0.0
  0
ARC
  5
160
  8
0
  6
CONTINUOUS
 62
     7
 10
-301.8290996749002
 20
-456.3640419502005
 30
0.0
 40
2.499999999999947
 50
0.0
 51
90.0
  0
LINE
  5
161
  8
0
  6
CONTINUOUS
 62
     7
 10
-324.1790996749
 20
-464.8640419502
 30
0.0
 11
-324.1790996749
 21
-463.8640419501999
 31
0.0
  0
LINE
  5
162
  8
0
  6
CONTINUOUS
 62
     6
 10
-361.2719568212001
 20
-458.1640419491
 30
0.0
 11
-361.2719568212001
 21
-457.7640419502
 31
0.0
  0
LINE
  5
163
  8
0
  6
CONTINUOUS
 62
     6
 10
-304.6290996749001
 20
-458.9640419501999
 30
0.0
 11
-303.4626677617002
 21
-458.9640419501999
 31
0.0
  0
ARC
  5
164
  8
0
  6
CONTINUOUS
 62
     7
 10
-313.1148139609001
 20
-432.4345629842006
 30
0.0
 40
3.000000000000003
 50
90.0
 51
180.0
  0
ARC
  5
165
  8
0
  6
DASHED
 62
     7
 10
-308.6153195284001
 20
-334.4020833778004
 30
0.0
 40
0.6000000000000449
 50
183.6522468033999
 51
354.3475503906
  0
LINE
  5
166
  8
0
  6
CONTINUOUS
 62
     7
 10
-371.1362425318002
 20
-432.4345629842006
 30
0.0
 11
-371.1362425318002
 21
-453.8640419502005
 31
0.0
  0
LINE
  5
167
  8
0
  6
CONTINUOUS
 62
     7
 10
-311.5470330640001
 20
-429.4345629842001
 30
0.0
 11
-368.1362425318002
 21
-429.4345629842001
 31
0.0
  0
LINE
  5
168
  8
0
  6
CONTINUOUS
 62
     7
 10
-380.2474246622501
 20
-607.5404904058003
 30
0.0
 11
-364.3679175489501
 21
-607.5404904058003
 31
0.0
  0
LINE
  5
169
  8
0
  6
CONTINUOUS
 62
     7
 10
-380.09929765635
 20
-605.5404904058005
 30
0.0
 11
-380.2474246622499
 21
-607.5404904058005
 31
0.0
  0
LINE
  5
16A
  8
0
  6
CONTINUOUS
 62
     7
 10
-300.547033064
 20
-437.4520448105002
 30
0.0
 11
-311.547033064
 21
-437.4520448105002
 31
0.0
  0
LINE
  5
16B
  8
0
  6
CONTINUOUS
 62
     7
 10
-316.1148139609001
 20
-432.4345629842006
 30
0.0
 11
-316.1148139609001
 21
-453.8640419502005
 31
0.0
  0
ARC
  5
16C
  8
0
  6
CONTINUOUS
 62
     7
 10
-295.8505282485
 20
-418.4855588526
 30
0.0
 40
1.000000000000056
 50
270.0
 51
0.0
  0
ARC
  5
16D
  8
0
  6
CONTINUOUS
 62
     7
 10
-294.8505282485
 20
-323.7075735629005
 30
0.0
 40
1.999999999999946
 50
0.0
 51
90.0
  0
LINE
  5
16E
  8
0
  6
CONTINUOUS
 62
     7
 10
-300.547033064
 20
-423.4520448105
 30
0.0
 11
-300.547033064
 21
-437.4520448105
 31
0.0
  0
LINE
  5
16F
  8
0
  6
DASHED
 62
     7
 10
-309.2153192545001
 20
-334.4026566507
 30
0.0
 11
-309.2169096861001
 21
-332.7380766994
 31
0.0
  0
LINE
  5
170
  8
0
  6
CONTINUOUS
 62
     7
 10
-309.5160445548497
 20
-605.5404904058005
 30
0.0
 11
-285.6055080335496
 21
-656.6490533232005
 31
0.0
  0
ARC
  5
171
  8
0
  6
CONTINUOUS
 62
     7
 10
-316.3179501023001
 20
-421.4855588526001
 30
0.0
 40
2.000000000000002
 50
90.0
 51
180.0
  0
LINE
  5
172
  8
0
  6
CONTINUOUS
 62
     7
 10
-367.1362425319001
 20
-432.4345629842006
 30
0.0
 11
-316.1148139609001
 21
-432.4345629842006
 31
0.0
  0
ARC
  5
173
  8
0
  6
CONTINUOUS
 62
     7
 10
-312.1148139609
 20
-433.4345629842001
 30
0.0
 40
0.9999999999999454
 50
90.0
 51
180.0
  0
LINE
  5
174
  8
0
  6
CONTINUOUS
 62
     7
 10
-313.1148139609001
 20
-433.4345629842001
 30
0.0
 11
-313.1148139609001
 21
-453.8640419502001
 31
0.0
  0
ARC
  5
175
  8
0
  6
CONTINUOUS
 62
     7
 10
-294.8505282485
 20
-419.4855588525999
 30
0.0
 40
1.999999999999946
 50
270.0
 51
0.0
  0
ARC
  5
176
  8
0
  6
CONTINUOUS
 62
     7
 10
-368.1362425318002
 20
-432.4345629842006
 30
0.0
 40
3.000000000000058
 50
90.0
 51
180.0
  0
ARC
  5
177
  8
0
  6
CONTINUOUS
 62
     7
 10
-309.3351954737001
 20
-471.3011909130003
 30
0.0
 40
3.000000000000058
 50
270.0
 51
0.0
  0
LINE
  5
178
  8
0
  6
CONTINUOUS
 62
     7
 10
-325.2474246622501
 20
-607.5404904058003
 30
0.0
 11
-309.3679175489502
 21
-607.5404904058003
 31
0.0
  0
ARC
  5
179
  8
0
  6
CONTINUOUS
 62
     7
 10
-315.3179501024001
 20
-425.4275493472999
 30
0.0
 40
0.9999999999999454
 50
180.0
 51
270.0
  0
LINE
  5
17A
  8
0
  6
CONTINUOUS
 62
     7
 10
-312.1148139609
 20
-432.4345629842006
 30
0.0
 11
-311.547033064
 21
-432.4345629842006
 31
0.0
  0
LINE
  5
17B
  8
0
  6
CONTINUOUS
 62
     7
 10
-315.3179501024001
 20
-426.4275493473005
 30
0.0
 11
-311.5470330640001
 21
-426.4275493473005
 31
0.0
  0
LINE
  5
17C
  8
0
  6
CONTINUOUS
 62
     7
 10
-311.5470330640001
 20
-428.4275493472001
 30
0.0
 11
-316.3179501023001
 21
-428.4275493472001
 31
0.0
  0
LINE
  5
17D
  8
0
  6
CONTINUOUS
 62
     7
 10
-290.3076711055501
 20
-696.8631981220997
 30
0.0
 11
-290.3076711055501
 21
-695.8631981220997
 31
0.0
  0
LINE
  5
17E
  8
0
  6
CONTINUOUS
 62
     7
 10
-345.3076711055501
 20
-696.8631981220997
 30
0.0
 11
-345.3076711055501
 21
-695.8631981220997
 31
0.0
  0
LINE
  5
17F
  8
0
  6
CONTINUOUS
 62
     7
 10
-380.09929765635
 20
-605.5404904058005
 30
0.0
 11
-364.51604455485
 21
-605.5404904058005
 31
0.0
  0
LINE
  5
180
  8
0
  6
CONTINUOUS
 62
     7
 10
-368.1362425319001
 20
-433.4345629842001
 30
0.0
 11
-368.1362425319001
 21
-453.8640419502001
 31
0.0
  0
LINE
  5
181
  8
0
  6
CONTINUOUS
 62
     7
 10
-318.3179501023
 20
-421.4855588526001
 30
0.0
 11
-318.3179501023
 21
-426.4275493472001
 31
0.0
  0
LINE
  5
182
  8
0
  6
CONTINUOUS
 62
     7
 10
-364.5160445548496
 20
-605.5404904058005
 30
0.0
 11
-364.3679175489496
 21
-607.5404904058005
 31
0.0
  0
ARC
  5
183
  8
0
  6
CONTINUOUS
 62
     7
 10
-367.1362425319001
 20
-433.4345629842001
 30
0.0
 40
0.9999999999999454
 50
90.0
 51
180.0
  0
LINE
  5
184
  8
0
  6
CONTINUOUS
 62
     7
 10
-309.5160445548497
 20
-605.5404904058005
 30
0.0
 11
-309.3679175489497
 21
-607.5404904058005
 31
0.0
  0
LINE
  5
185
  8
0
  6
CONTINUOUS
 62
     7
 10
-311.8076711042001
 20
-428.4275493472001
 30
0.0
 11
-311.8076711042001
 21
-429.4345629842001
 31
0.0
  0
LINE
  5
186
  8
0
  6
CONTINUOUS
 62
     7
 10
-311.8076711042001
 20
-421.4855588526001
 30
0.0
 11
-311.8076711042001
 21
-426.4275493473001
 31
0.0
  0
LINE
  5
187
  8
0
  6
CONTINUOUS
 62
     7
 10
-325.0992976563501
 20
-605.5404904058005
 30
0.0
 11
-325.24742466225
 21
-607.5404904058005
 31
0.0
  0
ARC
  5
188
  8
0
  6
CONTINUOUS
 62
     7
 10
-316.3179501023001
 20
-426.4275493471999
 30
0.0
 40
2.000000000000002
 50
180.0
 51
270.0
  0
LINE
  5
189
  8
0
  6
CONTINUOUS
 62
     7
 10
-311.8076711042001
 20
-417.9571926186001
 30
0.0
 11
-311.8076711042001
 21
-419.4855588526001
 31
0.0
  0
ARC
  5
18A
  8
0
  6
CONTINUOUS
 62
     7
 10
-315.3179501024001
 20
-422.4855588526
 30
0.0
 40
0.9999999999999454
 50
90.0
 51
180.0
  0
LINE
  5
18B
  8
0
  6
CONTINUOUS
 62
     7
 10
-309.3679175489496
 20
-607.5404904058003
 30
0.0
 11
-286.4361220637496
 21
-657.2345723352003
 31
0.0
  0
LINE
  5
18C
  8
0
  6
CONTINUOUS
 62
     7
 10
-311.8076711042001
 20
-432.4345629842006
 30
0.0
 11
-311.8076711042001
 21
-453.8640419502005
 31
0.0
  0
LINE
  5
18D
  8
0
  6
CONTINUOUS
 62
     7
 10
-325.0992976563501
 20
-605.5404904058005
 30
0.0
 11
-309.5160445548501
 21
-605.5404904058005
 31
0.0
  0
LINE
  5
18E
  8
0
  6
CONTINUOUS
 62
     7
 10
-37.40666850989993
 20
-267.8640419501
 30
0.0
 11
-37.40666850989993
 21
-250.8640419501002
 31
0.0
  0
LINE
  5
18F
  8
0
  6
CONTINUOUS
 62
     7
 10
-24.40666850989992
 20
-231.8640419502003
 30
0.0
 11
-24.40666850989992
 21
-226.8640419502003
 31
0.0
  0
LINE
  5
190
  8
0
  6
CONTINUOUS
 62
     7
 10
-57.90666850989989
 20
-426.8640419502001
 30
0.0
 11
-24.40666850989998
 21
-426.8640419502001
 31
0.0
  0
LINE
  5
191
  8
0
  6
CONTINUOUS
 62
     7
 10
-55.97646750329987
 20
-521.3727137427002
 30
0.0
 11
-41.90666850989994
 21
-521.8640419502003
 31
0.0
  0
ARC
  5
192
  8
0
  6
CONTINUOUS
 62
     7
 10
44.09333149009997
 20
-437.5099399839003
 30
0.0
 40
1.499999999999835
 50
311.8103148958
 51
0.0
  0
LINE
  5
193
  8
0
  6
CONTINUOUS
 62
     7
 10
-24.40666850989992
 20
-236.8640419502002
 30
0.0
 11
-57.90666850989983
 21
-236.8640419502002
 31
0.0
  0
LINE
  5
194
  8
0
  6
CONTINUOUS
 62
     7
 10
-24.40666850989992
 20
-243.8640419502005
 30
0.0
 11
-24.40666850989992
 21
-236.8640419502005
 31
0.0
  0
LINE
  5
195
  8
0
  6
CONTINUOUS
 62
     7
 10
-37.40666850989993
 20
-236.8640419502002
 30
0.0
 11
-37.40666850989993
 21
-231.8640419502002
 31
0.0
  0
LINE
  5
196
  8
0
  6
CONTINUOUS
 62
     7
 10
-24.40666850989992
 20
-426.8640419502001
 30
0.0
 11
-24.40666850989992
 21
-421.8640419502001
 31
0.0
  0
LINE
  5
197
  8
0
  6
CONTINUOUS
 62
     7
 10
-94.90666850989993
 20
-513.6405959294001
 30
0.0
 11
-94.90666850989993
 21
-473.0719734790002
 31
0.0
  0
LINE
  5
198
  8
0
  6
CONTINUOUS
 62
     7
 10
-95.90666850989993
 20
-472.0719734790005
 30
0.0
 11
-94.90666850989997
 21
-473.0719734790005
 31
0.0
  0
LINE
  5
199
  8
0
  6
CONTINUOUS
 62
     7
 10
48.59333149010014
 20
-339.7181439164002
 30
0.0
 11
48.59333149010014
 21
-358.8640419502003
 31
0.0
  0
LINE
  5
19A
  8
0
  6
CONTINUOUS
 62
     7
 10
-28.40666850990003
 20
-236.8640419502002
 30
0.0
 11
-28.40666850990003
 21
-231.8640419502002
 31
0.0
  0
LINE
  5
19B
  8
0
  6
CONTINUOUS
 62
     7
 10
-24.40666850989992
 20
-445.8640419500999
 30
0.0
 11
-41.90666850989994
 21
-445.8640419500999
 31
0.0
  0
LINE
  5
19C
  8
0
  6
CONTINUOUS
 62
     7
 10
-24.40666850989992
 20
-243.8640419501
 30
0.0
 11
-24.40666850989992
 21
-250.8640419501
 31
0.0
  0
LINE
  5
19D
  8
0
  6
CONTINUOUS
 62
     7
 10
-94.90666850989993
 20
-473.0719734790001
 30
0.0
 11
-94.90666850989993
 21
-180.0874879710001
 31
0.0
  0
LINE
  5
19E
  8
0
  6
CONTINUOUS
 62
     7
 10
-41.90666850989988
 20
-462.8640419501
 30
0.0
 11
-24.40666850989987
 21
-462.8640419501
 31
0.0
  0
LINE
  5
19F
  8
0
  6
CONTINUOUS
 62
     7
 10
-41.40666850989994
 20
-243.8640419502005
 30
0.0
 11
-24.4066685099
 21
-243.8640419502005
 31
0.0
  0
LINE
  5
1A0
  8
0
  6
CONTINUOUS
 62
     7
 10
-24.40666850989992
 20
-267.8640419501
 30
0.0
 11
-24.40666850989992
 21
-274.8640419501
 31
0.0
  0
LINE
  5
1A1
  8
0
  6
CENTER
 62
     1
 10
-32.90666850989976
 20
-277.8640419502001
 30
0.0
 11
-32.90666850989976
 21
-223.8640419502003
 31
0.0
  0
ARC
  5
1A2
  8
0
  6
CONTINUOUS
 62
     7
 10
47.09333149009998
 20
-336.3640419502001
 30
0.0
 40
3.000000000000003
 50
311.8103148958
 51
228.1896851042
  0
ARC
  5
1A3
  8
0
  6
CONTINUOUS
 62
     7
 10
47.09333149009998
 20
-358.8640419502001
 30
0.0
 40
1.500000000000168
 50
180.0
 51
0.0
  0
LINE
  5
1A4
  8
0
  6
CONTINUOUS
 62
     7
 10
-37.40666850989993
 20
-431.8640419502
 30
0.0
 11
-37.40666850989993
 21
-426.8640419502
 31
0.0
  0
LINE
  5
1A5
  8
0
  6
CONTINUOUS
 62
     7
 10
-41.40666850989994
 20
-243.8640419502005
 30
0.0
 11
-41.40666850989994
 21
-241.8640419502005
 31
0.0
  0
LINE
  5
1A6
  8
0
  6
CONTINUOUS
 62
     7
 10
54.59333149009993
 20
-202.3640419502002
 30
0.0
 11
-32.40666850990007
 21
-202.3640419502002
 31
0.0
  0
ARC
  5
1A7
  8
0
  6
CONTINUOUS
 62
     7
 10
47.09333149009998
 20
-418.3640419502002
 30
0.0
 40
1.500000000000168
 50
0.0
 51
180.0
  0
ARC
  5
1A8
  8
0
  6
CONTINUOUS
 62
     7
 10
50.0933314901002
 20
-339.7181439164002
 30
0.0
 40
1.500000000000057
 50
131.8103148958
 51
180.0
  0
LINE
  5
1A9
  8
0
  6
CONTINUOUS
 62
     7
 10
-41.90666850989988
 20
-512.5890897736999
 30
0.0
 11
54.59333149010018
 21
-510.0621483423
 31
0.0
  0
LINE
  5
1AA
  8
0
  6
CONTINUOUS
 62
     7
 10
-325.2148139627
 20
-317.0435615622005
 30
0.0
 11
-324.1005282485
 21
-317.0435615622005
 31
0.0
  0
LINE
  5
1AB
  8
0
  6
CONTINUOUS
 62
     7
 10
-57.90666850989989
 20
-231.8640419502003
 30
0.0
 11
-24.40666850989998
 21
-231.8640419502003
 31
0.0
  0
LINE
  5
1AC
  8
0
  6
CONTINUOUS
 62
     7
 10
-24.40666850989992
 20
-250.8640419501001
 30
0.0
 11
-41.90666850989994
 21
-250.8640419501001
 31
0.0
  0
LINE
  5
1AD
  8
0
  6
CONTINUOUS
 62
     7
 10
-28.40666850990003
 20
-267.8640419501
 30
0.0
 11
-28.40666850990003
 21
-250.8640419501002
 31
0.0
  0
LINE
  5
1AE
  8
0
  6
CONTINUOUS
 62
     7
 10
-38.59238158449995
 20
-243.8640419501
 30
0.0
 11
-24.40666850990001
 21
-243.8640419501
 31
0.0
  0
LINE
  5
1AF
  8
0
  6
CENTER
 62
     1
 10
-32.90666850989976
 20
-469.8640419502001
 30
0.0
 11
-32.90666850989976
 21
-418.8640419502001
 31
0.0
  0
LINE
  5
1B0
  8
0
  6
CONTINUOUS
 62
     7
 10
-24.40666850989992
 20
-431.8640419502
 30
0.0
 11
-57.90666850989983
 21
-431.8640419502
 31
0.0
  0
LINE
  5
1B1
  8
0
  6
CONTINUOUS
 62
     7
 10
-41.90666850989988
 20
-267.8640419501
 30
0.0
 11
-24.40666850989987
 21
-267.8640419501
 31
0.0
  0
LINE
  5
1B2
  8
0
  6
CONTINUOUS
 62
     7
 10
-24.40666850989992
 20
-462.8640419501
 30
0.0
 11
-24.40666850989992
 21
-469.8640419501001
 31
0.0
  0
LINE
  5
1B3
  8
0
  6
CONTINUOUS
 62
     7
 10
54.59333149009993
 20
-169.8640419502001
 30
0.0
 11
-125.4066685099
 21
-169.8640419502001
 31
0.0
  0
LINE
  5
1B4
  8
0
  6
CONTINUOUS
 62
     7
 10
-32.90666850989976
 20
-241.8640419502001
 30
0.0
 11
-57.90666850989978
 21
-241.8640419502001
 31
0.0
  0
LINE
  5
1B5
  8
0
  6
CONTINUOUS
 62
     7
 10
-325.2148139627
 20
-314.5435615622001
 30
0.0
 11
-324.1005282485
 21
-314.5435615622001
 31
0.0
  0
ARC
  5
1B6
  8
0
  6
CONTINUOUS
 62
     7
 10
-122.4066685098999
 20
-162.6244405949001
 30
0.0
 40
2.999999999999892
 50
94.7636416907
 51
180.0
  0
LINE
  5
1B7
  8
0
  6
CONTINUOUS
 62
     7
 10
-41.40666850989994
 20
-438.8640419502001
 30
0.0
 11
-24.4066685099
 21
-438.8640419502001
 31
0.0
  0
LINE
  5
1B8
  8
0
  6
CONTINUOUS
 62
     7
 10
-32.40666850989982
 20
-169.8640419502001
 30
0.0
 11
-32.40666850989982
 21
-202.3640419502001
 31
0.0
  0
LINE
  5
1B9
  8
0
  6
CONTINUOUS
 62
     7
 10
-24.40666850989992
 20
-226.8640419502002
 30
0.0
 11
-57.90666850989983
 21
-226.8640419502002
 31
0.0
  0
LINE
  5
1BA
  8
0
  6
CONTINUOUS
 62
     7
 10
-24.40666850989992
 20
-438.8640419502001
 30
0.0
 11
-24.40666850989992
 21
-431.8640419502002
 31
0.0
  0
LINE
  5
1BB
  8
0
  6
CONTINUOUS
 62
     7
 10
-32.90666850989976
 20
-436.8640419502001
 30
0.0
 11
-57.90666850989978
 21
-436.8640419502001
 31
0.0
  0
LINE
  5
1BC
  8
0
  6
CONTINUOUS
 62
     7
 10
45.59333149010014
 20
-339.7181439164002
 30
0.0
 11
45.59333149010014
 21
-358.8640419502003
 31
0.0
  0
LINE
  5
1BD
  8
0
  6
CONTINUOUS
 62
     7
 10
-24.40666850989992
 20
-438.8640419501003
 30
0.0
 11
-24.40666850989992
 21
-445.8640419501002
 31
0.0
  0
LINE
  5
1BE
  8
0
  6
CONTINUOUS
 62
     7
 10
-125.4066685098999
 20
-162.6244405949001
 30
0.0
 11
-125.4066685098999
 21
-169.8640419502002
 31
0.0
  0
LINE
  5
1BF
  8
0
  6
CONTINUOUS
 62
     7
 10
-28.40666850990003
 20
-462.8640419501
 30
0.0
 11
-28.40666850990003
 21
-445.8640419501
 31
0.0
  0
LINE
  5
1C0
  8
0
  6
CONTINUOUS
 62
     7
 10
-94.90666850989993
 20
-184.9894437547
 30
0.0
 11
-95.90666850989989
 21
-185.6561104214
 31
0.0
  0
LINE
  5
1C1
  8
0
  6
CONTINUOUS
 62
     7
 10
48.59333149010014
 20
-437.5099399839003
 30
0.0
 11
48.59333149010014
 21
-418.3640419502002
 31
0.0
  0
ARC
  5
1C2
  8
0
  6
CONTINUOUS
 62
     7
 10
47.09333149009998
 20
-440.8640419502004
 30
0.0
 40
3.000000000000003
 50
131.8103148958
 51
48.18968510420001
  0
LINE
  5
1C3
  8
0
  6
CONTINUOUS
 62
     7
 10
-37.40666850989993
 20
-462.8640419501
 30
0.0
 11
-37.40666850989993
 21
-445.8640419501
 31
0.0
  0
LINE
  5
1C4
  8
0
  6
CONTINUOUS
 62
     7
 10
-28.40666850990003
 20
-431.8640419502
 30
0.0
 11
-28.40666850990003
 21
-426.8640419502
 31
0.0
  0
ARC
  5
1C5
  8
0
  6
CONTINUOUS
 62
     7
 10
50.0933314901002
 20
-437.5099399839003
 30
0.0
 40
1.500000000000057
 50
180.0
 51
228.1896851042
  0
LINE
  5
1C6
  8
0
  6
CONTINUOUS
 62
     7
 10
-319.6005282485
 20
-319.0435615622001
 30
0.0
 11
-319.6005282485
 21
-327.9571926185001
 31
0.0
  0
LINE
  5
1C7
  8
0
  6
CONTINUOUS
 62
     7
 10
45.59333149010014
 20
-437.5099399839003
 30
0.0
 11
45.59333149010014
 21
-418.3640419502002
 31
0.0
  0
ARC
  5
1C8
  8
0
  6
CONTINUOUS
 62
     7
 10
25.59333149010012
 20
-533.0678388325001
 30
0.0
 40
2.500000000000058
 50
193.348056773
 51
0.0
  0
LINE
  5
1C9
  8
0
  6
CONTINUOUS
 62
     7
 10
-24.40666850989992
 20
-274.8640419501006
 30
0.0
 11
-41.90666850989994
 21
-274.8640419501006
 31
0.0
  0
LINE
  5
1CA
  8
0
  6
CONTINUOUS
 62
     7
 10
12.59333149010011
 20
-517.5678388325
 30
0.0
 11
28.09333149009952
 21
-517.5678388325
 31
0.0
  0
LINE
  5
1CB
  8
0
  6
CONTINUOUS
 62
     7
 10
28.09333149010018
 20
-523.5678388325
 30
0.0
 11
12.59333149010022
 21
-523.5678388325
 31
0.0
  0
LINE
  5
1CC
  8
0
  6
CONTINUOUS
 62
     7
 10
2.093331490100159
 20
-523.5678388325
 30
0.0
 11
2.093331490100159
 21
-517.5678388325
 31
0.0
  0
LINE
  5
1CD
  8
0
  6
CONTINUOUS
 62
     7
 10
28.09333149010018
 20
-517.5678388325
 30
0.0
 11
28.09333149010018
 21
-511.5678388325
 31
0.0
  0
LINE
  5
1CE
  8
0
  6
CONTINUOUS
 62
     7
 10
2.093331490100159
 20
-533.6703298253001
 30
0.0
 11
2.093331490100159
 21
-523.5678388324999
 31
0.0
  0
LINE
  5
1CF
  8
0
  6
CONTINUOUS
 62
     7
 10
2.093331490100159
 20
-511.5678388325
 30
0.0
 11
2.093331490100159
 21
-517.5678388325
 31
0.0
  0
LINE
  5
1D0
  8
0
  6
CONTINUOUS
 62
     7
 10
12.59333149010011
 20
-535.5678388325005
 30
0.0
 11
-0.4066685098998418
 21
-535.5678388325005
 31
0.0
  0
LINE
  5
1D1
  8
0
  6
CONTINUOUS
 62
     7
 10
12.59333149010011
 20
-517.5678388325
 30
0.0
 11
-2.906668509899844
 21
-517.5678388325
 31
0.0
  0
ARC
  5
1D2
  8
0
  6
CONTINUOUS
 62
     7
 10
5.593331490100106
 20
-535.5678388325005
 30
0.0
 40
5.999999999999894
 50
180.0
 51
270.0
  0
LINE
  5
1D3
  8
0
  6
CONTINUOUS
 62
     7
 10
12.59333149010011
 20
-511.5678388325
 30
0.0
 11
28.09333149009952
 21
-511.5678388325
 31
0.0
  0
LINE
  5
1D4
  8
0
  6
CONTINUOUS
 62
     7
 10
-2.906668509899735
 20
-517.5678388325
 30
0.0
 11
-2.906668509899735
 21
-511.5678388325
 31
0.0
  0
LINE
  5
1D5
  8
0
  6
CONTINUOUS
 62
     7
 10
-122.6558049495001
 20
-159.6348033201001
 30
0.0
 11
54.59333149009993
 21
-144.8640419502001
 31
0.0
  0
LINE
  5
1D6
  8
0
  6
CONTINUOUS
 62
     7
 10
23.09333149010007
 20
-511.5678388325
 30
0.0
 11
23.09333149010007
 21
-517.5678388325
 31
0.0
  0
ARC
  5
1D7
  8
0
  6
CONTINUOUS
 62
     7
 10
-0.406668509899788
 20
-533.0678388325001
 30
0.0
 40
2.499999999999947
 50
180.0
 51
346.651943227
  0
LINE
  5
1D8
  8
0
  6
CONTINUOUS
 62
     7
 10
23.09333149010007
 20
-523.5678388325
 30
0.0
 11
23.09333149010007
 21
-517.5678388325
 31
0.0
  0
LINE
  5
1D9
  8
0
  6
CONTINUOUS
 62
     7
 10
12.59333149010011
 20
-541.5678388325002
 30
0.0
 11
19.59333149010017
 21
-541.5678388325002
 31
0.0
  0
LINE
  5
1DA
  8
0
  6
CONTINUOUS
 62
     7
 10
-41.40666850989994
 20
-438.8640419502001
 30
0.0
 11
-41.40666850989994
 21
-436.8640419502002
 31
0.0
  0
ARC
  5
1DB
  8
0
  6
CONTINUOUS
 62
     7
 10
44.09333149009997
 20
-339.7181439164002
 30
0.0
 40
1.499999999999835
 50
0.0
 51
48.1896851042
  0
LINE
  5
1DC
  8
0
  6
CONTINUOUS
 62
     7
 10
-24.40666850989992
 20
-469.8640419501002
 30
0.0
 11
-41.90666850989994
 21
-469.8640419501002
 31
0.0
  0
LINE
  5
1DD
  8
0
  6
CONTINUOUS
 62
     7
 10
21.09333149010006
 20
-523.5678388325
 30
0.0
 11
21.09333149010006
 21
-517.5678388325
 31
0.0
  0
LINE
  5
1DE
  8
0
  6
CONTINUOUS
 62
     7
 10
-24.40666850989992
 20
-421.8640419502
 30
0.0
 11
-57.90666850989983
 21
-421.8640419502
 31
0.0
  0
LINE
  5
1DF
  8
0
  6
CONTINUOUS
 62
     7
 10
-2.906668509899735
 20
-523.5678388325
 30
0.0
 11
12.59333149010022
 21
-523.5678388325
 31
0.0
  0
LINE
  5
1E0
  8
0
  6
CONTINUOUS
 62
     7
 10
28.09333149010018
 20
-533.0678388325001
 30
0.0
 11
28.09333149010018
 21
-523.5678388325001
 31
0.0
  0
LINE
  5
1E1
  8
0
  6
CONTINUOUS
 62
     7
 10
12.59333149010011
 20
-535.5678388325005
 30
0.0
 11
25.59333149010007
 21
-535.5678388325005
 31
0.0
  0
LINE
  5
1E2
  8
0
  6
CONTINUOUS
 62
     7
 10
12.59333149010011
 20
-511.5678388325
 30
0.0
 11
-2.906668509899844
 21
-511.5678388325
 31
0.0
  0
LINE
  5
1E3
  8
0
  6
CONTINUOUS
 62
     7
 10
12.59333149010011
 20
-541.5678388325002
 30
0.0
 11
5.59333149010005
 21
-541.5678388325002
 31
0.0
  0
ARC
  5
1E4
  8
0
  6
CONTINUOUS
 62
     7
 10
19.59333149010023
 20
-535.5678388325005
 30
0.0
 40
5.999999999999894
 50
270.0
 51
0.0
  0
LINE
  5
1E5
  8
0
  6
CONTINUOUS
 62
     7
 10
21.23220357400002
 20
-614.8631981221004
 30
0.0
 11
21.08407656820002
 21
-612.8631981221004
 31
0.0
  0
ARC
  5
1E6
  8
0
  6
CONTINUOUS
 62
     7
 10
25.58870402910019
 20
-637.8631981221
 30
0.0
 40
3.000000000000003
 50
90.0
 51
180.0
  0
LINE
  5
1E7
  8
0
  6
CONTINUOUS
 62
     7
 10
-2.411295970899729
 20
-658.8631981220999
 30
0.0
 11
29.58870402910008
 21
-658.8631981220999
 31
0.0
  0
LINE
  5
1E8
  8
0
  6
CONTINUOUS
 62
     7
 10
19.08870402910012
 20
-616.8631981221001
 30
0.0
 11
19.08870402910012
 21
-614.8631981221001
 31
0.0
  0
LINE
  5
1E9
  8
0
  6
CONTINUOUS
 62
     7
 10
15.58870402910017
 20
-622.8631981221001
 30
0.0
 11
15.58870402910017
 21
-625.8631981221001
 31
0.0
  0
LINE
  5
1EA
  8
0
  6
CONTINUOUS
 62
     7
 10
5.797077478400192
 20
-616.8631981221001
 30
0.0
 11
21.38033057990021
 21
-616.8631981221001
 31
0.0
  0
LINE
  5
1EB
  8
0
  6
CONTINUOUS
 62
     7
 10
21.82471159749999
 20
-622.8631981221001
 30
0.0
 11
5.352696460800027
 21
-622.8631981221001
 31
0.0
  0
LINE
  5
1EC
  8
0
  6
CONTINUOUS
 62
     7
 10
20.08407656819999
 20
-611.8631981221002
 30
0.0
 11
13.58870402910003
 21
-611.8631981221002
 31
0.0
  0
LINE
  5
1ED
  8
0
  6
CONTINUOUS
 62
     7
 10
22.58870402909996
 20
-637.8631981221
 30
0.0
 11
22.58870402909996
 21
-644.8631981221
 31
0.0
  0
LINE
  5
1EE
  8
0
  6
CONTINUOUS
 62
     7
 10
-2.906668509899735
 20
-533.0678388325001
 30
0.0
 11
-2.906668509899735
 21
-523.5678388325001
 31
0.0
  0
LINE
  5
1EF
  8
0
  6
CONTINUOUS
 62
     7
 10
20.82197264709995
 20
-622.8631981221001
 30
0.0
 11
21.04416315589994
 21
-625.8631981221001
 31
0.0
  0
LINE
  5
1F0
  8
0
  6
CONTINUOUS
 62
     7
 10
-2.411295970899729
 20
-658.8631981220999
 30
0.0
 11
4.588704029100055
 21
-644.8631981220999
 31
0.0
  0
LINE
  5
1F1
  8
0
  6
CONTINUOUS
 62
     7
 10
32.05372460530009
 20
-678.8631981220999
 30
0.0
 11
-4.876316546999826
 21
-678.8631981220999
 31
0.0
  0
LINE
  5
1F2
  8
0
  6
CONTINUOUS
 62
     7
 10
21.52845758569988
 20
-618.8631981220999
 30
0.0
 11
21.38033057990002
 21
-616.8631981220999
 31
0.0
  0
LINE
  5
1F3
  8
0
  6
CONTINUOUS
 62
     7
 10
4.093331490099938
 20
-523.5678388325
 30
0.0
 11
4.093331490099938
 21
-517.5678388325
 31
0.0
  0
ARC
  5
1F4
  8
0
  6
CONTINUOUS
 62
     7
 10
34.58870402909997
 20
-693.3631981221001
 30
0.0
 40
2.500000000000058
 50
269.9999999998
 51
90.0
  0
ARC
  5
1F5
  8
0
  6
CONTINUOUS
 62
     7
 10
32.05372460530009
 20
-681.8631981221002
 30
0.0
 40
2.999999999999892
 50
0.0
 51
90.0
  0
LINE
  5
1F6
  8
0
  6
CONTINUOUS
 62
     7
 10
1.588704029100052
 20
-632.8631981221001
 30
0.0
 11
1.588704029100052
 21
-634.8631981221001
 31
0.0
  0
ARC
  5
1F7
  8
0
  6
CONTINUOUS
 62
     7
 10
12.59333149010011
 20
-505.5678388325005
 30
0.0
 40
30.00000000000002
 50
249.5126848853
 51
290.6250706496
  0
LINE
  5
1F8
  8
0
  6
CONTINUOUS
 62
     7
 10
21.82471159749999
 20
-622.8631981221001
 30
0.0
 11
21.67658459160007
 21
-620.8631981221001
 31
0.0
  0
LINE
  5
1F9
  8
0
  6
CONTINUOUS
 62
     7
 10
25.58870402910019
 20
-632.8631981221001
 30
0.0
 11
25.58870402910019
 21
-634.8631981221001
 31
0.0
  0
ARC
  5
1FA
  8
0
  6
CONTINUOUS
 62
     7
 10
7.093331490100274
 20
-612.8631981221001
 30
0.0
 40
0.9999999999998899
 50
90.0
 51
180.0
  0
LINE
  5
1FB
  8
0
  6
CONTINUOUS
 62
     7
 10
29.58870402910008
 20
-678.8631981220999
 30
0.0
 11
29.58870402910008
 21
-658.8631981220999
 31
0.0
  0
LINE
  5
1FC
  8
0
  6
CONTINUOUS
 62
     7
 10
23.09333149010007
 20
-533.6703298253001
 30
0.0
 11
23.09333149010007
 21
-523.5678388324999
 31
0.0
  0
LINE
  5
1FD
  8
0
  6
CONTINUOUS
 62
     7
 10
35.05372460529998
 20
-690.9068276566001
 30
0.0
 11
35.05372460529998
 21
-681.8631981221
 31
0.0
  0
LINE
  5
1FE
  8
0
  6
CONTINUOUS
 62
     7
 10
4.588704029099944
 20
-644.8631981220999
 30
0.0
 11
22.58870402910004
 21
-644.8631981220999
 31
0.0
  0
LINE
  5
1FF
  8
0
  6
CONTINUOUS
 62
     7
 10
29.58870402910008
 20
-658.8631981220999
 30
0.0
 11
22.58870402910015
 21
-644.8631981220999
 31
0.0
  0
LINE
  5
200
  8
0
  6
CONTINUOUS
 62
     7
 10
19.08870402910012
 20
-625.8631981221005
 30
0.0
 11
19.08870402910012
 21
-622.8631981221005
 31
0.0
  0
LINE
  5
201
  8
0
  6
CONTINUOUS
 62
     7
 10
15.58870402910017
 20
-618.8631981220999
 30
0.0
 11
15.58870402910017
 21
-620.8631981220999
 31
0.0
  0
LINE
  5
202
  8
0
  6
CONTINUOUS
 62
     7
 10
5.5008234667
 20
-620.8631981221004
 30
0.0
 11
21.67658459159999
 21
-620.8631981221004
 31
0.0
  0
LINE
  5
203
  8
0
  6
CONTINUOUS
 62
     7
 10
5.648950472500136
 20
-618.8631981220999
 30
0.0
 11
21.52845758570007
 21
-618.8631981220999
 31
0.0
  0
LINE
  5
204
  8
0
  6
CONTINUOUS
 62
     7
 10
-7.411295970899845
 20
-690.8631981221004
 30
0.0
 11
34.58870402909997
 21
-690.8631981221004
 31
0.0
  0
LINE
  5
205
  8
0
  6
CONTINUOUS
 62
     7
 10
5.945204484199662
 20
-614.8631981221004
 30
0.0
 11
21.23220357400005
 21
-614.8631981221004
 31
0.0
  0
LINE
  5
206
  8
0
  6
CONTINUOUS
 62
     7
 10
20.22946462370023
 20
-614.8631981221004
 30
0.0
 11
20.37759162960015
 21
-616.8631981221004
 31
0.0
  0
LINE
  5
207
  8
0
  6
CONTINUOUS
 62
     7
 10
25.58870402910019
 20
-634.8631981220999
 30
0.0
 11
13.58870402910012
 21
-634.8631981220999
 31
0.0
  0
LINE
  5
208
  8
0
  6
CONTINUOUS
 62
     7
 10
-7.876316546999829
 20
-690.9068276566001
 30
0.0
 11
-7.876316546999829
 21
-681.8631981221
 31
0.0
  0
ARC
  5
209
  8
0
  6
CONTINUOUS
 62
     7
 10
-7.411295970899845
 20
-693.3631981221001
 30
0.0
 40
2.500000000000058
 50
90.0
 51
270.0000000002
  0
LINE
  5
20A
  8
0
  6
CONTINUOUS
 62
     7
 10
1.588704029100052
 20
-632.8631981221001
 30
0.0
 11
25.58870402910019
 21
-632.8631981221001
 31
0.0
  0
LINE
  5
20B
  8
0
  6
CONTINUOUS
 62
     7
 10
22.08870402910001
 20
-625.8631981221005
 30
0.0
 11
22.08870402910001
 21
-632.8631981221005
 31
0.0
  0
ARC
  5
20C
  8
0
  6
CONTINUOUS
 62
     7
 10
-4.876316546999826
 20
-681.8631981221002
 30
0.0
 40
2.999999999999892
 50
90.0
 51
180.0
  0
LINE
  5
20D
  8
0
  6
CONTINUOUS
 62
     7
 10
-2.411295970899729
 20
-678.8631981220999
 30
0.0
 11
-2.411295970899729
 21
-658.8631981220999
 31
0.0
  0
LINE
  5
20E
  8
0
  6
CONTINUOUS
 62
     7
 10
1.588704029100052
 20
-634.8631981220999
 30
0.0
 11
13.58870402910012
 21
-634.8631981220999
 31
0.0
  0
LINE
  5
20F
  8
0
  6
CONTINUOUS
 62
     7
 10
22.08870402910001
 20
-625.8631981221005
 30
0.0
 11
5.088704029100222
 21
-625.8631981221005
 31
0.0
  0
LINE
  5
210
  8
0
  6
CONTINUOUS
 62
     7
 10
5.945204484199662
 20
-614.8631981221004
 30
0.0
 11
6.093331490099995
 21
-612.8631981221004
 31
0.0
  0
LINE
  5
211
  8
0
  6
CONTINUOUS
 62
     7
 10
11.58870402910006
 20
-622.8631981221001
 30
0.0
 11
11.58870402910006
 21
-625.8631981221001
 31
0.0
  0
LINE
  5
212
  8
0
  6
CONTINUOUS
 62
     7
 10
6.947943434600035
 20
-614.8631981221004
 30
0.0
 11
6.799816428700117
 21
-616.8631981221004
 31
0.0
  0
LINE
  5
213
  8
0
  6
CONTINUOUS
 62
     7
 10
11.58870402910006
 20
-614.8631981221004
 30
0.0
 11
11.58870402910006
 21
-616.8631981221004
 31
0.0
  0
LINE
  5
214
  8
0
  6
CONTINUOUS
 62
     7
 10
4.588704029099944
 20
-637.8631981221
 30
0.0
 11
4.588704029099944
 21
-644.8631981221
 31
0.0
  0
ARC
  5
215
  8
0
  6
CONTINUOUS
 62
     7
 10
1.588704029100052
 20
-637.8631981221
 30
0.0
 40
2.99999999999967
 50
0.0
 51
90.0
  0
LINE
  5
216
  8
0
  6
CONTINUOUS
 62
     7
 10
7.093331490100274
 20
-611.8631981221002
 30
0.0
 11
13.58870402910017
 21
-611.8631981221002
 31
0.0
  0
LINE
  5
217
  8
0
  6
CONTINUOUS
 62
     7
 10
15.58870402910017
 20
-614.8631981221004
 30
0.0
 11
15.58870402910017
 21
-616.8631981221004
 31
0.0
  0
LINE
  5
218
  8
0
  6
CONTINUOUS
 62
     7
 10
11.58870402910006
 20
-618.8631981220999
 30
0.0
 11
11.58870402910006
 21
-620.8631981220999
 31
0.0
  0
LINE
  5
219
  8
0
  6
CONTINUOUS
 62
     7
 10
-7.411295970899845
 20
-696.8631981221001
 30
0.0
 11
34.58870402909997
 21
-696.8631981221001
 31
0.0
  0
LINE
  5
21A
  8
0
  6
CONTINUOUS
 62
     7
 10
8.088704029100224
 20
-625.8631981221005
 30
0.0
 11
8.088704029100224
 21
-622.8631981221005
 31
0.0
  0
LINE
  5
21B
  8
0
  6
CONTINUOUS
 62
     7
 10
-7.411295970899845
 20
-695.8631981221002
 30
0.0
 11
34.58870402909997
 21
-695.8631981221002
 31
0.0
  0
LINE
  5
21C
  8
0
  6
CONTINUOUS
 62
     7
 10
5.648950472500136
 20
-618.8631981220999
 30
0.0
 11
5.797077478400192
 21
-616.8631981220999
 31
0.0
  0
LINE
  5
21D
  8
0
  6
CONTINUOUS
 62
     7
 10
34.58870402909997
 20
-696.8631981221001
 30
0.0
 11
34.58870402909997
 21
-695.8631981221001
 31
0.0
  0
LINE
  5
21E
  8
0
  6
CONTINUOUS
 62
     7
 10
5.088704029100222
 20
-625.8631981221005
 30
0.0
 11
5.088704029100222
 21
-632.8631981221005
 31
0.0
  0
LINE
  5
21F
  8
0
  6
CONTINUOUS
 62
     7
 10
6.355435411099952
 20
-622.8631981221001
 30
0.0
 11
6.133244902299967
 21
-625.8631981221001
 31
0.0
  0
LINE
  5
220
  8
0
  6
CONTINUOUS
 62
     7
 10
18.59333149010012
 20
-695.8631981221002
 30
0.0
 11
18.59333149010012
 21
-696.8631981221002
 31
0.0
  0
LINE
  5
221
  8
0
  6
CONTINUOUS
 62
     7
 10
8.088704029100224
 20
-620.8631981221004
 30
0.0
 11
8.088704029100224
 21
-618.8631981221004
 31
0.0
  0
LINE
  5
222
  8
0
  6
CONTINUOUS
 62
     7
 10
6.593331490099996
 20
-695.8631981221002
 30
0.0
 11
6.593331490099996
 21
-696.8631981221002
 31
0.0
  0
LINE
  5
223
  8
0
  6
CONTINUOUS
 62
     7
 10
19.08870402910012
 20
-620.8631981221004
 30
0.0
 11
19.08870402910012
 21
-618.8631981221004
 31
0.0
  0
ARC
  5
224
  8
0
  6
CONTINUOUS
 62
     7
 10
20.08407656819999
 20
-612.8631981221001
 30
0.0
 40
0.9999999999998899
 50
0.0
 51
90.0
  0
LINE
  5
225
  8
0
  6
CONTINUOUS
 62
     7
 10
14.09333149009995
 20
-643.5753175289
 30
0.0
 11
14.09333149009995
 21
-634.8631981220999
 31
0.0
  0
LINE
  5
226
  8
0
  6
CONTINUOUS
 62
     7
 10
-7.411295970899845
 20
-695.8631981221002
 30
0.0
 11
-7.411295970899845
 21
-696.8631981221002
 31
0.0
  0
LINE
  5
227
  8
0
  6
CONTINUOUS
 62
     7
 10
5.352696460799944
 20
-622.8631981221001
 30
0.0
 11
5.5008234667
 21
-620.8631981221001
 31
0.0
  0
LINE
  5
228
  8
0
  6
CONTINUOUS
 62
     7
 10
11.09333149010006
 20
-643.5753175289
 30
0.0
 11
14.0933314901
 21
-643.5753175289
 31
0.0
  0
LINE
  5
229
  8
0
  6
CONTINUOUS
 62
     7
 10
-309.3351954737001
 20
-419.4855588525999
 30
0.0
 11
-309.3351954737001
 21
-416.6763085376999
 31
0.0
  0
ARC
  5
22A
  8
0
  6
CONTINUOUS
 62
     7
 10
-310.3351954391001
 20
-470.2982150647
 30
0.0
 40
0.9999999999999454
 50
270.0
 51
0.0
  0
LINE
  5
22B
  8
0
  6
CONTINUOUS
 62
     7
 10
-306.3351954737
 20
-471.3011909130003
 30
0.0
 11
-306.3351954737
 21
-437.4520448105003
 31
0.0
  0
LINE
  5
22C
  8
0
  6
CONTINUOUS
 62
     7
 10
8.088704029100224
 20
-616.8631981221001
 30
0.0
 11
8.088704029100224
 21
-614.8631981221001
 31
0.0
  0
LINE
  5
22D
  8
0
  6
CONTINUOUS
 62
     7
 10
-306.3351954737
 20
-419.4855588525999
 30
0.0
 11
-306.3351954737
 21
-416.6763085376999
 31
0.0
  0
LINE
  5
22E
  8
0
  6
CONTINUOUS
 62
     7
 10
11.09333149010006
 20
-634.8631981220999
 30
0.0
 11
11.09333149010006
 21
-643.5753175289
 31
0.0
  0
LINE
  5
22F
  8
0
  6
CONTINUOUS
 62
     7
 10
-309.3351954737001
 20
-470.2982150647
 30
0.0
 11
-309.3351954737001
 21
-437.4520448105
 31
0.0
  0
LINE
  5
230
  8
0
  6
CONTINUOUS
 62
     7
 10
-389.7200636186001
 20
-469.6952392164001
 30
0.0
 11
-389.7200636186001
 21
-471.2982150647001
 31
0.0
  0
LINE
  5
231
  8
0
  6
DASHED
 62
     7
 10
-308.0169102338
 20
-332.7369301537
 30
0.0
 11
-308.0153198022001
 21
-334.401510105
 31
0.0
  0
ARC
  5
232
  8
0
  6
DASHED
 62
     6
 10
-312.0794211435002
 20
-340.4571926184999
 30
0.0
 40
1.000000000000056
 50
149.9999999999
 51
210.0
  0
LINE
  5
233
  8
0
  6
CONTINUOUS
 62
     7
 10
-306.3351954737
 20
-423.4520448105
 30
0.0
 11
-306.3351954737
 21
-421.4855588526
 31
0.0
  0
ARC
  5
234
  8
0
  6
CONTINUOUS
 62
     7
 10
-295.8505282485
 20
-324.7075735628998
 30
0.0
 40
1.000000000000056
 50
0.0
 51
90.0
  0
LINE
  5
235
  8
0
  6
DASHED
 62
     6
 10
-310.3473703359002
 20
-344.4571926185005
 30
0.0
 11
-306.8832687208001
 21
-344.4571926185005
 31
0.0
  0
ARC
  5
236
  8
0
  6
CONTINUOUS
 62
     7
 10
-386.7200636186001
 20
-471.3011909130003
 30
0.0
 40
3.000000000000003
 50
180.0
 51
270.0
  0
LINE
  5
237
  8
0
  6
CONTINUOUS
 62
     7
 10
-307.6153195284001
 20
-324.7075735628998
 30
0.0
 11
-307.6153195284001
 21
-327.9571925042
 31
0.0
  0
ARC
  5
238
  8
0
  6
DASHED
 62
     6
 10
-306.8832687208001
 20
-343.4571926185
 30
0.0
 40
0.9999999999999454
 50
270.0
 51
330.0
  0
ARC
  5
239
  8
0
  6
DASHED
 62
     6
 10
-307.1153195284001
 20
-341.9571926185004
 30
0.0
 40
1.000000000000001
 50
90.0
 51
180.0
  0
LINE
  5
23A
  8
0
  6
CONTINUOUS
 62
     7
 10
-316.3179501024001
 20
-425.4275493472999
 30
0.0
 11
-316.3179501024001
 21
-422.4855588525999
 31
0.0
  0
LINE
  5
23B
  8
0
  6
CONTINUOUS
 62
     7
 10
-294.8505282485
 20
-321.7075735629001
 30
0.0
 11
-307.6153195284001
 21
-321.7075735629001
 31
0.0
  0
LINE
  5
23C
  8
0
  6
CONTINUOUS
 62
     7
 10
-309.6153195284002
 20
-327.9571925042002
 30
0.0
 11
-309.6153195284002
 21
-323.7075735629007
 31
0.0
  0
LINE
  5
23D
  8
0
  6
CONTINUOUS
 62
     7
 10
-294.8505282485
 20
-418.4855588526
 30
0.0
 11
-294.8505282485
 21
-324.7075735629
 31
0.0
  0
LINE
  5
23E
  8
0
  6
DASHED
 62
     6
 10
-306.8832687208001
 20
-336.4571926185001
 30
0.0
 11
-310.3473703360001
 21
-336.4571926185001
 31
0.0
  0
LINE
  5
23F
  8
0
  6
DASHED
 62
     6
 10
-308.1153195284
 20
-338.9571926185
 30
0.0
 11
-308.1153195284
 21
-338.4571926184999
 31
0.0
  0
LINE
  5
240
  8
0
  6
CONTINUOUS
 62
     7
 10
-385.9200636186001
 20
-471.2982150647001
 30
0.0
 11
-310.3351954391001
 21
-471.2982150647001
 31
0.0
  0
LINE
  5
241
  8
0
  6
CONTINUOUS
 62
     7
 10
-386.7200636186001
 20
-466.6952392164
 30
0.0
 11
-319.3351954737001
 21
-466.6952392164
 31
0.0
  0
LINE
  5
242
  8
0
  6
CONTINUOUS
 62
     7
 10
-316.3179501023001
 20
-419.4855588525999
 30
0.0
 11
-295.8505282485
 21
-419.4855588525999
 31
0.0
  0
LINE
  5
243
  8
0
  6
CONTINUOUS
 62
     7
 10
-300.547033064
 20
-423.4520448105
 30
0.0
 11
-311.547033064
 21
-423.4520448105
 31
0.0
  0
LINE
  5
244
  8
0
  6
DASHED
 62
     6
 10
-311.2133957397001
 20
-336.9571926186002
 30
0.0
 11
-312.9454465473001
 21
-339.9571926185
 31
0.0
  0
ARC
  5
245
  8
0
  6
DASHED
 62
     6
 10
-305.1512179132001
 20
-340.4571926184999
 30
0.0
 40
0.9999999999999454
 50
330.0
 51
30.0
  0
ARC
  5
246
  8
0
  6
CONTINUOUS
 62
     7
 10
-385.9200636186001
 20
-470.4982150647006
 30
0.0
 40
0.8000000000000229
 50
180.0
 51
270.0
  0
LINE
  5
247
  8
0
  6
DASHED
 62
     6
 10
-312.9454465473001
 20
-340.9571926184998
 30
0.0
 11
-311.2133957397001
 21
-343.9571926185
 31
0.0
  0
LINE
  5
248
  8
0
  6
DASHED
 62
     6
 10
-309.1153195284001
 20
-338.9571926185
 30
0.0
 11
-309.1153195284001
 21
-338.4571926184999
 31
0.0
  0
LINE
  5
249
  8
0
  6
DASHED
 62
     6
 10
-307.1153195284001
 20
-340.9571926184998
 30
0.0
 11
-304.2851925095002
 21
-340.9571926184998
 31
0.0
  0
LINE
  5
24A
  8
0
  6
DASHED
 62
     6
 10
-310.1153195284001
 20
-339.9571926185006
 30
0.0
 11
-312.9454465473002
 21
-339.9571926185006
 31
0.0
  0
ARC
  5
24B
  8
0
  6
DASHED
 62
     6
 10
-310.347370336
 20
-337.4571926185002
 30
0.0
 40
1.000000000000001
 50
90.0
 51
150.0
  0
LINE
  5
24C
  8
0
  6
CONTINUOUS
 62
     7
 10
-287.5470330640001
 20
-425.9520448105001
 30
0.0
 11
-300.547033064
 21
-425.9520448105001
 31
0.0
  0
ARC
  5
24D
  8
0
  6
DASHED
 62
     6
 10
-310.3473703359002
 20
-343.4571926185
 30
0.0
 40
1.000000000000001
 50
210.0
 51
270.0
  0
LINE
  5
24E
  8
0
  6
CONTINUOUS
 62
     7
 10
-294.8505282485
 20
-421.4855588526001
 30
0.0
 11
-315.3179501024001
 21
-421.4855588526001
 31
0.0
  0
LINE
  5
24F
  8
0
  6
CONTINUOUS
 62
     7
 10
-309.3351954737001
 20
-423.4520448105
 30
0.0
 11
-309.3351954737001
 21
-421.4855588526
 31
0.0
  0
ARC
  5
250
  8
0
  6
CONTINUOUS
 62
     7
 10
-306.6153195284001
 20
-324.7075735628998
 30
0.0
 40
1.000000000000001
 50
90.0
 51
180.0
  0
ARC
  5
251
  8
0
  6
DASHED
 62
     6
 10
-310.1153195284001
 20
-338.9571926185
 30
0.0
 40
1.000000000000056
 50
270.0
 51
0.0
  0
LINE
  5
252
  8
0
  6
DASHED
 62
     6
 10
-308.1153195284
 20
-342.4571926185001
 30
0.0
 11
-309.1153195284
 21
-342.4571926185001
 31
0.0
  0
ARC
  5
253
  8
0
  6
DASHED
 62
     6
 10
-307.1153195284001
 20
-338.9571926185
 30
0.0
 40
1.000000000000001
 50
180.0
 51
270.0
  0
LINE
  5
254
  8
0
  6
DASHED
 62
     7
 10
-308.0158840279002
 20
-333.8109794223001
 30
0.0
 11
-306.2640116169001
 21
-336.6720043358002
 31
0.0
  0
LINE
  5
255
  8
0
  6
DASHED
 62
     7
 10
-307.6153195284001
 20
-332.7380766994
 30
0.0
 11
-309.6153195284001
 21
-332.7380766994
 31
0.0
  0
ARC
  5
256
  8
0
  6
DASHED
 62
     6
 10
-310.1153195284001
 20
-341.9571926186003
 30
0.0
 40
1.000000000000056
 50
0.0
 51
90.0
  0
LINE
  5
257
  8
0
  6
DASHED
 62
     6
 10
-308.1153195284
 20
-341.9571926185004
 30
0.0
 11
-308.1153195284
 21
-342.4571926185003
 31
0.0
  0
LINE
  5
258
  8
0
  6
DASHED
 62
     6
 10
-309.1153195284001
 20
-341.9571926186003
 30
0.0
 11
-309.1153195284001
 21
-342.4571926185001
 31
0.0
  0
LINE
  5
259
  8
0
  6
DASHED
 62
     7
 10
-309.6153195284002
 20
-332.7380766994
 30
0.0
 11
-309.6153195284002
 21
-327.9571926184998
 31
0.0
  0
LINE
  5
25A
  8
0
  6
CONTINUOUS
 62
     7
 10
-319.3351954737001
 20
-469.6952392165002
 30
0.0
 11
-319.3351954737001
 21
-466.6952392165002
 31
0.0
  0
LINE
  5
25B
  8
0
  6
DASHED
 62
     6
 10
-310.1153195284001
 20
-340.9571926184998
 30
0.0
 11
-312.9454465473002
 21
-340.9571926184998
 31
0.0
  0
LINE
  5
25C
  8
0
  6
CONTINUOUS
 62
     7
 10
-386.7200636186001
 20
-474.3011909130002
 30
0.0
 11
-309.3351954737001
 21
-474.3011909130002
 31
0.0
  0
LINE
  5
25D
  8
0
  6
CONTINUOUS
 62
     7
 10
-306.6153195284001
 20
-323.7075735629005
 30
0.0
 11
-295.8505282485
 21
-323.7075735629005
 31
0.0
  0
LINE
  5
25E
  8
0
  6
DASHED
 62
     7
 10
-307.6153195284001
 20
-327.9571926185001
 30
0.0
 11
-307.6153195284001
 21
-332.7380766994003
 31
0.0
  0
ARC
  5
25F
  8
0
  6
CONTINUOUS
 62
     7
 10
-385.9200636186001
 20
-470.4952392165001
 30
0.0
 40
0.8000000000000229
 50
90.0
 51
180.0
  0
LINE
  5
260
  8
0
  6
DASHED
 62
     7
 10
-309.2158834801001
 20
-333.8121259680003
 30
0.0
 11
-310.0080869253001
 21
-336.4571926185003
 31
0.0
  0
LINE
  5
261
  8
0
  6
CONTINUOUS
 62
     7
 10
-311.5470330640001
 20
-437.4520448105002
 30
0.0
 11
-311.5470330640001
 21
-423.4520448105006
 31
0.0
  0
LINE
  5
262
  8
0
  6
CONTINUOUS
 62
     7
 10
-287.5470330640001
 20
-425.9520448105001
 30
0.0
 11
-287.5470330640001
 21
-434.9520448105002
 31
0.0
  0
ARC
  5
263
  8
0
  6
DASHED
 62
     6
 10
-306.8832687208001
 20
-337.4571926185002
 30
0.0
 40
0.9999999999999454
 50
30.0
 51
90.0
  0
ARC
  5
264
  8
0
  6
CONTINUOUS
 62
     7
 10
-307.6153195284001
 20
-323.7075735629005
 30
0.0
 40
1.999999999999946
 50
90.0
 51
180.0
  0
LINE
  5
265
  8
0
  6
CONTINUOUS
 62
     7
 10
-385.9200636186001
 20
-469.6952392164001
 30
0.0
 11
-319.3351954737001
 21
-469.6952392165
 31
0.0
  0
LINE
  5
266
  8
0
  6
CONTINUOUS
 62
     7
 10
-287.5470330640001
 20
-434.9520448105
 30
0.0
 11
-300.547033064
 21
-434.9520448105
 31
0.0
  0
LINE
  5
267
  8
0
  6
DASHED
 62
     6
 10
-304.2851925095002
 20
-339.9571926185006
 30
0.0
 11
-306.0172433170002
 21
-336.9571926185005
 31
0.0
  0
LINE
  5
268
  8
0
  6
DASHED
 62
     6
 10
-309.1153195284001
 20
-338.4571926185001
 30
0.0
 11
-308.1153195284
 21
-338.4571926185001
 31
0.0
  0
LINE
  5
269
  8
0
  6
DASHED
 62
     6
 10
-307.1153195284001
 20
-339.9571926185006
 30
0.0
 11
-304.2851925095002
 21
-339.9571926185006
 31
0.0
  0
LINE
  5
26A
  8
0
  6
DASHED
 62
     6
 10
-304.2851925095002
 20
-340.9571926184998
 30
0.0
 11
-306.0172433170002
 21
-343.9571926185
 31
0.0
  0
LINE
  5
26B
  8
0
  6
CONTINUOUS
 62
     7
 10
-292.8505282485
 20
-323.7075735629005
 30
0.0
 11
-292.8505282485
 21
-419.4855588526004
 31
0.0
  0
ARC
  5
26C
  8
0
  6
CONTINUOUS
 62
     7
 10
-386.7200636186001
 20
-469.6952392164001
 30
0.0
 40
3.000000000000003
 50
90.0
 51
180.0
  0
LINE
  5
26D
  8
0
  6
CONTINUOUS
 62
     7
 10
-366.8076711056001
 20
-546.8640419502004
 30
0.0
 11
-366.8076711056001
 21
-611.8631981221001
 31
0.0
  0
LINE
  5
26E
  8
0
  6
CONTINUOUS
 62
     7
 10
18.09333149010017
 20
-541.5678388325002
 30
0.0
 11
18.09333149010017
 21
-611.8631981221
 31
0.0
  0
LINE
  5
26F
  8
0
  6
CENTER
 62
     1
 10
12.59333149010011
 20
-708.3522608305001
 30
0.0
 11
12.59333149010011
 21
-505.746962087
 31
0.0
  0
LINE
  5
270
  8
0
  6
CONTINUOUS
 62
     7
 10
7.093331490100274
 20
-541.5678388325002
 30
0.0
 11
7.093331490100274
 21
-611.8631981221001
 31
0.0
  0
LINE
  5
271
  8
0
  6
CONTINUOUS
 62
     7
 10
-322.8076711056001
 20
-546.8640419502004
 30
0.0
 11
-322.8076711056001
 21
-611.8631981221001
 31
0.0
  0
LINE
  5
272
  8
0
  6
CONTINUOUS
 62
     7
 10
-311.8076711056001
 20
-546.8640419502004
 30
0.0
 11
-311.8076711056001
 21
-611.8631981221
 31
0.0
  0
LINE
  5
273
  8
0
  6
CENTER
 62
     1
 10
-372.3076711056001
 20
-654.8222608305001
 30
0.0
 11
-372.3076711056001
 21
-522.2169620870001
 31
0.0
  0
LINE
  5
274
  8
0
  6
CENTER
 62
     1
 10
-317.3076711056001
 20
-654.8222608305001
 30
0.0
 11
-317.3076711056001
 21
-512.2169620870001
 31
0.0
  0
LINE
  5
275
  8
0
  6
CONTINUOUS
 62
     7
 10
-377.8076711056001
 20
-546.8640419502004
 30
0.0
 11
-377.8076711056001
 21
-611.8631981221002
 31
0.0
  0
ARC
  5
276
  8
0
  6
CONTINUOUS
 62
     7
 10
-317.3076711055502
 20
-671.4805352637
 30
0.0
 40
34.00000000000009
 50
314.1813793279
 51
24.7714005959308
  0
LINE
  5
277
  8
0
  6
CONTINUOUS
 62
     7
 10
-364.3679175489495
 20
-607.5404904058003
 30
0.0
 11
-341.4361220637941
 21
-657.2345723351037
 31
0.0
  0
ARC
  5
278
  8
0
  6
CONTINUOUS
 62
     7
 10
-317.3076711055502
 20
-671.4805352637
 30
0.0
 40
34.99999999999975
 50
315.841351699
 51
25.07198729652004
  0
ARC
  5
279
  8
0
  6
CONTINUOUS
 62
     7
 10
-317.3076711055502
 20
-671.4805352637
 30
0.0
 40
34.00000000000009
 50
314.1813793279
 51
24.7714005959308
  0
LINE
  5
27A
  8
0
  6
CONTINUOUS
 62
     7
 10
-309.5160445548497
 20
-605.5404904058005
 30
0.0
 11
-285.6055080337221
 21
-656.6490533228318
 31
0.0
  0
LINE
  5
27B
  8
0
  6
CONTINUOUS
 62
     7
 10
-364.5160445548496
 20
-605.5404904058005
 30
0.0
 11
-340.605508033722
 21
-656.6490533228318
 31
0.0
  0
LINE
  5
27C
  8
0
  6
CONTINUOUS
 62
     7
 10
-309.3679175489496
 20
-607.5404904058003
 30
0.0
 11
-286.4361220637941
 21
-657.2345723351037
 31
0.0
  0
LINE
  5
27D
  8
0
  6
CONTINUOUS
 62
     7
 10
-344.3076711056001
 20
-696.8631981221001
 30
0.0
 11
-290.3076711055501
 21
-696.8631981221001
 31
0.0
  0
ARC
  5
27E
  8
0
  6
CONTINUOUS
 62
     7
 10
-317.3076711055502
 20
-671.4805352637
 30
0.0
 40
34.99999999999975
 50
315.841351699
 51
25.07198729652004
  0
LINE
  5
27F
  8
0
  6
CONTINUOUS
 62
     7
 10
-338.3076711056001
 20
-695.8631981221002
 30
0.0
 11
-290.3076711055501
 21
-695.8631981221002
 31
0.0
  0
LINE
  5
280
  8
0
  6
CONTINUOUS
 62
     7
 10
-393.3076711056001
 20
-695.8631981221002
 30
0.0
 11
-345.3076711055501
 21
-695.8631981221002
 31
0.0
  0
ARC
  5
281
  8
0
  6
CONTINUOUS
 62
     7
 10
-372.3076711055501
 20
-671.4805352637
 30
0.0
 40
34.99999999999975
 50
315.841351699
 51
25.07198729652004
  0
ARC
  5
282
  8
0
  6
CONTINUOUS
 62
     7
 10
-372.3076711055501
 20
-671.4805352637
 30
0.0
 40
34.00000000000014
 50
314.1813793279
 51
24.7714005959308
  0
LINE
  5
283
  8
0
  6
CONTINUOUS
 62
     3
 10
-391.0576711056002
 20
-309.4314783329002
 30
0.0
 11
-422.6005282485002
 21
-309.4314783329002
 31
0.0
  0
ARC
  5
284
  8
0
  6
CONTINUOUS
 62
     7
 10
-370.8505282485001
 20
-242.8957640471999
 30
0.0
 40
0.9857142857000456
 50
180.0
 51
270.0
  0
ARC
  5
285
  8
0
  6
CONTINUOUS
 62
     7
 10
-364.4433853913002
 20
-304.9957640472001
 30
0.0
 40
0.9857142857000456
 50
0.0
 51
90.0
  0
CIRCLE
  5
286
  8
0
  6
CONTINUOUS
 62
     7
 10
-372.3290996770001
 20
-244.3743354758002
 30
0.0
 40
3.450000000000009
  0
LINE
  5
287
  8
0
  6
CONTINUOUS
 62
     7
 10
-372.8219568199002
 20
-245.8529069044005
 30
0.0
 11
-372.8219568199002
 21
-246.8386211901005
 31
0.0
  0
LINE
  5
288
  8
0
  6
CONTINUOUS
 62
     3
 10
-391.0576711056002
 20
-240.4314783329001
 30
0.0
 11
-391.0576711056002
 21
-309.4314783329001
 31
0.0
  0
LINE
  5
289
  8
0
  6
CONTINUOUS
 62
     7
 10
-334.3790996770002
 20
-288.7314783329001
 30
0.0
 11
-341.2790996770002
 21
-288.7314783329001
 31
0.0
  0
ARC
  5
28A
  8
0
  6
CONTINUOUS
 62
     7
 10
-348.6719568199001
 20
-244.8671926185999
 30
0.0
 40
0.9857142857000456
 50
270.0
 51
0.0
  0
LINE
  5
28B
  8
0
  6
CONTINUOUS
 62
     7
 10
-362.4719568199001
 20
-244.8671926185999
 30
0.0
 11
-362.4719568199001
 21
-243.8814783329001
 31
0.0
  0
LINE
  5
28C
  8
0
  6
CONTINUOUS
 62
     7
 10
-337.3362425342001
 20
-246.8386211901
 30
0.0
 11
-338.3219568199001
 21
-246.8386211901
 31
0.0
  0
LINE
  5
28D
  8
0
  6
CONTINUOUS
 62
     7
 10
-328.9576711056001
 20
-247.8243354757999
 30
0.0
 11
-328.9576711056001
 21
-248.8100497615
 31
0.0
  0
LINE
  5
28E
  8
0
  6
CONTINUOUS
 62
     3
 10
-422.6005282485002
 20
-309.4314783329002
 30
0.0
 11
-422.6005282485002
 21
-240.4314783329002
 31
0.0
  0
LINE
  5
28F
  8
0
  6
CONTINUOUS
 62
     7
 10
-383.1719568199001
 20
-245.8529069044005
 30
0.0
 11
-385.1079998405001
 21
-245.8529069044005
 31
0.0
  0
LINE
  5
290
  8
0
  6
CONTINUOUS
 62
     7
 10
-346.7005282485001
 20
-248.8100497615001
 30
0.0
 11
-347.6862425342002
 21
-248.8100497615001
 31
0.0
  0
ARC
  5
291
  8
0
  6
CONTINUOUS
 62
     7
 10
-339.3076711056001
 20
-242.8957640471999
 30
0.0
 40
0.9857142857000456
 50
270.0
 51
0.0
  0
CIRCLE
  5
292
  8
0
  6
CONTINUOUS
 62
     7
 10
-381.6933853913002
 20
-246.3457640472
 30
0.0
 40
3.449999999999898
  0
LINE
  5
293
  8
0
  6
CONTINUOUS
 62
     7
 10
-370.8505282485001
 20
-244.8671926185999
 30
0.0
 11
-368.9144852278002
 21
-244.8671926185999
 31
0.0
  0
LINE
  5
294
  8
0
  6
CONTINUOUS
 62
     7
 10
-334.3790996770002
 20
-266.0600497615001
 30
0.0
 11
-334.3790996770002
 21
-288.7314783329005
 31
0.0
  0
LINE
  5
295
  8
0
  6
CONTINUOUS
 62
     7
 10
-368.8790996770001
 20
-274.9314783329003
 30
0.0
 11
-375.7790996770001
 21
-274.9314783329003
 31
0.0
  0
CIRCLE
  5
296
  8
0
  6
CONTINUOUS
 62
     7
 10
-337.8290996770001
 20
-244.3743354758002
 30
0.0
 40
3.449999999999898
  0
LINE
  5
297
  8
0
  6
CONTINUOUS
 62
     7
 10
-348.6719568199001
 20
-245.8529069044005
 30
0.0
 11
-350.6079998405002
 21
-245.8529069044005
 31
0.0
  0
LINE
  5
298
  8
0
  6
CONTINUOUS
 62
     7
 10
-370.8505282485001
 20
-243.8814783329002
 30
0.0
 11
-368.9144852278002
 21
-243.8814783329002
 31
0.0
  0
LINE
  5
299
  8
0
  6
CONTINUOUS
 62
     7
 10
-329.9433853913001
 20
-246.8386211901
 30
0.0
 11
-331.8794284120001
 21
-246.8386211901
 31
0.0
  0
LINE
  5
29A
  8
0
  6
CONTINUOUS
 62
     7
 10
-348.6719568199001
 20
-246.8386211901
 30
0.0
 11
-350.6079998405002
 21
-246.8386211901
 31
0.0
  0
ARC
  5
29B
  8
0
  6
CONTINUOUS
 62
     7
 10
-348.6719568199001
 20
-247.8243354757999
 30
0.0
 40
0.9857142857000456
 50
0.0
 51
90.0
  0
LINE
  5
29C
  8
0
  6
CONTINUOUS
 62
     7
 10
-368.8790996770001
 20
-266.0600497615001
 30
0.0
 11
-368.8790996770001
 21
-288.7314783329005
 31
0.0
  0
ARC
  5
29D
  8
0
  6
CONTINUOUS
 62
     7
 10
-370.8505282485001
 20
-245.8529069044005
 30
0.0
 40
0.9857142857000456
 50
90.0
 51
180.0
  0
LINE
  5
29E
  8
0
  6
CONTINUOUS
 62
     7
 10
-380.2148139627002
 20
-246.8386211901
 30
0.0
 11
-378.2787709421002
 21
-246.8386211901
 31
0.0
  0
LINE
  5
29F
  8
0
  6
CENTER
 62
     1
 10
-362.9648139627001
 20
-241.4738103556005
 30
0.0
 11
-362.9648139627001
 21
-251.3306906500001
 31
0.0
  0
LINE
  5
2A0
  8
0
  6
CONTINUOUS
 62
     7
 10
-373.8076711056002
 20
-244.8671926185999
 30
0.0
 11
-375.7437141262001
 21
-244.8671926185999
 31
0.0
  0
LINE
  5
2A1
  8
0
  6
CONTINUOUS
 62
     7
 10
-381.2005282485001
 20
-248.8100497615001
 30
0.0
 11
-382.1862425342002
 21
-248.8100497615001
 31
0.0
  0
LINE
  5
2A2
  8
0
  6
CONTINUOUS
 62
     7
 10
-363.4576711056001
 20
-304.9957640472001
 30
0.0
 11
-363.4576711056001
 21
-305.9814783329002
 31
0.0
  0
LINE
  5
2A3
  8
0
  6
CONTINUOUS
 62
     7
 10
-382.1862425342002
 20
-244.8671926185999
 30
0.0
 11
-382.1862425342002
 21
-243.8814783329001
 31
0.0
  0
LINE
  5
2A4
  8
0
  6
CONTINUOUS
 62
     7
 10
-368.8790996770001
 20
-288.7314783329001
 30
0.0
 11
-375.7790996770001
 21
-288.7314783329001
 31
0.0
  0
LINE
  5
2A5
  8
0
  6
CONTINUOUS
 62
     7
 10
-361.4862425342001
 20
-246.8386211901
 30
0.0
 11
-359.5501995135
 21
-246.8386211901
 31
0.0
  0
LINE
  5
2A6
  8
0
  6
CONTINUOUS
 62
     7
 10
-371.8362425342002
 20
-245.8529069044005
 30
0.0
 11
-371.8362425342002
 21
-246.8386211901005
 31
0.0
  0
ARC
  5
2A7
  8
0
  6
CONTINUOUS
 62
     7
 10
-364.4433853913002
 20
-244.8671926185999
 30
0.0
 40
0.9857142857000456
 50
270.0
 51
0.0
  0
ARC
  5
2A8
  8
0
  6
CONTINUOUS
 62
     7
 10
-345.7148139627001
 20
-247.8243354757999
 30
0.0
 40
0.9857142857000456
 50
90.0
 51
180.0
  0
LINE
  5
2A9
  8
0
  6
CONTINUOUS
 62
     7
 10
-326.9862425342002
 20
-246.8386211901
 30
0.0
 11
-325.0501995135001
 21
-246.8386211901
 31
0.0
  0
LINE
  5
2AA
  8
0
  6
CONTINUOUS
 62
     7
 10
-346.7005282485001
 20
-244.8671926185999
 30
0.0
 11
-346.7005282485001
 21
-243.8814783329001
 31
0.0
  0
LINE
  5
2AB
  8
0
  6
CONTINUOUS
 62
     7
 10
-341.2790996770001
 20
-266.0600497615001
 30
0.0
 11
-334.3790996770001
 21
-266.0600497615001
 31
0.0
  0
ARC
  5
2AC
  8
0
  6
CONTINUOUS
 62
     7
 10
-364.4433853913002
 20
-302.0386211901001
 30
0.0
 40
0.9857142857000456
 50
270.0000000001
 51
0.0
  0
LINE
  5
2AD
  8
0
  6
CONTINUOUS
 62
     7
 10
-363.4576711056001
 20
-248.8100497615001
 30
0.0
 11
-362.4719568199002
 21
-248.8100497615001
 31
0.0
  0
LINE
  5
2AE
  8
0
  6
CONTINUOUS
 62
     7
 10
-353.6005282485
 20
-309.4314783329002
 30
0.0
 11
-322.0576711056001
 21
-309.4314783329002
 31
0.0
  0
LINE
  5
2AF
  8
0
  6
CONTINUOUS
 62
     7
 10
-334.3790996770002
 20
-274.9314783329003
 30
0.0
 11
-341.2790996770002
 21
-274.9314783329003
 31
0.0
  0
LINE
  5
2B0
  8
0
  6
CONTINUOUS
 62
     7
 10
-328.9576711056001
 20
-244.8671926185999
 30
0.0
 11
-328.9576711056001
 21
-243.8814783329001
 31
0.0
  0
LINE
  5
2B1
  8
0
  6
CONTINUOUS
 62
     7
 10
-341.2790996770001
 20
-288.7314783329001
 30
0.0
 11
-341.2790996770001
 21
-266.0600497615001
 31
0.0
  0
LINE
  5
2B2
  8
0
  6
CENTER
 62
     1
 10
-337.8290996770001
 20
-241.4589858994001
 30
0.0
 11
-337.8290996770001
 21
-314.4234842953001
 31
0.0
  0
ARC
  5
2B3
  8
0
  6
CONTINUOUS
 62
     7
 10
-345.7148139627001
 20
-244.8671926185999
 30
0.0
 40
0.9857142857000456
 50
180.0
 51
270.0
  0
LINE
  5
2B4
  8
0
  6
CONTINUOUS
 62
     7
 10
-375.7790996770001
 20
-266.0600497615001
 30
0.0
 11
-368.8790996770001
 21
-266.0600497615001
 31
0.0
  0
LINE
  5
2B5
  8
0
  6
CENTER
 62
     1
 10
-328.4648139627001
 20
-241.4738103556005
 30
0.0
 11
-328.4648139627001
 21
-251.3306906500001
 31
0.0
  0
LINE
  5
2B6
  8
0
  6
CONTINUOUS
 62
     7
 10
-375.7790996770001
 20
-288.7314783329001
 30
0.0
 11
-375.7790996770001
 21
-266.0600497615001
 31
0.0
  0
ARC
  5
2B7
  8
0
  6
CONTINUOUS
 62
     7
 10
-373.8076711056002
 20
-245.8529069044005
 30
0.0
 40
0.9857142857000456
 50
0.0
 51
90.0
  0
LINE
  5
2B8
  8
0
  6
CONTINUOUS
 62
     7
 10
-371.8362425342002
 20
-246.8386211901
 30
0.0
 11
-372.8219568199
 21
-246.8386211901
 31
0.0
  0
LINE
  5
2B9
  8
0
  6
CONTINUOUS
 62
     7
 10
-337.3362425342001
 20
-242.8957640471999
 30
0.0
 11
-337.3362425342001
 21
-241.9100497614999
 31
0.0
  0
LINE
  5
2BA
  8
0
  6
CENTER
 62
     1
 10
-323.3746088823001
 20
-246.3457640472
 30
0.0
 11
-333.2314891767001
 21
-246.3457640472
 31
0.0
  0
LINE
  5
2BB
  8
0
  6
CONTINUOUS
 62
     7
 10
-338.3219568199001
 20
-245.8529069044005
 30
0.0
 11
-338.3219568199001
 21
-246.8386211901005
 31
0.0
  0
LINE
  5
2BC
  8
0
  6
CONTINUOUS
 62
     7
 10
-345.7148139627001
 20
-245.8529069044005
 30
0.0
 11
-343.7787709421002
 21
-245.8529069044005
 31
0.0
  0
LINE
  5
2BD
  8
0
  6
CENTER
 62
     1
 10
-347.1933853913001
 20
-241.4738103556005
 30
0.0
 11
-347.1933853913001
 21
-251.3306906500001
 31
0.0
  0
LINE
  5
2BE
  8
0
  6
CONTINUOUS
 62
     7
 10
-339.3076711056001
 20
-244.8671926185999
 30
0.0
 11
-341.2437141262
 21
-244.8671926185999
 31
0.0
  0
LINE
  5
2BF
  8
0
  6
CONTINUOUS
 62
     3
 10
-422.6005282485002
 20
-240.4314783329001
 30
0.0
 11
-391.0576711056002
 21
-240.4314783329001
 31
0.0
  0
LINE
  5
2C0
  8
0
  6
CONTINUOUS
 62
     7
 10
-363.4576711056001
 20
-302.0386211901001
 30
0.0
 11
-363.4576711056001
 21
-301.0529069044001
 31
0.0
  0
LINE
  5
2C1
  8
0
  6
CONTINUOUS
 62
     7
 10
-345.7148139627001
 20
-246.8386211901
 30
0.0
 11
-343.7787709421002
 21
-246.8386211901
 31
0.0
  0
LINE
  5
2C2
  8
0
  6
CONTINUOUS
 62
     7
 10
-371.8362425342002
 20
-242.8957640471999
 30
0.0
 11
-371.8362425342002
 21
-241.9100497614999
 31
0.0
  0
LINE
  5
2C3
  8
0
  6
CONTINUOUS
 62
     7
 10
-329.9433853913001
 20
-245.8529069044005
 30
0.0
 11
-331.8794284120001
 21
-245.8529069044005
 31
0.0
  0
LINE
  5
2C4
  8
0
  6
CONTINUOUS
 62
     3
 10
-402.8862425342
 20
-308.4457640472003
 30
0.0
 11
-402.8862425342
 21
-304.0100497615004
 31
0.0
  0
ARC
  5
2C5
  8
0
  6
CONTINUOUS
 62
     7
 10
-326.9862425342002
 20
-244.8671926185999
 30
0.0
 40
0.9857142857000456
 50
180.0
 51
270.0
  0
ARC
  5
2C6
  8
0
  6
CONTINUOUS
 62
     3
 10
-404.8576711056001
 20
-304.0100497615004
 30
0.0
 40
1.971428571400036
 50
0.0
 51
90.0
  0
LINE
  5
2C7
  8
0
  6
CONTINUOUS
 62
     3
 10
-402.8862425342
 20
-241.4171926186002
 30
0.0
 11
-402.8862425342
 21
-245.8529069044002
 31
0.0
  0
LINE
  5
2C8
  8
0
  6
CONTINUOUS
 62
     7
 10
-410.3776711056001
 20
-283.8029069044002
 30
0.0
 11
-410.3776711056001
 21
-290.7029069044002
 31
0.0
  0
LINE
  5
2C9
  8
0
  6
CENTER
 62
     1
 10
-411.2780501886001
 20
-244.3743354758002
 30
0.0
 11
-402.4929471512
 21
-244.3743354758002
 31
0.0
  0
LINE
  5
2CA
  8
0
  6
CONTINUOUS
 62
     3
 10
-410.0326711056002
 20
-260.9463259937
 30
0.0
 11
-410.0326711056002
 21
-281.8314783328999
 31
0.0
  0
LINE
  5
2CB
  8
0
  6
CONTINUOUS
 62
     3
 10
-403.6255282485002
 20
-260.9463259937
 30
0.0
 11
-410.0326711057002
 21
-260.9463259937
 31
0.0
  0
LINE
  5
2CC
  8
0
  6
CONTINUOUS
 62
     7
 10
-401.9005282485001
 20
-259.4495359565004
 30
0.0
 11
-401.9005282485001
 21
-290.7029069044004
 31
0.0
  0
LINE
  5
2CD
  8
0
  6
CENTER
 62
     1
 10
-403.2118824693001
 20
-246.8386211901
 30
0.0
 11
-390.1145142935002
 21
-246.8386211901
 31
0.0
  0
LINE
  5
2CE
  8
0
  6
CONTINUOUS
 62
     3
 10
-403.6255282485002
 20
-281.8314783328997
 30
0.0
 11
-403.6255282485002
 21
-260.9463259937002
 31
0.0
  0
LINE
  5
2CF
  8
0
  6
CONTINUOUS
 62
     3
 10
-422.6005282485002
 20
-253.2457640472006
 30
0.0
 11
-408.4931769172002
 21
-253.2457640472006
 31
0.0
  0
LINE
  5
2D0
  8
0
  6
CONTINUOUS
 62
     7
 10
-401.9005282485001
 20
-290.7029069044001
 30
0.0
 11
-403.2805282485002
 21
-290.7029069044001
 31
0.0
  0
LINE
  5
2D1
  8
0
  6
CONTINUOUS
 62
     7
 10
-364.5419568199002
 20
-240.4314783329001
 30
0.0
 11
-361.3876711056002
 21
-240.4314783329001
 31
0.0
  0
LINE
  5
2D2
  8
0
  6
CENTER
 62
     1
 10
-397.4648139627001
 20
-298.5366825481999
 30
0.0
 11
-397.4648139627001
 21
-314.1374822224
 31
0.0
  0
LINE
  5
2D3
  8
0
  6
CONTINUOUS
 62
     7
 10
-336.3505282485
 20
-244.8671926185999
 30
0.0
 11
-334.4144852278002
 21
-244.8671926185999
 31
0.0
  0
LINE
  5
2D4
  8
0
  6
CENTER
 62
     1
 10
-416.1933853913002
 20
-253.8519884033
 30
0.0
 11
-416.1933853913002
 21
-238.2511887290999
 31
0.0
  0
LINE
  5
2D5
  8
0
  6
CONTINUOUS
 62
     7
 10
-338.3219568199001
 20
-242.8957640471999
 30
0.0
 11
-338.3219568199001
 21
-241.9100497614999
 31
0.0
  0
ARC
  5
2D6
  8
0
  6
CONTINUOUS
 62
     7
 10
-329.9433853913001
 20
-247.8243354757999
 30
0.0
 40
0.9857142857000456
 50
0.0
 51
89.9999999999
  0
LINE
  5
2D7
  8
0
  6
CENTER
 62
     1
 10
-411.2780501886001
 20
-305.4886211901
 30
0.0
 11
-402.4929471512
 21
-305.4886211901
 31
0.0
  0
LINE
  5
2D8
  8
0
  6
CONTINUOUS
 62
     7
 10
-326.9862425342002
 20
-245.8529069044005
 30
0.0
 11
-325.0501995135001
 21
-245.8529069044005
 31
0.0
  0
LINE
  5
2D9
  8
0
  6
CONTINUOUS
 62
     7
 10
-347.6862425342002
 20
-247.8243354757999
 30
0.0
 11
-347.6862425342002
 21
-248.8100497615
 31
0.0
  0
LINE
  5
2DA
  8
0
  6
CONTINUOUS
 62
     7
 10
-327.9719568199002
 20
-244.8671926185999
 30
0.0
 11
-327.9719568199002
 21
-243.8814783329001
 31
0.0
  0
LINE
  5
2DB
  8
0
  6
CONTINUOUS
 62
     7
 10
-339.3076711056001
 20
-243.8814783329002
 30
0.0
 11
-341.2437141262
 21
-243.8814783329002
 31
0.0
  0
ARC
  5
2DC
  8
0
  6
CONTINUOUS
 62
     7
 10
-326.9862425342002
 20
-247.8243354757999
 30
0.0
 40
0.9857142857000456
 50
90.0
 51
180.0
  0
LINE
  5
2DD
  8
0
  6
CONTINUOUS
 62
     3
 10
-404.8576711056001
 20
-302.0386211901001
 30
0.0
 11
-408.8005282485001
 21
-302.0386211901001
 31
0.0
  0
LINE
  5
2DE
  8
0
  6
CONTINUOUS
 62
     7
 10
-409.2933853913001
 20
-285.7743354758005
 30
0.0
 11
-404.3648139627002
 21
-285.7743354758005
 31
0.0
  0
LINE
  5
2DF
  8
0
  6
CONTINUOUS
 62
     7
 10
-346.7005282485001
 20
-247.8243354757999
 30
0.0
 11
-346.7005282485001
 21
-248.8100497615
 31
0.0
  0
LINE
  5
2E0
  8
0
  6
CENTER
 62
     1
 10
-352.2835904718001
 20
-246.3457640472
 30
0.0
 11
-342.4267101774001
 21
-246.3457640472
 31
0.0
  0
LINE
  5
2E1
  8
0
  6
CONTINUOUS
 62
     7
 10
-330.929099677
 20
-239.5443354757001
 30
0.0
 11
-330.929099677
 21
-238.4600497614001
 31
0.0
  0
LINE
  5
2E2
  8
0
  6
CENTER
 62
     1
 10
-342.8592925180002
 20
-244.3743354758002
 30
0.0
 11
-332.7799268524002
 21
-244.3743354758002
 31
0.0
  0
ARC
  5
2E3
  8
0
  6
CONTINUOUS
 62
     7
 10
-336.3505282485
 20
-245.8529069044005
 30
0.0
 40
0.9857142857000456
 50
90.0
 51
180.0
  0
LINE
  5
2E4
  8
0
  6
CONTINUOUS
 62
     7
 10
-327.9719568199002
 20
-247.8243354757999
 30
0.0
 11
-327.9719568199002
 21
-248.8100497615
 31
0.0
  0
ARC
  5
2E5
  8
0
  6
CONTINUOUS
 62
     7
 10
-336.3505282485
 20
-242.8957640471999
 30
0.0
 40
0.9857142857000456
 50
180.0
 51
270.0
  0
LINE
  5
2E6
  8
0
  6
CONTINUOUS
 62
     7
 10
-365.4290996770002
 20
-239.5443354757001
 30
0.0
 11
-365.4290996770002
 21
-238.4600497614001
 31
0.0
  0
LINE
  5
2E7
  8
0
  6
CONTINUOUS
 62
     3
 10
-404.8576711056001
 20
-247.8243354757999
 30
0.0
 11
-408.8005282485001
 21
-247.8243354757999
 31
0.0
  0
LINE
  5
2E8
  8
0
  6
CONTINUOUS
 62
     7
 10
-409.2933853913001
 20
-288.7314783329001
 30
0.0
 11
-409.2933853913001
 21
-285.7743354758001
 31
0.0
  0
LINE
  5
2E9
  8
0
  6
CENTER
 62
     1
 10
-421.9404538978001
 20
-303.0243354758001
 30
0.0
 11
-408.8430857221001
 21
-303.0243354758001
 31
0.0
  0
LINE
  5
2EA
  8
0
  6
CONTINUOUS
 62
     7
 10
-338.3219568199001
 20
-241.9100497615001
 30
0.0
 11
-337.3362425342001
 21
-241.9100497615001
 31
0.0
  0
LINE
  5
2EB
  8
0
  6
CONTINUOUS
 62
     3
 10
-422.6005282485002
 20
-292.6743354758002
 30
0.0
 11
-391.0576711056002
 21
-292.6743354758002
 31
0.0
  0
LINE
  5
2EC
  8
0
  6
CENTER
 62
     1
 10
-406.829099677
 20
-315.2689702081005
 30
0.0
 11
-406.829099677
 21
-239.4864940529005
 31
0.0
  0
ARC
  5
2ED
  8
0
  6
CONTINUOUS
 62
     7
 10
-339.3076711056001
 20
-245.8529069044005
 30
0.0
 40
0.9857142857000456
 50
0.0
 51
90.0
  0
LINE
  5
2EE
  8
0
  6
CONTINUOUS
 62
     3
 10
-410.7719568199001
 20
-241.4171926186002
 30
0.0
 11
-410.7719568199001
 21
-245.8529069044002
 31
0.0
  0
LINE
  5
2EF
  8
0
  6
CONTINUOUS
 62
     7
 10
-411.7576711056002
 20
-259.4495359565004
 30
0.0
 11
-401.9005282485001
 21
-259.4495359565004
 31
0.0
  0
ARC
  5
2F0
  8
0
  6
CONTINUOUS
 62
     7
 10
-406.829099677
 20
-299.1800497615003
 30
0.0
 40
3.055714285699951
 50
57.00411452640001
 51
122.9958854736
  0
ARC
  5
2F1
  8
0
  6
CONTINUOUS
 62
     3
 10
-411.7576711056002
 20
-308.4457640472003
 30
0.0
 40
0.9857142857000456
 50
270.0
 51
0.0
  0
ARC
  5
2F2
  8
0
  6
CONTINUOUS
 62
     3
 10
-401.9005282485001
 20
-308.4457640472003
 30
0.0
 40
0.9857142857000456
 50
180.0
 51
270.0
  0
LINE
  5
2F3
  8
0
  6
CONTINUOUS
 62
     3
 10
-410.0326711056002
 20
-281.8314783328997
 30
0.0
 11
-403.6255282485002
 21
-281.8314783328997
 31
0.0
  0
LINE
  5
2F4
  8
0
  6
CONTINUOUS
 62
     3
 10
-405.1650224369002
 20
-253.2457640472006
 30
0.0
 11
-391.0576711056002
 21
-253.2457640472006
 31
0.0
  0
LINE
  5
2F5
  8
0
  6
CONTINUOUS
 62
     7
 10
-404.3648139627002
 20
-288.7314783329001
 30
0.0
 11
-409.2933853913001
 21
-288.7314783329001
 31
0.0
  0
LINE
  5
2F6
  8
0
  6
CONTINUOUS
 62
     7
 10
-337.3362425342001
 20
-245.8529069044005
 30
0.0
 11
-337.3362425342001
 21
-246.8386211901005
 31
0.0
  0
LINE
  5
2F7
  8
0
  6
CONTINUOUS
 62
     7
 10
-360.5005282485002
 20
-239.5443354757001
 30
0.0
 11
-361.3876711056002
 21
-240.4314783329001
 31
0.0
  0
LINE
  5
2F8
  8
0
  6
CONTINUOUS
 62
     7
 10
-336.3505282485
 20
-243.8814783329002
 30
0.0
 11
-334.4144852278002
 21
-243.8814783329002
 31
0.0
  0
ARC
  5
2F9
  8
0
  6
CONTINUOUS
 62
     7
 10
-329.9433853913001
 20
-244.8671926185999
 30
0.0
 40
0.9857142857000456
 50
270.0
 51
0.0
  0
LINE
  5
2FA
  8
0
  6
CONTINUOUS
 62
     7
 10
-347.6862425342002
 20
-244.8671926185999
 30
0.0
 11
-347.6862425342002
 21
-243.8814783329001
 31
0.0
  0
CIRCLE
  5
2FB
  8
0
  6
CONTINUOUS
 62
     7
 10
-347.1933853913001
 20
-246.3457640472
 30
0.0
 40
3.449999999999898
  0
ARC
  5
2FC
  8
0
  6
CONTINUOUS
 62
     3
 10
-408.8005282485002
 20
-304.0100497615004
 30
0.0
 40
1.971428571400036
 50
90.0
 51
180.0
  0
LINE
  5
2FD
  8
0
  6
CONTINUOUS
 62
     7
 10
-365.4290996770002
 20
-239.5443354757001
 30
0.0
 11
-364.5419568199002
 21
-240.4314783329001
 31
0.0
  0
LINE
  5
2FE
  8
0
  6
CENTER
 62
     1
 10
-397.4648139627001
 20
-253.8519884033
 30
0.0
 11
-397.4648139627001
 21
-238.2511887290999
 31
0.0
  0
LINE
  5
2FF
  8
0
  6
CONTINUOUS
 62
     7
 10
-334.3790996770002
 20
-284.2957640472002
 30
0.0
 11
-341.2790996770002
 21
-284.2957640472002
 31
0.0
  0
LINE
  5
300
  8
0
  6
CONTINUOUS
 62
     3
 10
-422.6005282485002
 20
-257.1886211901
 30
0.0
 11
-391.0576711056002
 21
-257.1886211901
 31
0.0
  0
LINE
  5
301
  8
0
  6
CENTER
 62
     1
 10
-342.8592925180002
 20
-305.4886211901
 30
0.0
 11
-332.7799268524002
 21
-305.4886211901
 31
0.0
  0
LINE
  5
302
  8
0
  6
CONTINUOUS
 62
     7
 10
-347.6862425342002
 20
-243.8814783329002
 30
0.0
 11
-346.7005282485001
 21
-243.8814783329002
 31
0.0
  0
CIRCLE
  5
303
  8
0
  6
CONTINUOUS
 62
     7
 10
-347.1933853913001
 20
-222.8857640472002
 30
0.0
 40
1.577142857099922
  0
ARC
  5
304
  8
0
  6
CONTINUOUS
 62
     3
 10
-408.8005282485002
 20
-245.8529069044005
 30
0.0
 40
1.971428571400036
 50
180.0
 51
270.0
  0
LINE
  5
305
  8
0
  6
CONTINUOUS
 62
     7
 10
-379.2290996770002
 20
-239.5443354757001
 30
0.0
 11
-379.2290996770002
 21
-238.4600497665
 31
0.0
  0
CIRCLE
  5
306
  8
0
  6
CONTINUOUS
 62
     7
 10
-397.4648139627001
 20
-246.8386211901
 30
0.0
 40
3.450000000000009
  0
LINE
  5
307
  8
0
  6
CONTINUOUS
 62
     7
 10
-323.0433853913001
 20
-226.6314783329
 30
0.0
 11
-323.0433853913001
 21
-238.4600497614001
 31
0.0
  0
LINE
  5
308
  8
0
  6
CONTINUOUS
 62
     7
 10
-396.9719568199002
 20
-249.3029069044
 30
0.0
 11
-397.9576711056001
 21
-249.3029069044
 31
0.0
  0
LINE
  5
309
  8
0
  6
DASHED
 62
     7
 10
-379.2290996770002
 20
-238.4600497665
 30
0.0
 11
-379.2290996770002
 21
-230.5743354757006
 31
0.0
  0
LINE
  5
30A
  8
0
  6
CONTINUOUS
 62
     7
 10
-398.9433853913002
 20
-247.3314783329002
 30
0.0
 11
-400.879428412
 21
-247.3314783329002
 31
0.0
  0
LINE
  5
30B
  8
0
  6
CENTER
 62
     1
 10
-356.9219568199001
 20
-252.7295680736
 30
0.0
 11
-356.9219568199001
 21
-216.619003784
 31
0.0
  0
ARC
  5
30C
  8
0
  6
CONTINUOUS
 62
     7
 10
-398.9433853913002
 20
-248.3171926186001
 30
0.0
 40
0.9857142857000456
 50
0.0
 51
90.0
  0
LINE
  5
30D
  8
0
  6
CENTER
 62
     1
 10
-405.0354783886001
 20
-231.5600497614001
 30
0.0
 11
-320.5198273492002
 21
-231.5600497614001
 31
0.0
  0
LINE
  5
30E
  8
0
  6
CONTINUOUS
 62
     7
 10
-399.0419568199001
 20
-240.4314783329001
 30
0.0
 11
-395.8876711056001
 21
-240.4314783329001
 31
0.0
  0
LINE
  5
30F
  8
0
  6
DASHED
 62
     7
 10
-341.7719568199001
 20
-226.6314783329
 30
0.0
 11
-341.7719568199001
 21
-230.5743354757001
 31
0.0
  0
LINE
  5
310
  8
0
  6
CONTINUOUS
 62
     7
 10
-402.8862425342
 20
-226.6314783329
 30
0.0
 11
-402.8862425342
 21
-238.4600497614001
 31
0.0
  0
LINE
  5
311
  8
0
  6
CONTINUOUS
 62
     7
 10
-360.5005282485002
 20
-239.5443354757001
 30
0.0
 11
-360.5005282485002
 21
-238.4600497614001
 31
0.0
  0
LINE
  5
312
  8
0
  6
CONTINUOUS
 62
     7
 10
-397.9576711056002
 20
-244.3743354758002
 30
0.0
 11
-396.9719568199002
 21
-244.3743354758002
 31
0.0
  0
LINE
  5
313
  8
0
  6
CONTINUOUS
 62
     7
 10
-410.3776711056001
 20
-290.7029069044001
 30
0.0
 11
-411.7576711056003
 21
-290.7029069044001
 31
0.0
  0
CIRCLE
  5
314
  8
0
  6
CONTINUOUS
 62
     7
 10
-406.829099677
 20
-250.6829069044001
 30
0.0
 40
2.562857142900055
  0
LINE
  5
315
  8
0
  6
CENTER
 62
     1
 10
-403.2118824693001
 20
-303.0243354758001
 30
0.0
 11
-390.1145142935002
 21
-303.0243354758001
 31
0.0
  0
LINE
  5
316
  8
0
  6
DASHED
 62
     7
 10
-402.8862425342
 20
-230.5743354757
 30
0.0
 11
-384.1576711056002
 21
-230.5743354757
 31
0.0
  0
ARC
  5
317
  8
0
  6
CONTINUOUS
 62
     7
 10
-406.829099677
 20
-250.6829069044001
 30
0.0
 40
3.055714285699951
 50
237.0041145264
 51
302.9958854736
  0
LINE
  5
318
  8
0
  6
CENTER
 62
     1
 10
-416.1933853913002
 20
-252.7295680736
 30
0.0
 11
-416.1933853913002
 21
-216.619003784
 31
0.0
  0
LINE
  5
319
  8
0
  6
CONTINUOUS
 62
     7
 10
-411.7576711056002
 20
-290.7029069044001
 30
0.0
 11
-411.7576711056002
 21
-259.4495359565001
 31
0.0
  0
LINE
  5
31A
  8
0
  6
CONTINUOUS
 62
     3
 10
-422.6005282485002
 20
-296.6171926186001
 30
0.0
 11
-408.4931769172002
 21
-296.6171926186001
 31
0.0
  0
LINE
  5
31B
  8
0
  6
CONTINUOUS
 62
     7
 10
-383.2705282485001
 20
-240.4314783329001
 30
0.0
 11
-380.1162425342001
 21
-240.4314783329001
 31
0.0
  0
LINE
  5
31C
  8
0
  6
CENTER
 62
     1
 10
-421.9404538978001
 20
-246.8386211901
 30
0.0
 11
-408.8430857221001
 21
-246.8386211901
 31
0.0
  0
LINE
  5
31D
  8
0
  6
CONTINUOUS
 62
     7
 10
-348.7705282485002
 20
-240.4314783329001
 30
0.0
 11
-345.6162425342002
 21
-240.4314783329001
 31
0.0
  0
LINE
  5
31E
  8
0
  6
CONTINUOUS
 62
     3
 10
-410.7719568199001
 20
-308.4457640472003
 30
0.0
 11
-410.7719568199001
 21
-304.0100497615004
 31
0.0
  0
LINE
  5
31F
  8
0
  6
CONTINUOUS
 62
     7
 10
-330.0419568199
 20
-240.4314783329001
 30
0.0
 11
-326.8876711056001
 21
-240.4314783329001
 31
0.0
  0
LINE
  5
320
  8
0
  6
CONTINUOUS
 62
     3
 10
-405.1650224369002
 20
-296.6171926186001
 30
0.0
 11
-391.0576711056002
 21
-296.6171926186001
 31
0.0
  0
LINE
  5
321
  8
0
  6
CONTINUOUS
 62
     7
 10
-403.2805282485002
 20
-283.8029069044002
 30
0.0
 11
-410.3776711056001
 21
-283.8029069044002
 31
0.0
  0
LINE
  5
322
  8
0
  6
CONTINUOUS
 62
     7
 10
-402.8862425342
 20
-238.4600497614001
 30
0.0
 11
-323.0433853913001
 21
-238.4600497612001
 31
0.0
  0
LINE
  5
323
  8
0
  6
CONTINUOUS
 62
     3
 10
-403.6255282485002
 20
-274.9314783329003
 30
0.0
 11
-410.0326711056002
 21
-274.9314783329003
 31
0.0
  0
ARC
  5
324
  8
0
  6
CONTINUOUS
 62
     3
 10
-404.8576711056001
 20
-245.8529069044005
 30
0.0
 40
1.971428571400036
 50
270.0
 51
0.0
  0
LINE
  5
325
  8
0
  6
CONTINUOUS
 62
     3
 10
-410.0326711044001
 20
-264.6605954060003
 30
0.0
 11
-403.6255282472002
 21
-264.6605954060003
 31
0.0
  0
LINE
  5
326
  8
0
  6
CONTINUOUS
 62
     7
 10
-413.7290996770002
 20
-239.5443354757001
 30
0.0
 11
-414.6162425342001
 21
-240.4314783329001
 31
0.0
  0
ARC
  5
327
  8
0
  6
CONTINUOUS
 62
     3
 10
-401.9005282485001
 20
-241.4171926186002
 30
0.0
 40
0.9857142857000456
 50
90.0
 51
180.0
  0
CIRCLE
  5
328
  8
0
  6
CONTINUOUS
 62
     7
 10
-416.1933853913002
 20
-222.8857640472002
 30
0.0
 40
1.577142857100033
  0
LINE
  5
329
  8
0
  6
CONTINUOUS
 62
     7
 10
-421.6148139627002
 20
-217.9571926186
 30
0.0
 11
-341.7719568199001
 21
-217.9571926186
 31
0.0
  0
LINE
  5
32A
  8
0
  6
CONTINUOUS
 62
     7
 10
-402.8862425342
 20
-226.6314783329
 30
0.0
 11
-323.0433853913001
 21
-226.6314783329
 31
0.0
  0
LINE
  5
32B
  8
0
  6
CONTINUOUS
 62
     7
 10
-417.7705282485002
 20
-240.4314783329001
 30
0.0
 11
-414.6162425342001
 21
-240.4314783329001
 31
0.0
  0
CIRCLE
  5
32C
  8
0
  6
CONTINUOUS
 62
     7
 10
-381.6933853913002
 20
-222.8857640472002
 30
0.0
 40
1.577142857099922
  0
LINE
  5
32D
  8
0
  6
DASHED
 62
     7
 10
-379.2290996770002
 20
-230.5743354757
 30
0.0
 11
-349.6576711056002
 21
-230.5743354757
 31
0.0
  0
LINE
  5
32E
  8
0
  6
CONTINUOUS
 62
     7
 10
-330.929099677
 20
-239.5443354757001
 30
0.0
 11
-330.0419568199
 21
-240.4314783329001
 31
0.0
  0
LINE
  5
32F
  8
0
  6
CONTINUOUS
 62
     7
 10
-397.9576711056002
 20
-248.3171926186001
 30
0.0
 11
-397.9576711056002
 21
-249.3029069044001
 31
0.0
  0
LINE
  5
330
  8
0
  6
CONTINUOUS
 62
     7
 10
-418.6576711056002
 20
-239.5443354757001
 30
0.0
 11
-418.6576711056002
 21
-230.5743354757001
 31
0.0
  0
LINE
  5
331
  8
0
  6
CONTINUOUS
 62
     7
 10
-344.7290996770002
 20
-239.5443354757001
 30
0.0
 11
-344.7290996770002
 21
-238.4600497665
 31
0.0
  0
LINE
  5
332
  8
0
  6
CONTINUOUS
 62
     7
 10
-395.0005282485001
 20
-239.5443354757001
 30
0.0
 11
-395.0005282484
 21
-238.4600497614001
 31
0.0
  0
LINE
  5
333
  8
0
  6
CONTINUOUS
 62
     7
 10
-379.2290996770002
 20
-239.5443354757001
 30
0.0
 11
-380.1162425342001
 21
-240.4314783329001
 31
0.0
  0
LINE
  5
334
  8
0
  6
CONTINUOUS
 62
     7
 10
-404.3648139627002
 20
-285.7743354758005
 30
0.0
 11
-404.3648139627002
 21
-288.7314783329003
 31
0.0
  0
LINE
  5
335
  8
0
  6
DASHED
 62
     7
 10
-344.7290996770002
 20
-238.4600497665
 30
0.0
 11
-344.7290996770002
 21
-230.5743354757006
 31
0.0
  0
LINE
  5
336
  8
0
  6
CONTINUOUS
 62
     7
 10
-326.0005282485002
 20
-239.5443354757001
 30
0.0
 11
-326.8876711056002
 21
-240.4314783329001
 31
0.0
  0
CIRCLE
  5
337
  8
0
  6
CONTINUOUS
 62
     7
 10
-328.4648139627001
 20
-231.5600497614001
 30
0.0
 40
1.577142857099978
  0
LINE
  5
338
  8
0
  6
CONTINUOUS
 62
     7
 10
-326.0005282485002
 20
-239.5443354757001
 30
0.0
 11
-326.0005282484001
 21
-238.4600497614001
 31
0.0
  0
LINE
  5
339
  8
0
  6
CONTINUOUS
 62
     7
 10
-395.0005282485001
 20
-239.5443354757001
 30
0.0
 11
-395.8876711056001
 21
-240.4314783329001
 31
0.0
  0
LINE
  5
33A
  8
0
  6
CONTINUOUS
 62
     7
 10
-421.6148139627002
 20
-217.9571926186
 30
0.0
 11
-421.6148139627002
 21
-230.5743354756999
 31
0.0
  0
LINE
  5
33B
  8
0
  6
CONTINUOUS
 62
     7
 10
-399.9290996770001
 20
-239.5443354757001
 30
0.0
 11
-399.9290996770001
 21
-238.4600497614001
 31
0.0
  0
ARC
  5
33C
  8
0
  6
CONTINUOUS
 62
     3
 10
-411.7576711056002
 20
-241.4171926186002
 30
0.0
 40
0.9857142857000456
 50
0.0
 51
90.0
  0
LINE
  5
33D
  8
0
  6
DASHED
 62
     7
 10
-344.7290996770002
 20
-230.5743354757
 30
0.0
 11
-341.7719568199001
 21
-230.5743354757
 31
0.0
  0
LINE
  5
33E
  8
0
  6
CENTER
 62
     1
 10
-328.4648139627001
 20
-252.7295680736
 30
0.0
 11
-328.4648139627001
 21
-225.2932894982999
 31
0.0
  0
LINE
  5
33F
  8
0
  6
CONTINUOUS
 62
     7
 10
-384.1576711056001
 20
-239.5443354757001
 30
0.0
 11
-384.1576711056001
 21
-238.4600497665
 31
0.0
  0
LINE
  5
340
  8
0
  6
CENTER
 62
     1
 10
-416.1933853913002
 20
-298.5366825481999
 30
0.0
 11
-416.1933853913002
 21
-314.1374822224
 31
0.0
  0
LINE
  5
341
  8
0
  6
CENTER
 62
     1
 10
-381.6933853913002
 20
-252.7295680736
 30
0.0
 11
-381.6933853913002
 21
-216.619003784
 31
0.0
  0
LINE
  5
342
  8
0
  6
CONTINUOUS
 62
     7
 10
-403.2805282485002
 20
-290.7029069044001
 30
0.0
 11
-403.2805282485002
 21
-283.8029069044001
 31
0.0
  0
LINE
  5
343
  8
0
  6
CENTER
 62
     1
 10
-397.4648139627001
 20
-252.7295680736
 30
0.0
 11
-397.4648139627001
 21
-225.2932894982999
 31
0.0
  0
LINE
  5
344
  8
0
  6
DASHED
 62
     7
 10
-384.1576711056001
 20
-238.4600497665
 30
0.0
 11
-384.1576711056001
 21
-230.5743354757006
 31
0.0
  0
LINE
  5
345
  8
0
  6
CONTINUOUS
 62
     7
 10
-417.6719568199001
 20
-246.3457640472
 30
0.0
 11
-419.6079998405
 21
-246.3457640472
 31
0.0
  0
LINE
  5
346
  8
0
  6
DASHED
 62
     7
 10
-349.6576711056002
 20
-238.4600497665
 30
0.0
 11
-349.6576711056002
 21
-230.5743354757006
 31
0.0
  0
LINE
  5
347
  8
0
  6
CONTINUOUS
 62
     7
 10
-407.3219568199001
 20
-242.8957640471999
 30
0.0
 11
-407.3219568199001
 21
-241.9100497614999
 31
0.0
  0
CIRCLE
  5
348
  8
0
  6
CONTINUOUS
 62
     7
 10
-406.829099677
 20
-244.3743354758002
 30
0.0
 40
3.449999999999898
  0
LINE
  5
349
  8
0
  6
CONTINUOUS
 62
     7
 10
-406.3362425342001
 20
-242.8957640471999
 30
0.0
 11
-406.3362425342001
 21
-241.9100497614999
 31
0.0
  0
CIRCLE
  5
34A
  8
0
  6
CONTINUOUS
 62
     7
 10
-416.1933853913002
 20
-246.8386211901
 30
0.0
 40
3.450000000000009
  0
LINE
  5
34B
  8
0
  6
CONTINUOUS
 62
     7
 10
-414.7148139628001
 20
-303.5171926187006
 30
0.0
 11
-412.7787709421
 21
-303.5171926187006
 31
0.0
  0
LINE
  5
34C
  8
0
  6
CONTINUOUS
 62
     7
 10
-406.3362425342001
 20
-246.8386211901
 30
0.0
 11
-407.3219568199
 21
-246.8386211901
 31
0.0
  0
LINE
  5
34D
  8
0
  6
CONTINUOUS
 62
     7
 10
-414.7148139628001
 20
-302.5314783328999
 30
0.0
 11
-412.7787709421
 21
-302.5314783328999
 31
0.0
  0
LINE
  5
34E
  8
0
  6
CONTINUOUS
 62
     7
 10
-417.6719568199001
 20
-302.5314783328999
 30
0.0
 11
-419.6079998405
 21
-302.5314783328999
 31
0.0
  0
LINE
  5
34F
  8
0
  6
CONTINUOUS
 62
     7
 10
-416.6862425342001
 20
-304.5029069044006
 30
0.0
 11
-416.6862425342001
 21
-305.4886211901006
 31
0.0
  0
LINE
  5
350
  8
0
  6
CONTINUOUS
 62
     7
 10
-408.3076711056001
 20
-244.8671926186999
 30
0.0
 11
-410.2437141262001
 21
-244.8671926186999
 31
0.0
  0
LINE
  5
351
  8
0
  6
CONTINUOUS
 62
     7
 10
-408.3076711056001
 20
-305.9814783329001
 30
0.0
 11
-410.2437141262001
 21
-305.9814783329001
 31
0.0
  0
LINE
  5
352
  8
0
  6
CONTINUOUS
 62
     7
 10
-407.3219568199001
 20
-306.9671926186004
 30
0.0
 11
-407.3219568199001
 21
-307.9529069044004
 31
0.0
  0
LINE
  5
353
  8
0
  6
CONTINUOUS
 62
     7
 10
-349.6576711056002
 20
-239.5443354757001
 30
0.0
 11
-348.7705282485002
 21
-240.4314783329001
 31
0.0
  0
CIRCLE
  5
354
  8
0
  6
CONTINUOUS
 62
     7
 10
-362.9648139627001
 20
-231.5600497614001
 30
0.0
 40
1.577142857099922
  0
LINE
  5
355
  8
0
  6
CONTINUOUS
 62
     7
 10
-395.9862425342001
 20
-246.3457640472
 30
0.0
 11
-394.0501995135002
 21
-246.3457640472
 31
0.0
  0
ARC
  5
356
  8
0
  6
CONTINUOUS
 62
     7
 10
-398.9433853913002
 20
-245.3600497615003
 30
0.0
 40
0.9857142857000456
 50
270.0
 51
0.0
  0
LINE
  5
357
  8
0
  6
CONTINUOUS
 62
     7
 10
-405.3505282485002
 20
-244.8671926186999
 30
0.0
 11
-403.4144852278002
 21
-244.8671926186999
 31
0.0
  0
LINE
  5
358
  8
0
  6
CONTINUOUS
 62
     7
 10
-396.9719568199002
 20
-248.3171926186001
 30
0.0
 11
-396.9719568199002
 21
-249.3029069044001
 31
0.0
  0
ARC
  5
359
  8
0
  6
CONTINUOUS
 62
     7
 10
-417.6719568199001
 20
-304.5029069044006
 30
0.0
 40
0.9857142857000456
 50
0.0
 51
90.0
  0
ARC
  5
35A
  8
0
  6
CONTINUOUS
 62
     7
 10
-395.9862425342001
 20
-248.3171926186001
 30
0.0
 40
0.9857142857000456
 50
90.0
 51
180.0
  0
LINE
  5
35B
  8
0
  6
CONTINUOUS
 62
     7
 10
-407.3219568199001
 20
-245.8529069044005
 30
0.0
 11
-407.3219568199001
 21
-246.8386211901005
 31
0.0
  0
LINE
  5
35C
  8
0
  6
CONTINUOUS
 62
     7
 10
-349.6576711056002
 20
-239.5443354757001
 30
0.0
 11
-349.6576711056002
 21
-238.4600497665
 31
0.0
  0
LINE
  5
35D
  8
0
  6
CONTINUOUS
 62
     7
 10
-384.1576711056001
 20
-239.5443354757001
 30
0.0
 11
-383.2705282485001
 21
-240.4314783329001
 31
0.0
  0
LINE
  5
35E
  8
0
  6
CONTINUOUS
 62
     7
 10
-418.6576711056002
 20
-239.5443354757001
 30
0.0
 11
-417.7705282485002
 21
-240.4314783329001
 31
0.0
  0
LINE
  5
35F
  8
0
  6
CONTINUOUS
 62
     7
 10
-416.6862425342001
 20
-248.3171926186001
 30
0.0
 11
-416.6862425342001
 21
-249.3029069044001
 31
0.0
  0
LINE
  5
360
  8
0
  6
CONTINUOUS
 62
     7
 10
-416.6862425342001
 20
-245.3600497615003
 30
0.0
 11
-416.6862425342001
 21
-244.3743354758003
 31
0.0
  0
LINE
  5
361
  8
0
  6
CONTINUOUS
 62
     7
 10
-417.6719568199001
 20
-247.3314783329002
 30
0.0
 11
-419.6079998405
 21
-247.3314783329002
 31
0.0
  0
LINE
  5
362
  8
0
  6
CONTINUOUS
 62
     7
 10
-405.3505282485002
 20
-304.9957640472001
 30
0.0
 11
-403.4144852278002
 21
-304.9957640472001
 31
0.0
  0
LINE
  5
363
  8
0
  6
CONTINUOUS
 62
     7
 10
-341.7719568199001
 20
-217.9571926186
 30
0.0
 11
-341.7719568199001
 21
-226.6314783328999
 31
0.0
  0
LINE
  5
364
  8
0
  6
CONTINUOUS
 62
     7
 10
-399.9290996770001
 20
-239.5443354757001
 30
0.0
 11
-399.0419568199001
 21
-240.4314783329001
 31
0.0
  0
LINE
  5
365
  8
0
  6
CONTINUOUS
 62
     7
 10
-421.6148139627002
 20
-230.5743354757
 30
0.0
 11
-418.6576711056002
 21
-230.5743354757
 31
0.0
  0
LINE
  5
366
  8
0
  6
CONTINUOUS
 62
     7
 10
-406.3362425342001
 20
-306.9671926186004
 30
0.0
 11
-406.3362425342001
 21
-307.9529069044004
 31
0.0
  0
LINE
  5
367
  8
0
  6
CONTINUOUS
 62
     7
 10
-407.3219568199001
 20
-303.0243354758001
 30
0.0
 11
-406.3362425342002
 21
-303.0243354758001
 31
0.0
  0
LINE
  5
368
  8
0
  6
CONTINUOUS
 62
     7
 10
-414.7148139628001
 20
-246.3457640472
 30
0.0
 11
-412.7787709421
 21
-246.3457640472
 31
0.0
  0
ARC
  5
369
  8
0
  6
CONTINUOUS
 62
     7
 10
-395.9862425342001
 20
-245.3600497615003
 30
0.0
 40
0.9857142857000456
 50
180.0
 51
270.0
  0
LINE
  5
36A
  8
0
  6
CONTINUOUS
 62
     7
 10
-396.9719568199002
 20
-245.3600497615003
 30
0.0
 11
-396.9719568199002
 21
-244.3743354758003
 31
0.0
  0
LINE
  5
36B
  8
0
  6
CONTINUOUS
 62
     7
 10
-408.3076711056001
 20
-243.8814783329002
 30
0.0
 11
-410.2437141262001
 21
-243.8814783329002
 31
0.0
  0
CIRCLE
  5
36C
  8
0
  6
CONTINUOUS
 62
     7
 10
-397.4648139627001
 20
-231.5600497614001
 30
0.0
 40
1.577142857100033
  0
LINE
  5
36D
  8
0
  6
CONTINUOUS
 62
     7
 10
-413.7290996770002
 20
-230.5743354757
 30
0.0
 11
-402.8862425342
 21
-230.5743354757
 31
0.0
  0
LINE
  5
36E
  8
0
  6
CONTINUOUS
 62
     7
 10
-407.3219568199001
 20
-241.9100497615001
 30
0.0
 11
-406.3362425342002
 21
-241.9100497615001
 31
0.0
  0
ARC
  5
36F
  8
0
  6
CONTINUOUS
 62
     7
 10
-405.3505282485002
 20
-242.8957640471999
 30
0.0
 40
0.9857142857000456
 50
180.0
 51
270.0
  0
LINE
  5
370
  8
0
  6
CONTINUOUS
 62
     7
 10
-405.3505282485002
 20
-243.8814783329002
 30
0.0
 11
-403.4144852278002
 21
-243.8814783329002
 31
0.0
  0
LINE
  5
371
  8
0
  6
CONTINUOUS
 62
     7
 10
-413.7290996770002
 20
-239.5443354757001
 30
0.0
 11
-413.7290996770002
 21
-230.5743354757001
 31
0.0
  0
LINE
  5
372
  8
0
  6
CONTINUOUS
 62
     7
 10
-398.9433853913002
 20
-246.3457640472
 30
0.0
 11
-400.879428412
 21
-246.3457640472
 31
0.0
  0
CIRCLE
  5
373
  8
0
  6
CONTINUOUS
 62
     7
 10
-406.829099677
 20
-305.4886211901
 30
0.0
 40
3.449999999999898
  0
LINE
  5
374
  8
0
  6
CONTINUOUS
 62
     7
 10
-416.6862425342001
 20
-244.3743354758002
 30
0.0
 11
-415.7005282485001
 21
-244.3743354758002
 31
0.0
  0
LINE
  5
375
  8
0
  6
CONTINUOUS
 62
     7
 10
-344.7290996770002
 20
-239.5443354757001
 30
0.0
 11
-345.6162425342002
 21
-240.4314783329001
 31
0.0
  0
LINE
  5
376
  8
0
  6
CONTINUOUS
 62
     7
 10
-417.6719568199001
 20
-303.5171926187006
 30
0.0
 11
-419.6079998405
 21
-303.5171926187006
 31
0.0
  0
ARC
  5
377
  8
0
  6
CONTINUOUS
 62
     7
 10
-408.3076711056001
 20
-242.8957640471999
 30
0.0
 40
0.9857142857000456
 50
270.0
 51
0.0
  0
ARC
  5
378
  8
0
  6
CONTINUOUS
 62
     7
 10
-414.7148139628001
 20
-304.5029069044006
 30
0.0
 40
0.9857142857000456
 50
90.0
 51
180.0
  0
ARC
  5
379
  8
0
  6
CONTINUOUS
 62
     7
 10
-405.3505282485002
 20
-306.9671926186004
 30
0.0
 40
0.9857142857000456
 50
90.0
 51
180.0
  0
LINE
  5
37A
  8
0
  6
CONTINUOUS
 62
     7
 10
-406.3362425342001
 20
-245.8529069044005
 30
0.0
 11
-406.3362425342001
 21
-246.8386211901005
 31
0.0
  0
LINE
  5
37B
  8
0
  6
CONTINUOUS
 62
     7
 10
-416.6862425342001
 20
-301.5457640472
 30
0.0
 11
-416.6862425342001
 21
-300.5600497615001
 31
0.0
  0
ARC
  5
37C
  8
0
  6
CONTINUOUS
 62
     7
 10
-417.6719568199001
 20
-248.3171926186001
 30
0.0
 40
0.9857142857000456
 50
0.0
 51
90.0
  0
LINE
  5
37D
  8
0
  6
CONTINUOUS
 62
     7
 10
-415.7005282485001
 20
-304.5029069044006
 30
0.0
 11
-415.7005282485001
 21
-305.4886211901006
 31
0.0
  0
ARC
  5
37E
  8
0
  6
CONTINUOUS
 62
     7
 10
-414.7148139628001
 20
-248.3171926186001
 30
0.0
 40
0.9857142857000456
 50
90.0
 51
180.0
  0
ARC
  5
37F
  8
0
  6
CONTINUOUS
 62
     7
 10
-405.3505282485002
 20
-245.8529069044005
 30
0.0
 40
0.9857142857000456
 50
90.0
 51
180.0
  0
ARC
  5
380
  8
0
  6
CONTINUOUS
 62
     7
 10
-417.6719568199001
 20
-245.3600497615003
 30
0.0
 40
0.9857142857000456
 50
270.0
 51
0.0
  0
LINE
  5
381
  8
0
  6
CONTINUOUS
 62
     7
 10
-415.7005282485001
 20
-305.4886211901
 30
0.0
 11
-416.6862425342001
 21
-305.4886211901
 31
0.0
  0
LINE
  5
382
  8
0
  6
CENTER
 62
     1
 10
-423.7640498172001
 20
-225.4114783328001
 30
0.0
 11
-339.2483987778001
 21
-225.4114783328001
 31
0.0
  0
LINE
  5
383
  8
0
  6
CONTINUOUS
 62
     7
 10
-370.8505282485001
 20
-304.9957640472001
 30
0.0
 11
-368.9144852278002
 21
-304.9957640472001
 31
0.0
  0
LINE
  5
384
  8
0
  6
CONTINUOUS
 62
     7
 10
-308.8076711056
 20
-528.8640419502
 30
0.0
 11
-308.8076711056
 21
-522.8640419502
 31
0.0
  0
ARC
  5
385
  8
0
  6
CONTINUOUS
 62
     7
 10
-398.9433853913002
 20
-304.5029069044006
 30
0.0
 40
0.9857142857000456
 50
0.0
 51
90.0
  0
ARC
  5
386
  8
0
  6
CONTINUOUS
 62
     7
 10
-370.8505282485001
 20
-306.9671926186004
 30
0.0
 40
0.9857142857000456
 50
90.0
 51
180.0
  0
ARC
  5
387
  8
0
  6
CONTINUOUS
 62
     7
 10
-370.8505282485001
 20
-304.0100497615004
 30
0.0
 40
0.9857142857000456
 50
180.0
 51
270.0
  0
LINE
  5
388
  8
0
  6
CONTINUOUS
 62
     7
 10
-395.9862425342001
 20
-302.5314783328999
 30
0.0
 11
-394.0501995135002
 21
-302.5314783328999
 31
0.0
  0
LINE
  5
389
  8
0
  6
CONTINUOUS
 62
     7
 10
-336.3505282485
 20
-305.9814783329001
 30
0.0
 11
-334.4144852278002
 21
-305.9814783329001
 31
0.0
  0
LINE
  5
38A
  8
0
  6
CONTINUOUS
 62
     7
 10
-397.9576711056002
 20
-301.5457640472
 30
0.0
 11
-397.9576711056002
 21
-300.5600497615001
 31
0.0
  0
LINE
  5
38B
  8
0
  6
CONTINUOUS
 62
     7
 10
-398.9433853913002
 20
-302.5314783328999
 30
0.0
 11
-400.879428412
 21
-302.5314783328999
 31
0.0
  0
LINE
  5
38C
  8
0
  6
CONTINUOUS
 62
     7
 10
-338.3219568199001
 20
-303.0243354758001
 30
0.0
 11
-337.3362425342001
 21
-303.0243354758001
 31
0.0
  0
LINE
  5
38D
  8
0
  6
CONTINUOUS
 62
     7
 10
-336.3505282485
 20
-304.9957640472001
 30
0.0
 11
-334.4144852278002
 21
-304.9957640472001
 31
0.0
  0
LINE
  5
38E
  8
0
  6
CONTINUOUS
 62
     7
 10
-338.3219568199001
 20
-304.0100497615004
 30
0.0
 11
-338.3219568199001
 21
-303.0243354758002
 31
0.0
  0
ARC
  5
38F
  8
0
  6
CONTINUOUS
 62
     7
 10
-336.3505282485
 20
-304.0100497615004
 30
0.0
 40
0.9857142857000456
 50
180.0
 51
270.0
  0
CIRCLE
  5
390
  8
0
  6
CONTINUOUS
 62
     7
 10
-397.4648139627001
 20
-303.0243354758001
 30
0.0
 40
3.450000000000009
  0
LINE
  5
391
  8
0
  6
CONTINUOUS
 62
     7
 10
-339.3076711056001
 20
-305.9814783329001
 30
0.0
 11
-341.2437141262
 21
-305.9814783329001
 31
0.0
  0
LINE
  5
392
  8
0
  6
CONTINUOUS
 62
     7
 10
-339.3076711056001
 20
-304.9957640472001
 30
0.0
 11
-341.2437141262
 21
-304.9957640472001
 31
0.0
  0
LINE
  5
393
  8
0
  6
CONTINUOUS
 62
     7
 10
-405.3505282485002
 20
-305.9814783329001
 30
0.0
 11
-403.4144852278002
 21
-305.9814783329001
 31
0.0
  0
LINE
  5
394
  8
0
  6
CONTINUOUS
 62
     7
 10
-397.9576711056002
 20
-300.5600497615002
 30
0.0
 11
-396.9719568199002
 21
-300.5600497615002
 31
0.0
  0
ARC
  5
395
  8
0
  6
CONTINUOUS
 62
     7
 10
-339.3076711056001
 20
-304.0100497615004
 30
0.0
 40
0.9857142857000456
 50
270.0
 51
0.0
  0
LINE
  5
396
  8
0
  6
CONTINUOUS
 62
     7
 10
-317.3076711056001
 20
-516.8640419502002
 30
0.0
 11
-301.8076711056
 21
-516.8640419502002
 31
0.0
  0
ARC
  5
397
  8
0
  6
CONTINUOUS
 62
     7
 10
-405.3505282485002
 20
-304.0100497615004
 30
0.0
 40
0.9857142857000456
 50
180.0
 51
270.0
  0
ARC
  5
398
  8
0
  6
CONTINUOUS
 62
     7
 10
-408.3076711056001
 20
-245.8529069044005
 30
0.0
 40
0.9857142857000456
 50
0.0
 51
90.0
  0
ARC
  5
399
  8
0
  6
CONTINUOUS
 62
     7
 10
-408.3076711056001
 20
-306.9671926186004
 30
0.0
 40
0.9857142857000456
 50
0.0
 51
90.0
  0
LINE
  5
39A
  8
0
  6
CONTINUOUS
 62
     7
 10
-395.9862425342001
 20
-247.3314783329002
 30
0.0
 11
-394.0501995135002
 21
-247.3314783329002
 31
0.0
  0
LINE
  5
39B
  8
0
  6
CONTINUOUS
 62
     7
 10
-301.8076711056001
 20
-538.3640419502002
 30
0.0
 11
-301.8076711056001
 21
-528.8640419502001
 31
0.0
  0
LINE
  5
39C
  8
0
  6
CONTINUOUS
 62
     7
 10
-317.3076711056001
 20
-540.8640419502
 30
0.0
 11
-304.3076711056001
 21
-540.8640419502
 31
0.0
  0
CIRCLE
  5
39D
  8
0
  6
CONTINUOUS
 62
     7
 10
-416.1933853913002
 20
-303.0243354758001
 30
0.0
 40
3.450000000000009
  0
LINE
  5
39E
  8
0
  6
CONTINUOUS
 62
     7
 10
-414.7148139628001
 20
-247.3314783329002
 30
0.0
 11
-412.7787709421
 21
-247.3314783329002
 31
0.0
  0
LINE
  5
39F
  8
0
  6
CONTINUOUS
 62
     7
 10
-415.7005282485001
 20
-249.3029069044
 30
0.0
 11
-416.6862425342001
 21
-249.3029069044
 31
0.0
  0
LINE
  5
3A0
  8
0
  6
CONTINUOUS
 62
     7
 10
-301.8076711056001
 20
-528.8640419502
 30
0.0
 11
-317.3076711056002
 21
-528.8640419502
 31
0.0
  0
LINE
  5
3A1
  8
0
  6
CENTER
 62
     1
 10
-362.9648139627001
 20
-252.7295680736
 30
0.0
 11
-362.9648139627001
 21
-225.2932894982999
 31
0.0
  0
ARC
  5
3A2
  8
0
  6
CONTINUOUS
 62
     7
 10
-395.9862425342001
 20
-301.5457640472
 30
0.0
 40
0.9857142857000456
 50
180.0
 51
270.0
  0
ARC
  5
3A3
  8
0
  6
CONTINUOUS
 62
     7
 10
-398.9433853913002
 20
-301.5457640472
 30
0.0
 40
0.9857142857000456
 50
270.0
 51
0.0
  0
CIRCLE
  5
3A4
  8
0
  6
CONTINUOUS
 62
     7
 10
-372.3290996770001
 20
-305.4886211901
 30
0.0
 40
3.450000000000009
  0
LINE
  5
3A5
  8
0
  6
CONTINUOUS
 62
     7
 10
-373.8076711056002
 20
-305.9814783329001
 30
0.0
 11
-375.7437141262001
 21
-305.9814783329001
 31
0.0
  0
LINE
  5
3A6
  8
0
  6
CONTINUOUS
 62
     7
 10
-371.8362425342002
 20
-304.0100497615004
 30
0.0
 11
-371.8362425342002
 21
-303.0243354758002
 31
0.0
  0
LINE
  5
3A7
  8
0
  6
CONTINUOUS
 62
     7
 10
-371.8362425342002
 20
-307.9529069044005
 30
0.0
 11
-372.8219568199
 21
-307.9529069044005
 31
0.0
  0
LINE
  5
3A8
  8
0
  6
CONTINUOUS
 62
     7
 10
-407.3219568199001
 20
-304.0100497615004
 30
0.0
 11
-407.3219568199001
 21
-303.0243354758002
 31
0.0
  0
LINE
  5
3A9
  8
0
  6
CONTINUOUS
 62
     7
 10
-416.6862425342001
 20
-300.5600497615002
 30
0.0
 11
-415.7005282485001
 21
-300.5600497615002
 31
0.0
  0
ARC
  5
3AA
  8
0
  6
CONTINUOUS
 62
     7
 10
-373.8076711056002
 20
-304.0100497615004
 30
0.0
 40
0.9857142857000456
 50
270.0
 51
0.0
  0
LINE
  5
3AB
  8
0
  6
CONTINUOUS
 62
     7
 10
-398.9433853913002
 20
-303.5171926187006
 30
0.0
 11
-400.879428412
 21
-303.5171926187006
 31
0.0
  0
LINE
  5
3AC
  8
0
  6
CONTINUOUS
 62
     7
 10
-397.9576711056002
 20
-245.3600497615003
 30
0.0
 11
-397.9576711056002
 21
-244.3743354758003
 31
0.0
  0
LINE
  5
3AD
  8
0
  6
CONTINUOUS
 62
     7
 10
-306.8076711056001
 20
-516.8640419502002
 30
0.0
 11
-306.8076711056001
 21
-522.8640419502001
 31
0.0
  0
LINE
  5
3AE
  8
0
  6
CONTINUOUS
 62
     7
 10
-371.8362425342002
 20
-306.9671926186004
 30
0.0
 11
-371.8362425342002
 21
-307.9529069044004
 31
0.0
  0
ARC
  5
3AF
  8
0
  6
CONTINUOUS
 62
     7
 10
-414.7148139628001
 20
-245.3600497615003
 30
0.0
 40
0.9857142857000456
 50
180.0
 51
270.0
  0
ARC
  5
3B0
  8
0
  6
CONTINUOUS
 62
     7
 10
-304.3076711056001
 20
-538.3640419502002
 30
0.0
 40
2.499999999999947
 50
193.348056773
 51
0.0
  0
LINE
  5
3B1
  8
0
  6
CONTINUOUS
 62
     7
 10
-415.7005282485001
 20
-301.5457640472
 30
0.0
 11
-415.7005282485001
 21
-300.5600497615001
 31
0.0
  0
ARC
  5
3B2
  8
0
  6
CONTINUOUS
 62
     7
 10
-417.6719568199001
 20
-301.5457640472
 30
0.0
 40
0.9857142857000456
 50
270.0
 51
0.0
  0
LINE
  5
3B3
  8
0
  6
CONTINUOUS
 62
     7
 10
-415.7005282485001
 20
-248.3171926186001
 30
0.0
 11
-415.7005282485001
 21
-249.3029069044001
 31
0.0
  0
ARC
  5
3B4
  8
0
  6
CONTINUOUS
 62
     7
 10
-414.7148139628001
 20
-301.5457640472
 30
0.0
 40
0.9857142857000456
 50
180.0
 51
270.0
  0
LINE
  5
3B5
  8
0
  6
CONTINUOUS
 62
     7
 10
-415.7005282485001
 20
-245.3600497615003
 30
0.0
 11
-415.7005282485001
 21
-244.3743354758003
 31
0.0
  0
ARC
  5
3B6
  8
0
  6
CONTINUOUS
 62
     7
 10
-336.3505282485
 20
-306.9671926186004
 30
0.0
 40
0.9857142857000456
 50
90.0
 51
180.0
  0
LINE
  5
3B7
  8
0
  6
CONTINUOUS
 62
     7
 10
-373.8076711056002
 20
-304.9957640472001
 30
0.0
 11
-375.7437141262001
 21
-304.9957640472001
 31
0.0
  0
LINE
  5
3B8
  8
0
  6
CONTINUOUS
 62
     7
 10
-406.3362425342001
 20
-304.0100497615004
 30
0.0
 11
-406.3362425342001
 21
-303.0243354758002
 31
0.0
  0
LINE
  5
3B9
  8
0
  6
CONTINUOUS
 62
     7
 10
-372.8219568199002
 20
-304.0100497615004
 30
0.0
 11
-372.8219568199002
 21
-303.0243354758002
 31
0.0
  0
CIRCLE
  5
3BA
  8
0
  6
CONTINUOUS
 62
     7
 10
-337.8290996770001
 20
-305.4886211901
 30
0.0
 40
3.449999999999898
  0
ARC
  5
3BB
  8
0
  6
CONTINUOUS
 62
     7
 10
-339.3076711056001
 20
-306.9671926186004
 30
0.0
 40
0.9857142857000456
 50
0.0
 51
90.0
  0
LINE
  5
3BC
  8
0
  6
CONTINUOUS
 62
     7
 10
-408.3076711056001
 20
-304.9957640472001
 30
0.0
 11
-410.2437141262001
 21
-304.9957640472001
 31
0.0
  0
LINE
  5
3BD
  8
0
  6
CONTINUOUS
 62
     7
 10
-338.3219568199001
 20
-306.9671926186004
 30
0.0
 11
-338.3219568199001
 21
-307.9529069044004
 31
0.0
  0
LINE
  5
3BE
  8
0
  6
CONTINUOUS
 62
     7
 10
-317.3290996770001
 20
-500.3753510236
 30
0.0
 11
-306.829099677
 21
-500.3753510236
 31
0.0
  0
LINE
  5
3BF
  8
0
  6
CONTINUOUS
 62
     7
 10
-406.3362425342001
 20
-307.9529069044005
 30
0.0
 11
-407.3219568199
 21
-307.9529069044005
 31
0.0
  0
LINE
  5
3C0
  8
0
  6
CONTINUOUS
 62
     7
 10
-370.8505282485001
 20
-305.9814783329001
 30
0.0
 11
-368.9144852278002
 21
-305.9814783329001
 31
0.0
  0
ARC
  5
3C1
  8
0
  6
CONTINUOUS
 62
     7
 10
-408.3076711056001
 20
-304.0100497615004
 30
0.0
 40
0.9857142857000456
 50
270.0
 51
0.0
  0
LINE
  5
3C2
  8
0
  6
CONTINUOUS
 62
     7
 10
-372.8219568199002
 20
-306.9671926186004
 30
0.0
 11
-372.8219568199002
 21
-307.9529069044004
 31
0.0
  0
LINE
  5
3C3
  8
0
  6
CONTINUOUS
 62
     7
 10
-332.8076711056001
 20
-528.8640419502
 30
0.0
 11
-317.3076711056001
 21
-528.8640419502
 31
0.0
  0
LINE
  5
3C4
  8
0
  6
CONTINUOUS
 62
     7
 10
-332.8076711056001
 20
-522.8640419502
 30
0.0
 11
-332.8076711056001
 21
-516.8640419502001
 31
0.0
  0
LINE
  5
3C5
  8
0
  6
CONTINUOUS
 62
     7
 10
-317.3076711056001
 20
-522.8640419502
 30
0.0
 11
-301.8076711056
 21
-522.8640419502
 31
0.0
  0
LINE
  5
3C6
  8
0
  6
CONTINUOUS
 62
     7
 10
-305.3076711056002
 20
-632.8631981221001
 30
0.0
 11
-305.3076711056002
 21
-634.8631981221001
 31
0.0
  0
LINE
  5
3C7
  8
0
  6
CONTINUOUS
 62
     7
 10
-317.3076711056001
 20
-516.8640419502002
 30
0.0
 11
-332.8076711056001
 21
-516.8640419502002
 31
0.0
  0
ARC
  5
3C8
  8
0
  6
CONTINUOUS
 62
     7
 10
-395.9862425342001
 20
-304.5029069044006
 30
0.0
 40
0.9857142857000456
 50
90.0
 51
180.0
  0
LINE
  5
3C9
  8
0
  6
CONTINUOUS
 62
     7
 10
-337.3362425342001
 20
-306.9671926186004
 30
0.0
 11
-337.3362425342001
 21
-307.9529069044004
 31
0.0
  0
LINE
  5
3CA
  8
0
  6
CONTINUOUS
 62
     7
 10
-395.9862425342001
 20
-303.5171926187006
 30
0.0
 11
-394.0501995135002
 21
-303.5171926187006
 31
0.0
  0
LINE
  5
3CB
  8
0
  6
CONTINUOUS
 62
     7
 10
-327.8076711056001
 20
-538.966532943
 30
0.0
 11
-327.8076711056001
 21
-528.8640419502002
 31
0.0
  0
LINE
  5
3CC
  8
0
  6
CONTINUOUS
 62
     7
 10
-311.8290996770001
 20
-501.5753510236
 30
0.0
 11
-311.8290996770001
 21
-505.8753510236
 31
0.0
  0
LINE
  5
3CD
  8
0
  6
CONTINUOUS
 62
     7
 10
-322.829099677
 20
-501.5753510236
 30
0.0
 11
-325.3290996770001
 21
-501.5753510236
 31
0.0
  0
LINE
  5
3CE
  8
0
  6
CONTINUOUS
 62
     7
 10
-306.8076711056001
 20
-538.966532943
 30
0.0
 11
-306.8076711056001
 21
-528.8640419502002
 31
0.0
  0
LINE
  5
3CF
  8
0
  6
CONTINUOUS
 62
     7
 10
-337.3362425342001
 20
-307.9529069044005
 30
0.0
 11
-338.3219568199001
 21
-307.9529069044005
 31
0.0
  0
LINE
  5
3D0
  8
0
  6
CONTINUOUS
 62
     7
 10
-309.329099677
 20
-505.8753510236005
 30
0.0
 11
-303.079099677
 21
-505.8753510236005
 31
0.0
  0
LINE
  5
3D1
  8
0
  6
CONTINUOUS
 62
     7
 10
-317.3076711056001
 20
-522.8640419502
 30
0.0
 11
-332.8076711056001
 21
-522.8640419502
 31
0.0
  0
LINE
  5
3D2
  8
0
  6
CONTINUOUS
 62
     7
 10
-305.3076711056002
 20
-634.8631981220999
 30
0.0
 11
-317.3076711056002
 21
-634.8631981220999
 31
0.0
  0
ARC
  5
3D3
  8
0
  6
CONTINUOUS
 62
     7
 10
-303.0791119047001
 20
-599.1312189091004
 30
0.0
 40
97.7558678855
 50
90.40112107980002
 51
93.66568617870001
  0
LINE
  5
3D4
  8
0
  6
CONTINUOUS
 62
     7
 10
-301.8076711056001
 20
-522.8640419502
 30
0.0
 11
-301.8076711056001
 21
-516.8640419502001
 31
0.0
  0
LINE
  5
3D5
  8
0
  6
CONTINUOUS
 62
     7
 10
-317.3290996770001
 20
-501.3753510236005
 30
0.0
 11
-306.829099677
 21
-501.3753510236005
 31
0.0
  0
LINE
  5
3D6
  8
0
  6
CONTINUOUS
 62
     7
 10
-396.9719568199002
 20
-301.5457640472
 30
0.0
 11
-396.9719568199002
 21
-300.5600497615001
 31
0.0
  0
LINE
  5
3D7
  8
0
  6
CONTINUOUS
 62
     7
 10
-329.3076711056001
 20
-632.8631981221001
 30
0.0
 11
-305.3076711056002
 21
-632.8631981221001
 31
0.0
  0
LINE
  5
3D8
  8
0
  6
CONTINUOUS
 62
     7
 10
-303.079099677
 20
-501.7728759722999
 30
0.0
 11
-303.7634837609001
 21
-501.3777466371999
 31
0.0
  0
LINE
  5
3D9
  8
0
  6
CONTINUOUS
 62
     7
 10
-306.8290996770001
 20
-501.3753510236005
 30
0.0
 11
-303.7634837609001
 21
-501.3777466372
 31
0.0
  0
ARC
  5
3DA
  8
0
  6
CONTINUOUS
 62
     7
 10
-317.3076711056001
 20
-510.8640419502
 30
0.0
 40
29.99999999999997
 50
249.5126848853
 51
290.6250706496
  0
ARC
  5
3DB
  8
0
  6
CONTINUOUS
 62
     7
 10
-338.3076711056001
 20
-693.3631981221001
 30
0.0
 40
2.499999999999891
 50
90.0
 51
270.0000000002
  0
LINE
  5
3DC
  8
0
  6
CONTINUOUS
 62
     7
 10
-306.8290996770001
 20
-500.3753510236
 30
0.0
 11
-306.8290996770001
 21
-501.3753510236
 31
0.0
  0
LINE
  5
3DD
  8
0
  6
CONTINUOUS
 62
     7
 10
-303.079099677
 20
-507.3753510236001
 30
0.0
 11
-303.079099677
 21
-501.7728759723001
 31
0.0
  0
LINE
  5
3DE
  8
0
  6
CONTINUOUS
 62
     7
 10
-330.8947155932001
 20
-501.3777466372
 30
0.0
 11
-327.8290996770001
 21
-501.3753510236005
 31
0.0
  0
LINE
  5
3DF
  8
0
  6
CONTINUOUS
 62
     7
 10
-372.8219568199002
 20
-303.0243354758001
 30
0.0
 11
-371.8362425342002
 21
-303.0243354758001
 31
0.0
  0
LINE
  5
3E0
  8
0
  6
CONTINUOUS
 62
     7
 10
-338.3076711056001
 20
-690.8631981221004
 30
0.0
 11
-296.3076711056001
 21
-690.8631981221004
 31
0.0
  0
LINE
  5
3E1
  8
0
  6
CONTINUOUS
 62
     7
 10
-301.3076711056001
 20
-678.8631981220999
 30
0.0
 11
-301.3076711056001
 21
-658.8631981220999
 31
0.0
  0
LINE
  5
3E2
  8
0
  6
CONTINUOUS
 62
     7
 10
-325.3290996770001
 20
-505.8753510236005
 30
0.0
 11
-331.5790996770002
 21
-505.8753510236005
 31
0.0
  0
LINE
  5
3E3
  8
0
  6
CONTINUOUS
 62
     7
 10
-397.9576711056002
 20
-304.5029069044006
 30
0.0
 11
-397.9576711056002
 21
-305.4886211901006
 31
0.0
  0
LINE
  5
3E4
  8
0
  6
CONTINUOUS
 62
     7
 10
-317.3076711056001
 20
-546.8640419502004
 30
0.0
 11
-324.3076711056001
 21
-546.8640419502004
 31
0.0
  0
LINE
  5
3E5
  8
0
  6
CONTINUOUS
 62
     7
 10
-317.3290996770001
 20
-507.3753510236001
 30
0.0
 11
-303.079099677
 21
-507.3753510236001
 31
0.0
  0
LINE
  5
3E6
  8
0
  6
CONTINUOUS
 62
     7
 10
-322.829099677
 20
-501.5753510236
 30
0.0
 11
-322.829099677
 21
-505.8753510236
 31
0.0
  0
LINE
  5
3E7
  8
0
  6
CONTINUOUS
 62
     7
 10
-396.9719568199002
 20
-305.4886211901
 30
0.0
 11
-397.9576711056001
 21
-305.4886211901
 31
0.0
  0
CIRCLE
  5
3E8
  8
0
  6
CONTINUOUS
 62
     7
 10
-406.829099677
 20
-298.9829069044
 30
0.0
 40
2.464285714300019
  0
LINE
  5
3E9
  8
0
  6
CONTINUOUS
 62
     7
 10
-396.9719568199002
 20
-304.5029069044006
 30
0.0
 11
-396.9719568199002
 21
-305.4886211901006
 31
0.0
  0
LINE
  5
3EA
  8
0
  6
CONTINUOUS
 62
     7
 10
-306.8076711056001
 20
-528.8640419502
 30
0.0
 11
-306.8076711056001
 21
-522.8640419502
 31
0.0
  0
LINE
  5
3EB
  8
0
  6
CONTINUOUS
 62
     7
 10
-322.829099677
 20
-505.8753510236005
 30
0.0
 11
-317.3290996770001
 21
-505.8753510236005
 31
0.0
  0
LINE
  5
3EC
  8
0
  6
CONTINUOUS
 62
     7
 10
-327.829099677
 20
-500.3753510236
 30
0.0
 11
-327.829099677
 21
-501.3753510236
 31
0.0
  0
ARC
  5
3ED
  8
0
  6
CONTINUOUS
 62
     7
 10
-373.8076711056002
 20
-306.9671926186004
 30
0.0
 40
0.9857142857000456
 50
0.0
 51
90.0
  0
LINE
  5
3EE
  8
0
  6
CONTINUOUS
 62
     7
 10
-317.3076711056001
 20
-540.8640419502
 30
0.0
 11
-330.3076711056001
 21
-540.8640419502
 31
0.0
  0
LINE
  5
3EF
  8
0
  6
CONTINUOUS
 62
     7
 10
-308.8076711056
 20
-625.8631981221005
 30
0.0
 11
-325.8076711056
 21
-625.8631981221005
 31
0.0
  0
LINE
  5
3F0
  8
0
  6
CONTINUOUS
 62
     7
 10
-325.829099677
 20
-501.3753510236005
 30
0.0
 11
-325.829099677
 21
-500.3753510236001
 31
0.0
  0
LINE
  5
3F1
  8
0
  6
CONTINUOUS
 62
     7
 10
-327.8076711056001
 20
-516.8640419502002
 30
0.0
 11
-327.8076711056001
 21
-522.8640419502001
 31
0.0
  0
LINE
  5
3F2
  8
0
  6
CONTINUOUS
 62
     7
 10
-311.8290996770001
 20
-505.8753510236005
 30
0.0
 11
-317.3290996770002
 21
-505.8753510236005
 31
0.0
  0
LINE
  5
3F3
  8
0
  6
CONTINUOUS
 62
     7
 10
-337.3362425342001
 20
-304.0100497615004
 30
0.0
 11
-337.3362425342001
 21
-303.0243354758002
 31
0.0
  0
LINE
  5
3F4
  8
0
  6
CONTINUOUS
 62
     7
 10
-301.3076711056001
 20
-658.8631981220999
 30
0.0
 11
-308.3076711056001
 21
-644.8631981220999
 31
0.0
  0
LINE
  5
3F5
  8
0
  6
CONTINUOUS
 62
     7
 10
-331.5790996770002
 20
-501.7728759722999
 30
0.0
 11
-330.8947155932001
 21
-501.3777466371999
 31
0.0
  0
LINE
  5
3F6
  8
0
  6
CONTINUOUS
 62
     7
 10
-317.3076711056001
 20
-546.8640419502004
 30
0.0
 11
-310.3076711056001
 21
-546.8640419502004
 31
0.0
  0
ARC
  5
3F7
  8
0
  6
CONTINUOUS
 62
     7
 10
-317.3290996770001
 20
-577.1003510236003
 30
0.0
 40
75.72499999999998
 50
85.83486944050001
 51
90.0
  0
ARC
  5
3F8
  8
0
  6
CONTINUOUS
 62
     7
 10
-317.3290996770001
 20
-577.1003510236003
 30
0.0
 40
75.72499999999998
 50
90.0
 51
94.1651305595
  0
LINE
  5
3F9
  8
0
  6
CONTINUOUS
 62
     7
 10
-327.8076711056001
 20
-528.8640419502
 30
0.0
 11
-327.8076711056001
 21
-522.8640419502
 31
0.0
  0
LINE
  5
3FA
  8
0
  6
CONTINUOUS
 62
     7
 10
-309.3679175490001
 20
-618.8631981220999
 30
0.0
 11
-309.5160445549
 21
-616.8631981220999
 31
0.0
  0
LINE
  5
3FB
  8
0
  6
CONTINUOUS
 62
     7
 10
-325.8076711056001
 20
-528.8640419502
 30
0.0
 11
-325.8076711056001
 21
-522.8640419502
 31
0.0
  0
ARC
  5
3FC
  8
0
  6
CONTINUOUS
 62
     7
 10
-310.3076711056002
 20
-540.8640419502
 30
0.0
 40
6.00000000000006
 50
270.0
 51
0.0
  0
LINE
  5
3FD
  8
0
  6
CONTINUOUS
 62
     7
 10
-309.6641715607001
 20
-614.8631981221004
 30
0.0
 11
-309.8122985666002
 21
-612.8631981221004
 31
0.0
  0
ARC
  5
3FE
  8
0
  6
CONTINUOUS
 62
     7
 10
-324.3076711056001
 20
-540.8640419502
 30
0.0
 40
6.00000000000006
 50
180.0
 51
270.0
  0
LINE
  5
3FF
  8
0
  6
CONTINUOUS
 62
     7
 10
-331.5790996770002
 20
-507.3753510236001
 30
0.0
 11
-331.5790996770002
 21
-501.7728759723001
 31
0.0
  0
ARC
  5
400
  8
0
  6
CONTINUOUS
 62
     7
 10
-310.8122985666001
 20
-612.8631981221001
 30
0.0
 40
0.9999999999999454
 50
0.0
 51
90.0
  0
LINE
  5
401
  8
0
  6
CONTINUOUS
 62
     7
 10
-308.3076711056001
 20
-637.8631981221
 30
0.0
 11
-308.3076711056001
 21
-644.8631981221
 31
0.0
  0
LINE
  5
402
  8
0
  6
CONTINUOUS
 62
     7
 10
-338.7726916817001
 20
-690.9068276566001
 30
0.0
 11
-338.7726916817001
 21
-681.8631981221
 31
0.0
  0
LINE
  5
403
  8
0
  6
CONTINUOUS
 62
     7
 10
-309.0716635373001
 20
-622.8631981221001
 30
0.0
 11
-309.2197905432002
 21
-620.8631981221001
 31
0.0
  0
LINE
  5
404
  8
0
  6
CONTINUOUS
 62
     7
 10
-333.3076711056001
 20
-658.8631981220999
 30
0.0
 11
-301.3076711056001
 21
-658.8631981220999
 31
0.0
  0
LINE
  5
405
  8
0
  6
CONTINUOUS
 62
     7
 10
-309.0716635373001
 20
-622.8631981221001
 30
0.0
 11
-325.5436786739002
 21
-622.8631981221001
 31
0.0
  0
ARC
  5
406
  8
0
  6
CONTINUOUS
 62
     7
 10
-385.3076711056001
 20
-538.3640419502002
 30
0.0
 40
2.499999999999947
 50
180.0
 51
346.651943227
  0
LINE
  5
407
  8
0
  6
CONTINUOUS
 62
     7
 10
-319.3076711056001
 20
-614.8631981221004
 30
0.0
 11
-319.3076711056001
 21
-616.8631981221004
 31
0.0
  0
LINE
  5
408
  8
0
  6
CONTINUOUS
 62
     7
 10
-317.3290996770001
 20
-500.3753510236
 30
0.0
 11
-327.829099677
 21
-500.3753510236
 31
0.0
  0
LINE
  5
409
  8
0
  6
CONTINUOUS
 62
     7
 10
-322.8076711056001
 20
-616.8631981221001
 30
0.0
 11
-322.8076711056001
 21
-614.8631981221001
 31
0.0
  0
LINE
  5
40A
  8
0
  6
CONTINUOUS
 62
     7
 10
-319.3076711056001
 20
-618.8631981220999
 30
0.0
 11
-319.3076711056001
 21
-620.8631981220999
 31
0.0
  0
ARC
  5
40B
  8
0
  6
CONTINUOUS
 62
     7
 10
-331.5790874493002
 20
-599.1312189091004
 30
0.0
 40
97.75586788550005
 50
86.33431382130001
 51
89.5988789202
  0
LINE
  5
40C
  8
0
  6
CONTINUOUS
 62
     7
 10
-310.8122985666001
 20
-611.8631981221002
 30
0.0
 11
-317.3076711056002
 21
-611.8631981221002
 31
0.0
  0
LINE
  5
40D
  8
0
  6
CONTINUOUS
 62
     7
 10
-308.8076711056
 20
-625.8631981221005
 30
0.0
 11
-308.8076711056
 21
-632.8631981221005
 31
0.0
  0
LINE
  5
40E
  8
0
  6
CONTINUOUS
 62
     7
 10
-311.8076711056001
 20
-620.8631981221004
 30
0.0
 11
-311.8076711056001
 21
-618.8631981221004
 31
0.0
  0
LINE
  5
40F
  8
0
  6
CONTINUOUS
 62
     7
 10
-325.2474246622
 20
-618.8631981220999
 30
0.0
 11
-309.3679175490002
 21
-618.8631981220999
 31
0.0
  0
LINE
  5
410
  8
0
  6
CONTINUOUS
 62
     7
 10
-323.8030436446001
 20
-611.8631981221002
 30
0.0
 11
-317.3076711056001
 21
-611.8631981221002
 31
0.0
  0
ARC
  5
411
  8
0
  6
CONTINUOUS
 62
     7
 10
-323.8030436446001
 20
-612.8631981221001
 30
0.0
 40
1.000000000000001
 50
90.0
 51
180.0
  0
LINE
  5
412
  8
0
  6
CONTINUOUS
 62
     7
 10
-325.3955516681002
 20
-620.8631981221004
 30
0.0
 11
-309.2197905432002
 21
-620.8631981221004
 31
0.0
  0
LINE
  5
413
  8
0
  6
CONTINUOUS
 62
     7
 10
-311.8076711056001
 20
-625.8631981221005
 30
0.0
 11
-311.8076711056001
 21
-622.8631981221005
 31
0.0
  0
LINE
  5
414
  8
0
  6
CONTINUOUS
 62
     7
 10
-326.9806315224001
 20
-642.6303068882
 30
0.0
 11
-330.5657603205001
 21
-641.3896023107001
 31
0.0
  0
LINE
  5
415
  8
0
  6
CONTINUOUS
 62
     7
 10
-296.3076711056001
 20
-696.8631981221001
 30
0.0
 11
-296.3076711056001
 21
-695.8631981221001
 31
0.0
  0
LINE
  5
416
  8
0
  6
CONTINUOUS
 62
     7
 10
-344.3076711056001
 20
-696.8631981221001
 30
0.0
 11
-344.3076711056001
 21
-695.8631981221001
 31
0.0
  0
LINE
  5
417
  8
0
  6
CONTINUOUS
 62
     7
 10
-308.829099677
 20
-501.3753510236005
 30
0.0
 11
-308.829099677
 21
-500.3753510236001
 31
0.0
  0
LINE
  5
418
  8
0
  6
CONTINUOUS
 62
     7
 10
-361.8076711056001
 20
-538.966532943
 30
0.0
 11
-361.8076711056001
 21
-528.8640419502002
 31
0.0
  0
LINE
  5
419
  8
0
  6
CONTINUOUS
 62
     7
 10
-361.8076711056001
 20
-516.8640419502002
 30
0.0
 11
-361.8076711056001
 21
-522.8640419502001
 31
0.0
  0
LINE
  5
41A
  8
0
  6
CONTINUOUS
 62
     7
 10
-326.3076711056001
 20
-637.8631981221
 30
0.0
 11
-326.3076711056001
 21
-644.8631981221
 31
0.0
  0
ARC
  5
41B
  8
0
  6
CONTINUOUS
 62
     7
 10
-296.3076711056001
 20
-693.3631981221001
 30
0.0
 40
2.499999999999947
 50
269.9999999998
 51
90.0
  0
LINE
  5
41C
  8
0
  6
CONTINUOUS
 62
     7
 10
-310.6669105110001
 20
-614.8631981221004
 30
0.0
 11
-310.5187835052001
 21
-616.8631981221004
 31
0.0
  0
LINE
  5
41D
  8
0
  6
CONTINUOUS
 62
     7
 10
-295.8426505295001
 20
-690.9068276566001
 30
0.0
 11
-295.8426505295001
 21
-681.8631981221
 31
0.0
  0
LINE
  5
41E
  8
0
  6
CONTINUOUS
 62
     7
 10
-317.3290996770001
 20
-501.3753510236005
 30
0.0
 11
-327.829099677
 21
-501.3753510236005
 31
0.0
  0
ARC
  5
41F
  8
0
  6
CONTINUOUS
 62
     7
 10
-329.3076711056001
 20
-637.8631981221
 30
0.0
 40
3.000000000000003
 50
0.0
 51
90.0
  0
LINE
  5
420
  8
0
  6
CONTINUOUS
 62
     7
 10
-326.3076711056001
 20
-644.8631981220999
 30
0.0
 11
-308.3076711056001
 21
-644.8631981220999
 31
0.0
  0
ARC
  5
421
  8
0
  6
CONTINUOUS
 62
     7
 10
-328.8076711056
 20
-638.3631981221001
 30
0.0
 40
3.499999999999837
 50
98.1301023542
 51
239.8469737933
  0
ARC
  5
422
  8
0
  6
CONTINUOUS
 62
     7
 10
-298.8426505295001
 20
-681.8631981221002
 30
0.0
 40
3.000000000000003
 50
0.0
 51
90.0
  0
CIRCLE
  5
423
  8
0
  6
CONTINUOUS
 62
     7
 10
-329.3076711056001
 20
-638.3631981221001
 30
0.0
 40
1.500000000000001
  0
LINE
  5
424
  8
0
  6
CONTINUOUS
 62
     7
 10
-315.3076711056002
 20
-618.8631981220999
 30
0.0
 11
-315.3076711056002
 21
-620.8631981220999
 31
0.0
  0
LINE
  5
425
  8
0
  6
CONTINUOUS
 62
     7
 10
-344.3076711056001
 20
-695.8631981221002
 30
0.0
 11
-337.3122985666001
 21
-695.8631981221002
 31
0.0
  0
ARC
  5
426
  8
0
  6
CONTINUOUS
 62
     7
 10
-305.3076711056002
 20
-637.8631981221
 30
0.0
 40
3.000000000000058
 50
90.0
 51
180.0
  0
LINE
  5
427
  8
0
  6
CONTINUOUS
 62
     7
 10
-356.8076711056001
 20
-538.3640419502002
 30
0.0
 11
-356.8076711056001
 21
-528.8640419502001
 31
0.0
  0
ARC
  5
428
  8
0
  6
CONTINUOUS
 62
     7
 10
-365.3076711056001
 20
-540.8640419502
 30
0.0
 40
5.999999999999949
 50
270.0
 51
0.0
  0
LINE
  5
429
  8
0
  6
CONTINUOUS
 62
     7
 10
-332.8076711056001
 20
-538.3640419502002
 30
0.0
 11
-332.8076711056001
 21
-528.8640419502001
 31
0.0
  0
LINE
  5
42A
  8
0
  6
CONTINUOUS
 62
     7
 10
-325.3290996770001
 20
-501.5753510236
 30
0.0
 11
-325.3290996770001
 21
-505.8753510236
 31
0.0
  0
LINE
  5
42B
  8
0
  6
CONTINUOUS
 62
     7
 10
-319.3076711056001
 20
-622.8631981221001
 30
0.0
 11
-319.3076711056001
 21
-625.8631981221001
 31
0.0
  0
LINE
  5
42C
  8
0
  6
CONTINUOUS
 62
     7
 10
-325.5436786739002
 20
-622.8631981221001
 30
0.0
 11
-325.3955516681002
 21
-620.8631981221001
 31
0.0
  0
LINE
  5
42D
  8
0
  6
CONTINUOUS
 62
     7
 10
-310.0744024876001
 20
-622.8631981221001
 30
0.0
 11
-309.8522119788002
 21
-625.8631981221001
 31
0.0
  0
LINE
  5
42E
  8
0
  6
CONTINUOUS
 62
     7
 10
-361.8076711056001
 20
-528.8640419502
 30
0.0
 11
-361.8076711056001
 21
-522.8640419502
 31
0.0
  0
ARC
  5
42F
  8
0
  6
CONTINUOUS
 62
     7
 10
-335.7726916817001
 20
-681.8631981221002
 30
0.0
 40
3.000000000000058
 50
90.0
 51
180.0
  0
LINE
  5
430
  8
0
  6
CONTINUOUS
 62
     7
 10
-322.8076711056001
 20
-620.8631981221004
 30
0.0
 11
-322.8076711056001
 21
-618.8631981221004
 31
0.0
  0
ARC
  5
431
  8
0
  6
CONTINUOUS
 62
     7
 10
-359.3076711056001
 20
-538.3640419502002
 30
0.0
 40
2.500000000000002
 50
193.348056773
 51
0.0
  0
LINE
  5
432
  8
0
  6
CONTINUOUS
 62
     7
 10
-372.3076711056001
 20
-546.8640419502004
 30
0.0
 11
-365.3076711056001
 21
-546.8640419502004
 31
0.0
  0
LINE
  5
433
  8
0
  6
CONTINUOUS
 62
     7
 10
-372.3076711056001
 20
-522.8640419502
 30
0.0
 11
-356.8076711056001
 21
-522.8640419502
 31
0.0
  0
LINE
  5
434
  8
0
  6
CONTINUOUS
 62
     7
 10
-317.3290996770001
 20
-507.3753510236001
 30
0.0
 11
-331.579099677
 21
-507.3753510236001
 31
0.0
  0
LINE
  5
435
  8
0
  6
CONTINUOUS
 62
     7
 10
-298.8426505295001
 20
-678.8631981220999
 30
0.0
 11
-335.7726916817
 21
-678.8631981220999
 31
0.0
  0
LINE
  5
436
  8
0
  6
CONTINUOUS
 62
     7
 10
-372.3076711056001
 20
-516.8640419502002
 30
0.0
 11
-356.8076711056001
 21
-516.8640419502002
 31
0.0
  0
ARC
  5
437
  8
0
  6
CONTINUOUS
 62
     7
 10
-330.3076711056002
 20
-538.3640419502002
 30
0.0
 40
2.500000000000058
 50
180.0
 51
346.651943227
  0
LINE
  5
438
  8
0
  6
CONTINUOUS
 62
     7
 10
-309.3290996771001
 20
-501.5753510236
 30
0.0
 11
-309.329099677
 21
-505.8753510236
 31
0.0
  0
LINE
  5
439
  8
0
  6
CONTINUOUS
 62
     7
 10
-315.3076711056002
 20
-614.8631981221004
 30
0.0
 11
-315.3076711056002
 21
-616.8631981221004
 31
0.0
  0
LINE
  5
43A
  8
0
  6
CONTINUOUS
 62
     7
 10
-382.8076711056001
 20
-538.966532943
 30
0.0
 11
-382.8076711056001
 21
-528.8640419502002
 31
0.0
  0
LINE
  5
43B
  8
0
  6
CONTINUOUS
 62
     7
 10
-325.2474246622
 20
-618.8631981220999
 30
0.0
 11
-325.0992976564001
 21
-616.8631981220999
 31
0.0
  0
LINE
  5
43C
  8
0
  6
CONTINUOUS
 62
     7
 10
-324.9511706505
 20
-614.8631981221004
 30
0.0
 11
-324.8030436446
 21
-612.8631981221004
 31
0.0
  0
LINE
  5
43D
  8
0
  6
CONTINUOUS
 62
     7
 10
-338.3076711056001
 20
-695.8631981221002
 30
0.0
 11
-338.3076711056001
 21
-696.8631981221002
 31
0.0
  0
LINE
  5
43E
  8
0
  6
CONTINUOUS
 62
     7
 10
-311.8076711056001
 20
-616.8631981221001
 30
0.0
 11
-311.8076711056001
 21
-614.8631981221001
 31
0.0
  0
ARC
  5
43F
  8
0
  6
CONTINUOUS
 62
     7
 10
-327.3076711056001
 20
-643.5753175289
 30
0.0
 40
1.000000000000001
 50
0.0
 51
70.9108116001
  0
LINE
  5
440
  8
0
  6
CONTINUOUS
 62
     7
 10
-311.8290996770001
 20
-501.5753510236
 30
0.0
 11
-309.3290996770002
 21
-501.5753510236
 31
0.0
  0
LINE
  5
441
  8
0
  6
CONTINUOUS
 62
     7
 10
-325.8076711056001
 20
-625.8631981221005
 30
0.0
 11
-325.8076711056001
 21
-632.8631981221005
 31
0.0
  0
LINE
  5
442
  8
0
  6
CONTINUOUS
 62
     7
 10
-382.8076711056001
 20
-516.8640419502002
 30
0.0
 11
-382.8076711056001
 21
-522.8640419502001
 31
0.0
  0
LINE
  5
443
  8
0
  6
CONTINUOUS
 62
     7
 10
-387.8076711056001
 20
-538.3640419502002
 30
0.0
 11
-387.8076711056001
 21
-528.8640419502001
 31
0.0
  0
LINE
  5
444
  8
0
  6
CONTINUOUS
 62
     7
 10
-325.0992976564
 20
-616.8631981221001
 30
0.0
 11
-309.5160445549
 21
-616.8631981221001
 31
0.0
  0
LINE
  5
445
  8
0
  6
CONTINUOUS
 62
     7
 10
-324.9511706505
 20
-614.8631981221004
 30
0.0
 11
-309.6641715607
 21
-614.8631981221004
 31
0.0
  0
LINE
  5
446
  8
0
  6
CONTINUOUS
 62
     7
 10
-329.3076711056001
 20
-632.8631981221001
 30
0.0
 11
-329.3076711056001
 21
-634.8631981221001
 31
0.0
  0
LINE
  5
447
  8
0
  6
CONTINUOUS
 62
     7
 10
-333.3076711056001
 20
-658.8631981220999
 30
0.0
 11
-326.3076711056001
 21
-644.8631981220999
 31
0.0
  0
LINE
  5
448
  8
0
  6
CONTINUOUS
 62
     7
 10
-387.8076711056001
 20
-528.8640419502
 30
0.0
 11
-372.3076711056
 21
-528.8640419502
 31
0.0
  0
LINE
  5
449
  8
0
  6
CONTINUOUS
 62
     7
 10
-372.3076711056001
 20
-522.8640419502
 30
0.0
 11
-387.8076711056002
 21
-522.8640419502
 31
0.0
  0
LINE
  5
44A
  8
0
  6
CONTINUOUS
 62
     7
 10
-387.8076711056001
 20
-522.8640419502
 30
0.0
 11
-387.8076711056001
 21
-516.8640419502001
 31
0.0
  0
LINE
  5
44B
  8
0
  6
CONTINUOUS
 62
     7
 10
-372.3290996770001
 20
-500.3753510236
 30
0.0
 11
-361.8290996770002
 21
-500.3753510236
 31
0.0
  0
LINE
  5
44C
  8
0
  6
CONTINUOUS
 62
     7
 10
-333.3076711056001
 20
-678.8631981220999
 30
0.0
 11
-333.3076711056001
 21
-658.8631981220999
 31
0.0
  0
LINE
  5
44D
  8
0
  6
CONTINUOUS
 62
     7
 10
-323.9484317002001
 20
-614.8631981221004
 30
0.0
 11
-324.0965587061
 21
-616.8631981221004
 31
0.0
  0
LINE
  5
44E
  8
0
  6
CONTINUOUS
 62
     7
 10
-315.3076711056002
 20
-622.8631981221001
 30
0.0
 11
-315.3076711056002
 21
-625.8631981221001
 31
0.0
  0
LINE
  5
44F
  8
0
  6
CONTINUOUS
 62
     7
 10
-356.8076711056001
 20
-528.8640419502
 30
0.0
 11
-372.3076711056001
 21
-528.8640419502
 31
0.0
  0
LINE
  5
450
  8
0
  6
CONTINUOUS
 62
     7
 10
-372.3076711056001
 20
-516.8640419502002
 30
0.0
 11
-387.8076711056002
 21
-516.8640419502002
 31
0.0
  0
ARC
  5
451
  8
0
  6
CONTINUOUS
 62
     7
 10
-372.3076711056001
 20
-510.8640419502
 30
0.0
 40
30.00000000000002
 50
249.5126848853
 51
290.6250706496
  0
LINE
  5
452
  8
0
  6
CONTINUOUS
 62
     7
 10
-322.8076711056001
 20
-625.8631981221005
 30
0.0
 11
-322.8076711056001
 21
-622.8631981221005
 31
0.0
  0
LINE
  5
453
  8
0
  6
CONTINUOUS
 62
     7
 10
-372.3076711056001
 20
-540.8640419502
 30
0.0
 11
-359.3076711056001
 21
-540.8640419502
 31
0.0
  0
LINE
  5
454
  8
0
  6
CONTINUOUS
 62
     7
 10
-329.3076711056001
 20
-634.8631981220999
 30
0.0
 11
-317.3076711056001
 21
-634.8631981220999
 31
0.0
  0
LINE
  5
455
  8
0
  6
CONTINUOUS
 62
     7
 10
-356.8076711056001
 20
-522.8640419502
 30
0.0
 11
-356.8076711056001
 21
-516.8640419502001
 31
0.0
  0
LINE
  5
456
  8
0
  6
CONTINUOUS
 62
     7
 10
-324.5409397236001
 20
-622.8631981221001
 30
0.0
 11
-324.7631302324
 21
-625.8631981221001
 31
0.0
  0
LINE
  5
457
  8
0
  6
CONTINUOUS
 62
     7
 10
-363.8076711056002
 20
-528.8640419502
 30
0.0
 11
-363.8076711056002
 21
-522.8640419502
 31
0.0
  0
LINE
  5
458
  8
0
  6
CONTINUOUS
 62
     7
 10
-399.3076711056001
 20
-696.8631981221001
 30
0.0
 11
-345.3076711055501
 21
-696.8631981221001
 31
0.0
  0
LINE
  5
459
  8
0
  6
CONTINUOUS
 62
     7
 10
-257.8505282485
 20
-243.8640419502005
 30
0.0
 11
-257.8505282485
 21
-250.8640419502006
 31
0.0
  0
LINE
  5
45A
  8
0
  6
CONTINUOUS
 62
     2
 10
-343.7392913553002
 20
-320.3463774486999
 30
0.0
 11
-341.2392913553001
 21
-317.8463774486999
 31
0.0
  0
LINE
  5
45B
  8
0
  6
CONTINUOUS
 62
     2
 10
-327.1005282485001
 20
-324.9208177774001
 30
0.0
 11
-324.6005282485002
 21
-322.4208177774001
 31
0.0
  0
LINE
  5
45C
  8
0
  6
CONTINUOUS
 62
     7
 10
-286.839219175
 20
-187.2865125629
 30
0.0
 11
-286.839219175
 21
-277.8640419502
 31
0.0
  0
LINE
  5
45D
  8
0
  6
CONTINUOUS
 62
     7
 10
-286.839219175
 20
-415.8640419502005
 30
0.0
 11
-286.839219175
 21
-506.4415713374005
 31
0.0
  0
LINE
  5
45E
  8
0
  6
CONTINUOUS
 62
     7
 10
-276.8505282485001
 20
-438.8640419502001
 30
0.0
 11
-257.8505282485001
 21
-438.8640419502001
 31
0.0
  0
LINE
  5
45F
  8
0
  6
CONTINUOUS
 62
     7
 10
-257.8505282485
 20
-445.8640419502005
 30
0.0
 11
-276.8505282485
 21
-445.8640419502005
 31
0.0
  0
LINE
  5
460
  8
0
  6
CONTINUOUS
 62
     2
 10
-327.2657163935
 20
-321.5504720165
 30
0.0
 11
-325.4417807913001
 21
-319.7265364144
 31
0.0
  0
LINE
  5
461
  8
0
  6
CONTINUOUS
 62
     7
 10
-451.8618373219002
 20
-277.8640419502001
 30
0.0
 11
-451.8618373219002
 21
-279.8640419502002
 31
0.0
  0
LINE
  5
462
  8
0
  6
CONTINUOUS
 62
     7
 10
-292.8392191750001
 20
-413.8640419502003
 30
0.0
 11
-292.8392191750001
 21
-415.8640419502003
 31
0.0
  0
LINE
  5
463
  8
0
  6
CONTINUOUS
 62
     7
 10
-271.3505282485002
 20
-427.3640419502001
 30
0.0
 11
-271.3505282485002
 21
-431.3640419502
 31
0.0
  0
LINE
  5
464
  8
0
  6
CONTINUOUS
 62
     2
 10
-378.7027287781001
 20
-319.9544758122
 30
0.0
 11
-377.1876769604
 21
-318.4394239944999
 31
0.0
  0
LINE
  5
465
  8
0
  6
CONTINUOUS
 62
     7
 10
-373.3505282485
 20
-511.4415713374001
 30
0.0
 11
-373.5325133656
 21
-511.9415713374001
 31
0.0
  0
LINE
  5
466
  8
0
  6
CONTINUOUS
 62
     7
 10
-276.3505282485002
 20
-432.3640419640001
 30
0.0
 11
-276.3505282485002
 21
-438.8640419502
 31
0.0
  0
LINE
  5
467
  8
0
  6
CONTINUOUS
 62
     7
 10
-275.3505282484001
 20
-431.3640419502003
 30
0.0
 11
-271.3505282485001
 21
-431.3640419502003
 31
0.0
  0
LINE
  5
468
  8
0
  6
CONTINUOUS
 62
     7
 10
-257.8505282485
 20
-459.8640419502001
 30
0.0
 11
-257.8505282485
 21
-466.8640419502001
 31
0.0
  0
LINE
  5
469
  8
0
  6
CONTINUOUS
 62
     7
 10
-276.8505282485001
 20
-243.8640419502005
 30
0.0
 11
-257.8505282485001
 21
-243.8640419502005
 31
0.0
  0
LINE
  5
46A
  8
0
  6
CONTINUOUS
 62
     2
 10
-348.0805748347002
 20
-317.6165931162001
 30
0.0
 11
-345.9433853913002
 21
-315.4794036728001
 31
0.0
  0
LINE
  5
46B
  8
0
  6
CONTINUOUS
 62
     7
 10
-257.8505282485
 20
-438.8640419502001
 30
0.0
 11
-257.8505282485
 21
-445.8640419502002
 31
0.0
  0
ARC
  5
46C
  8
0
  6
CONTINUOUS
 62
     7
 10
-463.8505282485002
 20
-508.8640419502
 30
0.0
 40
4.000000000000059
 50
180.0
 51
211.350073172
  0
LINE
  5
46D
  8
0
  6
CONTINUOUS
 62
     7
 10
-460.0352688122001
 20
-277.8640419502001
 30
0.0
 11
-451.8618373219002
 21
-277.8640419502001
 31
0.0
  0
LINE
  5
46E
  8
0
  6
CONTINUOUS
 62
     7
 10
-292.8392191750001
 20
-277.8640419502001
 30
0.0
 11
-292.8392191750001
 21
-279.8640419502002
 31
0.0
  0
LINE
  5
46F
  8
0
  6
CONTINUOUS
 62
     2
 10
-382.7516675738002
 20
-313.3968128901002
 30
0.0
 11
-380.4433853913002
 21
-311.0885307076003
 31
0.0
  0
LINE
  5
470
  8
0
  6
CONTINUOUS
 62
     2
 10
-346.4869826905002
 20
-319.5585348778998
 30
0.0
 11
-344.6469783035001
 21
-317.7185304909999
 31
0.0
  0
LINE
  5
471
  8
0
  6
CONTINUOUS
 62
     2
 10
-377.3098017005001
 20
-322.0970826404999
 30
0.0
 11
-375.7947498828001
 21
-320.5820308228
 31
0.0
  0
LINE
  5
472
  8
0
  6
CONTINUOUS
 62
     2
 10
-329.5971557315001
 20
-320.3463774486999
 30
0.0
 11
-327.4219472528001
 21
-318.1711689698999
 31
0.0
  0
LINE
  5
473
  8
0
  6
CONTINUOUS
 62
     2
 10
-380.0956558557001
 20
-317.8118689839001
 30
0.0
 11
-378.580604038
 21
-316.2968171661
 31
0.0
  0
LINE
  5
474
  8
0
  6
CONTINUOUS
 62
     2
 10
-348.4433853913002
 20
-314.4438697669004
 30
0.0
 11
-345.9433853913002
 21
-311.9438697669004
 31
0.0
  0
LINE
  5
475
  8
0
  6
CONTINUOUS
 62
     2
 10
-336.6682235434001
 20
-320.3463774486999
 30
0.0
 11
-334.1682235434001
 21
-317.8463774486999
 31
0.0
  0
LINE
  5
476
  8
0
  6
CONTINUOUS
 62
     2
 10
-382.9433853913002
 20
-310.0529968016
 30
0.0
 11
-382.3218669226001
 21
-309.4314783329001
 31
0.0
  0
LINE
  5
477
  8
0
  6
CONTINUOUS
 62
     2
 10
-333.1326896375002
 20
-320.3463774486999
 30
0.0
 11
-330.6326896375001
 21
-317.8463774486999
 31
0.0
  0
LINE
  5
478
  8
0
  6
CONTINUOUS
 62
     2
 10
-376.0988438667002
 20
-327.9571926186001
 30
0.0
 11
-373.6005282485
 21
-325.4588770003
 31
0.0
  0
LINE
  5
479
  8
0
  6
CONTINUOUS
 62
     2
 10
-326.6013691836001
 20
-327.9571926185001
 30
0.0
 11
-324.6005282485001
 21
-325.9563516834002
 31
0.0
  0
LINE
  5
47A
  8
0
  6
CONTINUOUS
 62
     2
 10
-348.4433853913002
 20
-310.9083358610001
 30
0.0
 11
-346.9665278633001
 21
-309.4314783329001
 31
0.0
  0
LINE
  5
47B
  8
0
  6
CONTINUOUS
 62
     2
 10
-340.2037574493
 20
-320.3463774486999
 30
0.0
 11
-337.7037574493001
 21
-317.8463774486999
 31
0.0
  0
LINE
  5
47C
  8
0
  6
CONTINUOUS
 62
     7
 10
-451.8618373219002
 20
-415.8640419502005
 30
0.0
 11
-460.0352688122002
 21
-415.8640419502005
 31
0.0
  0
LINE
  5
47D
  8
0
  6
CONTINUOUS
 62
     7
 10
-276.8505282485001
 20
-267.8640419502001
 30
0.0
 11
-257.8505282485001
 21
-267.8640419502001
 31
0.0
  0
LINE
  5
47E
  8
0
  6
CONTINUOUS
 62
     7
 10
-284.6657876848002
 20
-413.8640419502003
 30
0.0
 11
-292.8392191750001
 21
-413.8640419502003
 31
0.0
  0
LINE
  5
47F
  8
0
  6
CONTINUOUS
 62
     2
 10
-376.1043156407001
 20
-324.4271304866
 30
0.0
 11
-374.4018228052002
 21
-322.7246376511
 31
0.0
  0
LINE
  5
480
  8
0
  6
CONTINUOUS
 62
     7
 10
-408.3505282485002
 20
-511.4415713374001
 30
0.0
 11
-409.3505282485002
 21
-511.4415713374001
 31
0.0
  0
LINE
  5
481
  8
0
  6
CONTINUOUS
 62
     7
 10
-284.6657876848002
 20
-277.8640419502001
 30
0.0
 11
-292.8392191750001
 21
-277.8640419502001
 31
0.0
  0
LINE
  5
482
  8
0
  6
CONTINUOUS
 62
     2
 10
-381.4885829333002
 20
-315.6692621555005
 30
0.0
 11
-379.9735311156001
 21
-314.1542103378001
 31
0.0
  0
LINE
  5
483
  8
0
  6
CONTINUOUS
 62
     7
 10
-276.3505282485002
 20
-237.3640419640002
 30
0.0
 11
-276.3505282485002
 21
-243.8640419502003
 31
0.0
  0
LINE
  5
484
  8
0
  6
CONTINUOUS
 62
     7
 10
-371.1685431313002
 20
-511.9415713374
 30
0.0
 11
-371.3505282485
 21
-511.4415713374
 31
0.0
  0
CIRCLE
  5
485
  8
0
  6
CONTINUOUS
 62
     7
 10
-480.3505282485
 20
-366.8640419502001
 30
0.0
 40
4.500000000000004
  0
ARC
  5
486
  8
0
  6
CONTINUOUS
 62
     7
 10
-275.3505282485
 20
-432.3640419640001
 30
0.0
 40
1.000000000000001
 50
89.99999999969998
 51
180.0
  0
LINE
  5
487
  8
0
  6
CONTINUOUS
 62
     7
 10
-451.8618373219002
 20
-279.8640419502004
 30
0.0
 11
-460.0352688122002
 21
-279.8640419502004
 31
0.0
  0
LINE
  5
488
  8
0
  6
CENTER
 62
     1
 10
-392.3505282485002
 20
-201.8640419502001
 30
0.0
 11
-422.3505282485002
 21
-201.8640419502001
 31
0.0
  0
LINE
  5
489
  8
0
  6
CONTINUOUS
 62
     7
 10
-371.3505282485
 20
-511.4415713374001
 30
0.0
 11
-373.3505282485
 21
-511.4415713374001
 31
0.0
  0
ARC
  5
48A
  8
0
  6
CONTINUOUS
 62
     7
 10
-280.8505282485001
 20
-508.8640419502
 30
0.0
 40
4.000000000000004
 50
328.649926828
 51
0.0
  0
LINE
  5
48B
  8
0
  6
CONTINUOUS
 62
     7
 10
-284.2729988612001
 20
-506.4415713374
 30
0.0
 11
-284.2729988612001
 21
-187.2865125628999
 31
0.0
  0
LINE
  5
48C
  8
0
  6
CONTINUOUS
 62
     7
 10
-373.5325133656001
 20
-511.9415713374
 30
0.0
 11
-408.1685431313002
 21
-511.9415713374
 31
0.0
  0
ARC
  5
48D
  8
0
  6
CONTINUOUS
 62
     7
 10
-275.3505282485
 20
-237.3640419640002
 30
0.0
 40
1.000000000000001
 50
89.99999999969998
 51
180.0
  0
LINE
  5
48E
  8
0
  6
CONTINUOUS
 62
     7
 10
-284.6657876848002
 20
-279.8640419502004
 30
0.0
 11
-284.6657876848002
 21
-277.8640419502004
 31
0.0
  0
LINE
  5
48F
  8
0
  6
CONTINUOUS
 62
     7
 10
-284.6657876848002
 20
-415.8640419502005
 30
0.0
 11
-284.6657876848002
 21
-413.8640419502005
 31
0.0
  0
LINE
  5
490
  8
0
  6
CONTINUOUS
 62
     7
 10
-460.0352688122001
 20
-415.8640419502005
 30
0.0
 11
-460.0352688122001
 21
-413.8640419502005
 31
0.0
  0
LINE
  5
491
  8
0
  6
CONTINUOUS
 62
     7
 10
-409.3505282485001
 20
-511.4415713374001
 30
0.0
 11
-409.3505282485001
 21
-516.8640419502002
 31
0.0
  0
LINE
  5
492
  8
0
  6
CONTINUOUS
 62
     7
 10
-257.8505282485
 20
-466.8640419502002
 30
0.0
 11
-276.8505282485
 21
-466.8640419502002
 31
0.0
  0
LINE
  5
493
  8
0
  6
CONTINUOUS
 62
     7
 10
-457.8618373219002
 20
-415.8640419502005
 30
0.0
 11
-457.8618373219002
 21
-506.4415713374005
 31
0.0
  0
LINE
  5
494
  8
0
  6
CONTINUOUS
 62
     7
 10
-257.8505282485
 20
-274.8640419502005
 30
0.0
 11
-276.8505282485
 21
-274.8640419502005
 31
0.0
  0
ARC
  5
495
  8
0
  6
CONTINUOUS
 62
     7
 10
-284.3505282485
 20
-183.8640419502005
 30
0.0
 40
7.000000000000006
 50
0.0
 51
90.0
  0
LINE
  5
496
  8
0
  6
CONTINUOUS
 62
     7
 10
-271.3505282485002
 20
-232.3640419502
 30
0.0
 11
-271.3505282485002
 21
-236.3640419502001
 31
0.0
  0
LINE
  5
497
  8
0
  6
CONTINUOUS
 62
     7
 10
-336.3505282485
 20
-511.4415713374001
 30
0.0
 11
-336.5325133656
 21
-511.9415713374001
 31
0.0
  0
LINE
  5
498
  8
0
  6
CONTINUOUS
 62
     7
 10
-292.8392191750001
 20
-279.8640419502004
 30
0.0
 11
-284.6657876848002
 21
-279.8640419502004
 31
0.0
  0
LINE
  5
499
  8
0
  6
CONTINUOUS
 62
     7
 10
-292.8392191750001
 20
-415.8640419502005
 30
0.0
 11
-284.6657876848002
 21
-415.8640419502005
 31
0.0
  0
LINE
  5
49A
  8
0
  6
CONTINUOUS
 62
     7
 10
-457.8618373219002
 20
-279.8640419502004
 30
0.0
 11
-457.8618373219002
 21
-413.8640419502004
 31
0.0
  0
LINE
  5
49B
  8
0
  6
CONTINUOUS
 62
     7
 10
-336.5325133656
 20
-511.9415713374
 30
0.0
 11
-371.1685431313002
 21
-511.9415713374
 31
0.0
  0
LINE
  5
49C
  8
0
  6
CONTINUOUS
 62
     7
 10
-467.8505282485002
 20
-183.8640419502005
 30
0.0
 11
-467.8505282485002
 21
-508.8640419502006
 31
0.0
  0
LINE
  5
49D
  8
0
  6
CONTINUOUS
 62
     7
 10
-276.8505282485001
 20
-232.3640419502
 30
0.0
 11
-271.3505282485002
 21
-232.3640419502
 31
0.0
  0
LINE
  5
49E
  8
0
  6
CONTINUOUS
 62
     7
 10
-257.8505282485
 20
-250.8640419502
 30
0.0
 11
-276.8505282485
 21
-250.8640419502
 31
0.0
  0
LINE
  5
49F
  8
0
  6
CONTINUOUS
 62
     7
 10
-460.0352688122001
 20
-279.8640419502004
 30
0.0
 11
-460.0352688122001
 21
-277.8640419502004
 31
0.0
  0
LINE
  5
4A0
  8
0
  6
CONTINUOUS
 62
     7
 10
-276.8505282485001
 20
-427.3640419502001
 30
0.0
 11
-271.3505282485002
 21
-427.3640419502001
 31
0.0
  0
LINE
  5
4A1
  8
0
  6
CONTINUOUS
 62
     7
 10
-460.0352688122001
 20
-413.8640419502003
 30
0.0
 11
-451.8618373219002
 21
-413.8640419502003
 31
0.0
  0
LINE
  5
4A2
  8
0
  6
CENTER
 62
     1
 10
-407.3505282485002
 20
-216.8640419502002
 30
0.0
 11
-407.3505282485002
 21
-186.8640419502002
 31
0.0
  0
ARC
  5
4A3
  8
0
  6
CONTINUOUS
 62
     7
 10
-460.3505282485
 20
-509.8640419502001
 30
0.0
 40
6.99999999999995
 50
180.0
 51
270.0
  0
LINE
  5
4A4
  8
0
  6
CONTINUOUS
 62
     7
 10
-460.3505282485
 20
-176.8640419501999
 30
0.0
 11
-284.3505282485002
 21
-176.8640419501999
 31
0.0
  0
LINE
  5
4A5
  8
0
  6
CONTINUOUS
 62
     7
 10
-457.8618373219002
 20
-187.2865125629
 30
0.0
 11
-457.8618373219002
 21
-277.8640419502
 31
0.0
  0
LINE
  5
4A6
  8
0
  6
CONTINUOUS
 62
     7
 10
-257.8505282485
 20
-267.8640419502001
 30
0.0
 11
-257.8505282485
 21
-274.8640419502002
 31
0.0
  0
LINE
  5
4A7
  8
0
  6
CONTINUOUS
 62
     7
 10
-275.3505282484001
 20
-236.3640419502003
 30
0.0
 11
-271.3505282485001
 21
-236.3640419502003
 31
0.0
  0
LINE
  5
4A8
  8
0
  6
CONTINUOUS
 62
     7
 10
-284.3505282485
 20
-176.3640419502
 30
0.0
 11
-460.3505282485
 21
-176.3640419502
 31
0.0
  0
LINE
  5
4A9
  8
0
  6
CONTINUOUS
 62
     7
 10
-286.839219175
 20
-279.8640419502004
 30
0.0
 11
-286.839219175
 21
-413.8640419502004
 31
0.0
  0
LINE
  5
4AA
  8
0
  6
CONTINUOUS
 62
     7
 10
-276.8505282485001
 20
-183.8640419502005
 30
0.0
 11
-276.8505282485001
 21
-508.8640419502006
 31
0.0
  0
LINE
  5
4AB
  8
0
  6
CENTER
 62
     1
 10
-322.3505282485001
 20
-201.8640419502001
 30
0.0
 11
-352.3505282485001
 21
-201.8640419502001
 31
0.0
  0
LINE
  5
4AC
  8
0
  6
CONTINUOUS
 62
     7
 10
-451.8618373219002
 20
-413.8640419502003
 30
0.0
 11
-451.8618373219002
 21
-415.8640419502003
 31
0.0
  0
LINE
  5
4AD
  8
0
  6
CONTINUOUS
 62
     7
 10
-335.3505282485
 20
-511.4415713374001
 30
0.0
 11
-336.3505282485
 21
-511.4415713374001
 31
0.0
  0
LINE
  5
4AE
  8
0
  6
CONTINUOUS
 62
     7
 10
-335.3505282485
 20
-516.8640419502002
 30
0.0
 11
-335.3505282485
 21
-511.4415713374007
 31
0.0
  0
LINE
  5
4AF
  8
0
  6
CONTINUOUS
 62
     7
 10
-408.1685431313002
 20
-511.9415713374
 30
0.0
 11
-408.3505282485
 21
-511.4415713374
 31
0.0
  0
LINE
  5
4B0
  8
0
  6
CONTINUOUS
 62
     7
 10
-486.2115223510001
 20
-375.1839214528998
 30
0.0
 11
-467.8505282485001
 21
-377.4094964955999
 31
0.0
  0
LINE
  5
4B1
  8
0
  6
CONTINUOUS
 62
     7
 10
-276.8505282485001
 20
-459.8640419502001
 30
0.0
 11
-257.8505282485001
 21
-459.8640419502001
 31
0.0
  0
LINE
  5
4B2
  8
0
  6
CONTINUOUS
 62
     7
 10
-277.3505282485
 20
-183.8640419502005
 30
0.0
 11
-277.3505282485
 21
-509.8640419502005
 31
0.0
  0
CIRCLE
  5
4B3
  8
0
  6
CONTINUOUS
 62
     7
 10
-337.3505282485001
 20
-201.8640419502001
 30
0.0
 40
8.000000000000062
  0
LINE
  5
4B4
  8
0
  6
CONTINUOUS
 62
     7
 10
-327.3786929109002
 20
-201.1140419502
 30
0.0
 11
-329.3857620874001
 21
-201.1140419502
 31
0.0
  0
ARC
  5
4B5
  8
0
  6
CONTINUOUS
 62
     7
 10
-337.3505282485001
 20
-201.8640419502001
 30
0.0
 40
9.000000000000064
 50
274.7801918472
 51
355.2198081528
  0
LINE
  5
4B6
  8
0
  6
CONTINUOUS
 62
     7
 10
-347.3223635860001
 20
-201.1140419502
 30
0.0
 11
-345.3152944095002
 21
-201.1140419502
 31
0.0
  0
LINE
  5
4B7
  8
0
  6
CONTINUOUS
 62
     7
 10
-417.3223635860002
 20
-492.6140419502001
 30
0.0
 11
-415.3152944095002
 21
-492.6140419502001
 31
0.0
  0
ARC
  5
4B8
  8
0
  6
CONTINUOUS
 62
     7
 10
-284.3505282485
 20
-509.8640419502001
 30
0.0
 40
7.000000000000006
 50
270.0
 51
0.0
  0
ARC
  5
4B9
  8
0
  6
CONTINUOUS
 62
     7
 10
-337.3505282485001
 20
-491.8640419502001
 30
0.0
 40
9.000000000000064
 50
274.7801918472
 51
355.2198081528
  0
LINE
  5
4BA
  8
0
  6
CONTINUOUS
 62
     7
 10
-369.8505282485002
 20
-198.8640419502002
 30
0.0
 11
-369.8505282485002
 21
-203.5339149312001
 31
0.0
  0
LINE
  5
4BB
  8
0
  6
CONTINUOUS
 62
     7
 10
-336.6005282485002
 20
-481.8922066126004
 30
0.0
 11
-336.6005282485002
 21
-483.8992757891003
 31
0.0
  0
ARC
  5
4BC
  8
0
  6
CONTINUOUS
 62
     7
 10
-287.7729988612001
 20
-506.4415713374
 30
0.0
 40
0.9337799999999952
 50
270.0
 51
0.0
  0
LINE
  5
4BD
  8
0
  6
CONTINUOUS
 62
     7
 10
-347.3223635860001
 20
-491.1140419502005
 30
0.0
 11
-345.3152944095002
 21
-491.1140419502005
 31
0.0
  0
ARC
  5
4BE
  8
0
  6
CONTINUOUS
 62
     7
 10
-407.3505282485002
 20
-491.8640419502001
 30
0.0
 40
9.000000000000064
 50
274.7801918472
 51
355.2198081528
  0
LINE
  5
4BF
  8
0
  6
CONTINUOUS
 62
     7
 10
-338.1005282485
 20
-191.8922066125999
 30
0.0
 11
-338.1005282485
 21
-193.8992757891
 31
0.0
  0
LINE
  5
4C0
  8
0
  6
CONTINUOUS
 62
     7
 10
-284.3505282485
 20
-516.8640419502002
 30
0.0
 11
-460.3505282485
 21
-516.8640419502002
 31
0.0
  0
ARC
  5
4C1
  8
0
  6
CONTINUOUS
 62
     7
 10
-284.3505282485
 20
-183.8640419502005
 30
0.0
 40
7.499999999999951
 50
0.0
 51
90.0
  0
ARC
  5
4C2
  8
0
  6
CONTINUOUS
 62
     7
 10
-460.3505282485
 20
-183.8640419502005
 30
0.0
 40
6.99999999999995
 50
90.0
 51
180.0
  0
CIRCLE
  5
4C3
  8
0
  6
CONTINUOUS
 62
     7
 10
-302.3505282485001
 20
-198.8640419502002
 30
0.0
 40
2.499999999999947
  0
LINE
  5
4C4
  8
0
  6
CONTINUOUS
 62
     7
 10
-327.3786929109002
 20
-202.6140419502001
 30
0.0
 11
-329.3857620874001
 21
-202.6140419502001
 31
0.0
  0
LINE
  5
4C5
  8
0
  6
CONTINUOUS
 62
     7
 10
-338.1005282485
 20
-481.8922066126004
 30
0.0
 11
-338.1005282485
 21
-483.8992757891003
 31
0.0
  0
ARC
  5
4C6
  8
0
  6
CONTINUOUS
 62
     7
 10
-337.3505282485001
 20
-201.8640419502001
 30
0.0
 40
9.000000000000064
 50
184.7801918472
 51
264.6206210089
  0
ARC
  5
4C7
  8
0
  6
CONTINUOUS
 62
     7
 10
-337.3505282485001
 20
-201.8640419502001
 30
0.0
 40
9.000000000000064
 50
4.7801918472
 51
85.2198081528
  0
CIRCLE
  5
4C8
  8
0
  6
CONTINUOUS
 62
     7
 10
-407.3505282485002
 20
-491.8640419502001
 30
0.0
 40
8.000000000000062
  0
LINE
  5
4C9
  8
0
  6
CONTINUOUS
 62
     7
 10
-347.3223635860001
 20
-202.6140419502001
 30
0.0
 11
-345.3152944095002
 21
-202.6140419502001
 31
0.0
  0
ARC
  5
4CA
  8
0
  6
CONTINUOUS
 62
     7
 10
-337.3505282485001
 20
-201.8640419502001
 30
0.0
 40
9.000000000000064
 50
94.7801918472
 51
175.2198081528
  0
LINE
  5
4CB
  8
0
  6
CONTINUOUS
 62
     7
 10
-408.1005282485002
 20
-501.8358772878
 30
0.0
 11
-408.1005282485002
 21
-499.8288081112
 31
0.0
  0
ARC
  5
4CC
  8
0
  6
CONTINUOUS
 62
     7
 10
-287.7729988612001
 20
-187.2865125629
 30
0.0
 40
3.499999999999837
 50
0.0
 51
90.0
  0
ARC
  5
4CD
  8
0
  6
CONTINUOUS
 62
     7
 10
-456.9280576357
 20
-187.2865125629
 30
0.0
 40
3.499999999999892
 50
90.0
 51
180.0
  0
ARC
  5
4CE
  8
0
  6
CONTINUOUS
 62
     7
 10
-372.3505282485001
 20
-198.8640419502002
 30
0.0
 40
2.499999999999947
 50
0.0
 51
180.0
  0
CIRCLE
  5
4CF
  8
0
  6
CONTINUOUS
 62
     7
 10
-407.3505282485002
 20
-491.8640419502001
 30
0.0
 40
10.00000000000001
  0
CIRCLE
  5
4D0
  8
0
  6
CONTINUOUS
 62
     7
 10
-407.3505282485002
 20
-201.8640419502001
 30
0.0
 40
10.00000000000001
  0
ARC
  5
4D1
  8
0
  6
CONTINUOUS
 62
     7
 10
-337.3505282485001
 20
-491.8640419502001
 30
0.0
 40
9.000000000000064
 50
95.37937899110001
 51
175.2198081528
  0
LINE
  5
4D2
  8
0
  6
CONTINUOUS
 62
     7
 10
-467.3505282485
 20
-183.8640419502005
 30
0.0
 11
-467.3505282485
 21
-509.8640419502005
 31
0.0
  0
ARC
  5
4D3
  8
0
  6
CONTINUOUS
 62
     7
 10
-460.3505282485
 20
-183.8640419502005
 30
0.0
 40
7.499999999999895
 50
90.0
 51
180.0
  0
CIRCLE
  5
4D4
  8
0
  6
CONTINUOUS
 62
     7
 10
-407.3505282485002
 20
-201.8640419502001
 30
0.0
 40
8.000000000000062
  0
LINE
  5
4D5
  8
0
  6
CONTINUOUS
 62
     7
 10
-327.3786929109002
 20
-491.1140419502005
 30
0.0
 11
-329.3857620874001
 21
-491.1140419502005
 31
0.0
  0
LINE
  5
4D6
  8
0
  6
CONTINUOUS
 62
     7
 10
-406.6005282485
 20
-501.8358772878
 30
0.0
 11
-406.6005282485
 21
-499.8288081112
 31
0.0
  0
LINE
  5
4D7
  8
0
  6
CONTINUOUS
 62
     7
 10
-336.6005282485002
 20
-211.8358772878002
 30
0.0
 11
-336.6005282485002
 21
-209.8288081112002
 31
0.0
  0
CIRCLE
  5
4D8
  8
0
  6
CONTINUOUS
 62
     7
 10
-337.3505282485001
 20
-491.8640419502001
 30
0.0
 40
8.000000000000062
  0
ARC
  5
4D9
  8
0
  6
CONTINUOUS
 62
     7
 10
-407.3505282485002
 20
-491.8640419502001
 30
0.0
 40
9.000000000000064
 50
4.7801918472
 51
84.6206210089
  0
LINE
  5
4DA
  8
0
  6
CONTINUOUS
 62
     7
 10
-472.3505282485
 20
-318.8640419502001
 30
0.0
 11
-472.3505282485
 21
-355.9779346690001
 31
0.0
  0
ARC
  5
4DB
  8
0
  6
CONTINUOUS
 62
     7
 10
-372.3505282485001
 20
-198.8640419502002
 30
0.0
 40
1.500000000000001
 50
0.0
 51
180.0
  0
ARC
  5
4DC
  8
0
  6
CONTINUOUS
 62
     7
 10
-456.9280576357
 20
-506.4415713374
 30
0.0
 40
0.9337799999998841
 50
180.0
 51
270.0
  0
ARC
  5
4DD
  8
0
  6
CONTINUOUS
 62
     7
 10
-442.3505282485002
 20
-198.8640419502002
 30
0.0
 40
1.500000000000001
 50
0.0
 51
180.0
  0
ARC
  5
4DE
  8
0
  6
CONTINUOUS
 62
     7
 10
-473.3505282485001
 20
-355.977934669
 30
0.0
 40
1.000000000000056
 50
276.911227119
 51
0.0
  0
ARC
  5
4DF
  8
0
  6
CONTINUOUS
 62
     7
 10
-407.3505282485002
 20
-201.8640419502001
 30
0.0
 40
9.000000000000064
 50
94.7801918472
 51
175.2198081528
  0
ARC
  5
4E0
  8
0
  6
CONTINUOUS
 62
     7
 10
-442.3505282485002
 20
-207.8640419502001
 30
0.0
 40
5.000000000000004
 50
120.0
 51
60.0
  0
LINE
  5
4E1
  8
0
  6
CONTINUOUS
 62
     7
 10
-443.8505282485001
 20
-198.8640419502002
 30
0.0
 11
-443.8505282485001
 21
-204.1559427066001
 31
0.0
  0
ARC
  5
4E2
  8
0
  6
CONTINUOUS
 62
     7
 10
-407.3505282485002
 20
-201.8640419502001
 30
0.0
 40
9.000000000000064
 50
4.7801918472
 51
85.2198081528
  0
LINE
  5
4E3
  8
0
  6
CENTER
 62
     1
 10
-447.3505282485002
 20
-198.8640419502002
 30
0.0
 11
-437.3505282485002
 21
-198.8640419502002
 31
0.0
  0
LINE
  5
4E4
  8
0
  6
CONTINUOUS
 62
     7
 10
-406.6005282485
 20
-481.8922066126004
 30
0.0
 11
-406.6005282485
 21
-483.8992757891003
 31
0.0
  0
CIRCLE
  5
4E5
  8
0
  6
CONTINUOUS
 62
     7
 10
-302.3505282485001
 20
-491.8640419502001
 30
0.0
 40
2.499999999999947
  0
LINE
  5
4E6
  8
0
  6
CONTINUOUS
 62
     7
 10
-347.3223635860001
 20
-492.6140419502001
 30
0.0
 11
-345.3152944095002
 21
-492.6140419502001
 31
0.0
  0
LINE
  5
4E7
  8
0
  6
CONTINUOUS
 62
     7
 10
-456.9280576357
 20
-186.3527328767001
 30
0.0
 11
-287.7729988612002
 21
-186.3527328767001
 31
0.0
  0
LINE
  5
4E8
  8
0
  6
CONTINUOUS
 62
     7
 10
-456.9280576357
 20
-509.9415713374
 30
0.0
 11
-287.7729988612002
 21
-509.9415713374
 31
0.0
  0
ARC
  5
4E9
  8
0
  6
CONTINUOUS
 62
     7
 10
-407.3505282485002
 20
-491.8640419502001
 30
0.0
 40
9.000000000000064
 50
184.7801918472
 51
265.2198081528
  0
LINE
  5
4EA
  8
0
  6
CONTINUOUS
 62
     7
 10
-338.1005282485
 20
-211.8358772878002
 30
0.0
 11
-338.1005282485
 21
-209.8288081112002
 31
0.0
  0
LINE
  5
4EB
  8
0
  6
CENTER
 62
     1
 10
-450.3505282485
 20
-207.8640419502001
 30
0.0
 11
-434.3505282485001
 21
-207.8640419502001
 31
0.0
  0
LINE
  5
4EC
  8
0
  6
CONTINUOUS
 62
     7
 10
-397.3786929109002
 20
-202.6140419502001
 30
0.0
 11
-399.3857620874002
 21
-202.6140419502001
 31
0.0
  0
LINE
  5
4ED
  8
0
  6
CONTINUOUS
 62
     7
 10
-336.6005282485002
 20
-191.8922066125999
 30
0.0
 11
-336.6005282485002
 21
-193.8992757891
 31
0.0
  0
LINE
  5
4EE
  8
0
  6
CONTINUOUS
 62
     7
 10
-397.3786929109002
 20
-491.1140419502005
 30
0.0
 11
-399.3857620874002
 21
-491.1140419502005
 31
0.0
  0
ARC
  5
4EF
  8
0
  6
CONTINUOUS
 62
     7
 10
-456.9280576357
 20
-187.2865125629
 30
0.0
 40
0.9337799999998841
 50
90.0
 51
180.0
  0
ARC
  5
4F0
  8
0
  6
CONTINUOUS
 62
     7
 10
-456.9280576357
 20
-506.4415713374
 30
0.0
 40
3.499999999999892
 50
180.0
 51
270.0
  0
LINE
  5
4F1
  8
0
  6
CONTINUOUS
 62
     7
 10
-327.3786929109002
 20
-492.6140419502001
 30
0.0
 11
-329.3857620874001
 21
-492.6140419502001
 31
0.0
  0
CIRCLE
  5
4F2
  8
0
  6
CONTINUOUS
 62
     7
 10
-337.3505282485001
 20
-201.8640419502001
 30
0.0
 40
10.00000000000001
  0
LINE
  5
4F3
  8
0
  6
CONTINUOUS
 62
     7
 10
-408.1005282485002
 20
-481.8922066126004
 30
0.0
 11
-408.1005282485002
 21
-483.8992757891003
 31
0.0
  0
LINE
  5
4F4
  8
0
  6
CONTINUOUS
 62
     7
 10
-473.2301968809001
 20
-356.9706684511001
 30
0.0
 11
-486.2115223510001
 21
-358.5441624474
 31
0.0
  0
LINE
  5
4F5
  8
0
  6
CONTINUOUS
 62
     7
 10
-338.1005282485
 20
-501.8358772878
 30
0.0
 11
-338.1005282485
 21
-499.8288081112
 31
0.0
  0
LINE
  5
4F6
  8
0
  6
CONTINUOUS
 62
     7
 10
-417.3223635860002
 20
-491.1140419502005
 30
0.0
 11
-415.3152944095002
 21
-491.1140419502005
 31
0.0
  0
ARC
  5
4F7
  8
0
  6
CONTINUOUS
 62
     7
 10
-407.3505282485002
 20
-491.8640419502001
 30
0.0
 40
9.000000000000064
 50
94.7801918472
 51
175.2198081528
  0
LINE
  5
4F8
  8
0
  6
CONTINUOUS
 62
     7
 10
-374.8505282485
 20
-198.8640419502002
 30
0.0
 11
-374.8505282485
 21
-203.5339149312001
 31
0.0
  0
ARC
  5
4F9
  8
0
  6
CONTINUOUS
 62
     7
 10
-442.3505282485002
 20
-207.8640419502001
 30
0.0
 40
4.000000000000004
 50
112.024312837
 51
67.97568716299996
  0
ARC
  5
4FA
  8
0
  6
CONTINUOUS
 62
     7
 10
-470.3505282485
 20
-318.8640419502001
 30
0.0
 40
1.999999999999946
 50
90.0
 51
180.0
  0
ARC
  5
4FB
  8
0
  6
CONTINUOUS
 62
     7
 10
-287.7729988612001
 20
-506.4415713374
 30
0.0
 40
3.499999999999837
 50
270.0
 51
0.0
  0
ARC
  5
4FC
  8
0
  6
CONTINUOUS
 62
     7
 10
-287.7729988612001
 20
-187.2865125629
 30
0.0
 40
0.9337799999999952
 50
0.0
 51
90.0
  0
LINE
  5
4FD
  8
0
  6
CONTINUOUS
 62
     7
 10
-336.6005282485002
 20
-501.8358772878
 30
0.0
 11
-336.6005282485002
 21
-499.8288081112
 31
0.0
  0
LINE
  5
4FE
  8
0
  6
CONTINUOUS
 62
     7
 10
-406.6005282485
 20
-191.8922066125999
 30
0.0
 11
-406.6005282485
 21
-193.8992757891
 31
0.0
  0
ARC
  5
4FF
  8
0
  6
CONTINUOUS
 62
     7
 10
-407.3505282485002
 20
-201.8640419502001
 30
0.0
 40
9.000000000000064
 50
275.3793789911
 51
355.2198081528
  0
ARC
  5
500
  8
0
  6
CONTINUOUS
 62
     7
 10
-337.3505282485001
 20
-491.8640419502001
 30
0.0
 40
9.000000000000064
 50
4.7801918472
 51
85.2198081528
  0
ARC
  5
501
  8
0
  6
CONTINUOUS
 62
     7
 10
-407.3505282485002
 20
-201.8640419502001
 30
0.0
 40
9.000000000000064
 50
184.7801918472
 51
265.2198081528
  0
ARC
  5
502
  8
0
  6
CONTINUOUS
 62
     7
 10
-372.3505282485001
 20
-207.8640419502001
 30
0.0
 40
5.000000000000004
 50
120.0
 51
60.0
  0
ARC
  5
503
  8
0
  6
CONTINUOUS
 62
     7
 10
-337.3505282485001
 20
-491.8640419502001
 30
0.0
 40
9.000000000000064
 50
184.7801918472
 51
265.2198081528
  0
LINE
  5
504
  8
0
  6
CONTINUOUS
 62
     7
 10
-406.6005282485
 20
-211.8358772878002
 30
0.0
 11
-406.6005282485
 21
-209.8288081112002
 31
0.0
  0
ARC
  5
505
  8
0
  6
CONTINUOUS
 62
     7
 10
-442.3505282485002
 20
-198.8640419502002
 30
0.0
 40
2.500000000000058
 50
0.0
 51
180.0
  0
CIRCLE
  5
506
  8
0
  6
CONTINUOUS
 62
     7
 10
-337.3505282485001
 20
-491.8640419502001
 30
0.0
 40
10.00000000000001
  0
LINE
  5
507
  8
0
  6
CONTINUOUS
 62
     7
 10
-456.9280576357
 20
-183.7865125629006
 30
0.0
 11
-287.7729988612002
 21
-183.7865125629006
 31
0.0
  0
LINE
  5
508
  8
0
  6
CONTINUOUS
 62
     7
 10
-397.3786929109002
 20
-492.6140419502001
 30
0.0
 11
-399.3857620874002
 21
-492.6140419502001
 31
0.0
  0
LINE
  5
509
  8
0
  6
CONTINUOUS
 62
     7
 10
-460.4280576357002
 20
-187.2865125629
 30
0.0
 11
-460.4280576357002
 21
-506.4415713374001
 31
0.0
  0
LINE
  5
50A
  8
0
  6
CONTINUOUS
 62
     7
 10
-417.3223635860002
 20
-202.6140419502001
 30
0.0
 11
-415.3152944095002
 21
-202.6140419502001
 31
0.0
  0
LINE
  5
50B
  8
0
  6
CONTINUOUS
 62
     7
 10
-417.3223635860002
 20
-201.1140419502
 30
0.0
 11
-415.3152944095002
 21
-201.1140419502
 31
0.0
  0
CIRCLE
  5
50C
  8
0
  6
DASHED
 62
     7
 10
-372.3505282485001
 20
-491.8640419502001
 30
0.0
 40
2.499999999999947
  0
ARC
  5
50D
  8
0
  6
CONTINUOUS
 62
     7
 10
-372.3505282485001
 20
-207.8640419502001
 30
0.0
 40
4.000000000000059
 50
112.024312837
 51
67.97568716299996
  0
LINE
  5
50E
  8
0
  6
CONTINUOUS
 62
     7
 10
-440.8505282485
 20
-198.8640419502002
 30
0.0
 11
-440.8505282485
 21
-204.1559427066001
 31
0.0
  0
LINE
  5
50F
  8
0
  6
CENTER
 62
     1
 10
-442.3505282485002
 20
-193.8640419502005
 30
0.0
 11
-442.3505282485002
 21
-213.8640419502005
 31
0.0
  0
ARC
  5
510
  8
0
  6
CONTINUOUS
 62
     7
 10
-485.8505282485001
 20
-372.2057201068004
 30
0.0
 40
2.999999999999947
 50
180.0
 51
263.088772881
  0
CIRCLE
  5
511
  8
0
  6
CONTINUOUS
 62
     7
 10
-442.3505282485002
 20
-491.8640419502001
 30
0.0
 40
2.500000000000058
  0
LINE
  5
512
  8
0
  6
CONTINUOUS
 62
     7
 10
-397.3786929109002
 20
-201.1140419502
 30
0.0
 11
-399.3857620874002
 21
-201.1140419502
 31
0.0
  0
LINE
  5
513
  8
0
  6
CONTINUOUS
 62
     7
 10
-456.9280576357
 20
-507.3753510236001
 30
0.0
 11
-287.7729988612002
 21
-507.3753510236001
 31
0.0
  0
LINE
  5
514
  8
0
  6
CONTINUOUS
 62
     6
 10
-323.8505282485001
 20
-377.9571926184003
 30
0.0
 11
-322.8505282485
 21
-377.9571926184003
 31
0.0
  0
LINE
  5
515
  8
0
  6
CONTINUOUS
 62
     6
 10
-314.6005282485
 20
-355.9571926184005
 30
0.0
 11
-314.6005282485
 21
-345.9571926184005
 31
0.0
  0
LINE
  5
516
  8
0
  6
CONTINUOUS
 62
     6
 10
-330.6005282485001
 20
-347.4571926184001
 30
0.0
 11
-330.6005282485001
 21
-356.4571926184
 31
0.0
  0
LINE
  5
517
  8
0
  6
CONTINUOUS
 62
     6
 10
-332.1005282485001
 20
-345.9571926184005
 30
0.0
 11
-332.1005282485001
 21
-357.9571926184005
 31
0.0
  0
LINE
  5
518
  8
0
  6
CONTINUOUS
 62
     6
 10
-306.3505282485002
 20
-392.1849239476003
 30
0.0
 11
-306.3505282485002
 21
-340.9571926184003
 31
0.0
  0
LINE
  5
519
  8
0
  6
CONTINUOUS
 62
     6
 10
-319.6005282485
 20
-386.2071926183999
 30
0.0
 11
-319.6005282485
 21
-396.2071926184005
 31
0.0
  0
ARC
  5
51A
  8
0
  6
CONTINUOUS
 62
     6
 10
-324.8505282485
 20
-377.4571926179003
 30
0.0
 40
0.9999999999999454
 50
0.0
 51
89.99999999959999
  0
LINE
  5
51B
  8
0
  6
CONTINUOUS
 62
     6
 10
-323.8505282485001
 20
-377.4571926179003
 30
0.0
 11
-323.8505282485001
 21
-377.9571926184004
 31
0.0
  0
ARC
  5
51C
  8
0
  6
CONTINUOUS
 62
     7
 10
-485.8505282485001
 20
-361.5223637936003
 30
0.0
 40
2.999999999999947
 50
96.911227119
 51
180.0
  0
LINE
  5
51D
  8
0
  6
CONTINUOUS
 62
     6
 10
-300.8505282485
 20
-390.2712863123002
 30
0.0
 11
-300.8505282485
 21
-330.9571926184001
 31
0.0
  0
LINE
  5
51E
  8
0
  6
CONTINUOUS
 62
     6
 10
-319.6005282485
 20
-345.9571926184005
 30
0.0
 11
-319.6005282485
 21
-355.9571926184005
 31
0.0
  0
ARC
  5
51F
  8
0
  6
CONTINUOUS
 62
     6
 10
-338.3505282485
 20
-340.9571926182001
 30
0.0
 40
2.000000000000002
 50
90.0000000002
 51
180.0
  0
LINE
  5
520
  8
0
  6
CONTINUOUS
 62
     6
 10
-340.3505282485
 20
-408.9571926186
 30
0.0
 11
-340.3505282485
 21
-340.9571926182
 31
0.0
  0
LINE
  5
521
  8
0
  6
CONTINUOUS
 62
     6
 10
-316.1005282485
 20
-394.7071926184001
 30
0.0
 11
-318.1005282485
 21
-394.7071926184001
 31
0.0
  0
LINE
  5
522
  8
0
  6
CONTINUOUS
 62
     6
 10
-318.1005282485
 20
-394.7071926184001
 30
0.0
 11
-318.1005282485
 21
-387.7071926184
 31
0.0
  0
LINE
  5
523
  8
0
  6
CONTINUOUS
 62
     6
 10
-330.6005282485001
 20
-396.7071926183999
 30
0.0
 11
-328.6005282485001
 21
-396.7071926183999
 31
0.0
  0
ARC
  5
524
  8
0
  6
CONTINUOUS
 62
     6
 10
-338.3505282485
 20
-408.9571926186
 30
0.0
 40
2.000000000000002
 50
180.0
 51
270.0
  0
LINE
  5
525
  8
0
  6
CONTINUOUS
 62
     6
 10
-314.6005282485
 20
-386.2071926183999
 30
0.0
 11
-319.6005282485
 21
-386.2071926183999
 31
0.0
  0
LINE
  5
526
  8
0
  6
CONTINUOUS
 62
     6
 10
-327.1005282485001
 20
-386.2071926183999
 30
0.0
 11
-332.1005282485001
 21
-386.2071926183999
 31
0.0
  0
LINE
  5
527
  8
0
  6
CONTINUOUS
 62
     6
 10
-314.8505282477001
 20
-399.9571926176999
 30
0.0
 11
-314.8505282477001
 21
-408.9571926183999
 31
0.0
  0
LINE
  5
528
  8
0
  6
CONTINUOUS
 62
     6
 10
-314.6005282485
 20
-345.9571926184005
 30
0.0
 11
-319.6005282485
 21
-345.9571926184005
 31
0.0
  0
LINE
  5
529
  8
0
  6
CONTINUOUS
 62
     6
 10
-328.6005282485001
 20
-396.7071926183999
 30
0.0
 11
-328.6005282485001
 21
-387.7071926184005
 31
0.0
  0
LINE
  5
52A
  8
0
  6
CONTINUOUS
 62
     6
 10
-322.8505282485001
 20
-377.4571926196997
 30
0.0
 11
-322.8505282485001
 21
-377.9571926183999
 31
0.0
  0
LINE
  5
52B
  8
0
  6
CONTINUOUS
 62
     6
 10
-319.6005282485
 20
-396.2071926184006
 30
0.0
 11
-314.6005282485
 21
-396.2071926184006
 31
0.0
  0
LINE
  5
52C
  8
0
  6
CONTINUOUS
 62
     7
 10
-439.8505282485
 20
-198.8640419502002
 30
0.0
 11
-439.8505282485
 21
-203.5339149312001
 31
0.0
  0
LINE
  5
52D
  8
0
  6
CONTINUOUS
 62
     6
 10
-308.3505282485001
 20
-338.9571926184001
 30
0.0
 11
-338.3505282485
 21
-338.9571926184001
 31
0.0
  0
LINE
  5
52E
  8
0
  6
CONTINUOUS
 62
     7
 10
-470.3505282485
 20
-316.8640419502003
 30
0.0
 11
-467.8505282485001
 21
-316.8640419502003
 31
0.0
  0
LINE
  5
52F
  8
0
  6
CONTINUOUS
 62
     6
 10
-321.8505282485002
 20
-375.4571926184005
 30
0.0
 11
-320.3924883569002
 21
-375.4571926184005
 31
0.0
  0
ARC
  5
530
  8
0
  6
CONTINUOUS
 62
     6
 10
-302.8505282485
 20
-414.9571926186002
 30
0.0
 40
3.000000000000058
 50
270.0
 51
0.0
  0
CIRCLE
  5
531
  8
0
  6
CONTINUOUS
 62
     6
 10
-323.3505282485
 20
-375.9571926184005
 30
0.0
 40
3.750000000000031
  0
LINE
  5
532
  8
0
  6
CONTINUOUS
 62
     6
 10
-322.8505282485001
 20
-373.9571926184
 30
0.0
 11
-323.8505282485002
 21
-373.9571926184
 31
0.0
  0
LINE
  5
533
  8
0
  6
CONTINUOUS
 62
     6
 10
-328.6005282485001
 20
-356.4571926184
 30
0.0
 11
-328.6005282485001
 21
-347.4571926184
 31
0.0
  0
LINE
  5
534
  8
0
  6
CONTINUOUS
 62
     6
 10
-314.3201351369001
 20
-398.6006324122003
 30
0.0
 11
-306.8809213592002
 21
-393.5414841530003
 31
0.0
  0
LINE
  5
535
  8
0
  6
CONTINUOUS
 62
     7
 10
-373.8505282485001
 20
-198.8640419502002
 30
0.0
 11
-373.8505282485001
 21
-204.1559427066001
 31
0.0
  0
LINE
  5
536
  8
0
  6
CONTINUOUS
 62
     7
 10
-408.1005282485002
 20
-211.8358772878002
 30
0.0
 11
-408.1005282485002
 21
-209.8288081112002
 31
0.0
  0
ARC
  5
537
  8
0
  6
CONTINUOUS
 62
     6
 10
-324.8505282485
 20
-374.4571926176002
 30
0.0
 40
0.9999999999999454
 50
269.9999999996
 51
0.0
  0
LINE
  5
538
  8
0
  6
CONTINUOUS
 62
     6
 10
-327.1005282485001
 20
-398.2071926183999
 30
0.0
 11
-327.1005282485001
 21
-386.2071926184
 31
0.0
  0
LINE
  5
539
  8
0
  6
CONTINUOUS
 62
     6
 10
-328.6005282485001
 20
-347.4571926184001
 30
0.0
 11
-330.6005282485001
 21
-347.4571926184001
 31
0.0
  0
LINE
  5
53A
  8
0
  6
CONTINUOUS
 62
     6
 10
-327.1005282485001
 20
-357.9571926184003
 30
0.0
 11
-327.1005282485001
 21
-345.9571926184002
 31
0.0
  0
LINE
  5
53B
  8
0
  6
CONTINUOUS
 62
     7
 10
-488.8505282485001
 20
-361.5223637936003
 30
0.0
 11
-488.8505282485001
 21
-372.2057201068003
 31
0.0
  0
LINE
  5
53C
  8
0
  6
CONTINUOUS
 62
     6
 10
-324.8505282484001
 20
-376.4571926184004
 30
0.0
 11
-326.30856814
 21
-376.4571926184004
 31
0.0
  0
LINE
  5
53D
  8
0
  6
CONTINUOUS
 62
     6
 10
-324.8505282485
 20
-375.4571926184005
 30
0.0
 11
-326.3085681401
 21
-375.4571926184005
 31
0.0
  0
ARC
  5
53E
  8
0
  6
CONTINUOUS
 62
     6
 10
-321.8505282485002
 20
-377.4571926196997
 30
0.0
 40
1.000000000000056
 50
90.00000000039998
 51
180.0
  0
ARC
  5
53F
  8
0
  6
CONTINUOUS
 62
     6
 10
-308.3505282485001
 20
-340.9571926184005
 30
0.0
 40
1.999999999999946
 50
0.0
 51
90.0
  0
LINE
  5
540
  8
0
  6
CONTINUOUS
 62
     6
 10
-330.6005282485001
 20
-356.4571926184
 30
0.0
 11
-328.6005282485001
 21
-356.4571926184
 31
0.0
  0
LINE
  5
541
  8
0
  6
CONTINUOUS
 62
     7
 10
-444.8505282485
 20
-198.8640419502002
 30
0.0
 11
-444.8505282485
 21
-203.5339149312001
 31
0.0
  0
LINE
  5
542
  8
0
  6
CONTINUOUS
 62
     6
 10
-316.8505282477002
 20
-410.9571926186
 30
0.0
 11
-338.3505282485001
 21
-410.9571926186
 31
0.0
  0
LINE
  5
543
  8
0
  6
CONTINUOUS
 62
     6
 10
-323.8505282485001
 20
-374.4571926176002
 30
0.0
 11
-323.8505282485001
 21
-373.9571926184001
 31
0.0
  0
LINE
  5
544
  8
0
  6
CONTINUOUS
 62
     6
 10
-316.1005282485
 20
-354.4571926184002
 30
0.0
 11
-318.1005282485
 21
-354.4571926184002
 31
0.0
  0
LINE
  5
545
  8
0
  6
CONTINUOUS
 62
     6
 10
-316.1005282485
 20
-347.4571926184001
 30
0.0
 11
-316.1005282485
 21
-354.4571926184001
 31
0.0
  0
LINE
  5
546
  8
0
  6
CONTINUOUS
 62
     6
 10
-316.1005282485
 20
-387.7071926184
 30
0.0
 11
-316.1005282485
 21
-394.7071926184
 31
0.0
  0
LINE
  5
547
  8
0
  6
CONTINUOUS
 62
     7
 10
-370.8505282485001
 20
-198.8640419502002
 30
0.0
 11
-370.8505282485001
 21
-204.1559427066001
 31
0.0
  0
CIRCLE
  5
548
  8
0
  6
CONTINUOUS
 62
     6
 10
-323.3505282485
 20
-375.9571926184005
 30
0.0
 40
3.000000000000058
  0
LINE
  5
549
  8
0
  6
CONTINUOUS
 62
     6
 10
-332.1005282485001
 20
-357.9571926184003
 30
0.0
 11
-327.1005282485001
 21
-357.9571926184003
 31
0.0
  0
LINE
  5
54A
  8
0
  6
CONTINUOUS
 62
     6
 10
-319.6005282485
 20
-355.9571926184005
 30
0.0
 11
-314.6005282485
 21
-355.9571926184005
 31
0.0
  0
LINE
  5
54B
  8
0
  6
CONTINUOUS
 62
     6
 10
-322.8505282485001
 20
-374.4571926202003
 30
0.0
 11
-322.8505282485001
 21
-373.9571926184001
 31
0.0
  0
LINE
  5
54C
  8
0
  6
CONTINUOUS
 62
     6
 10
-327.1005282485001
 20
-345.9571926184005
 30
0.0
 11
-332.1005282485001
 21
-345.9571926184005
 31
0.0
  0
ARC
  5
54D
  8
0
  6
CONTINUOUS
 62
     6
 10
-312.8505282477001
 20
-399.9571926176999
 30
0.0
 40
2.000000000000002
 50
137.2906100424
 51
180.0
  0
LINE
  5
54E
  8
0
  6
CONTINUOUS
 62
     7
 10
-408.1005282485002
 20
-191.8922066125999
 30
0.0
 11
-408.1005282485002
 21
-193.8992757891
 31
0.0
  0
LINE
  5
54F
  8
0
  6
CONTINUOUS
 62
     6
 10
-321.8505282485002
 20
-376.4571926184004
 30
0.0
 11
-320.3924883570002
 21
-376.4571926184004
 31
0.0
  0
LINE
  5
550
  8
0
  6
CONTINUOUS
 62
     6
 10
-328.6005282485001
 20
-387.7071926184
 30
0.0
 11
-330.6005282485001
 21
-387.7071926184
 31
0.0
  0
ARC
  5
551
  8
0
  6
CONTINUOUS
 62
     6
 10
-314.8505282485
 20
-414.9571926186002
 30
0.0
 40
1.999999999999946
 50
270.0
 51
0.0
  0
LINE
  5
552
  8
0
  6
CONTINUOUS
 62
     6
 10
-318.1005282485
 20
-387.7071926184
 30
0.0
 11
-316.1005282485
 21
-387.7071926184
 31
0.0
  0
ARC
  5
553
  8
0
  6
CONTINUOUS
 62
     6
 10
-303.8505282485
 20
-390.2712863123002
 30
0.0
 40
3.000000000000003
 50
304.2182452402
 51
0.0
  0
ARC
  5
554
  8
0
  6
CONTINUOUS
 62
     7
 10
-448.6005282485002
 20
-470.1140419385006
 30
0.0
 40
1.000000000000001
 50
90.0000000003
 51
180.0000000003
  0
ARC
  5
555
  8
0
  6
CONTINUOUS
 62
     6
 10
-321.8505282485002
 20
-374.4571926202003
 30
0.0
 40
1.000000000000056
 50
180.0
 51
270.0000000004
  0
LINE
  5
556
  8
0
  6
CONTINUOUS
 62
     7
 10
-435.1005282498001
 20
-477.1141169323001
 30
0.0
 11
-435.1005282484001
 21
-481.5141169332002
 31
0.0
  0
ARC
  5
557
  8
0
  6
DASHED
 62
     7
 10
-313.3505282485001
 20
-481.5140419511002
 30
0.0
 40
3.750000000000087
 50
179.9988543576
 51
293.9358957122001
  0
LINE
  5
558
  8
0
  6
CENTER
 62
     1
 10
-337.3505282485001
 20
-216.8640419502002
 30
0.0
 11
-337.3505282485001
 21
-186.8640419502002
 31
0.0
  0
ARC
  5
559
  8
0
  6
CONTINUOUS
 62
     7
 10
-448.6005282485002
 20
-223.6140419618001
 30
0.0
 40
1.000000000000001
 50
179.9999999997
 51
269.9999999997
  0
ARC
  5
55A
  8
0
  6
CONTINUOUS
 62
     7
 10
-304.1005282485
 20
-478.1140419386001
 30
0.0
 40
1.000000000000001
 50
90.0000000003
 51
180.0000000003
  0
LINE
  5
55B
  8
0
  6
CONTINUOUS
 62
     7
 10
-304.1005282484001
 20
-214.6140419618002
 30
0.0
 11
-296.1003882818001
 21
-214.6140419618002
 31
0.0
  0
LINE
  5
55C
  8
0
  6
CENTER
 62
     1
 10
-390.0199890503001
 20
-491.8640419502001
 30
0.0
 11
-422.3505282485002
 21
-491.8640419502001
 31
0.0
  0
LINE
  5
55D
  8
0
  6
CONTINUOUS
 62
     7
 10
-311.8290996766001
 20
-477.1140972730999
 30
0.0
 11
-308.6005282477001
 21
-477.1141257536999
 31
0.0
  0
LINE
  5
55E
  8
0
  6
CONTINUOUS
 62
     7
 10
-295.1005282485
 20
-215.6307725847
 30
0.0
 11
-295.1005282485
 21
-223.6140419618
 31
0.0
  0
LINE
  5
55F
  8
0
  6
DASHED
 62
     7
 10
-318.1005282502001
 20
-477.1140419502001
 30
0.0
 11
-311.8290996766001
 21
-477.1140972731001
 31
0.0
  0
LINE
  5
560
  8
0
  6
CENTER
 62
     1
 10
-313.3505282485001
 20
-488.1738505546001
 30
0.0
 11
-313.3505282485001
 21
-474.4917085083001
 31
0.0
  0
LINE
  5
561
  8
0
  6
CONTINUOUS
 62
     7
 10
-297.1005282484002
 20
-470.1140419385006
 30
0.0
 11
-297.1003882818002
 21
-477.1140419385007
 31
0.0
  0
LINE
  5
562
  8
0
  6
CENTER
 62
     1
 10
-312.1601677435001
 20
-346.8640419502001
 30
0.0
 11
-280.3416868064
 21
-346.8640419502001
 31
0.0
  0
LINE
  5
563
  8
0
  6
CONTINUOUS
 62
     7
 10
-440.6005282485
 20
-477.1140419385001
 30
0.0
 11
-447.6005282485
 21
-477.1140419385001
 31
0.0
  0
ARC
  5
564
  8
0
  6
CONTINUOUS
 62
     7
 10
-448.6006682151001
 20
-478.1140419385002
 30
0.0
 40
1.000000000000001
 50
180.0
 51
270.0
  0
ARC
  5
565
  8
0
  6
DASHED
 62
     7
 10
-313.3505282485001
 20
-481.5140419511002
 30
0.0
 40
4.75000000169995
 50
180.0
 51
288.6811140528
  0
LINE
  5
566
  8
0
  6
DASHED
 62
     7
 10
-317.1005282485001
 20
-477.1141669204002
 30
0.0
 11
-317.1005282485001
 21
-481.5139669690003
 31
0.0
  0
ARC
  5
567
  8
0
  6
CONTINUOUS
 62
     7
 10
-313.3505282485001
 20
-481.5140419511002
 30
0.0
 40
3.750000000000087
 50
293.9358957122001
 51
359.9988543576001
  0
ARC
  5
568
  8
0
  6
CONTINUOUS
 62
     7
 10
-448.6005282485002
 20
-223.6140419618001
 30
0.0
 40
1.000000000000001
 50
269.9999999997
 51
0.0
  0
LINE
  5
569
  8
0
  6
CONTINUOUS
 62
     6
 10
-332.1005282485001
 20
-386.2071926183999
 30
0.0
 11
-332.1005282485001
 21
-398.2071926184004
 31
0.0
  0
ARC
  5
56A
  8
0
  6
CONTINUOUS
 62
     7
 10
-296.1005282484001
 20
-223.6140419618001
 30
0.0
 40
1.000000000000056
 50
270.0000000003
 51
0.0000000003000196
  0
LINE
  5
56B
  8
0
  6
CENTER
 62
     1
 10
-318.9653737935001
 20
-481.5140419511002
 30
0.0
 11
-307.4562778369001
 21
-481.5140419511002
 31
0.0
  0
ARC
  5
56C
  8
0
  6
CONTINUOUS
 62
     7
 10
-296.1005282484001
 20
-470.1140419385006
 30
0.0
 40
1.000000000000056
 50
89.99999999969998
 51
179.9999999997
  0
LINE
  5
56D
  8
0
  6
CONTINUOUS
 62
     7
 10
-309.6005282471
 20
-477.1141169323001
 30
0.0
 11
-309.6005282485
 21
-481.5141169332002
 31
0.0
  0
ARC
  5
56E
  8
0
  6
CONTINUOUS
 62
     7
 10
-313.3505282485001
 20
-481.5140419511002
 30
0.0
 40
4.75000000169995
 50
288.6811140528
 51
359.9988543576001
  0
LINE
  5
56F
  8
0
  6
DASHED
 62
     7
 10
-318.1005282502001
 20
-481.5142119105001
 30
0.0
 11
-318.1005282502001
 21
-477.1140419502001
 31
0.0
  0
ARC
  5
570
  8
0
  6
CONTINUOUS
 62
     7
 10
-304.1005282485
 20
-215.6140419618005
 30
0.0
 40
1.000000000000001
 50
179.9999999997
 51
269.9999999997
  0
ARC
  5
571
  8
0
  6
CONTINUOUS
 62
     7
 10
-296.1003882818001
 20
-478.1140419385002
 30
0.0
 40
1.000000000000056
 50
270.0
 51
0.0
  0
LINE
  5
572
  8
0
  6
CENTER
 62
     1
 10
-322.3505282485001
 20
-491.8640419503
 30
0.0
 11
-352.3505282485001
 21
-491.8640419503
 31
0.0
  0
LINE
  5
573
  8
0
  6
CONTINUOUS
 62
     6
 10
-318.1005282485
 20
-354.4571926184002
 30
0.0
 11
-318.1005282485
 21
-347.4571926184001
 31
0.0
  0
LINE
  5
574
  8
0
  6
CENTER
 62
     1
 10
-266.3505282485002
 20
-238.8640419502
 30
0.0
 11
-266.3505282485002
 21
-279.8640419501999
 31
0.0
  0
LINE
  5
575
  8
0
  6
CONTINUOUS
 62
     7
 10
-308.6005282477002
 20
-481.5141369284002
 30
0.0
 11
-308.6005282477002
 21
-477.1141257537001
 31
0.0
  0
LINE
  5
576
  8
0
  6
CENTER
 62
     1
 10
-337.3505282485001
 20
-476.8640419503001
 30
0.0
 11
-337.3505282485001
 21
-506.8640419503001
 31
0.0
  0
LINE
  5
577
  8
0
  6
CENTER
 62
     1
 10
-495.6177255563002
 20
-366.8640419502001
 30
0.0
 11
-450.7025827881002
 21
-366.8640419502001
 31
0.0
  0
ARC
  5
578
  8
0
  6
CONTINUOUS
 62
     6
 10
-308.3505282484001
 20
-392.1849239476003
 30
0.0
 40
2.000000000000002
 50
317.2906100424
 51
0.0
  0
LINE
  5
579
  8
0
  6
CONTINUOUS
 62
     7
 10
-440.6005282485
 20
-216.6140419618002
 30
0.0
 11
-447.6005282485
 21
-216.6140419618002
 31
0.0
  0
LINE
  5
57A
  8
0
  6
CONTINUOUS
 62
     6
 10
-318.1005282485
 20
-347.4571926184001
 30
0.0
 11
-316.1005282485
 21
-347.4571926184001
 31
0.0
  0
LINE
  5
57B
  8
0
  6
CENTER
 62
     1
 10
-372.3505282485001
 20
-233.5528895854003
 30
0.0
 11
-372.3505282485001
 21
-521.8640419502003
 31
0.0
  0
ARC
  5
57C
  8
0
  6
CONTINUOUS
 62
     7
 10
-296.1005282484001
 20
-470.1140419385006
 30
0.0
 40
1.000000000000056
 50
0.0
 51
89.99999999969998
  0
ARC
  5
57D
  8
0
  6
CONTINUOUS
 62
     7
 10
-440.6005282485
 20
-478.1140419386001
 30
0.0
 40
0.9999999999999454
 50
269.9999999997
 51
0.0
  0
LINE
  5
57E
  8
0
  6
CONTINUOUS
 62
     7
 10
-440.6005282485
 20
-479.1140419385001
 30
0.0
 11
-448.6006682151
 21
-479.1140419385001
 31
0.0
  0
ARC
  5
57F
  8
0
  6
CONTINUOUS
 62
     6
 10
-316.8505282477002
 20
-408.9571926186
 30
0.0
 40
2.000000000000113
 50
270.0
 51
0.000000003699995
  0
LINE
  5
580
  8
0
  6
CONTINUOUS
 62
     7
 10
-304.1005282484001
 20
-479.1140419385001
 30
0.0
 11
-296.1003882818001
 21
-479.1140419385001
 31
0.0
  0
LINE
  5
581
  8
0
  6
CONTINUOUS
 62
     7
 10
-295.1005282485
 20
-478.0973113156999
 30
0.0
 11
-295.1005282485
 21
-470.1140419384999
 31
0.0
  0
LINE
  5
582
  8
0
  6
CENTER
 62
     1
 10
-266.3505282485002
 20
-433.8640419502003
 30
0.0
 11
-266.3505282485002
 21
-471.8640419502003
 31
0.0
  0
LINE
  5
583
  8
0
  6
CONTINUOUS
 62
     7
 10
-440.6005282485
 20
-214.6140419618002
 30
0.0
 11
-448.6006682151
 21
-214.6140419618002
 31
0.0
  0
LINE
  5
584
  8
0
  6
CONTINUOUS
 62
     6
 10
-314.6005282485
 20
-396.2071926184006
 30
0.0
 11
-314.6005282485
 21
-386.2071926184
 31
0.0
  0
LINE
  5
585
  8
0
  6
CONTINUOUS
 62
     6
 10
-330.6005282485001
 20
-387.7071926184
 30
0.0
 11
-330.6005282485001
 21
-396.7071926183999
 31
0.0
  0
LINE
  5
586
  8
0
  6
CONTINUOUS
 62
     7
 10
-447.6005282485002
 20
-223.6140419618001
 30
0.0
 11
-447.6006682151001
 21
-216.6140419618002
 31
0.0
  0
ARC
  5
587
  8
0
  6
DASHED
 62
     7
 10
-313.3505282485001
 20
-481.5140419511002
 30
0.0
 40
1.900000000000013
 50
36.7980382975
 51
323.2019617025
  0
LINE
  5
588
  8
0
  6
CONTINUOUS
 62
     7
 10
-449.6005282485001
 20
-478.0973113156999
 30
0.0
 11
-449.6005282485001
 21
-470.1140419384999
 31
0.0
  0
LINE
  5
589
  8
0
  6
CONTINUOUS
 62
     7
 10
-449.6005282485001
 20
-215.6307725847
 30
0.0
 11
-449.6005282485001
 21
-223.6140419618
 31
0.0
  0
LINE
  5
58A
  8
0
  6
CONTINUOUS
 62
     6
 10
-332.1005282485001
 20
-398.2071926183999
 30
0.0
 11
-327.1005282485001
 21
-398.2071926183999
 31
0.0
  0
LINE
  5
58B
  8
0
  6
CONTINUOUS
 62
     7
 10
-427.6005282484002
 20
-477.1141669204002
 30
0.0
 11
-427.6005282484002
 21
-481.5139669690003
 31
0.0
  0
ARC
  5
58C
  8
0
  6
CONTINUOUS
 62
     7
 10
-440.6005282485
 20
-215.6140419618005
 30
0.0
 40
0.9999999999999454
 50
270.0000000003
 51
0.0000000003000196
  0
ARC
  5
58D
  8
0
  6
CONTINUOUS
 62
     7
 10
-296.1005282484001
 20
-223.6140419618001
 30
0.0
 40
1.000000000000056
 50
180.0000000003
 51
270.0000000003
  0
LINE
  5
58E
  8
0
  6
CONTINUOUS
 62
     7
 10
-304.1005282485
 20
-216.6140419618002
 30
0.0
 11
-297.1005282485
 21
-216.6140419618002
 31
0.0
  0
ARC
  5
58F
  8
0
  6
CONTINUOUS
 62
     7
 10
-448.6006682151001
 20
-215.6140419618005
 30
0.0
 40
1.000000000000001
 50
90.0
 51
180.0
  0
ARC
  5
590
  8
0
  6
CONTINUOUS
 62
     7
 10
-313.3505282485001
 20
-481.5140419511002
 30
0.0
 40
1.900000000000013
 50
323.2019617025
 51
36.7980382975
  0
ARC
  5
591
  8
0
  6
CONTINUOUS
 62
     7
 10
-440.6005282485
 20
-478.1140419386001
 30
0.0
 40
0.9999999999999454
 50
0.0
 51
89.99999999969998
  0
LINE
  5
592
  8
0
  6
CENTER
 62
     1
 10
-480.3505282485
 20
-357.3640419502003
 30
0.0
 11
-480.3505282485
 21
-376.3640419502002
 31
0.0
  0
ARC
  5
593
  8
0
  6
CONTINUOUS
 62
     7
 10
-304.1005282484001
 20
-478.1140419386001
 30
0.0
 40
1.000000000000001
 50
180.0000000003
 51
270.0000000003
  0
ARC
  5
594
  8
0
  6
CONTINUOUS
 62
     7
 10
-304.1005282484001
 20
-215.6140419618005
 30
0.0
 40
1.000000000000001
 50
89.99999999969998
 51
179.9999999997
  0
LINE
  5
595
  8
0
  6
CONTINUOUS
 62
     7
 10
-318.1005282502001
 20
-216.6140419501
 30
0.0
 11
-308.6005282477002
 21
-216.6139581466
 31
0.0
  0
LINE
  5
596
  8
0
  6
CENTER
 62
     1
 10
-380.5618188638002
 20
-491.8640419502001
 30
0.0
 11
-367.3505282485001
 21
-491.8640419502001
 31
0.0
  0
LINE
  5
597
  8
0
  6
CONTINUOUS
 62
     7
 10
-297.0790996770001
 20
-224.2140419501999
 30
0.0
 11
-297.0790996770001
 21
-216.6140419502
 31
0.0
  0
ARC
  5
598
  8
0
  6
CONTINUOUS
 62
     7
 10
-460.1005282485
 20
-172.8640419502006
 30
0.0
 40
3.000000000000003
 50
90.0
 51
180.0
  0
LINE
  5
599
  8
0
  6
CENTER
 62
     1
 10
-431.3505282484002
 20
-205.5542333456999
 30
0.0
 11
-431.3505282484002
 21
-219.2363753920001
 31
0.0
  0
ARC
  5
59A
  8
0
  6
CONTINUOUS
 62
     7
 10
-313.3505282485001
 20
-212.2140419493002
 30
0.0
 40
3.750000000000087
 50
0.0011456424
 51
180.0011456424
  0
ARC
  5
59B
  8
0
  6
CONTINUOUS
 62
     7
 10
-484.3505282485
 20
-147.8640419502
 30
0.0
 40
3.000000000000003
 50
90.0
 51
180.0
  0
CIRCLE
  5
59C
  8
0
  6
CONTINUOUS
 62
     7
 10
-431.3505282484002
 20
-481.5140419511002
 30
0.0
 40
1.899999999999957
  0
LINE
  5
59D
  8
0
  6
CENTER
 62
     1
 10
-504.3557667133001
 20
-346.8640419502001
 30
0.0
 11
-244.9702945678001
 21
-346.8640419502001
 31
0.0
  0
LINE
  5
59E
  8
0
  6
CONTINUOUS
 62
     7
 10
-447.6005282485002
 20
-470.1140419385006
 30
0.0
 11
-447.6006682151001
 21
-477.1140419385007
 31
0.0
  0
ARC
  5
59F
  8
0
  6
CONTINUOUS
 62
     7
 10
-439.9790996770001
 20
-215.8140419502
 30
0.0
 40
0.7999999999999674
 50
312.2797486563001
 51
0.0
  0
LINE
  5
5A0
  8
0
  6
CONTINUOUS
 62
     7
 10
-304.1005282485
 20
-477.1140419385001
 30
0.0
 11
-297.1005282485
 21
-477.1140419385001
 31
0.0
  0
LINE
  5
5A1
  8
0
  6
CONTINUOUS
 62
     7
 10
-487.3505282485
 20
-169.8640419502001
 30
0.0
 11
-257.3505282485001
 21
-169.8640419502001
 31
0.0
  0
LINE
  5
5A2
  8
0
  6
CONTINUOUS
 62
     7
 10
-436.1005282492001
 20
-481.5141369284002
 30
0.0
 11
-436.1005282492001
 21
-477.1141257537001
 31
0.0
  0
CIRCLE
  5
5A3
  8
0
  6
CONTINUOUS
 62
     7
 10
-431.3505282484002
 20
-212.2140419493002
 30
0.0
 40
1.899999999999957
  0
LINE
  5
5A4
  8
0
  6
CONTINUOUS
 62
     7
 10
-297.1005282484002
 20
-223.6140419618001
 30
0.0
 11
-297.1003882818002
 21
-216.6140419618002
 31
0.0
  0
ARC
  5
5A5
  8
0
  6
CONTINUOUS
 62
     7
 10
-296.1505282485001
 20
-215.8140419502
 30
0.0
 40
0.8000000000000229
 50
180.0
 51
270.0
  0
ARC
  5
5A6
  8
0
  6
CONTINUOUS
 62
     7
 10
-431.3505282484002
 20
-481.5140419511002
 30
0.0
 40
4.750000001700005
 50
180.0011456424
 51
0.0
  0
ARC
  5
5A7
  8
0
  6
CONTINUOUS
 62
     7
 10
-296.279099677
 20
-215.7386211900006
 30
0.0
 40
0.7999999999999119
 50
270.0
 51
0.0
  0
LINE
  5
5A8
  8
0
  6
CONTINUOUS
 62
     7
 10
-469.1005282485001
 20
-203.8640419502005
 30
0.0
 11
-469.1005282485001
 21
-169.8640419502005
 31
0.0
  0
ARC
  5
5A9
  8
0
  6
CONTINUOUS
 62
     7
 10
-313.3505282485001
 20
-212.2140419493002
 30
0.0
 40
4.75000000169995
 50
0.0011456424
 51
180.0
  0
ARC
  5
5AA
  8
0
  6
PHANTOM
 62
   253
 10
-484.3505282485
 20
-162.6348029502001
 30
0.0
 40
3.000000000000003
 50
90.0
 51
180.0
  0
LINE
  5
5AC
  8
0
  6
CONTINUOUS
 62
     7
 10
-275.6005282485001
 20
-169.8640419502001
 30
0.0
 11
-275.6005282485001
 21
-203.8640419502001
 31
0.0
  0
LINE
  5
5AD
  8
0
  6
CONTINUOUS
 62
     7
 10
-320.3050737030001
 20
-176.3640419502
 30
0.0
 11
-318.1498878699001
 21
-171.6226331173
 31
0.0
  0
LINE
  5
5AE
  8
0
  6
CONTINUOUS
 62
     7
 10
-463.1005282485001
 20
-172.8640419502006
 30
0.0
 11
-463.1005282485001
 21
-176.8863990817006
 31
0.0
  0
LINE
  5
5AF
  8
0
  6
CONTINUOUS
 62
     7
 10
-435.1005282498001
 20
-216.6139669680001
 30
0.0
 11
-435.1005282484001
 21
-212.2139669672002
 31
0.0
  0
LINE
  5
5B0
  8
0
  6
CONTINUOUS
 62
     7
 10
-426.6005282467001
 20
-216.6140419501
 30
0.0
 11
-436.1005282492002
 21
-216.6139581466
 31
0.0
  0
ARC
  5
5B1
  8
0
  6
CONTINUOUS
 62
     7
 10
-431.3505282484002
 20
-481.5140419511002
 30
0.0
 40
3.749999999999976
 50
180.0011456424
 51
0.0011456423999903
  0
ARC
  5
5B2
  8
0
  6
CONTINUOUS
 62
     7
 10
-448.6005282485002
 20
-470.1140419385006
 30
0.0
 40
1.000000000000001
 50
0.0000000003
 51
90.0000000003
  0
LINE
  5
5B3
  8
0
  6
CONTINUOUS
 62
     7
 10
-487.3505282485
 20
-169.8640419502001
 30
0.0
 11
-257.3505282485001
 21
-169.8640419502001
 31
0.0
  0
LINE
  5
5B4
  8
0
  6
CONTINUOUS
 62
     7
 10
-426.5511686270002
 20
-171.6226331173001
 30
0.0
 11
-424.3959827939002
 21
-176.3640419502001
 31
0.0
  0
LINE
  5
5B5
  8
0
  6
CENTER
 62
     1
 10
-425.7356827035001
 20
-212.2140419493002
 30
0.0
 11
-437.2447786601002
 21
-212.2140419493002
 31
0.0
  0
ARC
  5
5B6
  8
0
  6
PHANTOM
 62
   253
 10
-260.3505282485002
 20
-162.6348029502001
 30
0.0
 40
3.000000000000114
 50
0.0
 51
90.0
  0
LINE
  5
5B7
  8
0
  6
CONTINUOUS
 62
     7
 10
-317.1005282485001
 20
-216.6139169799999
 30
0.0
 11
-317.1005282485001
 21
-212.2141169313998
 31
0.0
  0
LINE
  5
5B8
  8
0
  6
CONTINUOUS
 62
     7
 10
-308.6005282477002
 20
-212.2139469719
 30
0.0
 11
-308.6005282477002
 21
-216.6139581466001
 31
0.0
  0
LINE
  5
5B9
  8
0
  6
CONTINUOUS
 62
     7
 10
-467.8505282485002
 20
-203.8640419502005
 30
0.0
 11
-469.1005282485001
 21
-203.8640419502005
 31
0.0
  0
LINE
  5
5BA
  8
0
  6
CENTER
 62
     1
 10
-431.3505282484002
 20
-488.1738505546001
 30
0.0
 11
-431.3505282484002
 21
-474.4917085083001
 31
0.0
  0
ARC
  5
5BB
  8
0
  6
CONTINUOUS
 62
     7
 10
-296.279099677
 20
-215.7386211901005
 30
0.0
 40
0.7999999999999119
 50
180.0
 51
270.0
  0
LINE
  5
5BC
  8
0
  6
CONTINUOUS
 62
     7
 10
-427.6005282484002
 20
-216.6139169799999
 30
0.0
 11
-427.6005282484002
 21
-212.2141169313998
 31
0.0
  0
LINE
  5
5BD
  8
0
  6
CONTINUOUS
 62
     7
 10
-426.6005282467001
 20
-481.5142119105001
 30
0.0
 11
-426.6005282467001
 21
-477.1140419502001
 31
0.0
  0
ARC
  5
5BE
  8
0
  6
CONTINUOUS
 62
     7
 10
-448.3790996770001
 20
-215.8140419502
 30
0.0
 40
0.7999999999999119
 50
90.0
 51
180.0
  0
LINE
  5
5BF
  8
0
  6
CONTINUOUS
 62
     7
 10
-309.6005282471
 20
-216.6139669680001
 30
0.0
 11
-309.6005282485
 21
-212.2139669672002
 31
0.0
  0
LINE
  5
5C0
  8
0
  6
CENTER
 62
     1
 10
-372.3505282485001
 20
-146.5402090046
 30
0.0
 11
-372.3505282485001
 21
-211.4238234009
 31
0.0
  0
ARC
  5
5C1
  8
0
  6
CONTINUOUS
 62
     7
 10
-429.2822680594001
 20
-172.8640419502006
 30
0.0
 40
3.000000000000003
 50
24.4439547804
 51
90.0
  0
LINE
  5
5C2
  8
0
  6
CONTINUOUS
 62
     7
 10
-295.4790996770002
 20
-224.2140419501999
 30
0.0
 11
-295.4790996770002
 21
-215.8140419502
 31
0.0
  0
ARC
  5
5C3
  8
0
  6
CONTINUOUS
 62
     7
 10
-439.9790996770001
 20
-215.8140419502
 30
0.0
 40
0.7999999999999674
 50
312.2797486563001
 51
0.0
  0
ARC
  5
5C4
  8
0
  6
CONTINUOUS
 62
     7
 10
-315.4187884375
 20
-172.8640419502006
 30
0.0
 40
2.999999999999892
 50
90.0
 51
155.5560452196
  0
ARC
  5
5C5
  8
0
  6
CONTINUOUS
 62
     7
 10
-296.1003882818001
 20
-215.6140419618005
 30
0.0
 40
1.000000000000056
 50
0.0
 51
90.0
  0
ARC
  5
5C6
  8
0
  6
CONTINUOUS
 62
     7
 10
-440.6005282485
 20
-215.6140419618005
 30
0.0
 40
0.9999999999999454
 50
0.0000000003
 51
90.0000000003
  0
LINE
  5
5C7
  8
0
  6
CENTER
 62
     1
 10
-313.3505282485001
 20
-205.5542333456999
 30
0.0
 11
-313.3505282485001
 21
-219.2363753920001
 31
0.0
  0
LINE
  5
5C8
  8
0
  6
CENTER
 62
     1
 10
-407.3505282485002
 20
-476.8640419502002
 30
0.0
 11
-407.3505282485002
 21
-506.8640419502001
 31
0.0
  0
LINE
  5
5C9
  8
0
  6
CONTINUOUS
 62
     7
 10
-426.6005282467001
 20
-212.2138719898
 30
0.0
 11
-426.6005282467001
 21
-216.6140419500999
 31
0.0
  0
ARC
  5
5CA
  8
0
  6
CONTINUOUS
 62
     7
 10
-439.9790996770001
 20
-215.8140419502
 30
0.0
 40
0.7999999999999674
 50
0.0
 51
47.72025134370001
  0
ARC
  5
5CB
  8
0
  6
CONTINUOUS
 62
     7
 10
-431.3505282484002
 20
-212.2140419493002
 30
0.0
 40
4.750000001700005
 50
0.0
 51
179.9988543576
  0
LINE
  5
5CC
  8
0
  6
CONTINUOUS
 62
     7
 10
-281.6005282485001
 20
-172.8640419502006
 30
0.0
 11
-281.6005282485001
 21
-176.8863990817006
 31
0.0
  0
LINE
  5
5CD
  8
0
  6
CONTINUOUS
 62
     7
 10
-296.279099677
 20
-215.0140419502001
 30
0.0
 11
-304.679099677
 21
-215.0140419502001
 31
0.0
  0
LINE
  5
5CE
  8
0
  6
CONTINUOUS
 62
     7
 10
-426.6005282467001
 20
-477.1140419502001
 30
0.0
 11
-436.1005282492002
 21
-477.1141257537
 31
0.0
  0
LINE
  5
5CF
  8
0
  6
CONTINUOUS
 62
     7
 10
-304.6790996770001
 20
-216.6140419502003
 30
0.0
 11
-297.079099677
 21
-216.6140419502003
 31
0.0
  0
ARC
  5
5D0
  8
0
  6
CONTINUOUS
 62
     7
 10
-260.3505282485002
 20
-147.8640419502
 30
0.0
 40
3.000000000000114
 50
0.0
 51
90.0
  0
LINE
  5
5D1
  8
0
  6
CONTINUOUS
 62
     7
 10
-436.1005282492001
 20
-212.2139469719
 30
0.0
 11
-436.1005282492001
 21
-216.6139581466001
 31
0.0
  0
LINE
  5
5D2
  8
0
  6
CENTER
 62
     1
 10
-425.7356827035001
 20
-481.5140419511002
 30
0.0
 11
-437.2447786601002
 21
-481.5140419511002
 31
0.0
  0
CIRCLE
  5
5D3
  8
0
  6
CONTINUOUS
 62
     7
 10
-313.3505282485001
 20
-212.2140419493002
 30
0.0
 40
1.900000000000013
  0
LINE
  5
5D4
  8
0
  6
CONTINUOUS
 62
     7
 10
-447.3290996770002
 20
-436.8640419502001
 30
0.0
 11
-420.1225510879003
 21
-436.8640419502001
 31
0.0
  0
LINE
  5
5D5
  8
0
  6
CONTINUOUS
 62
     7
 10
-297.3290996770001
 20
-421.4855588526001
 30
0.0
 11
-297.3290996770001
 21
-425.9520448105001
 31
0.0
  0
LINE
  5
5D6
  8
0
  6
CONTINUOUS
 62
     6
 10
-346.8505282485002
 20
-414.9571926186002
 30
0.0
 11
-346.8505282485002
 21
-330.9571926186007
 31
0.0
  0
LINE
  5
5D7
  8
0
  6
CONTINUOUS
 62
     7
 10
-411.9554754681001
 20
-446.8640419502002
 30
0.0
 11
-447.329099677
 21
-446.8640419502002
 31
0.0
  0
ARC
  5
5D8
  8
0
  6
CONTINUOUS
 62
     7
 10
-439.9790996770001
 20
-215.8140419502
 30
0.0
 40
0.7999999999999674
 50
0.0
 51
47.72025134370001
  0
LINE
  5
5D9
  8
0
  6
CONTINUOUS
 62
     6
 10
-302.8505282485
 20
-327.9571926185001
 30
0.0
 11
-343.8505282485002
 21
-327.9571926185001
 31
0.0
  0
ARC
  5
5DA
  8
0
  6
CONTINUOUS
 62
     6
 10
-302.8505282485
 20
-330.9571926184003
 30
0.0
 40
2.000000000000002
 50
0.0
 51
90.0
  0
LINE
  5
5DB
  8
0
  6
CONTINUOUS
 62
     7
 10
-417.3290996770002
 20
-440.8937332962
 30
0.0
 11
-417.3290996770002
 21
-476.8640419502
 31
0.0
  0
LINE
  5
5DC
  8
0
  6
CONTINUOUS
 62
     7
 10
-447.3290996770002
 20
-476.8640419502002
 30
0.0
 11
-447.3290996770002
 21
-216.8640419502002
 31
0.0
  0
LINE
  5
5DD
  8
0
  6
CONTINUOUS
 62
     7
 10
-333.8862425342001
 20
-304.9957640472001
 30
0.0
 11
-333.8862425342001
 21
-309.4314783329002
 31
0.0
  0
LINE
  5
5DE
  8
0
  6
CONTINUOUS
 62
     7
 10
-340.6603484100002
 20
-253.2457640472006
 30
0.0
 11
-353.6005282485001
 21
-253.2457640472006
 31
0.0
  0
LINE
  5
5DF
  8
0
  6
CONTINUOUS
 62
     7
 10
-322.0576711056001
 20
-309.4314783329002
 30
0.0
 11
-322.0576711056001
 21
-240.4314783329002
 31
0.0
  0
LINE
  5
5E0
  8
0
  6
CENTER
 62
     1
 10
-323.3746088823001
 20
-303.5171926186001
 30
0.0
 11
-333.2314891767001
 21
-303.5171926186001
 31
0.0
  0
CIRCLE
  5
5E1
  8
0
  6
CONTINUOUS
 62
     7
 10
-328.4648139627001
 20
-246.3457640472
 30
0.0
 40
3.449999999999953
  0
LINE
  5
5E2
  8
0
  6
CONTINUOUS
 62
     7
 10
-322.0576711056001
 20
-257.1886211901
 30
0.0
 11
-353.6005282485
 21
-257.1886211901
 31
0.0
  0
LINE
  5
5E3
  8
0
  6
CONTINUOUS
 62
     7
 10
-318.1005282502001
 20
-212.2138719898
 30
0.0
 11
-318.1005282502001
 21
-216.6140419500999
 31
0.0
  0
LINE
  5
5E4
  8
0
  6
CONTINUOUS
 62
     7
 10
-297.3290996770001
 20
-323.7075735629005
 30
0.0
 11
-297.3290996770001
 21
-419.4855588526004
 31
0.0
  0
LINE
  5
5E5
  8
0
  6
CONTINUOUS
 62
     7
 10
-407.3290996770002
 20
-476.8640419502002
 30
0.0
 11
-407.3290996770002
 21
-460.4947147839001
 31
0.0
  0
ARC
  5
5E6
  8
0
  6
CONTINUOUS
 62
     6
 10
-302.8505282485
 20
-330.9571926184998
 30
0.0
 40
3.000000000000058
 50
0.0
 51
90.0
  0
CIRCLE
  5
5E7
  8
0
  6
CONTINUOUS
 62
     7
 10
-337.8290996770001
 20
-250.7814783329002
 30
0.0
 40
2.464285714300019
  0
ARC
  5
5E8
  8
0
  6
CONTINUOUS
 62
     7
 10
-326.9862425342002
 20
-304.9957640472001
 30
0.0
 40
0.9857142857000456
 50
90.0
 51
180.0
  0
LINE
  5
5E9
  8
0
  6
CONTINUOUS
 62
     7
 10
-328.9576711056001
 20
-248.8100497615001
 30
0.0
 11
-327.9719568199002
 21
-248.8100497615001
 31
0.0
  0
LINE
  5
5EA
  8
0
  6
CONTINUOUS
 62
     7
 10
-348.6719568199001
 20
-303.0243354758001
 30
0.0
 11
-350.6079998405002
 21
-303.0243354758001
 31
0.0
  0
LINE
  5
5EB
  8
0
  6
CONTINUOUS
 62
     7
 10
-345.7148139627001
 20
-304.0100497615004
 30
0.0
 11
-343.7787709421002
 21
-304.0100497615004
 31
0.0
  0
LINE
  5
5EC
  8
0
  6
CONTINUOUS
 62
     7
 10
-447.3290996770002
 20
-456.8640419502002
 30
0.0
 11
-410.3220603441003
 21
-456.8640419502002
 31
0.0
  0
LINE
  5
5ED
  8
0
  6
CONTINUOUS
 62
     7
 10
-346.7005282485001
 20
-301.0529069044002
 30
0.0
 11
-347.6862425342002
 21
-301.0529069044002
 31
0.0
  0
ARC
  5
5EE
  8
0
  6
CONTINUOUS
 62
     7
 10
-348.6719568199001
 20
-302.0386211901001
 30
0.0
 40
0.9857142857000456
 50
270.0
 51
0.0
  0
LINE
  5
5EF
  8
0
  6
CONTINUOUS
 62
     7
 10
-297.3290996770001
 20
-216.8640419502002
 30
0.0
 11
-297.3290996770001
 21
-321.7075735629002
 31
0.0
  0
LINE
  5
5F0
  8
0
  6
CONTINUOUS
 62
     7
 10
-276.8505282485001
 20
-203.8640419502005
 30
0.0
 11
-275.6005282485001
 21
-203.8640419502005
 31
0.0
  0
LINE
  5
5F1
  8
0
  6
CONTINUOUS
 62
     7
 10
-447.3290996770002
 20
-216.8640419502002
 30
0.0
 11
-297.3290996770002
 21
-216.8640419502002
 31
0.0
  0
LINE
  5
5F2
  8
0
  6
CONTINUOUS
 62
     7
 10
-437.3290996770002
 20
-427.8264123044
 30
0.0
 11
-437.3290996770002
 21
-476.8640419502001
 31
0.0
  0
ARC
  5
5F3
  8
0
  6
CONTINUOUS
 62
     7
 10
-345.7148139627001
 20
-304.9957640472001
 30
0.0
 40
0.9857142857000456
 50
90.0
 51
180.0
  0
LINE
  5
5F4
  8
0
  6
CONTINUOUS
 62
     7
 10
-341.7719568199001
 20
-244.8671926185999
 30
0.0
 11
-341.7719568199001
 21
-240.4314783328999
 31
0.0
  0
ARC
  5
5F5
  8
0
  6
CONTINUOUS
 62
     7
 10
-431.3505282484002
 20
-212.2140419493002
 30
0.0
 40
3.749999999999976
 50
359.9988543576001
 51
179.9988543576001
  0
ARC
  5
5F6
  8
0
  6
CONTINUOUS
 62
     7
 10
-284.6005282485
 20
-172.8640419502006
 30
0.0
 40
2.999999999999892
 50
0.0
 51
90.0
  0
LINE
  5
5F7
  8
0
  6
CONTINUOUS
 62
     7
 10
-297.3290996770001
 20
-476.8640419502002
 30
0.0
 11
-447.3290996770001
 21
-476.8640419502002
 31
0.0
  0
LINE
  5
5F8
  8
0
  6
CONTINUOUS
 62
     7
 10
-402.1549847242001
 20
-466.8640419502002
 30
0.0
 11
-447.3290996770001
 21
-466.8640419502002
 31
0.0
  0
ARC
  5
5F9
  8
0
  6
CONTINUOUS
 62
     7
 10
-448.3790996770001
 20
-224.2140419501999
 30
0.0
 40
0.7999999999999119
 50
270.0
 51
0.0
  0
ARC
  5
5FA
  8
0
  6
CONTINUOUS
 62
     7
 10
-296.279099677
 20
-215.8140419502
 30
0.0
 40
0.7999999999999119
 50
0.0
 51
90.0
  0
LINE
  5
5FB
  8
0
  6
CONTINUOUS
 62
     6
 10
-299.8505282485
 20
-414.9571926186002
 30
0.0
 11
-299.8505282485
 21
-330.9571926185006
 31
0.0
  0
LINE
  5
5FC
  8
0
  6
CONTINUOUS
 62
     6
 10
-345.8505282485001
 20
-414.9571926186002
 30
0.0
 11
-345.8505282485001
 21
-330.9571926185006
 31
0.0
  0
ARC
  5
5FD
  8
0
  6
CONTINUOUS
 62
     7
 10
-296.1505282485001
 20
-215.8140419502
 30
0.0
 40
0.8000000000000229
 50
90.0
 51
180.0
  0
LINE
  5
5FE
  8
0
  6
CONTINUOUS
 62
     7
 10
-257.3505282485
 20
-147.8640419502
 30
0.0
 11
-257.3505282485
 21
-169.8640419502001
 31
0.0
  0
LINE
  5
5FF
  8
0
  6
CONTINUOUS
 62
     7
 10
-487.3505282485
 20
-147.8640419502
 30
0.0
 11
-487.3505282485
 21
-169.8640419502001
 31
0.0
  0
ARC
  5
600
  8
0
  6
CONTINUOUS
 62
     6
 10
-343.8505282485001
 20
-330.9571926184998
 30
0.0
 40
1.999999999999946
 50
90.0000000002
 51
180.0
  0
LINE
  5
601
  8
0
  6
CONTINUOUS
 62
     7
 10
-439.9790996770001
 20
-216.6140419502003
 30
0.0
 11
-447.579099677
 21
-216.6140419502003
 31
0.0
  0
LINE
  5
602
  8
0
  6
CONTINUOUS
 62
     7
 10
-297.3290996770001
 20
-434.9520448105
 30
0.0
 11
-297.3290996770001
 21
-476.8640419502
 31
0.0
  0
LINE
  5
603
  8
0
  6
CONTINUOUS
 62
     7
 10
-448.3790996770001
 20
-215.0140419502001
 30
0.0
 11
-439.9790996770001
 21
-215.0140419502001
 31
0.0
  0
LINE
  5
604
  8
0
  6
CONTINUOUS
 62
     6
 10
-302.8505282485
 20
-328.9571926184001
 30
0.0
 11
-343.8505282485002
 21
-328.9571926184001
 31
0.0
  0
ARC
  5
605
  8
0
  6
CONTINUOUS
 62
     6
 10
-343.8505282485001
 20
-330.9571926185999
 30
0.0
 40
3.000000000000003
 50
90.0
 51
180.0
  0
ARC
  5
606
  8
0
  6
CONTINUOUS
 62
     7
 10
-448.3790996770001
 20
-224.2140419501999
 30
0.0
 40
0.7999999999999119
 50
180.0
 51
270.0
  0
ARC
  5
607
  8
0
  6
CONTINUOUS
 62
     6
 10
-343.8505282485001
 20
-414.9571926186002
 30
0.0
 40
3.000000000000003
 50
180.0
 51
270.0
  0
LINE
  5
608
  8
0
  6
CONTINUOUS
 62
     7
 10
-447.5790996770002
 20
-224.2140419501999
 30
0.0
 11
-447.5790996770002
 21
-216.6140419502
 31
0.0
  0
LINE
  5
609
  8
0
  6
CONTINUOUS
 62
     7
 10
-346.7005282485001
 20
-304.9957640472001
 30
0.0
 11
-346.7005282485001
 21
-305.9814783329002
 31
0.0
  0
LINE
  5
60A
  8
0
  6
CONTINUOUS
 62
     6
 10
-314.8505282485
 20
-416.9571926186
 30
0.0
 11
-343.8505282485
 21
-416.9571926186
 31
0.0
  0
LINE
  5
60B
  8
0
  6
CONTINUOUS
 62
     7
 10
-427.3290996770002
 20
-476.8640419502002
 30
0.0
 11
-427.3290996770002
 21
-434.3600728003002
 31
0.0
  0
LINE
  5
60C
  8
0
  6
CONTINUOUS
 62
     7
 10
-348.6719568199001
 20
-304.0100497615004
 30
0.0
 11
-350.6079998405002
 21
-304.0100497615004
 31
0.0
  0
ARC
  5
60D
  8
0
  6
CONTINUOUS
 62
     7
 10
-345.7148139627001
 20
-302.0386211901001
 30
0.0
 40
0.9857142857000456
 50
180.0
 51
270.0
  0
CIRCLE
  5
60E
  8
0
  6
CONTINUOUS
 62
     7
 10
-328.4648139627001
 20
-303.5171926186001
 30
0.0
 40
3.449999999999953
  0
LINE
  5
60F
  8
0
  6
CONTINUOUS
 62
     7
 10
-326.9862425342002
 20
-304.0100497615004
 30
0.0
 11
-325.0501995135001
 21
-304.0100497615004
 31
0.0
  0
LINE
  5
610
  8
0
  6
CONTINUOUS
 62
     7
 10
-484.3505282485
 20
-144.8640419502001
 30
0.0
 11
-260.3505282485002
 21
-144.8640419502001
 31
0.0
  0
ARC
  5
611
  8
0
  6
CONTINUOUS
 62
     6
 10
-343.8505282485001
 20
-414.9571926186002
 30
0.0
 40
1.999999999999946
 50
180.0
 51
270.0
  0
LINE
  5
612
  8
0
  6
CONTINUOUS
 62
     7
 10
-449.1790996770002
 20
-224.2140419501999
 30
0.0
 11
-449.1790996770002
 21
-215.8140419502
 31
0.0
  0
LINE
  5
613
  8
0
  6
CONTINUOUS
 62
     7
 10
-372.3290996770001
 20
-516.4640419502
 30
0.0
 11
-372.3290996770001
 21
-512.4640419502
 31
0.0
  0
LINE
  5
614
  8
0
  6
CONTINUOUS
 62
     6
 10
-312.1806552674001
 20
-408.4571926186001
 30
0.0
 11
-310.4486044598001
 21
-405.4571926186001
 31
0.0
  0
LINE
  5
615
  8
0
  6
CONTINUOUS
 62
     6
 10
-304.3505282485
 20
-399.9571926185999
 30
0.0
 11
-299.8505282485
 21
-400.9571926186003
 31
0.0
  0
LINE
  5
616
  8
0
  6
CONTINUOUS
 62
     6
 10
-327.6005282485001
 20
-367.7071926186002
 30
0.0
 11
-319.1005282485001
 21
-367.7071926155003
 31
0.0
  0
ARC
  5
617
  8
0
  6
CONTINUOUS
 62
     6
 10
-309.3505282485
 20
-407.4571926186002
 30
0.0
 40
0.9999999999999454
 50
270.0
 51
0.0
  0
ARC
  5
618
  8
0
  6
CONTINUOUS
 62
     6
 10
-306.3505282485002
 20
-410.4571926186001
 30
0.0
 40
1.000000000000056
 50
90.0
 51
180.0
  0
LINE
  5
619
  8
0
  6
CONTINUOUS
 62
     7
 10
-347.6862425342002
 20
-304.9957640472001
 30
0.0
 11
-347.6862425342002
 21
-305.9814783329002
 31
0.0
  0
LINE
  5
61A
  8
0
  6
CONTINUOUS
 62
     7
 10
-322.0576711056001
 20
-253.2457640472006
 30
0.0
 11
-334.9978509441001
 21
-253.2457640472006
 31
0.0
  0
ARC
  5
61B
  8
0
  6
CONTINUOUS
 62
     6
 10
-306.1184774409001
 20
-405.9571926186001
 30
0.0
 40
0.9999999999999454
 50
30.0
 51
90.0
  0
ARC
  5
61C
  8
0
  6
CONTINUOUS
 62
     6
 10
-311.3146298636001
 20
-408.9571926186
 30
0.0
 40
1.000000000000001
 50
150.0
 51
210.0
  0
ARC
  5
61D
  8
0
  6
CONTINUOUS
 62
     6
 10
-323.3505282485
 20
-403.7071926186001
 30
0.0
 40
4.249999999999976
 50
0.0
 51
180.0
  0
LINE
  5
61E
  8
0
  6
CONTINUOUS
 62
     7
 10
-329.9433853913001
 20
-304.0100497615004
 30
0.0
 11
-331.8794284120001
 21
-304.0100497615004
 31
0.0
  0
ARC
  5
61F
  8
0
  6
CONTINUOUS
 62
     6
 10
-309.3505282485
 20
-410.4571926186001
 30
0.0
 40
0.9999999999999454
 50
0.0
 51
90.0
  0
ARC
  5
620
  8
0
  6
CONTINUOUS
 62
     6
 10
-309.5825790560001
 20
-405.9571926186001
 30
0.0
 40
1.000000000000056
 50
90.0
 51
150.0
  0
LINE
  5
621
  8
0
  6
CONTINUOUS
 62
     7
 10
-338.8148139627001
 20
-247.8243354757999
 30
0.0
 11
-336.8433853913002
 21
-247.8243354757999
 31
0.0
  0
ARC
  5
622
  8
0
  6
CONTINUOUS
 62
     7
 10
-337.8290996770001
 20
-251.2743354758003
 30
0.0
 40
3.449999999999898
 50
214.8499045791001
 51
325.150095421
  0
LINE
  5
623
  8
0
  6
CONTINUOUS
 62
     6
 10
-307.3505282485001
 20
-407.4571926186002
 30
0.0
 11
-307.3505282485001
 21
-406.9571926186001
 31
0.0
  0
LINE
  5
624
  8
0
  6
CONTINUOUS
 62
     6
 10
-309.5825790560001
 20
-404.9571926186
 30
0.0
 11
-306.1184774409001
 21
-404.9571926186
 31
0.0
  0
LINE
  5
625
  8
0
  6
CONTINUOUS
 62
     7
 10
-346.7005282485001
 20
-302.0386211901001
 30
0.0
 11
-346.7005282485001
 21
-301.0529069044001
 31
0.0
  0
LINE
  5
626
  8
0
  6
CONTINUOUS
 62
     7
 10
-327.9719568199002
 20
-305.9814783329001
 30
0.0
 11
-328.9576711056001
 21
-305.9814783329001
 31
0.0
  0
ARC
  5
627
  8
0
  6
CONTINUOUS
 62
     7
 10
-337.8290996770001
 20
-298.5886211901001
 30
0.0
 40
3.449999999999898
 50
34.849904579
 51
145.1500954209
  0
LINE
  5
628
  8
0
  6
CONTINUOUS
 62
     6
 10
-303.3505282485001
 20
-400.1794148408001
 30
0.0
 11
-303.3505282485001
 21
-404.7349703963001
 31
0.0
  0
LINE
  5
629
  8
0
  6
CONTINUOUS
 62
     6
 10
-307.3505282485001
 20
-406.9571926186
 30
0.0
 11
-308.3505282485002
 21
-406.9571926186
 31
0.0
  0
LINE
  5
62A
  8
0
  6
CONTINUOUS
 62
     6
 10
-311.8505282485001
 20
-413.4571926186002
 30
0.0
 11
-311.8505282485001
 21
-417.9571926186002
 31
0.0
  0
ARC
  5
62B
  8
0
  6
CONTINUOUS
 62
     7
 10
-338.8148139627001
 20
-304.9957640472001
 30
0.0
 40
2.957142857100026
 50
90.0
 51
180.0
  0
LINE
  5
62C
  8
0
  6
CONTINUOUS
 62
     7
 10
-372.8219568199002
 20
-242.8957640471999
 30
0.0
 11
-372.8219568199002
 21
-241.9100497614999
 31
0.0
  0
LINE
  5
62D
  8
0
  6
CONTINUOUS
 62
     7
 10
-327.9719568199002
 20
-302.0386211901001
 30
0.0
 11
-327.9719568199002
 21
-301.0529069044001
 31
0.0
  0
LINE
  5
62E
  8
0
  6
CENTER
 62
     1
 10
-352.2835904718001
 20
-303.5171926186001
 30
0.0
 11
-342.4267101774001
 21
-303.5171926186001
 31
0.0
  0
LINE
  5
62F
  8
0
  6
CONTINUOUS
 62
     7
 10
-328.9576711056001
 20
-302.0386211901001
 30
0.0
 11
-328.9576711056001
 21
-301.0529069044001
 31
0.0
  0
LINE
  5
630
  8
0
  6
CONTINUOUS
 62
     7
 10
-322.0576711056001
 20
-240.4314783329001
 30
0.0
 11
-353.6005282485
 21
-240.4314783329001
 31
0.0
  0
ARC
  5
631
  8
0
  6
CONTINUOUS
 62
     7
 10
-338.8148139627001
 20
-244.8671926185999
 30
0.0
 40
2.957142857100026
 50
180.0
 51
270.0
  0
LINE
  5
632
  8
0
  6
CONTINUOUS
 62
     7
 10
-353.6005282485
 20
-296.6171926186001
 30
0.0
 11
-340.66034841
 21
-296.6171926186001
 31
0.0
  0
ARC
  5
633
  8
0
  6
CONTINUOUS
 62
     7
 10
-336.8433853913002
 20
-244.8671926185999
 30
0.0
 40
2.957142857100081
 50
270.0
 51
0.0
  0
LINE
  5
634
  8
0
  6
CONTINUOUS
 62
     7
 10
-334.9978509441
 20
-296.6171926186001
 30
0.0
 11
-322.0576711056
 21
-296.6171926186001
 31
0.0
  0
LINE
  5
635
  8
0
  6
CONTINUOUS
 62
     7
 10
-353.6005282485
 20
-292.6743354758002
 30
0.0
 11
-322.0576711056001
 21
-292.6743354758002
 31
0.0
  0
ARC
  5
636
  8
0
  6
CONTINUOUS
 62
     7
 10
-373.8076711056002
 20
-242.8957640471999
 30
0.0
 40
0.9857142857000456
 50
270.0
 51
0.0
  0
LINE
  5
637
  8
0
  6
CONTINUOUS
 62
     7
 10
-328.9576711056001
 20
-304.9957640472001
 30
0.0
 11
-328.9576711056001
 21
-305.9814783329002
 31
0.0
  0
LINE
  5
638
  8
0
  6
CONTINUOUS
 62
     7
 10
-345.7148139627001
 20
-303.0243354758001
 30
0.0
 11
-343.7787709421002
 21
-303.0243354758001
 31
0.0
  0
LINE
  5
639
  8
0
  6
CONTINUOUS
 62
     7
 10
-329.9433853913001
 20
-303.0243354758001
 30
0.0
 11
-331.8794284120001
 21
-303.0243354758001
 31
0.0
  0
LINE
  5
63A
  8
0
  6
CONTINUOUS
 62
     7
 10
-327.9719568199002
 20
-304.9957640472001
 30
0.0
 11
-327.9719568199002
 21
-305.9814783329002
 31
0.0
  0
LINE
  5
63B
  8
0
  6
CONTINUOUS
 62
     7
 10
-333.8862425342001
 20
-244.8671926185999
 30
0.0
 11
-333.8862425342001
 21
-240.4314783328999
 31
0.0
  0
LINE
  5
63C
  8
0
  6
CONTINUOUS
 62
     7
 10
-326.9862425342002
 20
-303.0243354758001
 30
0.0
 11
-325.0501995135001
 21
-303.0243354758001
 31
0.0
  0
LINE
  5
63D
  8
0
  6
CENTER
 62
     1
 10
-328.4648139627001
 20
-308.3891463103
 30
0.0
 11
-328.4648139627001
 21
-298.5322660158999
 31
0.0
  0
CIRCLE
  5
63E
  8
0
  6
CONTINUOUS
 62
     7
 10
-347.1933853913001
 20
-303.5171926186001
 30
0.0
 40
3.449999999999898
  0
ARC
  5
63F
  8
0
  6
CONTINUOUS
 62
     7
 10
-329.9433853913001
 20
-304.9957640472001
 30
0.0
 40
0.9857142857000456
 50
0.0
 51
90.0
  0
ARC
  5
640
  8
0
  6
CONTINUOUS
 62
     7
 10
-329.9433853913001
 20
-302.0386211901001
 30
0.0
 40
0.9857142857000456
 50
270.0000000001
 51
0.0
  0
ARC
  5
641
  8
0
  6
CONTINUOUS
 62
     7
 10
-348.6719568199001
 20
-304.9957640472001
 30
0.0
 40
0.9857142857000456
 50
0.0
 51
90.0
  0
LINE
  5
642
  8
0
  6
CONTINUOUS
 62
     7
 10
-327.9719568199002
 20
-243.8814783329002
 30
0.0
 11
-328.9576711056001
 21
-243.8814783329002
 31
0.0
  0
LINE
  5
643
  8
0
  6
CONTINUOUS
 62
     7
 10
-372.8219568199002
 20
-241.9100497615001
 30
0.0
 11
-371.8362425342002
 21
-241.9100497615001
 31
0.0
  0
LINE
  5
644
  8
0
  6
CONTINUOUS
 62
     7
 10
-347.6862425342002
 20
-305.9814783329001
 30
0.0
 11
-346.7005282485001
 21
-305.9814783329001
 31
0.0
  0
ARC
  5
645
  8
0
  6
CONTINUOUS
 62
     6
 10
-323.3505282485
 20
-363.4571926185999
 30
0.0
 40
2.750000000000086
 50
0.0
 51
180.0
  0
ARC
  5
646
  8
0
  6
CONTINUOUS
 62
     7
 10
-326.9862425342002
 20
-302.0386211901001
 30
0.0
 40
0.9857142857000456
 50
180.0
 51
270.0
  0
LINE
  5
647
  8
0
  6
CONTINUOUS
 62
     6
 10
-311.8505282485001
 20
-410.0289893883005
 30
0.0
 11
-311.8505282485001
 21
-413.4571926186005
 31
0.0
  0
LINE
  5
648
  8
0
  6
CONTINUOUS
 62
     6
 10
-304.3505282485
 20
-404.9571926185001
 30
0.0
 11
-299.8505282485
 21
-403.9571926185002
 31
0.0
  0
LINE
  5
649
  8
0
  6
CONTINUOUS
 62
     7
 10
-338.8148139627001
 20
-302.0386211901001
 30
0.0
 11
-336.8433853913002
 21
-302.0386211901001
 31
0.0
  0
LINE
  5
64A
  8
0
  6
CENTER
 62
     1
 10
-347.1933853913001
 20
-308.3891463103
 30
0.0
 11
-347.1933853913001
 21
-298.5322660158999
 31
0.0
  0
LINE
  5
64B
  8
0
  6
CONTINUOUS
 62
     6
 10
-301.8505282485001
 20
-408.4571926186001
 30
0.0
 11
-299.8505282485001
 21
-408.4571926186001
 31
0.0
  0
LINE
  5
64C
  8
0
  6
CONTINUOUS
 62
     7
 10
-373.8076711056002
 20
-243.8814783329002
 30
0.0
 11
-375.7437141262001
 21
-243.8814783329002
 31
0.0
  0
ARC
  5
64D
  8
0
  6
CONTINUOUS
 62
     7
 10
-336.8433853913002
 20
-304.9957640472001
 30
0.0
 40
2.957142857100081
 50
0.0
 51
90.0
  0
LINE
  5
64E
  8
0
  6
CONTINUOUS
 62
     7
 10
-328.9576711056001
 20
-301.0529069044002
 30
0.0
 11
-327.9719568199002
 21
-301.0529069044002
 31
0.0
  0
LINE
  5
64F
  8
0
  6
CONTINUOUS
 62
     7
 10
-341.7719568199001
 20
-304.9957640472001
 30
0.0
 11
-341.7719568199001
 21
-309.4314783329002
 31
0.0
  0
CIRCLE
  5
650
  8
0
  6
CONTINUOUS
 62
     7
 10
-337.8290996770001
 20
-299.0814783329001
 30
0.0
 40
2.464285714300019
  0
LINE
  5
651
  8
0
  6
CONTINUOUS
 62
     7
 10
-353.6005282485
 20
-240.4314783329001
 30
0.0
 11
-353.6005282485
 21
-309.4314783329001
 31
0.0
  0
LINE
  5
652
  8
0
  6
CONTINUOUS
 62
     6
 10
-307.3505282485001
 20
-410.4571926186001
 30
0.0
 11
-307.3505282485001
 21
-410.9571926186006
 31
0.0
  0
LINE
  5
653
  8
0
  6
CONTINUOUS
 62
     7
 10
-347.6862425342002
 20
-302.0386211901001
 30
0.0
 11
-347.6862425342002
 21
-301.0529069044001
 31
0.0
  0
LINE
  5
654
  8
0
  6
CONTINUOUS
 62
     6
 10
-379.6005282485
 20
-387.7071926184
 30
0.0
 11
-379.6005282485
 21
-396.7071926183999
 31
0.0
  0
LINE
  5
655
  8
0
  6
CONTINUOUS
 62
     6
 10
-381.1005282485001
 20
-398.2071926183999
 30
0.0
 11
-376.1005282485001
 21
-398.2071926183999
 31
0.0
  0
LINE
  5
656
  8
0
  6
CONTINUOUS
 62
     6
 10
-302.8505282485
 20
-413.4571926186002
 30
0.0
 11
-302.8505282486001
 21
-407.8571926186003
 31
0.0
  0
LINE
  5
657
  8
0
  6
CONTINUOUS
 62
     6
 10
-301.8505282485001
 20
-413.4571926186002
 30
0.0
 11
-301.8505282485001
 21
-408.4571926186002
 31
0.0
  0
ARC
  5
658
  8
0
  6
CONTINUOUS
 62
     6
 10
-357.3505282485001
 20
-340.9571926184005
 30
0.0
 40
2.000000000000002
 50
0.0
 51
90.0
  0
LINE
  5
659
  8
0
  6
CONTINUOUS
 62
     6
 10
-306.3505282485002
 20
-409.4571926186006
 30
0.0
 11
-303.5204012295002
 21
-409.4571926186006
 31
0.0
  0
LINE
  5
65A
  8
0
  6
CONTINUOUS
 62
     6
 10
-363.8505282485001
 20
-416.9571926186
 30
0.0
 11
-392.8505282485
 21
-416.9571926186
 31
0.0
  0
LINE
  5
65B
  8
0
  6
CONTINUOUS
 62
     6
 10
-379.6005282485
 20
-396.7071926183999
 30
0.0
 11
-377.6005282485
 21
-396.7071926183999
 31
0.0
  0
LINE
  5
65C
  8
0
  6
CONTINUOUS
 62
     6
 10
-377.6005282485001
 20
-356.4571926184
 30
0.0
 11
-377.6005282485001
 21
-347.4571926184
 31
0.0
  0
LINE
  5
65D
  8
0
  6
CONTINUOUS
 62
     6
 10
-320.6005282485001
 20
-363.4571926185999
 30
0.0
 11
-320.6005282485001
 21
-366.2071926186
 31
0.0
  0
LINE
  5
65E
  8
0
  6
CONTINUOUS
 62
     6
 10
-305.8505282485
 20
-413.4571926186002
 30
0.0
 11
-306.8505282485001
 21
-417.9571926186002
 31
0.0
  0
LINE
  5
65F
  8
0
  6
CONTINUOUS
 62
     6
 10
-309.3505282485
 20
-408.4571926186001
 30
0.0
 11
-312.1806552674
 21
-408.4571926186001
 31
0.0
  0
LINE
  5
660
  8
0
  6
CONTINUOUS
 62
     6
 10
-394.8505282485
 20
-414.9571926186002
 30
0.0
 11
-394.8505282485
 21
-330.9571926185006
 31
0.0
  0
ARC
  5
661
  8
0
  6
CONTINUOUS
 62
     6
 10
-392.8505282485001
 20
-414.9571926186002
 30
0.0
 40
2.000000000000002
 50
180.0
 51
270.0
  0
LINE
  5
662
  8
0
  6
CONTINUOUS
 62
     6
 10
-310.8505282485
 20
-413.4571926186002
 30
0.0
 11
-311.8505282485001
 21
-413.4571926186002
 31
0.0
  0
LINE
  5
663
  8
0
  6
CONTINUOUS
 62
     6
 10
-370.8505282484002
 20
-375.4571926184005
 30
0.0
 11
-369.3924883569001
 21
-375.4571926184005
 31
0.0
  0
LINE
  5
664
  8
0
  6
CONTINUOUS
 62
     6
 10
-304.3505282485
 20
-406.9571926186
 30
0.0
 11
-301.8505282485
 21
-408.4571926186
 31
0.0
  0
ARC
  5
665
  8
0
  6
CONTINUOUS
 62
     6
 10
-387.3505282485002
 20
-408.9571926186
 30
0.0
 40
2.000000000000002
 50
180.0
 51
270.0
  0
LINE
  5
666
  8
0
  6
CONTINUOUS
 62
     6
 10
-304.3505282485
 20
-404.9571926185001
 30
0.0
 11
-304.3505282485
 21
-406.9571926186001
 31
0.0
  0
LINE
  5
667
  8
0
  6
CONTINUOUS
 62
     6
 10
-320.6005282485001
 20
-403.7071926186001
 30
0.0
 11
-320.6005282485001
 21
-406.4571926186001
 31
0.0
  0
LINE
  5
668
  8
0
  6
CONTINUOUS
 62
     6
 10
-326.1005282485
 20
-366.2071926186002
 30
0.0
 11
-326.1005282485
 21
-363.4571926186001
 31
0.0
  0
LINE
  5
669
  8
0
  6
CONTINUOUS
 62
     6
 10
-304.3505282485
 20
-398.9571926186
 30
0.0
 11
-311.2879136604001
 21
-398.9571926186
 31
0.0
  0
LINE
  5
66A
  8
0
  6
CONTINUOUS
 62
     6
 10
-309.3505282485
 20
-409.4571926186006
 30
0.0
 11
-312.1806552674
 21
-409.4571926186006
 31
0.0
  0
ARC
  5
66B
  8
0
  6
CONTINUOUS
 62
     6
 10
-309.8505282485
 20
-401.6076786902001
 30
0.0
 40
2.999999999999892
 50
124.2182452403
 51
180.0
  0
LINE
  5
66C
  8
0
  6
CONTINUOUS
 62
     6
 10
-299.8505282485
 20
-397.9571926186001
 30
0.0
 11
-304.3505282485
 21
-397.9571926186001
 31
0.0
  0
LINE
  5
66D
  8
0
  6
CONTINUOUS
 62
     6
 10
-304.3505282485
 20
-397.9571926186001
 30
0.0
 11
-299.8505282485
 21
-397.9571926186001
 31
0.0
  0
ARC
  5
66E
  8
0
  6
CONTINUOUS
 62
     6
 10
-370.8505282485001
 20
-374.4571926202003
 30
0.0
 40
0.9999999999999454
 50
180.0
 51
270.0000000004
  0
LINE
  5
66F
  8
0
  6
CONTINUOUS
 62
     6
 10
-365.8505282477002
 20
-410.9571926186
 30
0.0
 11
-387.3505282485002
 21
-410.9571926186
 31
0.0
  0
LINE
  5
670
  8
0
  6
CONTINUOUS
 62
     6
 10
-377.6005282485001
 20
-396.7071926183999
 30
0.0
 11
-377.6005282485001
 21
-387.7071926184005
 31
0.0
  0
LINE
  5
671
  8
0
  6
CONTINUOUS
 62
     6
 10
-310.8505282485
 20
-413.4571926186002
 30
0.0
 11
-309.8505282485
 21
-417.9571926186002
 31
0.0
  0
LINE
  5
672
  8
0
  6
CONTINUOUS
 62
     6
 10
-373.8505282484001
 20
-376.4571926184004
 30
0.0
 11
-375.3085681400001
 21
-376.4571926184004
 31
0.0
  0
LINE
  5
673
  8
0
  6
CONTINUOUS
 62
     6
 10
-302.3505282485001
 20
-400.401637063
 30
0.0
 11
-302.3505282485001
 21
-404.5127481741
 31
0.0
  0
LINE
  5
674
  8
0
  6
CONTINUOUS
 62
     6
 10
-327.6005282485001
 20
-363.4571926185999
 30
0.0
 11
-327.6005282485001
 21
-367.7071926185998
 31
0.0
  0
LINE
  5
675
  8
0
  6
CONTINUOUS
 62
     6
 10
-327.6005282485001
 20
-403.7071926186001
 30
0.0
 11
-327.6005282485001
 21
-407.9571926186001
 31
0.0
  0
LINE
  5
676
  8
0
  6
CONTINUOUS
 62
     6
 10
-310.4486044598
 20
-412.4571926186003
 30
0.0
 11
-312.1806552674
 21
-409.4571926186002
 31
0.0
  0
LINE
  5
677
  8
0
  6
CONTINUOUS
 62
     6
 10
-319.1005282485
 20
-367.7071926155
 30
0.0
 11
-319.1005282485
 21
-363.4571926186
 31
0.0
  0
LINE
  5
678
  8
0
  6
CONTINUOUS
 62
     6
 10
-376.1005282485001
 20
-386.2071926183999
 30
0.0
 11
-381.1005282485001
 21
-386.2071926183999
 31
0.0
  0
LINE
  5
679
  8
0
  6
CONTINUOUS
 62
     6
 10
-308.3505282485001
 20
-410.4571926186001
 30
0.0
 11
-308.3505282485001
 21
-410.9571926186006
 31
0.0
  0
ARC
  5
67A
  8
0
  6
CONTINUOUS
 62
     6
 10
-323.3505282485
 20
-403.7071926186001
 30
0.0
 40
2.750000000000086
 50
0.0
 51
180.0
  0
LINE
  5
67B
  8
0
  6
CONTINUOUS
 62
     6
 10
-304.3505282485
 20
-399.9571926185999
 30
0.0
 11
-312.3557020403001
 21
-399.9571926185999
 31
0.0
  0
LINE
  5
67C
  8
0
  6
CONTINUOUS
 62
     6
 10
-306.3505282485002
 20
-408.4571926186001
 30
0.0
 11
-303.5204012295002
 21
-408.4571926186001
 31
0.0
  0
LINE
  5
67D
  8
0
  6
CONTINUOUS
 62
     6
 10
-320.6005282485001
 20
-366.2071926186002
 30
0.0
 11
-326.1005282485
 21
-366.2071926186002
 31
0.0
  0
LINE
  5
67E
  8
0
  6
CONTINUOUS
 62
     6
 10
-312.8505282485
 20
-401.6076786902001
 30
0.0
 11
-312.8505282485
 21
-414.9571926186002
 31
0.0
  0
LINE
  5
67F
  8
0
  6
CONTINUOUS
 62
     6
 10
-365.1005282485002
 20
-387.7071926184
 30
0.0
 11
-365.1005282485002
 21
-394.7071926184
 31
0.0
  0
LINE
  5
680
  8
0
  6
CONTINUOUS
 62
     6
 10
-308.3505282485001
 20
-410.9571926186
 30
0.0
 11
-307.3505282485
 21
-410.9571926186
 31
0.0
  0
LINE
  5
681
  8
0
  6
CONTINUOUS
 62
     6
 10
-312.8505282485
 20
-406.9571926186
 30
0.0
 11
-311.8505282485
 21
-406.9571926186
 31
0.0
  0
LINE
  5
682
  8
0
  6
CONTINUOUS
 62
     6
 10
-372.8505282485001
 20
-377.4571926179003
 30
0.0
 11
-372.8505282485001
 21
-377.9571926184004
 31
0.0
  0
LINE
  5
683
  8
0
  6
CONTINUOUS
 62
     6
 10
-299.8505282485
 20
-413.4571926186002
 30
0.0
 11
-305.8505282485
 21
-413.4571926186002
 31
0.0
  0
LINE
  5
684
  8
0
  6
CONTINUOUS
 62
     6
 10
-319.1005282485
 20
-407.9571926155002
 30
0.0
 11
-319.1005282485
 21
-403.7071926186002
 31
0.0
  0
LINE
  5
685
  8
0
  6
CONTINUOUS
 62
     6
 10
-368.6005282485
 20
-386.2071926183999
 30
0.0
 11
-368.6005282485
 21
-396.2071926184005
 31
0.0
  0
ARC
  5
686
  8
0
  6
CONTINUOUS
 62
     6
 10
-323.3505282485
 20
-363.4571926185999
 30
0.0
 40
4.249999999999976
 50
0.0
 51
180.0
  0
LINE
  5
687
  8
0
  6
CONTINUOUS
 62
     6
 10
-326.1005282485
 20
-406.4571926186001
 30
0.0
 11
-326.1005282485
 21
-403.7071926186001
 31
0.0
  0
LINE
  5
688
  8
0
  6
CONTINUOUS
 62
     6
 10
-300.3505282485001
 20
-400.8460815075002
 30
0.0
 11
-300.3505282485001
 21
-404.0683037296003
 31
0.0
  0
LINE
  5
689
  8
0
  6
CONTINUOUS
 62
     6
 10
-304.3505282485
 20
-397.9571926186001
 30
0.0
 11
-304.3505282485
 21
-398.9571926186
 31
0.0
  0
ARC
  5
68A
  8
0
  6
CONTINUOUS
 62
     6
 10
-306.3505282485002
 20
-407.4571926186002
 30
0.0
 40
1.000000000000056
 50
180.0
 51
269.9999999999
  0
LINE
  5
68B
  8
0
  6
CONTINUOUS
 62
     6
 10
-320.6005282485001
 20
-406.4571926186001
 30
0.0
 11
-326.1005282485
 21
-406.4571926186001
 31
0.0
  0
ARC
  5
68C
  8
0
  6
CONTINUOUS
 62
     6
 10
-351.8505282485002
 20
-414.9571926186002
 30
0.0
 40
3.000000000000058
 50
270.0
 51
0.0
  0
LINE
  5
68D
  8
0
  6
CONTINUOUS
 62
     6
 10
-311.5375684219002
 20
-399.1269740619006
 30
0.0
 11
-302.1634880750001
 21
-392.7519909406007
 31
0.0
  0
LINE
  5
68E
  8
0
  6
CONTINUOUS
 62
     6
 10
-308.3505282485001
 20
-407.4571926186002
 30
0.0
 11
-308.3505282485001
 21
-406.9571926186001
 31
0.0
  0
LINE
  5
68F
  8
0
  6
CONTINUOUS
 62
     6
 10
-301.3505282485002
 20
-404.2905259519001
 30
0.0
 11
-301.3505282485002
 21
-400.6238592852002
 31
0.0
  0
ARC
  5
690
  8
0
  6
CONTINUOUS
 62
     6
 10
-309.5825790560001
 20
-411.9571926185999
 30
0.0
 40
1.000000000000056
 50
210.0
 51
270.0
  0
LINE
  5
691
  8
0
  6
CONTINUOUS
 62
     6
 10
-312.3557020403001
 20
-399.9571926185999
 30
0.0
 11
-304.3505282485001
 21
-399.9571926185999
 31
0.0
  0
LINE
  5
692
  8
0
  6
CONTINUOUS
 62
     6
 10
-327.6005282485001
 20
-407.9571926186001
 30
0.0
 11
-319.1005282485001
 21
-407.9571926155001
 31
0.0
  0
LINE
  5
693
  8
0
  6
CONTINUOUS
 62
     6
 10
-311.8505282485001
 20
-406.9571926186
 30
0.0
 11
-311.8505282485001
 21
-407.8853958488
 31
0.0
  0
LINE
  5
694
  8
0
  6
CONTINUOUS
 62
     6
 10
-370.8505282485001
 20
-376.4571926184004
 30
0.0
 11
-369.392488357
 21
-376.4571926184004
 31
0.0
  0
LINE
  5
695
  8
0
  6
CONTINUOUS
 62
     6
 10
-371.8505282485002
 20
-373.9571926184
 30
0.0
 11
-372.8505282485002
 21
-373.9571926184
 31
0.0
  0
ARC
  5
696
  8
0
  6
CONTINUOUS
 62
     6
 10
-373.8505282485001
 20
-374.4571926176002
 30
0.0
 40
1.000000000000001
 50
269.9999999996
 51
0.0
  0
LINE
  5
697
  8
0
  6
CONTINUOUS
 62
     6
 10
-368.1005282485001
 20
-407.9571926155002
 30
0.0
 11
-368.1005282485001
 21
-403.7071926186002
 31
0.0
  0
LINE
  5
698
  8
0
  6
CONTINUOUS
 62
     6
 10
-381.1005282485001
 20
-357.9571926184003
 30
0.0
 11
-376.1005282485001
 21
-357.9571926184003
 31
0.0
  0
ARC
  5
699
  8
0
  6
CONTINUOUS
 62
     6
 10
-351.8505282485002
 20
-330.9571926184003
 30
0.0
 40
2.000000000000002
 50
0.0
 51
90.0
  0
LINE
  5
69A
  8
0
  6
CONTINUOUS
 62
     6
 10
-372.8505282485001
 20
-377.9571926184003
 30
0.0
 11
-371.8505282485
 21
-377.9571926184003
 31
0.0
  0
LINE
  5
69B
  8
0
  6
CONTINUOUS
 62
     6
 10
-363.3201351369001
 20
-398.6006324122003
 30
0.0
 11
-355.8809213592002
 21
-393.5414841531003
 31
0.0
  0
LINE
  5
69C
  8
0
  6
CONTINUOUS
 62
     6
 10
-365.1005282485002
 20
-354.4571926184002
 30
0.0
 11
-367.1005282485002
 21
-354.4571926184002
 31
0.0
  0
LINE
  5
69D
  8
0
  6
CONTINUOUS
 62
     6
 10
-369.6005282485
 20
-363.4571926185999
 30
0.0
 11
-369.6005282485
 21
-366.2071926186
 31
0.0
  0
LINE
  5
69E
  8
0
  6
CONTINUOUS
 62
     6
 10
-360.8505282485001
 20
-413.4571926186002
 30
0.0
 11
-360.8505282485001
 21
-417.9571926186002
 31
0.0
  0
LINE
  5
69F
  8
0
  6
CONTINUOUS
 62
     6
 10
-371.8505282485002
 20
-374.4571926202003
 30
0.0
 11
-371.8505282485002
 21
-373.9571926184001
 31
0.0
  0
LINE
  5
6A0
  8
0
  6
CONTINUOUS
 62
     6
 10
-368.6005282485
 20
-396.2071926184006
 30
0.0
 11
-363.6005282485
 21
-396.2071926184006
 31
0.0
  0
LINE
  5
6A1
  8
0
  6
CONTINUOUS
 62
     6
 10
-306.1184774409001
 20
-412.9571926186
 30
0.0
 11
-309.582579056
 21
-412.9571926186
 31
0.0
  0
LINE
  5
6A2
  8
0
  6
CONTINUOUS
 62
     6
 10
-353.3505282485
 20
-397.9571926186001
 30
0.0
 11
-348.8505282485002
 21
-397.9571926186001
 31
0.0
  0
LINE
  5
6A3
  8
0
  6
CONTINUOUS
 62
     6
 10
-303.5204012295001
 20
-408.4571926186001
 30
0.0
 11
-305.2524520371001
 21
-405.4571926186001
 31
0.0
  0
ARC
  5
6A4
  8
0
  6
CONTINUOUS
 62
     6
 10
-304.3864266333002
 20
-408.9571926186
 30
0.0
 40
1.000000000000056
 50
330.0
 51
29.99999999990001
  0
LINE
  5
6A5
  8
0
  6
CONTINUOUS
 62
     6
 10
-369.6005282485
 20
-406.4571926186001
 30
0.0
 11
-375.1005282485002
 21
-406.4571926186001
 31
0.0
  0
LINE
  5
6A6
  8
0
  6
CONTINUOUS
 62
     6
 10
-350.3505282485001
 20
-404.2905259519001
 30
0.0
 11
-350.3505282485001
 21
-400.6238592853002
 31
0.0
  0
LINE
  5
6A7
  8
0
  6
CONTINUOUS
 62
     6
 10
-348.8505282485001
 20
-414.9571926186002
 30
0.0
 11
-348.8505282485001
 21
-330.9571926186007
 31
0.0
  0
LINE
  5
6A8
  8
0
  6
CONTINUOUS
 62
     6
 10
-367.1005282485002
 20
-394.7071926184001
 30
0.0
 11
-367.1005282485002
 21
-387.7071926184
 31
0.0
  0
LINE
  5
6A9
  8
0
  6
CONTINUOUS
 62
     6
 10
-306.7394171374001
 20
-417.4571926186002
 30
0.0
 11
-306.8505282485
 21
-417.4571926186002
 31
0.0
  0
LINE
  5
6AA
  8
0
  6
CONTINUOUS
 62
     6
 10
-355.3505282485001
 20
-392.1849239476003
 30
0.0
 11
-355.3505282485001
 21
-340.9571926184003
 31
0.0
  0
LINE
  5
6AB
  8
0
  6
CONTINUOUS
 62
     6
 10
-303.5204012295001
 20
-409.4571926186006
 30
0.0
 11
-305.2524520371001
 21
-412.4571926186007
 31
0.0
  0
ARC
  5
6AC
  8
0
  6
CONTINUOUS
 62
     6
 10
-363.8505282485001
 20
-414.9571926186002
 30
0.0
 40
1.999999999999946
 50
270.0
 51
0.0
  0
ARC
  5
6AD
  8
0
  6
CONTINUOUS
 62
     6
 10
-392.8505282485001
 20
-330.9571926184998
 30
0.0
 40
2.000000000000002
 50
90.0000000003
 51
180.0
  0
LINE
  5
6AE
  8
0
  6
CONTINUOUS
 62
     6
 10
-350.8505282485001
 20
-408.4571926186001
 30
0.0
 11
-348.8505282485001
 21
-408.4571926186001
 31
0.0
  0
LINE
  5
6AF
  8
0
  6
CONTINUOUS
 62
     6
 10
-367.1005282485002
 20
-347.4571926184001
 30
0.0
 11
-365.1005282485002
 21
-347.4571926184001
 31
0.0
  0
LINE
  5
6B0
  8
0
  6
CONTINUOUS
 62
     6
 10
-363.6005282485
 20
-396.2071926184006
 30
0.0
 11
-363.6005282485
 21
-386.2071926184
 31
0.0
  0
ARC
  5
6B1
  8
0
  6
CONTINUOUS
 62
     6
 10
-351.8505282485002
 20
-330.9571926185999
 30
0.0
 40
3.000000000000058
 50
0.0
 51
90.0
  0
LINE
  5
6B2
  8
0
  6
CONTINUOUS
 62
     6
 10
-360.8505282485001
 20
-406.9571926186
 30
0.0
 11
-360.8505282485001
 21
-407.8853958489001
 31
0.0
  0
LINE
  5
6B3
  8
0
  6
CONTINUOUS
 62
     6
 10
-353.3505282485
 20
-397.9571926186001
 30
0.0
 11
-353.3505282485
 21
-398.9571926186
 31
0.0
  0
LINE
  5
6B4
  8
0
  6
CONTINUOUS
 62
     6
 10
-361.3557020403002
 20
-399.9571926185999
 30
0.0
 11
-353.3505282485001
 21
-399.9571926185999
 31
0.0
  0
LINE
  5
6B5
  8
0
  6
CONTINUOUS
 62
     6
 10
-348.8505282485001
 20
-413.4571926186002
 30
0.0
 11
-354.8505282485002
 21
-413.4571926186002
 31
0.0
  0
LINE
  5
6B6
  8
0
  6
CONTINUOUS
 62
     6
 10
-395.8505282485001
 20
-414.9571926186002
 30
0.0
 11
-395.8505282485001
 21
-330.9571926186007
 31
0.0
  0
LINE
  5
6B7
  8
0
  6
CONTINUOUS
 62
     6
 10
-376.1005282485001
 20
-398.2071926183999
 30
0.0
 11
-376.1005282485001
 21
-386.2071926184
 31
0.0
  0
ARC
  5
6B8
  8
0
  6
CONTINUOUS
 62
     6
 10
-392.8505282485001
 20
-414.9571926186002
 30
0.0
 40
3.000000000000058
 50
180.0
 51
270.0
  0
LINE
  5
6B9
  8
0
  6
CONTINUOUS
 62
     6
 10
-379.6005282485
 20
-356.4571926184
 30
0.0
 11
-377.6005282485
 21
-356.4571926184
 31
0.0
  0
LINE
  5
6BA
  8
0
  6
CONTINUOUS
 62
     6
 10
-365.1005282485002
 20
-394.7071926184001
 30
0.0
 11
-367.1005282485002
 21
-394.7071926184001
 31
0.0
  0
LINE
  5
6BB
  8
0
  6
CONTINUOUS
 62
     6
 10
-363.6005282485
 20
-386.2071926183999
 30
0.0
 11
-368.6005282485
 21
-386.2071926183999
 31
0.0
  0
LINE
  5
6BC
  8
0
  6
CONTINUOUS
 62
     6
 10
-349.3505282485
 20
-400.8460815075002
 30
0.0
 11
-349.3505282485
 21
-404.0683037297002
 31
0.0
  0
ARC
  5
6BD
  8
0
  6
CONTINUOUS
 62
     6
 10
-306.1184774409001
 20
-411.9571926185999
 30
0.0
 40
0.9999999999999454
 50
270.0
 51
330.0
  0
LINE
  5
6BE
  8
0
  6
CONTINUOUS
 62
     6
 10
-365.1005282485002
 20
-347.4571926184001
 30
0.0
 11
-365.1005282485002
 21
-354.4571926184001
 31
0.0
  0
LINE
  5
6BF
  8
0
  6
CONTINUOUS
 62
     6
 10
-371.8505282485002
 20
-377.4571926198001
 30
0.0
 11
-371.8505282485002
 21
-377.9571926184002
 31
0.0
  0
LINE
  5
6C0
  8
0
  6
CONTINUOUS
 62
     6
 10
-373.8505282485001
 20
-375.4571926184005
 30
0.0
 11
-375.3085681401001
 21
-375.4571926184005
 31
0.0
  0
LINE
  5
6C1
  8
0
  6
CONTINUOUS
 62
     6
 10
-377.6005282485001
 20
-347.4571926184001
 30
0.0
 11
-379.6005282485001
 21
-347.4571926184001
 31
0.0
  0
LINE
  5
6C2
  8
0
  6
CONTINUOUS
 62
     6
 10
-349.8505282485002
 20
-390.2712863123002
 30
0.0
 11
-349.8505282485002
 21
-330.9571926184001
 31
0.0
  0
CIRCLE
  5
6C3
  8
0
  6
CONTINUOUS
 62
     6
 10
-372.3505282485001
 20
-375.9571926184005
 30
0.0
 40
3.750000000000087
  0
ARC
  5
6C4
  8
0
  6
CONTINUOUS
 62
     6
 10
-370.8505282485001
 20
-377.4571926198001
 30
0.0
 40
0.9999999999999454
 50
90.00000000039998
 51
180.0
  0
ARC
  5
6C5
  8
0
  6
CONTINUOUS
 62
     6
 10
-372.3505282485001
 20
-363.4571926185999
 30
0.0
 40
2.750000000000086
 50
0.0
 51
180.0
  0
LINE
  5
6C6
  8
0
  6
CONTINUOUS
 62
     6
 10
-381.1005282485001
 20
-386.2071926183999
 30
0.0
 11
-381.1005282485001
 21
-398.2071926184004
 31
0.0
  0
CIRCLE
  5
6C7
  8
0
  6
CONTINUOUS
 62
     6
 10
-372.3505282485001
 20
-375.9571926184005
 30
0.0
 40
3.000000000000058
  0
LINE
  5
6C8
  8
0
  6
CONTINUOUS
 62
     6
 10
-367.1005282485002
 20
-387.7071926184
 30
0.0
 11
-365.1005282485002
 21
-387.7071926184
 31
0.0
  0
ARC
  5
6C9
  8
0
  6
CONTINUOUS
 62
     6
 10
-373.8505282485001
 20
-377.4571926179003
 30
0.0
 40
1.000000000000001
 50
0.0
 51
89.99999999959999
  0
ARC
  5
6CA
  8
0
  6
CONTINUOUS
 62
     6
 10
-357.3505282484002
 20
-392.1849239476003
 30
0.0
 40
2.000000000000002
 50
317.2906100424
 51
0.0
  0
ARC
  5
6CB
  8
0
  6
CONTINUOUS
 62
     6
 10
-392.8505282485001
 20
-330.9571926185999
 30
0.0
 40
3.000000000000058
 50
90.0
 51
180.0
  0
LINE
  5
6CC
  8
0
  6
CONTINUOUS
 62
     6
 10
-353.3505282485
 20
-404.9571926186
 30
0.0
 11
-348.8505282485002
 21
-403.9571926185999
 31
0.0
  0
LINE
  5
6CD
  8
0
  6
CONTINUOUS
 62
     6
 10
-361.8505282485002
 20
-406.9571926186
 30
0.0
 11
-360.8505282485002
 21
-406.9571926186
 31
0.0
  0
LINE
  5
6CE
  8
0
  6
CONTINUOUS
 62
     6
 10
-372.8505282485001
 20
-374.4571926176002
 30
0.0
 11
-372.8505282485001
 21
-373.9571926184001
 31
0.0
  0
LINE
  5
6CF
  8
0
  6
CONTINUOUS
 62
     6
 10
-367.1005282485002
 20
-354.4571926184002
 30
0.0
 11
-367.1005282485002
 21
-347.4571926184001
 31
0.0
  0
LINE
  5
6D0
  8
0
  6
CONTINUOUS
 62
     6
 10
-376.1005282485001
 20
-345.9571926184005
 30
0.0
 11
-381.1005282485001
 21
-345.9571926184005
 31
0.0
  0
LINE
  5
6D1
  8
0
  6
CONTINUOUS
 62
     6
 10
-377.6005282485001
 20
-387.7071926184
 30
0.0
 11
-379.6005282485001
 21
-387.7071926184
 31
0.0
  0
ARC
  5
6D2
  8
0
  6
CONTINUOUS
 62
     6
 10
-365.8505282477002
 20
-408.9571926186
 30
0.0
 40
2.000000000000002
 50
270.0
 51
0.000000003699995
  0
LINE
  5
6D3
  8
0
  6
CONTINUOUS
 62
     6
 10
-368.1005282485001
 20
-367.7071926155
 30
0.0
 11
-368.1005282485001
 21
-363.4571926186
 31
0.0
  0
LINE
  5
6D4
  8
0
  6
CONTINUOUS
 62
     6
 10
-369.6005282485
 20
-366.2071926186002
 30
0.0
 11
-375.1005282485002
 21
-366.2071926186002
 31
0.0
  0
LINE
  5
6D5
  8
0
  6
CONTINUOUS
 62
     6
 10
-358.8505282485001
 20
-417.9571926186001
 30
0.0
 11
-355.8505282485001
 21
-417.9571926186001
 31
0.0
  0
LINE
  5
6D6
  8
0
  6
CONTINUOUS
 62
     6
 10
-363.6005282485
 20
-355.9571926184005
 30
0.0
 11
-363.6005282485
 21
-345.9571926184005
 31
0.0
  0
ARC
  5
6D7
  8
0
  6
DASHED
 62
     6
 10
-339.6005282485
 20
-338.9571926185999
 30
0.0
 40
0.9999999999999454
 50
270.0
 51
0.0
  0
LINE
  5
6D8
  8
0
  6
DASHED
 62
     6
 10
-338.6005282485001
 20
-338.9571926185999
 30
0.0
 11
-338.6005282485001
 21
-338.4571926186
 31
0.0
  0
LINE
  5
6D9
  8
0
  6
DASHED
 62
     6
 10
-339.6005282485
 20
-339.9571926186001
 30
0.0
 11
-342.4306552674
 21
-339.9571926186001
 31
0.0
  0
LINE
  5
6DA
  8
0
  6
CONTINUOUS
 62
     6
 10
-360.8505282485001
 20
-410.0289893883005
 30
0.0
 11
-360.8505282485001
 21
-413.4571926186005
 31
0.0
  0
ARC
  5
6DB
  8
0
  6
DASHED
 62
     6
 10
-336.6005282485002
 20
-341.9571926186003
 30
0.0
 40
1.000000000000056
 50
90.0
 51
180.0
  0
LINE
  5
6DC
  8
0
  6
CONTINUOUS
 62
     6
 10
-353.3505282485
 20
-398.9571926186
 30
0.0
 11
-360.2879136604002
 21
-398.9571926186
 31
0.0
  0
LINE
  5
6DD
  8
0
  6
CONTINUOUS
 62
     6
 10
-352.5204012295001
 20
-408.4571926186001
 30
0.0
 11
-354.2524520371001
 21
-405.4571926186001
 31
0.0
  0
LINE
  5
6DE
  8
0
  6
CONTINUOUS
 62
     6
 10
-356.3505282485
 20
-407.4571926186002
 30
0.0
 11
-356.3505282485
 21
-406.9571926186001
 31
0.0
  0
LINE
  5
6DF
  8
0
  6
CONTINUOUS
 62
     7
 10
-308.4510921996002
 20
-415.6022592692002
 30
0.0
 11
-309.2432956448001
 21
-412.9571926186002
 31
0.0
  0
LINE
  5
6E0
  8
0
  6
DASHED
 62
     6
 10
-337.6005282485001
 20
-341.9571926186003
 30
0.0
 11
-337.6005282485001
 21
-342.4571926186002
 31
0.0
  0
LINE
  5
6E1
  8
0
  6
DASHED
 62
     6
 10
-338.6005282485001
 20
-342.4571926186
 30
0.0
 11
-337.6005282485
 21
-342.4571926186
 31
0.0
  0
LINE
  5
6E2
  8
0
  6
DASHED
 62
     6
 10
-339.6005282485
 20
-340.9571926185999
 30
0.0
 11
-342.4306552674
 21
-340.9571926185999
 31
0.0
  0
LINE
  5
6E3
  8
0
  6
CONTINUOUS
 62
     6
 10
-354.8505282485002
 20
-413.4571926186002
 30
0.0
 11
-355.8505282485002
 21
-417.9571926186002
 31
0.0
  0
ARC
  5
6E4
  8
0
  6
CONTINUOUS
 62
     6
 10
-372.3505282485001
 20
-363.4571926185999
 30
0.0
 40
4.250000000000031
 50
0.0
 51
180.0
  0
ARC
  5
6E5
  8
0
  6
CONTINUOUS
 62
     6
 10
-372.3505282485001
 20
-403.7071926186001
 30
0.0
 40
2.750000000000086
 50
0.0
 51
180.0
  0
LINE
  5
6E6
  8
0
  6
CONTINUOUS
 62
     6
 10
-360.5375684219002
 20
-399.1269740619006
 30
0.0
 11
-351.163488075
 21
-392.7519909407007
 31
0.0
  0
LINE
  5
6E7
  8
0
  6
CONTINUOUS
 62
     6
 10
-359.8505282485002
 20
-413.4571926186002
 30
0.0
 11
-360.8505282485003
 21
-413.4571926186002
 31
0.0
  0
LINE
  5
6E8
  8
0
  6
CONTINUOUS
 62
     6
 10
-351.3505282485
 20
-400.401637063
 30
0.0
 11
-351.3505282485
 21
-404.5127481741
 31
0.0
  0
LINE
  5
6E9
  8
0
  6
CONTINUOUS
 62
     6
 10
-376.6005282485
 20
-403.7071926186001
 30
0.0
 11
-376.6005282485
 21
-407.9571926186001
 31
0.0
  0
LINE
  5
6EA
  8
0
  6
DASHED
 62
     6
 10
-336.6005282485002
 20
-339.9571926186001
 30
0.0
 11
-333.7704012295002
 21
-339.9571926186001
 31
0.0
  0
LINE
  5
6EB
  8
0
  6
CONTINUOUS
 62
     6
 10
-351.8505282485002
 20
-413.4571926186002
 30
0.0
 11
-351.8505282486002
 21
-407.8571926186003
 31
0.0
  0
LINE
  5
6EC
  8
0
  6
CONTINUOUS
 62
     6
 10
-379.6005282485
 20
-347.4571926184001
 30
0.0
 11
-379.6005282485
 21
-356.4571926184
 31
0.0
  0
LINE
  5
6ED
  8
0
  6
CONTINUOUS
 62
     6
 10
-369.6005282485
 20
-403.7071926186001
 30
0.0
 11
-369.6005282485
 21
-406.4571926186001
 31
0.0
  0
LINE
  5
6EE
  8
0
  6
CONTINUOUS
 62
     6
 10
-363.6005282485
 20
-345.9571926184005
 30
0.0
 11
-368.6005282485
 21
-345.9571926184005
 31
0.0
  0
LINE
  5
6EF
  8
0
  6
CONTINUOUS
 62
     6
 10
-392.8505282485001
 20
-417.9571926186001
 30
0.0
 11
-358.8505282485002
 21
-417.9571926186001
 31
0.0
  0
LINE
  5
6F0
  8
0
  6
CONTINUOUS
 62
     7
 10
-307.2521189532002
 20
-416.6774550834001
 30
0.0
 11
-307.2505285217001
 21
-415.0128751322006
 31
0.0
  0
LINE
  5
6F1
  8
0
  6
CONTINUOUS
 62
     6
 10
-376.6005282485
 20
-363.4571926185999
 30
0.0
 11
-376.6005282485
 21
-367.7071926185998
 31
0.0
  0
ARC
  5
6F2
  8
0
  6
CONTINUOUS
 62
     6
 10
-352.8505282485001
 20
-390.2712863123002
 30
0.0
 40
2.999999999999947
 50
304.2182452403
 51
0.0
  0
LINE
  5
6F3
  8
0
  6
CONTINUOUS
 62
     6
 10
-359.8505282485002
 20
-413.4571926186002
 30
0.0
 11
-358.8505282485002
 21
-417.9571926186002
 31
0.0
  0
LINE
  5
6F4
  8
0
  6
CONTINUOUS
 62
     6
 10
-368.6005282485
 20
-355.9571926184005
 30
0.0
 11
-363.6005282485
 21
-355.9571926184005
 31
0.0
  0
LINE
  5
6F5
  8
0
  6
CONTINUOUS
 62
     6
 10
-343.8505282485001
 20
-417.9571926186001
 30
0.0
 11
-302.8505282485
 21
-417.9571926186001
 31
0.0
  0
LINE
  5
6F6
  8
0
  6
CONTINUOUS
 62
     6
 10
-363.8505282477002
 20
-399.9571926176999
 30
0.0
 11
-363.8505282477002
 21
-408.9571926185
 31
0.0
  0
LINE
  5
6F7
  8
0
  6
CONTINUOUS
 62
     6
 10
-381.1005282485001
 20
-345.9571926184005
 30
0.0
 11
-381.1005282485001
 21
-357.9571926184005
 31
0.0
  0
LINE
  5
6F8
  8
0
  6
CONTINUOUS
 62
     6
 10
-353.3505282485
 20
-406.9571926186
 30
0.0
 11
-350.8505282485001
 21
-408.4571926186
 31
0.0
  0
LINE
  5
6F9
  8
0
  6
CONTINUOUS
 62
     6
 10
-355.3505282485001
 20
-409.4571926186006
 30
0.0
 11
-352.5204012295002
 21
-409.4571926186006
 31
0.0
  0
LINE
  5
6FA
  8
0
  6
CONTINUOUS
 62
     6
 10
-376.1005282485001
 20
-357.9571926184003
 30
0.0
 11
-376.1005282485001
 21
-345.9571926184002
 31
0.0
  0
ARC
  5
6FB
  8
0
  6
CONTINUOUS
 62
     6
 10
-361.8505282477003
 20
-399.9571926176999
 30
0.0
 40
2.000000000000002
 50
137.2906100424
 51
180.0
  0
LINE
  5
6FC
  8
0
  6
CONTINUOUS
 62
     6
 10
-355.8505282485001
 20
-417.9571926186001
 30
0.0
 11
-351.8505282485002
 21
-417.9571926186001
 31
0.0
  0
LINE
  5
6FD
  8
0
  6
CONTINUOUS
 62
     6
 10
-353.3505282485
 20
-399.9571926185999
 30
0.0
 11
-361.3557020403001
 21
-399.9571926185999
 31
0.0
  0
LINE
  5
6FE
  8
0
  6
CONTINUOUS
 62
     6
 10
-376.6005282485
 20
-407.9571926186001
 30
0.0
 11
-368.1005282485001
 21
-407.9571926155001
 31
0.0
  0
LINE
  5
6FF
  8
0
  6
CONTINUOUS
 62
     6
 10
-375.1005282485002
 20
-366.2071926186002
 30
0.0
 11
-375.1005282485002
 21
-363.4571926186001
 31
0.0
  0
LINE
  5
700
  8
0
  6
CONTINUOUS
 62
     6
 10
-352.3505282485001
 20
-400.1794148408001
 30
0.0
 11
-352.3505282485001
 21
-404.7349703963001
 31
0.0
  0
LINE
  5
701
  8
0
  6
CONTINUOUS
 62
     6
 10
-361.8505282485002
 20
-401.6076786902001
 30
0.0
 11
-361.8505282485002
 21
-414.9571926186002
 31
0.0
  0
LINE
  5
702
  8
0
  6
CONTINUOUS
 62
     6
 10
-348.8505282485001
 20
-397.9571926186001
 30
0.0
 11
-353.3505282485
 21
-397.9571926186001
 31
0.0
  0
LINE
  5
703
  8
0
  6
CONTINUOUS
 62
     6
 10
-356.3505282485
 20
-406.9571926186
 30
0.0
 11
-357.3505282485001
 21
-406.9571926186
 31
0.0
  0
LINE
  5
704
  8
0
  6
CONTINUOUS
 62
     6
 10
-307.2519085023002
 20
-416.4571926225005
 30
0.0
 11
-306.5171949152
 21
-416.4571926186006
 31
0.0
  0
LINE
  5
705
  8
0
  6
CONTINUOUS
 62
     6
 10
-376.6005282485
 20
-367.7071926186002
 30
0.0
 11
-368.1005282485001
 21
-367.7071926155003
 31
0.0
  0
LINE
  5
706
  8
0
  6
CONTINUOUS
 62
     6
 10
-358.3505282485
 20
-408.4571926186001
 30
0.0
 11
-361.1806552674001
 21
-408.4571926186001
 31
0.0
  0
ARC
  5
707
  8
0
  6
DASHED
 62
     6
 10
-336.6005282485002
 20
-338.9571926185999
 30
0.0
 40
1.000000000000056
 50
180.0
 51
270.0
  0
LINE
  5
708
  8
0
  6
CONTINUOUS
 62
     6
 10
-368.6005282485
 20
-345.9571926184005
 30
0.0
 11
-368.6005282485
 21
-355.9571926184005
 31
0.0
  0
LINE
  5
709
  8
0
  6
CONTINUOUS
 62
     6
 10
-350.8505282485001
 20
-413.4571926186002
 30
0.0
 11
-350.8505282485001
 21
-408.4571926186002
 31
0.0
  0
LINE
  5
70A
  8
0
  6
CONTINUOUS
 62
     6
 10
-375.1005282485002
 20
-406.4571926186001
 30
0.0
 11
-375.1005282485002
 21
-403.7071926186001
 31
0.0
  0
ARC
  5
70B
  8
0
  6
CONTINUOUS
 62
     6
 10
-358.3505282485
 20
-410.4571926186001
 30
0.0
 40
0.9999999999999454
 50
0.0
 51
90.0
  0
LINE
  5
70C
  8
0
  6
CONTINUOUS
 62
     6
 10
-310.1838615818002
 20
-416.4571926186001
 30
0.0
 11
-308.4519090501001
 21
-416.4571926186001
 31
0.0
  0
LINE
  5
70D
  8
0
  6
CONTINUOUS
 62
     6
 10
-358.3505282485
 20
-409.4571926186006
 30
0.0
 11
-361.1806552674001
 21
-409.4571926186006
 31
0.0
  0
ARC
  5
70E
  8
0
  6
CONTINUOUS
 62
     6
 10
-372.3505282485001
 20
-403.7071926186001
 30
0.0
 40
4.250000000000031
 50
0.0
 51
180.0
  0
LINE
  5
70F
  8
0
  6
CONTINUOUS
 62
     6
 10
-306.7394171375001
 20
-417.4571926190001
 30
0.0
 11
-309.9616393596
 21
-417.4571926186001
 31
0.0
  0
LINE
  5
710
  8
0
  6
CONTINUOUS
 62
     6
 10
-353.3505282485
 20
-399.9571926185999
 30
0.0
 11
-348.8505282485002
 21
-400.9571926186003
 31
0.0
  0
LINE
  5
711
  8
0
  6
CONTINUOUS
 62
     6
 10
-353.3505282485
 20
-404.9571926186
 30
0.0
 11
-353.3505282485
 21
-406.9571926186005
 31
0.0
  0
ARC
  5
712
  8
0
  6
CONTINUOUS
 62
     6
 10
-358.8505282485001
 20
-401.6076786902001
 30
0.0
 40
3.000000000000003
 50
124.2182452403
 51
180.0
  0
LINE
  5
713
  8
0
  6
DASHED
 62
     6
 10
-335.5024520371001
 20
-336.9571926186002
 30
0.0
 11
-333.7704012295001
 21
-339.9571926186001
 31
0.0
  0
LINE
  5
714
  8
0
  6
CONTINUOUS
 62
     7
 10
-337.1005282485001
 20
-323.7075736773001
 30
0.0
 11
-337.1005282485001
 21
-327.9571926185001
 31
0.0
  0
LINE
  5
715
  8
0
  6
CONTINUOUS
 62
     6
 10
-355.7394171374002
 20
-417.4571926198001
 30
0.0
 11
-358.9616393596002
 21
-417.4571926186002
 31
0.0
  0
ARC
  5
716
  8
0
  6
CONTINUOUS
 62
     6
 10
-358.5825790560002
 20
-411.9571926185999
 30
0.0
 40
1.000000000000056
 50
210.0
 51
270.0
  0
LINE
  5
717
  8
0
  6
DASHED
 62
     6
 10
-338.6005282485001
 20
-341.9571926186003
 30
0.0
 11
-338.6005282485001
 21
-342.4571926186002
 31
0.0
  0
LINE
  5
718
  8
0
  6
DASHED
 62
     7
 10
-337.1005282485001
 20
-332.7380766994
 30
0.0
 11
-337.1005282485001
 21
-327.9571926184998
 31
0.0
  0
CIRCLE
  5
719
  8
0
  6
CONTINUOUS
 62
     7
 10
-362.9648139627001
 20
-303.5171926186001
 30
0.0
 40
3.449999999999898
  0
ARC
  5
71A
  8
0
  6
CONTINUOUS
 62
     7
 10
-383.1719568199001
 20
-302.0386211901001
 30
0.0
 40
0.9857142857000456
 50
270.0
 51
0.0
  0
ARC
  5
71B
  8
0
  6
CONTINUOUS
 62
     7
 10
-383.1719568199001
 20
-304.9957640472001
 30
0.0
 40
0.9857142857000456
 50
0.0
 51
90.0
  0
LINE
  5
71C
  8
0
  6
DASHED
 62
     7
 10
-337.4999642967001
 20
-333.8121259680003
 30
0.0
 11
-336.7077608515002
 21
-336.4571926186002
 31
0.0
  0
LINE
  5
71D
  8
0
  6
DASHED
 62
     6
 10
-336.6005282485002
 20
-340.9571926185999
 30
0.0
 11
-333.7704012295002
 21
-340.9571926185999
 31
0.0
  0
LINE
  5
71E
  8
0
  6
CONTINUOUS
 62
     7
 10
-355.6153195284001
 20
-323.7075736773001
 30
0.0
 11
-340.1005282484002
 21
-323.7075736773001
 31
0.0
  0
ARC
  5
71F
  8
0
  6
CONTINUOUS
 62
     6
 10
-358.3505282485
 20
-407.4571926186002
 30
0.0
 40
0.9999999999999454
 50
270.0
 51
0.0
  0
ARC
  5
720
  8
0
  6
CONTINUOUS
 62
     7
 10
-373.3148139627002
 20
-304.9957640472001
 30
0.0
 40
2.957142857100081
 50
90.0
 51
180.0
  0
LINE
  5
721
  8
0
  6
CENTER
 62
     1
 10
-386.7835904718001
 20
-303.5171926186001
 30
0.0
 11
-376.9267101774002
 21
-303.5171926186001
 31
0.0
  0
LINE
  5
722
  8
0
  6
CONTINUOUS
 62
     7
 10
-362.4719568199001
 20
-305.9814783329001
 30
0.0
 11
-363.4576711056
 21
-305.9814783329001
 31
0.0
  0
LINE
  5
723
  8
0
  6
CONTINUOUS
 62
     6
 10
-359.4486044598002
 20
-412.4571926186003
 30
0.0
 11
-361.1806552674001
 21
-409.4571926186002
 31
0.0
  0
LINE
  5
724
  8
0
  6
CONTINUOUS
 62
     7
 10
-339.1005282484002
 20
-324.7075736773
 30
0.0
 11
-339.1005282484002
 21
-327.9571926185
 31
0.0
  0
LINE
  5
725
  8
0
  6
CONTINUOUS
 62
     6
 10
-308.4945399896001
 20
-415.4571926194999
 30
0.0
 11
-310.4060838040001
 21
-415.4571926185999
 31
0.0
  0
ARC
  5
726
  8
0
  6
CONTINUOUS
 62
     7
 10
-373.3148139627002
 20
-244.8671926185999
 30
0.0
 40
2.957142857100081
 50
180.0
 51
270.0
  0
LINE
  5
727
  8
0
  6
CONTINUOUS
 62
     6
 10
-355.2949726934002
 20
-415.4571926206006
 30
0.0
 11
-359.4060838040002
 21
-415.4571926186006
 31
0.0
  0
LINE
  5
728
  8
0
  6
CONTINUOUS
 62
     6
 10
-357.3505282485001
 20
-410.9571926186
 30
0.0
 11
-356.3505282485001
 21
-410.9571926186
 31
0.0
  0
ARC
  5
729
  8
0
  6
CONTINUOUS
 62
     6
 10
-353.3864266333001
 20
-408.9571926186
 30
0.0
 40
1.000000000000056
 50
330.0
 51
30.0
  0
ARC
  5
72A
  8
0
  6
CONTINUOUS
 62
     7
 10
-307.8505282478001
 20
-415.0123018593002
 30
0.0
 40
0.6000000000000449
 50
5.652449609400001
 51
176.3477531966
  0
ARC
  5
72B
  8
0
  6
DASHED
 62
     6
 10
-339.6005282485
 20
-341.9571926186003
 30
0.0
 40
0.9999999999999454
 50
0.0
 51
90.0
  0
ARC
  5
72C
  8
0
  6
CONTINUOUS
 62
     6
 10
-355.1184774409001
 20
-405.9571926186001
 30
0.0
 40
1.000000000000001
 50
30.0
 51
90.0
  0
LINE
  5
72D
  8
0
  6
CONTINUOUS
 62
     6
 10
-306.2949726929
 20
-415.4571926186002
 30
0.0
 11
-307.1615629905001
 21
-415.4571926186002
 31
0.0
  0
LINE
  5
72E
  8
0
  6
CONTINUOUS
 62
     6
 10
-357.3505282485001
 20
-407.4571926186002
 30
0.0
 11
-357.3505282485001
 21
-406.9571926186001
 31
0.0
  0
LINE
  5
72F
  8
0
  6
CONTINUOUS
 62
     7
 10
-309.3351954737001
 20
-416.6763085377002
 30
0.0
 11
-306.3351954737001
 21
-416.6763085377002
 31
0.0
  0
LINE
  5
730
  8
0
  6
CONTINUOUS
 62
     6
 10
-357.3505282485001
 20
-410.4571926186001
 30
0.0
 11
-357.3505282485001
 21
-410.9571926186006
 31
0.0
  0
ARC
  5
731
  8
0
  6
CONTINUOUS
 62
     7
 10
-340.1005282484001
 20
-324.7075736773
 30
0.0
 40
0.9999999999999454
 50
0.0
 51
90.0
  0
ARC
  5
732
  8
0
  6
CONTINUOUS
 62
     6
 10
-355.1184774409001
 20
-411.9571926185999
 30
0.0
 40
1.000000000000001
 50
270.0
 51
330.0
  0
LINE
  5
733
  8
0
  6
DASHED
 62
     6
 10
-337.6005282485001
 20
-338.4571926186
 30
0.0
 11
-338.6005282485002
 21
-338.4571926186
 31
0.0
  0
LINE
  5
734
  8
0
  6
CONTINUOUS
 62
     6
 10
-308.7940422515001
 20
-414.4571926193004
 30
0.0
 11
-310.6283060262002
 21
-414.4571926186003
 31
0.0
  0
LINE
  5
735
  8
0
  6
DASHED
 62
     6
 10
-336.3684774409001
 20
-344.4571926186002
 30
0.0
 11
-339.832579056
 21
-344.4571926186002
 31
0.0
  0
ARC
  5
736
  8
0
  6
DASHED
 62
     6
 10
-336.3684774409001
 20
-343.4571926185999
 30
0.0
 40
0.9999999999999454
 50
270.0
 51
330.0
  0
ARC
  5
737
  8
0
  6
CONTINUOUS
 62
     6
 10
-355.3505282485001
 20
-407.4571926186002
 30
0.0
 40
1.000000000000056
 50
180.0
 51
270.0
  0
LINE
  5
738
  8
0
  6
CONTINUOUS
 62
     7
 10
-308.4505279740002
 20
-415.0117285865001
 30
0.0
 11
-308.4521184055002
 21
-416.6763085377
 31
0.0
  0
LINE
  5
739
  8
0
  6
CONTINUOUS
 62
     7
 10
-307.2510927473
 20
-415.6034058149001
 30
0.0
 11
-305.4992203364002
 21
-412.7423809013001
 31
0.0
  0
LINE
  5
73A
  8
0
  6
CONTINUOUS
 62
     6
 10
-306.0727504707001
 20
-414.4571926186005
 30
0.0
 11
-306.5492396225001
 21
-414.4571926186005
 31
0.0
  0
LINE
  5
73B
  8
0
  6
CONTINUOUS
 62
     6
 10
-355.0727504707
 20
-414.4571926195
 30
0.0
 11
-359.6283060262002
 21
-414.4571926185999
 31
0.0
  0
LINE
  5
73C
  8
0
  6
DASHED
 62
     6
 10
-333.7704012295001
 20
-340.9571926185999
 30
0.0
 11
-335.5024520371001
 21
-343.9571926185999
 31
0.0
  0
ARC
  5
73D
  8
0
  6
CONTINUOUS
 62
     6
 10
-358.5825790560002
 20
-405.9571926186001
 30
0.0
 40
1.000000000000056
 50
90.0000000001
 51
150.0
  0
ARC
  5
73E
  8
0
  6
DASHED
 62
     6
 10
-334.6364266333002
 20
-340.4571926186
 30
0.0
 40
1.000000000000056
 50
329.9999999999
 51
30.0
  0
LINE
  5
73F
  8
0
  6
CONTINUOUS
 62
     6
 10
-355.3505282485001
 20
-408.4571926186001
 30
0.0
 11
-352.5204012295002
 21
-408.4571926186001
 31
0.0
  0
LINE
  5
740
  8
0
  6
CONTINUOUS
 62
     7
 10
-383.1719568199001
 20
-303.0243354758001
 30
0.0
 11
-385.1079998405001
 21
-303.0243354758001
 31
0.0
  0
LINE
  5
741
  8
0
  6
CONTINUOUS
 62
     6
 10
-356.3505282485
 20
-410.4571926186001
 30
0.0
 11
-356.3505282485
 21
-410.9571926186006
 31
0.0
  0
ARC
  5
742
  8
0
  6
DASHED
 62
     6
 10
-339.8325790560001
 20
-343.4571926185999
 30
0.0
 40
1.000000000000056
 50
210.0
 51
270.0000000001
  0
ARC
  5
743
  8
0
  6
CONTINUOUS
 62
     7
 10
-339.1005282485
 20
-323.7075736773001
 30
0.0
 40
1.999999999999946
 50
0.0
 51
90.0
  0
LINE
  5
744
  8
0
  6
CONTINUOUS
 62
     7
 10
-381.2005282485001
 20
-304.9957640472001
 30
0.0
 11
-381.2005282485001
 21
-305.9814783329002
 31
0.0
  0
ARC
  5
745
  8
0
  6
CONTINUOUS
 62
     6
 10
-360.3146298636001
 20
-408.9571926186
 30
0.0
 40
0.9999999999999454
 50
150.0
 51
210.0
  0
LINE
  5
746
  8
0
  6
CONTINUOUS
 62
     7
 10
-368.3862425342001
 20
-244.8671926185999
 30
0.0
 11
-368.3862425342001
 21
-240.4314783328999
 31
0.0
  0
LINE
  5
747
  8
0
  6
CONTINUOUS
 62
     7
 10
-383.1719568199001
 20
-304.0100497615004
 30
0.0
 11
-385.1079998405001
 21
-304.0100497615004
 31
0.0
  0
LINE
  5
748
  8
0
  6
CONTINUOUS
 62
     6
 10
-352.5204012295001
 20
-409.4571926186006
 30
0.0
 11
-354.2524520371001
 21
-412.4571926186007
 31
0.0
  0
ARC
  5
749
  8
0
  6
CONTINUOUS
 62
     7
 10
-372.3290996770001
 20
-251.2743354758003
 30
0.0
 40
3.450000000000009
 50
214.8499045791001
 51
325.150095421
  0
ARC
  5
74A
  8
0
  6
CONTINUOUS
 62
     6
 10
-355.3505282485001
 20
-410.4571926186001
 30
0.0
 40
1.000000000000056
 50
90.0
 51
180.0
  0
LINE
  5
74B
  8
0
  6
CONTINUOUS
 62
     7
 10
-375.1603484100002
 20
-253.2457640472006
 30
0.0
 11
-388.1005282485002
 21
-253.2457640472006
 31
0.0
  0
LINE
  5
74C
  8
0
  6
CENTER
 62
     1
 10
-381.6933853913002
 20
-308.3891463103
 30
0.0
 11
-381.6933853913002
 21
-298.5322660158999
 31
0.0
  0
LINE
  5
74D
  8
0
  6
CONTINUOUS
 62
     7
 10
-382.1862425342002
 20
-304.9957640472001
 30
0.0
 11
-382.1862425342002
 21
-305.9814783329002
 31
0.0
  0
LINE
  5
74E
  8
0
  6
CONTINUOUS
 62
     6
 10
-359.1838615818001
 20
-416.4571926186001
 30
0.0
 11
-355.5171949152001
 21
-416.4571926186001
 31
0.0
  0
LINE
  5
74F
  8
0
  6
DASHED
 62
     6
 10
-337.6005282485001
 20
-338.9571926185999
 30
0.0
 11
-337.6005282485001
 21
-338.4571926186
 31
0.0
  0
LINE
  5
750
  8
0
  6
CONTINUOUS
 62
     6
 10
-358.5825790560002
 20
-404.9571926186
 30
0.0
 11
-355.1184774409002
 21
-404.9571926186
 31
0.0
  0
LINE
  5
751
  8
0
  6
CONTINUOUS
 62
     6
 10
-355.1184774409001
 20
-412.9571926186
 30
0.0
 11
-358.5825790560002
 21
-412.9571926186
 31
0.0
  0
LINE
  5
752
  8
0
  6
CONTINUOUS
 62
     6
 10
-361.1806552674001
 20
-408.4571926186001
 30
0.0
 11
-359.4486044598002
 21
-405.4571926186001
 31
0.0
  0
LINE
  5
753
  8
0
  6
CONTINUOUS
 62
     7
 10
-356.5576711056001
 20
-309.4314783329002
 30
0.0
 11
-356.5576711056001
 21
-240.4314783329002
 31
0.0
  0
LINE
  5
754
  8
0
  6
DASHED
 62
     7
 10
-337.5005285223
 20
-334.4026566507
 30
0.0
 11
-337.4989380908
 21
-332.7380766993999
 31
0.0
  0
LINE
  5
755
  8
0
  6
CONTINUOUS
 62
     7
 10
-388.1005282485001
 20
-292.6743354758002
 30
0.0
 11
-356.5576711056001
 21
-292.6743354758002
 31
0.0
  0
LINE
  5
756
  8
0
  6
CENTER
 62
     1
 10
-381.6933853913002
 20
-241.4738103556005
 30
0.0
 11
-381.6933853913002
 21
-251.3306906500001
 31
0.0
  0
LINE
  5
757
  8
0
  6
CONTINUOUS
 62
     7
 10
-383.1719568199001
 20
-246.8386211901
 30
0.0
 11
-385.1079998405001
 21
-246.8386211901
 31
0.0
  0
LINE
  5
758
  8
0
  6
CONTINUOUS
 62
     7
 10
-373.3148139627002
 20
-302.0386211901001
 30
0.0
 11
-371.3433853913002
 21
-302.0386211901001
 31
0.0
  0
LINE
  5
759
  8
0
  6
CONTINUOUS
 62
     7
 10
-361.4862425342001
 20
-303.0243354758001
 30
0.0
 11
-359.5501995135
 21
-303.0243354758001
 31
0.0
  0
LINE
  5
75A
  8
0
  6
CONTINUOUS
 62
     7
 10
-362.4719568199001
 20
-302.0386211901001
 30
0.0
 11
-362.4719568199001
 21
-301.0529069044001
 31
0.0
  0
LINE
  5
75B
  8
0
  6
CONTINUOUS
 62
     6
 10
-389.3505282485001
 20
-408.9571926186
 30
0.0
 11
-389.3505282485001
 21
-340.9571926184
 31
0.0
  0
CIRCLE
  5
75C
  8
0
  6
CONTINUOUS
 62
     7
 10
-362.9648139627001
 20
-246.3457640472
 30
0.0
 40
3.449999999999898
  0
ARC
  5
75D
  8
0
  6
DASHED
 62
     7
 10
-338.1005282485
 20
-334.4020833778004
 30
0.0
 40
0.6000000000000449
 50
185.6524496094
 51
356.3477531966
  0
LINE
  5
75E
  8
0
  6
CONTINUOUS
 62
     6
 10
-357.3505282485001
 20
-338.9571926184001
 30
0.0
 11
-387.3505282485002
 21
-338.9571926184001
 31
0.0
  0
LINE
  5
75F
  8
0
  6
CONTINUOUS
 62
     6
 10
-351.8505282485002
 20
-327.9571926186001
 30
0.0
 11
-392.8505282485001
 21
-327.9571926186001
 31
0.0
  0
LINE
  5
760
  8
0
  6
CONTINUOUS
 62
     7
 10
-382.1862425342002
 20
-302.0386211901001
 30
0.0
 11
-382.1862425342002
 21
-301.0529069044001
 31
0.0
  0
LINE
  5
761
  8
0
  6
CONTINUOUS
 62
     7
 10
-381.2005282485001
 20
-301.0529069044002
 30
0.0
 11
-382.1862425342002
 21
-301.0529069044002
 31
0.0
  0
ARC
  5
762
  8
0
  6
CONTINUOUS
 62
     7
 10
-361.4862425342001
 20
-247.8243354757999
 30
0.0
 40
0.9857142857000456
 50
90.0
 51
180.0
  0
ARC
  5
763
  8
0
  6
CONTINUOUS
 62
     7
 10
-371.3433853913001
 20
-244.8671926185999
 30
0.0
 40
2.957142857100026
 50
270.0
 51
0.0
  0
LINE
  5
764
  8
0
  6
CONTINUOUS
 62
     7
 10
-363.4576711056001
 20
-301.0529069044002
 30
0.0
 11
-362.4719568199002
 21
-301.0529069044002
 31
0.0
  0
LINE
  5
765
  8
0
  6
DASHED
 62
     7
 10
-339.1005282484002
 20
-332.7380766994
 30
0.0
 11
-337.1005282485
 21
-332.7380766994
 31
0.0
  0
LINE
  5
766
  8
0
  6
DASHED
 62
     7
 10
-339.1005282484002
 20
-327.9571926185001
 30
0.0
 11
-339.1005282484002
 21
-332.7380766994003
 31
0.0
  0
ARC
  5
767
  8
0
  6
CONTINUOUS
 62
     7
 10
-380.2148139627002
 20
-304.9957640472001
 30
0.0
 40
0.9857142857000456
 50
90.0
 51
180.0
  0
LINE
  5
768
  8
0
  6
CONTINUOUS
 62
     7
 10
-356.5576711056001
 20
-257.1886211901
 30
0.0
 11
-388.1005282485001
 21
-257.1886211901
 31
0.0
  0
LINE
  5
769
  8
0
  6
CONTINUOUS
 62
     7
 10
-362.4719568199001
 20
-247.8243354757999
 30
0.0
 11
-362.4719568199001
 21
-248.8100497615
 31
0.0
  0
LINE
  5
76A
  8
0
  6
CONTINUOUS
 62
     7
 10
-364.4433853913002
 20
-245.8529069044005
 30
0.0
 11
-366.379428412
 21
-245.8529069044005
 31
0.0
  0
LINE
  5
76B
  8
0
  6
CONTINUOUS
 62
     7
 10
-381.2005282485001
 20
-247.8243354757999
 30
0.0
 11
-381.2005282485001
 21
-248.8100497615
 31
0.0
  0
LINE
  5
76C
  8
0
  6
DASHED
 62
     6
 10
-342.4306552674001
 20
-339.9571926186001
 30
0.0
 11
-340.6986044598001
 21
-336.9571926186001
 31
0.0
  0
CIRCLE
  5
76D
  8
0
  6
CONTINUOUS
 62
     7
 10
-381.6933853913002
 20
-303.5171926186001
 30
0.0
 40
3.449999999999898
  0
LINE
  5
76E
  8
0
  6
CONTINUOUS
 62
     7
 10
-369.4978509441001
 20
-296.6171926186001
 30
0.0
 11
-356.5576711056001
 21
-296.6171926186001
 31
0.0
  0
LINE
  5
76F
  8
0
  6
CONTINUOUS
 62
     7
 10
-382.1862425342002
 20
-305.9814783329001
 30
0.0
 11
-381.2005282485001
 21
-305.9814783329001
 31
0.0
  0
ARC
  5
770
  8
0
  6
CONTINUOUS
 62
     7
 10
-380.2148139627002
 20
-302.0386211901001
 30
0.0
 40
0.9857142857000456
 50
180.0
 51
270.0
  0
ARC
  5
771
  8
0
  6
DASHED
 62
     6
 10
-336.3684774409001
 20
-337.4571926186001
 30
0.0
 40
0.9999999999999454
 50
30.0
 51
90.0
  0
CIRCLE
  5
772
  8
0
  6
CONTINUOUS
 62
     7
 10
-372.3290996770001
 20
-250.7814783329002
 30
0.0
 40
2.464285714300019
  0
ARC
  5
773
  8
0
  6
CONTINUOUS
 62
     7
 10
-383.1719568199001
 20
-247.8243354757999
 30
0.0
 40
0.9857142857000456
 50
0.0
 51
90.0
  0
ARC
  5
774
  8
0
  6
CONTINUOUS
 62
     7
 10
-361.4862425342001
 20
-244.8671926185999
 30
0.0
 40
0.9857142857000456
 50
180.0
 51
270.0
  0
ARC
  5
775
  8
0
  6
CONTINUOUS
 62
     7
 10
-380.2148139627002
 20
-247.8243354757999
 30
0.0
 40
0.9857142857000456
 50
90.0
 51
180.0
  0
LINE
  5
776
  8
0
  6
CENTER
 62
     1
 10
-357.8746088823002
 20
-303.5171926186001
 30
0.0
 11
-367.7314891767002
 21
-303.5171926186001
 31
0.0
  0
ARC
  5
777
  8
0
  6
CONTINUOUS
 62
     7
 10
-364.4433853913002
 20
-247.8243354757999
 30
0.0
 40
0.9857142857000456
 50
0.0
 51
89.9999999999
  0
LINE
  5
778
  8
0
  6
CONTINUOUS
 62
     7
 10
-363.4576711056001
 20
-244.8671926185999
 30
0.0
 11
-363.4576711056001
 21
-243.8814783329001
 31
0.0
  0
LINE
  5
779
  8
0
  6
DASHED
 62
     7
 10
-338.6999637490001
 20
-333.8109794223001
 30
0.0
 11
-340.4518361599002
 21
-336.6720043358002
 31
0.0
  0
ARC
  5
77A
  8
0
  6
CONTINUOUS
 62
     7
 10
-372.3290996770001
 20
-298.5886211901001
 30
0.0
 40
3.450000000000009
 50
34.849904579
 51
145.1500954209
  0
ARC
  5
77B
  8
0
  6
DASHED
 62
     6
 10
-341.5646298636001
 20
-340.4571926186
 30
0.0
 40
1.000000000000001
 50
150.0
 51
210.0
  0
ARC
  5
77C
  8
0
  6
CONTINUOUS
 62
     7
 10
-371.3433853913001
 20
-304.9957640472001
 30
0.0
 40
2.957142857100026
 50
0.0
 51
90.0
  0
LINE
  5
77D
  8
0
  6
CONTINUOUS
 62
     7
 10
-356.5576711056001
 20
-240.4314783329001
 30
0.0
 11
-388.1005282485001
 21
-240.4314783329001
 31
0.0
  0
LINE
  5
77E
  8
0
  6
CONTINUOUS
 62
     7
 10
-388.1005282485001
 20
-240.4314783329001
 30
0.0
 11
-388.1005282485001
 21
-309.4314783329001
 31
0.0
  0
LINE
  5
77F
  8
0
  6
CONTINUOUS
 62
     7
 10
-376.2719568199002
 20
-244.8671926185999
 30
0.0
 11
-376.2719568199002
 21
-240.4314783328999
 31
0.0
  0
LINE
  5
780
  8
0
  6
CONTINUOUS
 62
     6
 10
-351.8505282485002
 20
-328.9571926184001
 30
0.0
 11
-392.8505282485001
 21
-328.9571926184001
 31
0.0
  0
LINE
  5
781
  8
0
  6
CONTINUOUS
 62
     7
 10
-373.3148139627002
 20
-247.8243354757999
 30
0.0
 11
-371.3433853913002
 21
-247.8243354757999
 31
0.0
  0
LINE
  5
782
  8
0
  6
CONTINUOUS
 62
     7
 10
-381.2005282485001
 20
-302.0386211901001
 30
0.0
 11
-381.2005282485001
 21
-301.0529069044001
 31
0.0
  0
LINE
  5
783
  8
0
  6
CONTINUOUS
 62
     7
 10
-368.3862425342001
 20
-304.9957640472001
 30
0.0
 11
-368.3862425342001
 21
-309.4314783329002
 31
0.0
  0
LINE
  5
784
  8
0
  6
CONTINUOUS
 62
     7
 10
-339.1005282485
 20
-321.7075736773001
 30
0.0
 11
-356.6153195284
 21
-321.7075736773001
 31
0.0
  0
LINE
  5
785
  8
0
  6
CONTINUOUS
 62
     7
 10
-376.2719568199002
 20
-304.9957640472001
 30
0.0
 11
-376.2719568199002
 21
-309.4314783329002
 31
0.0
  0
LINE
  5
786
  8
0
  6
CONTINUOUS
 62
     7
 10
-356.5576711056001
 20
-253.2457640472006
 30
0.0
 11
-369.4978509441002
 21
-253.2457640472006
 31
0.0
  0
ARC
  5
787
  8
0
  6
DASHED
 62
     6
 10
-339.8325790560001
 20
-337.4571926186001
 30
0.0
 40
1.000000000000056
 50
90.0
 51
150.0
  0
LINE
  5
788
  8
0
  6
DASHED
 62
     6
 10
-339.8325790560001
 20
-336.4571926186
 30
0.0
 11
-336.3684774409001
 21
-336.4571926186
 31
0.0
  0
LINE
  5
789
  8
0
  6
DASHED
 62
     7
 10
-338.6989375430001
 20
-332.7369301537
 30
0.0
 11
-338.7005279746001
 21
-334.401510105
 31
0.0
  0
LINE
  5
78A
  8
0
  6
CENTER
 62
     1
 10
-386.7835904718001
 20
-246.3457640472
 30
0.0
 11
-376.9267101774002
 21
-246.3457640472
 31
0.0
  0
LINE
  5
78B
  8
0
  6
CONTINUOUS
 62
     7
 10
-368.8790996770001
 20
-284.2957640472002
 30
0.0
 11
-375.7790996770001
 21
-284.2957640472002
 31
0.0
  0
LINE
  5
78C
  8
0
  6
CONTINUOUS
 62
     7
 10
-382.1862425342002
 20
-243.8814783329002
 30
0.0
 11
-381.2005282485001
 21
-243.8814783329002
 31
0.0
  0
LINE
  5
78D
  8
0
  6
CONTINUOUS
 62
     7
 10
-361.4862425342001
 20
-245.8529069044005
 30
0.0
 11
-359.5501995135
 21
-245.8529069044005
 31
0.0
  0
CIRCLE
  5
78E
  8
0
  6
CONTINUOUS
 62
     7
 10
-372.3290996770001
 20
-299.0814783329001
 30
0.0
 40
2.464285714300019
  0
LINE
  5
78F
  8
0
  6
DASHED
 62
     6
 10
-342.4306552674001
 20
-340.9571926185999
 30
0.0
 11
-340.6986044598001
 21
-343.9571926185999
 31
0.0
  0
LINE
  5
790
  8
0
  6
CONTINUOUS
 62
     7
 10
-388.1005282485001
 20
-296.6171926186001
 30
0.0
 11
-375.1603484100001
 21
-296.6171926186001
 31
0.0
  0
LINE
  5
791
  8
0
  6
CONTINUOUS
 62
     7
 10
-380.2148139627002
 20
-304.0100497615004
 30
0.0
 11
-378.2787709421002
 21
-304.0100497615004
 31
0.0
  0
LINE
  5
792
  8
0
  6
CONTINUOUS
 62
     7
 10
-380.2148139627002
 20
-303.0243354758001
 30
0.0
 11
-378.2787709421002
 21
-303.0243354758001
 31
0.0
  0
LINE
  5
793
  8
0
  6
CENTER
 62
     1
 10
-377.3592925180001
 20
-244.3743354758002
 30
0.0
 11
-367.2799268524002
 21
-244.3743354758002
 31
0.0
  0
LINE
  5
794
  8
0
  6
CONTINUOUS
 62
     7
 10
-363.4576711056001
 20
-247.8243354757999
 30
0.0
 11
-363.4576711056001
 21
-248.8100497615
 31
0.0
  0
LINE
  5
795
  8
0
  6
CENTER
 62
     1
 10
-357.8746088823002
 20
-246.3457640472
 30
0.0
 11
-367.7314891767002
 21
-246.3457640472
 31
0.0
  0
LINE
  5
796
  8
0
  6
CONTINUOUS
 62
     7
 10
-380.2148139627002
 20
-245.8529069044005
 30
0.0
 11
-378.2787709421002
 21
-245.8529069044005
 31
0.0
  0
LINE
  5
797
  8
0
  6
CENTER
 62
     1
 10
-372.3290996770001
 20
-241.4589858994001
 30
0.0
 11
-372.3290996770001
 21
-314.4234842953001
 31
0.0
  0
LINE
  5
798
  8
0
  6
CONTINUOUS
 62
     7
 10
-381.2005282485001
 20
-244.8671926185999
 30
0.0
 11
-381.2005282485001
 21
-243.8814783329001
 31
0.0
  0
LINE
  5
799
  8
0
  6
CENTER
 62
     1
 10
-377.3592925180001
 20
-305.4886211901
 30
0.0
 11
-367.2799268524002
 21
-305.4886211901
 31
0.0
  0
LINE
  5
79A
  8
0
  6
CONTINUOUS
 62
     7
 10
-388.1005282485001
 20
-309.4314783329002
 30
0.0
 11
-356.5576711056001
 21
-309.4314783329002
 31
0.0
  0
LINE
  5
79B
  8
0
  6
CONTINUOUS
 62
     7
 10
-364.4433853913002
 20
-246.8386211901
 30
0.0
 11
-366.379428412
 21
-246.8386211901
 31
0.0
  0
LINE
  5
79C
  8
0
  6
CONTINUOUS
 62
     7
 10
-364.4433853913002
 20
-304.0100497615004
 30
0.0
 11
-366.379428412
 21
-304.0100497615004
 31
0.0
  0
LINE
  5
79D
  8
0
  6
CONTINUOUS
 62
     7
 10
-362.4719568199001
 20
-243.8814783329002
 30
0.0
 11
-363.4576711056
 21
-243.8814783329002
 31
0.0
  0
LINE
  5
79E
  8
0
  6
CONTINUOUS
 62
     7
 10
-361.4862425342001
 20
-304.0100497615004
 30
0.0
 11
-359.5501995135
 21
-304.0100497615004
 31
0.0
  0
ARC
  5
79F
  8
0
  6
CONTINUOUS
 62
     7
 10
-361.4862425342001
 20
-302.0386211901001
 30
0.0
 40
0.9857142857000456
 50
180.0
 51
270.0
  0
ARC
  5
7A0
  8
0
  6
CONTINUOUS
 62
     7
 10
-361.4862425342001
 20
-304.9957640472001
 30
0.0
 40
0.9857142857000456
 50
90.0
 51
180.0
  0
ARC
  5
7A1
  8
0
  6
CONTINUOUS
 62
     7
 10
-383.1719568199001
 20
-244.8671926185999
 30
0.0
 40
0.9857142857000456
 50
270.0
 51
0.0
  0
LINE
  5
7A2
  8
0
  6
CONTINUOUS
 62
     7
 10
-382.1862425342002
 20
-247.8243354757999
 30
0.0
 11
-382.1862425342002
 21
-248.8100497615
 31
0.0
  0
LINE
  5
7A3
  8
0
  6
CONTINUOUS
 62
     7
 10
-362.4719568199001
 20
-304.9957640472001
 30
0.0
 11
-362.4719568199001
 21
-305.9814783329002
 31
0.0
  0
LINE
  5
7A4
  8
0
  6
CONTINUOUS
 62
     7
 10
-364.4433853913002
 20
-303.0243354758001
 30
0.0
 11
-366.379428412
 21
-303.0243354758001
 31
0.0
  0
ARC
  5
7A5
  8
0
  6
CONTINUOUS
 62
     7
 10
-380.2148139627002
 20
-244.8671926185999
 30
0.0
 40
0.9857142857000456
 50
180.0
 51
270.0
  0
LINE
  5
7A6
  8
0
  6
CENTER
 62
     1
 10
-362.9648139627001
 20
-308.3891463103
 30
0.0
 11
-362.9648139627001
 21
-298.5322660158999
 31
0.0
  0
LINE
  5
7A7
  8
0
  6
CONTINUOUS
 62
     7
 10
-324.6005282485
 20
-322.3463774487001
 30
0.0
 11
-324.6005282485
 21
-327.9571926185001
 31
0.0
  0
LINE
  5
7A8
  8
0
  6
DASHED
 62
     6
 10
-355.8832687208001
 20
-336.4571926186
 30
0.0
 11
-359.3473703360001
 21
-336.4571926186
 31
0.0
  0
ARC
  5
7A9
  8
0
  6
DASHED
 62
     7
 10
-357.6153195284001
 20
-334.4020833778004
 30
0.0
 40
0.6000000000000449
 50
183.6522468033999
 51
354.3475503906
  0
ARC
  5
7AA
  8
0
  6
DASHED
 62
     6
 10
-359.3473703360001
 20
-337.4571926186001
 30
0.0
 40
0.9999999999999454
 50
90.0
 51
150.0
  0
ARC
  5
7AB
  8
0
  6
CONTINUOUS
 62
     7
 10
-366.2576711056002
 20
-312.8385151639004
 30
0.0
 40
2.000000000000002
 50
326.9717593463
 51
0.0
  0
LINE
  5
7AC
  8
0
  6
CONTINUOUS
 62
     7
 10
-380.4433853913001
 20
-309.4314783329002
 30
0.0
 11
-380.4433853913001
 21
-312.8385151639001
 31
0.0
  0
LINE
  5
7AD
  8
0
  6
CONTINUOUS
 62
     7
 10
-373.6005282485
 20
-325.2913597489003
 30
0.0
 11
-373.6005282485
 21
-327.9571926186003
 31
0.0
  0
LINE
  5
7AE
  8
0
  6
CONTINUOUS
 62
     7
 10
-366.8290996766001
 20
-432.4345629842006
 30
0.0
 11
-366.8290996766001
 21
-453.8640419502005
 31
0.0
  0
ARC
  5
7AF
  8
0
  6
CONTINUOUS
 62
     7
 10
-356.6153195284001
 20
-323.7075736773001
 30
0.0
 40
2.000000000000002
 50
90.0
 51
180.0
  0
LINE
  5
7B0
  8
0
  6
DASHED
 62
     6
 10
-353.2851925095001
 20
-339.9571926186001
 30
0.0
 11
-355.0172433170001
 21
-336.9571926186001
 31
0.0
  0
LINE
  5
7B1
  8
0
  6
CONTINUOUS
 62
     7
 10
-376.1005282485001
 20
-324.5501557876003
 30
0.0
 11
-376.1005282485001
 21
-327.9571926185998
 31
0.0
  0
ARC
  5
7B2
  8
0
  6
CONTINUOUS
 62
     7
 10
-378.4433853913001
 20
-312.0973112026001
 30
0.0
 40
4.499999999999893
 50
180.0
 51
213.0282406537
  0
LINE
  5
7B3
  8
0
  6
CONTINUOUS
 62
     7
 10
-327.1005282485001
 20
-322.3463774487001
 30
0.0
 11
-327.1005282485001
 21
-327.9571926185001
 31
0.0
  0
LINE
  5
7B4
  8
0
  6
CONTINUOUS
 62
     7
 10
-362.4848620262001
 20
-314.5500467469001
 30
0.0
 11
-368.2773322837002
 21
-323.4600511012001
 31
0.0
  0
LINE
  5
7B5
  8
0
  6
CONTINUOUS
 62
     7
 10
-364.5808670703001
 20
-313.9286198502003
 30
0.0
 11
-370.3733373279002
 21
-322.8386242046001
 31
0.0
  0
LINE
  5
7B6
  8
0
  6
DASHED
 62
     6
 10
-358.1153195284002
 20
-341.9571926186003
 30
0.0
 11
-358.1153195284002
 21
-342.4571926186002
 31
0.0
  0
LINE
  5
7B7
  8
0
  6
CONTINUOUS
 62
     7
 10
-343.9433853913002
 20
-317.8463774487
 30
0.0
 11
-329.1005282485001
 21
-317.8463774487
 31
0.0
  0
LINE
  5
7B8
  8
0
  6
CENTER
 62
     1
 10
-317.3290996757
 20
-471.5538034640002
 30
0.0
 11
-317.3290996757
 21
-452.0166636928001
 31
0.0
  0
LINE
  5
7B9
  8
0
  6
CONTINUOUS
 62
     7
 10
-371.1005282485001
 20
-325.2913597489003
 30
0.0
 11
-371.1005282485001
 21
-327.9571926186003
 31
0.0
  0
ARC
  5
7BA
  8
0
  6
CONTINUOUS
 62
     7
 10
-366.6005282485
 20
-324.5501557876003
 30
0.0
 40
2.000000000000002
 50
146.9717593463
 51
180.0
  0
LINE
  5
7BB
  8
0
  6
CONTINUOUS
 62
     7
 10
-366.8290996766001
 20
-417.9571926186001
 30
0.0
 11
-366.8290996766001
 21
-429.4345629842001
 31
0.0
  0
ARC
  5
7BC
  8
0
  6
DASHED
 62
     6
 10
-359.3473703359002
 20
-343.4571926185999
 30
0.0
 40
0.9999999999999454
 50
210.0
 51
270.0
  0
LINE
  5
7BD
  8
0
  6
DASHED
 62
     6
 10
-361.9454465473002
 20
-340.9571926185999
 30
0.0
 11
-360.2133957397002
 21
-343.9571926185999
 31
0.0
  0
LINE
  5
7BE
  8
0
  6
CONTINUOUS
 62
     7
 10
-325.9463280725002
 20
-417.9571926186001
 30
0.0
 11
-322.8290996766002
 21
-453.8640419502001
 31
0.0
  0
ARC
  5
7BF
  8
0
  6
CONTINUOUS
 62
     7
 10
-378.4433853913001
 20
-312.8385151639004
 30
0.0
 40
1.999999999999946
 50
180.0
 51
213.0282406537
  0
LINE
  5
7C0
  8
0
  6
CONTINUOUS
 62
     7
 10
-380.1201894266002
 20
-313.9286198502003
 30
0.0
 11
-374.3277191691001
 21
-322.8386242046001
 31
0.0
  0
LINE
  5
7C1
  8
0
  6
CONTINUOUS
 62
     7
 10
-364.2576711056002
 20
-309.4314783329002
 30
0.0
 11
-364.2576711056002
 21
-312.8385151639001
 31
0.0
  0
LINE
  5
7C2
  8
0
  6
DASHED
 62
     7
 10
-356.6153195284001
 20
-327.9571926186001
 30
0.0
 11
-356.6153195284001
 21
-332.7380766994001
 31
0.0
  0
LINE
  5
7C3
  8
0
  6
CONTINUOUS
 62
     7
 10
-327.1005282485001
 20
-324.5501557876003
 30
0.0
 11
-327.1005282485001
 21
-327.9571926184997
 31
0.0
  0
LINE
  5
7C4
  8
0
  6
CONTINUOUS
 62
     7
 10
-345.9433853913002
 20
-309.4314783329002
 30
0.0
 11
-345.9433853913002
 21
-315.8463774487001
 31
0.0
  0
LINE
  5
7C5
  8
0
  6
DASHED
 62
     6
 10
-358.1153195284002
 20
-338.9571926185999
 30
0.0
 11
-358.1153195284002
 21
-338.4571926186
 31
0.0
  0
LINE
  5
7C6
  8
0
  6
DASHED
 62
     6
 10
-359.1153195284001
 20
-340.9571926185999
 30
0.0
 11
-361.9454465473001
 21
-340.9571926185999
 31
0.0
  0
ARC
  5
7C7
  8
0
  6
DASHED
 62
     6
 10
-355.8832687208001
 20
-343.4571926185999
 30
0.0
 40
0.9999999999999454
 50
270.0
 51
330.0
  0
ARC
  5
7C8
  8
0
  6
CONTINUOUS
 62
     7
 10
-366.2576711056002
 20
-312.0973112026001
 30
0.0
 40
4.499999999999893
 50
326.9717593463
 51
0.0
  0
LINE
  5
7C9
  8
0
  6
CONTINUOUS
 62
     7
 10
-324.6005282485
 20
-325.2913597489003
 30
0.0
 11
-324.6005282485
 21
-327.9571926185002
 31
0.0
  0
LINE
  5
7CA
  8
0
  6
CONTINUOUS
 62
     7
 10
-348.4433853913002
 20
-309.4314783329002
 30
0.0
 11
-348.4433853913002
 21
-315.8463774487001
 31
0.0
  0
LINE
  5
7CB
  8
0
  6
DASHED
 62
     7
 10
-358.2153192545001
 20
-334.4026566507
 30
0.0
 11
-358.2169096861001
 21
-332.7380766994
 31
0.0
  0
LINE
  5
7CC
  8
0
  6
CONTINUOUS
 62
     7
 10
-382.9433853913002
 20
-309.4314783329002
 30
0.0
 11
-382.9433853913002
 21
-312.0973112026003
 31
0.0
  0
LINE
  5
7CD
  8
0
  6
CONTINUOUS
 62
     7
 10
-377.8290996766002
 20
-417.9571926186001
 30
0.0
 11
-377.8290996766002
 21
-453.8640419502001
 31
0.0
  0
ARC
  5
7CE
  8
0
  6
DASHED
 62
     6
 10
-359.1153195284001
 20
-338.9571926185999
 30
0.0
 40
0.9999999999999454
 50
270.0
 51
0.0
  0
LINE
  5
7CF
  8
0
  6
CONTINUOUS
 62
     7
 10
-358.6153195284001
 20
-327.9571926186001
 30
0.0
 11
-358.6153195284001
 21
-323.7075736772999
 31
0.0
  0
LINE
  5
7D0
  8
0
  6
DASHED
 62
     7
 10
-356.6153195284001
 20
-332.7380766994
 30
0.0
 11
-358.6153195284001
 21
-332.7380766994
 31
0.0
  0
LINE
  5
7D1
  8
0
  6
DASHED
 62
     7
 10
-357.0158840279001
 20
-333.8109794223001
 30
0.0
 11
-355.2640116169002
 21
-336.6720043358003
 31
0.0
  0
LINE
  5
7D2
  8
0
  6
DASHED
 62
     6
 10
-359.3473703359002
 20
-344.4571926186002
 30
0.0
 11
-355.8832687208001
 21
-344.4571926186002
 31
0.0
  0
LINE
  5
7D3
  8
0
  6
CONTINUOUS
 62
     7
 10
-343.9433853913002
 20
-320.3463774486999
 30
0.0
 11
-329.1005282485001
 21
-320.3463774486999
 31
0.0
  0
ARC
  5
7D4
  8
0
  6
CONTINUOUS
 62
     7
 10
-366.6005282485
 20
-325.2913597489003
 30
0.0
 40
4.499999999999893
 50
146.9717593463
 51
180.0
  0
LINE
  5
7D5
  8
0
  6
DASHED
 62
     7
 10
-358.6153195284001
 20
-332.7380766994
 30
0.0
 11
-358.6153195284001
 21
-327.9571926185999
 31
0.0
  0
ARC
  5
7D6
  8
0
  6
DASHED
 62
     6
 10
-355.8832687208001
 20
-337.4571926186001
 30
0.0
 40
0.9999999999999454
 50
30.0
 51
90.0
  0
LINE
  5
7D7
  8
0
  6
CONTINUOUS
 62
     7
 10
-356.6153195284001
 20
-324.7075736773
 30
0.0
 11
-356.6153195284001
 21
-327.9571926186001
 31
0.0
  0
LINE
  5
7D8
  8
0
  6
CONTINUOUS
 62
     7
 10
-382.2161944707001
 20
-314.5500467469001
 30
0.0
 11
-376.4237242132002
 21
-323.4600511012001
 31
0.0
  0
LINE
  5
7D9
  8
0
  6
DASHED
 62
     7
 10
-357.0169102338002
 20
-332.7369301537
 30
0.0
 11
-357.0153198022002
 21
-334.401510105
 31
0.0
  0
ENDSEC
  0
EOF
