  0
SECTION
  2
HEADER
  9
$ACADVER
  1
AC1004
  9
$INSBASE
 10
0.0
 20
0.0
  9
$EXTMIN
 10
-97.10000000000002
 20
55.92045454545455
  9
$EXTMAX
 10
425.45
 20
204.35
  9
$LIMMIN
 10
0.0
 20
0.0
  9
$LIMMAX
 10
12.0
 20
9.0
  9
$ORTHOMODE
 70
     0
  9
$REGENMODE
 70
     1
  9
$FILLMODE
 70
     1
  9
$QTEXTMODE
 70
     0
  9
$DRAGMODE
 70
     2
  9
$LTSCALE
 40
1.0
  9
$OSMODE
 70
    37
  9
$ATTMODE
 70
     1
  9
$TEXTSIZE
 40
0.2
  9
$TRACEWID
 40
0.05
  9
$TEXTSTYLE
  7
STANDARD
  9
$CLAYER
  8
0
  9
$CELTYPE
  6
BYLAYER
  9
$CECOLOR
 62
   256
  9
$DIMSCALE
 40
1.0
  9
$DIMASZ
 40
3.0
  9
$DIMEXO
 40
0.0625
  9
$DIMDLI
 40
0.38
  9
$DIMRND
 40
0.0
  9
$DIMDLE
 40
0.0
  9
$DIMEXE
 40
1.5
  9
$DIMTP
 40
0.0
  9
$DIMTM
 40
0.0
  9
$DIMTXT
 40
3.0
  9
$DIMCEN
 40
0.09
  9
$DIMTSZ
 40
0.0
  9
$DIMTOL
 70
     0
  9
$DIMLIM
 70
     0
  9
$DIMTIH
 70
     1
  9
$DIMTOH
 70
     1
  9
$DIMSE1
 70
     0
  9
$DIMSE2
 70
     0
  9
$DIMTAD
 70
     1
  9
$DIMZIN
 70
     0
  9
$DIMBLK
  1

  9
$DIMASO
 70
     1
  9
$DIMSHO
 70
     1
  9
$DIMPOST
  1

  9
$DIMAPOST
  1

  9
$DIMALT
 70
     0
  9
$DIMALTD
 70
     2
  9
$DIMALTF
 40
25.4
  9
$DIMLFAC
 40
1.0
  9
$DIMTOFL
 70
     0
  9
$DIMTVP
 40
0.0
  9
$DIMTIX
 70
     0
  9
$DIMSOXD
 70
     0
  9
$DIMSAH
 70
     0
  9
$DIMBLK1
  1

  9
$DIMBLK2
  1

  9
$LUNITS
 70
     2
  9
$LUPREC
 70
     4
  9
$SKETCHINC
 40
0.1
  9
$FILLETRAD
 40
0.5
  9
$AUNITS
 70
     0
  9
$AUPREC
 70
     0
  9
$MENU
  1
.
  9
$ELEVATION
 40
0.0
  9
$THICKNESS
 40
0.0
  9
$LIMCHECK
 70
     0
  9
$CHAMFERA
 40
0.0
  9
$CHAMFERB
 40
0.0
  9
$SKPOLY
 70
     0
  9
$TDCREATE
 40
2459270.577652188
  9
$TDUPDATE
 40
2459270.577652488
  9
$TDINDWG
 40
0.0000000116
  9
$TDUSRTIMER
 40
0.0000000116
  9
$USRTIMER
 70
     1
  9
$ANGBASE
 50
0.0
  9
$ANGDIR
 70
     0
  9
$PDMODE
 70
     0
  9
$PDSIZE
 40
0.0
  9
$PLINEWID
 40
0.0
  9
$COORDS
 70
     1
  9
$SPLFRAME
 70
     0
  9
$SPLINETYPE
 70
     6
  9
$SPLINESEGS
 70
     8
  9
$ATTDIA
 70
     0
  9
$ATTREQ
 70
     1
  9
$SURFTAB1
 70
     6
  9
$SURFTAB2
 70
     6
  9
$SURFTYPE
 70
     6
  9
$SURFU
 70
     6
  9
$SURFV
 70
     6
  9
$UCSNAME
  2

  9
$UCSORG
 10
0.0
 20
0.0
 30
0.0
  9
$UCSXDIR
 10
1.0
 20
0.0
 30
0.0
  9
$UCSYDIR
 10
0.0
 20
1.0
 30
0.0
  9
$USERI1
 70
     0
  9
$USERI2
 70
     0
  9
$USERI3
 70
     0
  9
$USERI4
 70
     0
  9
$USERI5
 70
     0
  9
$USERR1
 40
0.0
  9
$USERR2
 40
0.0
  9
$USERR3
 40
0.0
  9
$USERR4
 40
0.0
  9
$USERR5
 40
0.0
  9
$WORLDVIEW
 70
     1
  0
ENDSEC
  0
SECTION
  2
TABLES
  0
TABLE
  2
LTYPE
 70
     1
  0
LTYPE
  2
CONTINUOUS
 70
     0
  3
Solid line
 72
    65
 73
     0
 40
0.0
  0
ENDTAB
  0
TABLE
  2
LAYER
 70
     2
  0
LAYER
  2
0
 70
     0
 62
     7
  6
CONTINUOUS
  0
LAYER
  2
図面枠
 70
     0
 62
     7
  6
CONTINUOUS
  0
ENDTAB
  0
TABLE
  2
STYLE
 70
     2
  0
STYLE
  2
STANDARD
 70
     0
 40
0.0
 41
1.0
 50
0.0
 71
     0
 42
0.2
  3
txt
  4

  0
STYLE
  2
ＭＳ_ゴシック
 70
     0
 40
0.0
 41
1.0
 50
0.0
 71
     0
 42
0.2
  3
ＭＳ ゴシック.shx
  4

  0
ENDTAB
  0
TABLE
  2
VIEW
 70
     0
  0
ENDTAB
  0
ENDSEC
  0
SECTION
  2
BLOCKS
  0
ENDSEC
  0
SECTION
  2
ENTITIES
  0
TEXT
  8
図面枠
  6
CONTINUOUS
 62
     7
 10
-35.20669938727026
 20
55.57842003251221
 40
3.0
  1
3C-100
  0
CIRCLE
  8
図面枠
  6
CONTINUOUS
 62
     7
 10
-30.00000000000002
 20
137.25
 40
65.1
  0
CIRCLE
  8
図面枠
  6
CONTINUOUS
 62
     7
 10
-30.00000000000003
 20
137.25
 40
49.9
  0
CIRCLE
  8
図面枠
  6
CONTINUOUS
 62
     7
 10
-30.00000000000004
 20
137.25
 40
57.4931508455872
  0
LINE
  8
図面枠
  6
CONTINUOUS
 62
     7
 10
422.45
 20
72.15000000000002
 11
422.45
 21
137.25
  0
LINE
  8
図面枠
  6
CONTINUOUS
 62
     7
 10
72.44999999999999
 20
137.25
 11
72.44999999999999
 21
201.25
  0
LINE
  8
図面枠
  6
CONTINUOUS
 62
     7
 10
186.5743556529821
 20
137.25
 11
186.5743556529821
 21
194.2499999999999
  0
LINE
  8
図面枠
  6
CONTINUOUS
 62
     7
 10
174.45
 20
201.25
 11
72.45
 21
201.25
  0
LINE
  8
図面枠
  6
CONTINUOUS
 62
     7
 10
235.45
 20
202.35
 11
221.4203884586921
 21
194.25
  0
LINE
  8
図面枠
  6
CONTINUOUS
 62
     7
 10
422.45
 20
202.35
 11
235.45
 21
202.35
  0
LINE
  8
図面枠
  6
CONTINUOUS
 62
     7
 10
174.45
 20
73.25000000000001
 11
186.5743556529821
 21
80.25000000000001
  0
LINE
  8
図面枠
  6
CONTINUOUS
 62
     7
 10
-30.00000000000002
 20
70.15000000000002
 11
-30.00000000000002
 21
204.35
  0
LINE
  8
図面枠
  6
CONTINUOUS
 62
     7
 10
72.44999999999999
 20
73.25000000000001
 11
72.44999999999999
 21
137.25
  0
LINE
  8
図面枠
  6
CONTINUOUS
 62
     7
 10
186.5743556529821
 20
80.25000000000007
 11
186.5743556529821
 21
137.25
  0
LINE
  8
図面枠
  6
CONTINUOUS
 62
     7
 10
69.44999999999999
 20
137.25
 11
425.45
 21
137.25
  0
LINE
  8
図面枠
  6
CONTINUOUS
 62
     7
 10
174.45
 20
73.25000000000001
 11
174.45
 21
137.25
  0
LINE
  8
図面枠
  6
CONTINUOUS
 62
     7
 10
221.4203884586921
 20
80.25000000000001
 11
235.45
 21
72.15000000000002
  0
LINE
  8
図面枠
  6
CONTINUOUS
 62
     7
 10
235.45
 20
72.15000000000002
 11
422.45
 21
72.15000000000002
  0
LINE
  8
図面枠
  6
CONTINUOUS
 62
     7
 10
186.5743556529821
 20
194.25
 11
174.45
 21
201.25
  0
LINE
  8
図面枠
  6
CONTINUOUS
 62
     7
 10
186.5743556529821
 20
80.25000000000001
 11
221.4203884586921
 21
80.25000000000001
  0
LINE
  8
図面枠
  6
CONTINUOUS
 62
     7
 10
-97.10000000000002
 20
137.25
 11
37.09999999999997
 21
137.25
  0
LINE
  8
図面枠
  6
CONTINUOUS
 62
     7
 10
221.4203884586921
 20
194.25
 11
186.5743556529821
 21
194.25
  0
LINE
  8
図面枠
  6
CONTINUOUS
 62
     7
 10
174.45
 20
137.25
 11
174.45
 21
201.25
  0
LINE
  8
図面枠
  6
CONTINUOUS
 62
     7
 10
72.44999999999999
 20
73.25000000000001
 11
174.45
 21
73.25000000000001
  0
LINE
  8
図面枠
  6
CONTINUOUS
 62
     7
 10
422.45
 20
137.25
 11
422.45
 21
202.35
  0
LINE
  8
図面枠
  6
CONTINUOUS
 62
     7
 10
221.4203884586921
 20
80.25000000000007
 11
221.4203884586921
 21
137.25
  0
LINE
  8
図面枠
  6
CONTINUOUS
 62
     7
 10
235.45
 20
72.15000000000002
 11
235.45
 21
137.25
  0
LINE
  8
図面枠
  6
CONTINUOUS
 62
     7
 10
221.4203884586921
 20
137.25
 11
221.4203884586921
 21
194.2499999999999
  0
LINE
  8
図面枠
  6
CONTINUOUS
 62
     7
 10
235.45
 20
137.25
 11
235.45
 21
202.35
  0
ENDSEC
  0
EOF
