  0
SECTION
  2
HEADER
  9
$ACADVER
  1
AC1006
  9
$DWGCODEPAGE
  3
ansi_932
  9
$INSBASE
 10
0.0
 20
0.0
 30
0.0
  9
$EXTMIN
 10
33.67193105825578
 20
161.3750194724293
  9
$EXTMAX
 10
160.2073820865791
 20
209.3750194724294
  9
$LIMMIN
 10
0.0
 20
0.0
  9
$LIMMAX
 10
12.0
 20
9.0
  9
$ORTHOMODE
 70
     0
  9
$REGENMODE
 70
     1
  9
$FILLMODE
 70
     1
  9
$QTEXTMODE
 70
     0
  9
$MIRRTEXT
 70
     1
  9
$DRAGMODE
 70
     2
  9
$LTSCALE
 40
1.0
  9
$OSMODE
 70
    37
  9
$ATTMODE
 70
     1
  9
$TEXTSIZE
 40
0.2
  9
$TRACEWID
 40
0.05
  9
$TEXTSTYLE
  7
STANDARD
  9
$CLAYER
  8
0
  9
$CELTYPE
  6
BYLAYER
  9
$CECOLOR
 62
   256
  9
$DIMSCALE
 40
1.0
  9
$DIMASZ
 40
3.0
  9
$DIMEXO
 40
0.0625
  9
$DIMDLI
 40
0.38
  9
$DIMRND
 40
0.0
  9
$DIMDLE
 40
0.0
  9
$DIMEXE
 40
1.5
  9
$DIMTP
 40
0.0
  9
$DIMTM
 40
0.0
  9
$DIMTXT
 40
3.0
  9
$DIMCEN
 40
0.09
  9
$DIMTSZ
 40
0.0
  9
$DIMTOL
 70
     0
  9
$DIMLIM
 70
     0
  9
$DIMTIH
 70
     1
  9
$DIMTOH
 70
     1
  9
$DIMSE1
 70
     0
  9
$DIMSE2
 70
     0
  9
$DIMTAD
 70
     1
  9
$DIMZIN
 70
     0
  9
$DIMBLK
  1

  9
$DIMASO
 70
     1
  9
$DIMSHO
 70
     1
  9
$DIMPOST
  1

  9
$DIMAPOST
  1

  9
$DIMALT
 70
     0
  9
$DIMALTD
 70
     2
  9
$DIMALTF
 40
25.4
  9
$DIMLFAC
 40
1.0
  9
$DIMTOFL
 70
     0
  9
$DIMTVP
 40
0.0
  9
$DIMTIX
 70
     0
  9
$DIMSOXD
 70
     0
  9
$DIMSAH
 70
     0
  9
$DIMBLK1
  1

  9
$DIMBLK2
  1

  9
$LUNITS
 70
     2
  9
$LUPREC
 70
     4
  9
$SKETCHINC
 40
0.1
  9
$FILLETRAD
 40
0.5
  9
$AUNITS
 70
     0
  9
$AUPREC
 70
     0
  9
$MENU
  1
.
  9
$ELEVATION
 40
0.0
  9
$THICKNESS
 40
0.0
  9
$LIMCHECK
 70
     0
  9
$CHAMFERA
 40
0.0
  9
$CHAMFERB
 40
0.0
  9
$SKPOLY
 70
     0
  9
$TDCREATE
 40
2460630.340904572
  9
$TDUPDATE
 40
2460630.340904792
  9
$TDINDWG
 40
0.0000000116
  9
$TDUSRTIMER
 40
0.0000000116
  9
$USRTIMER
 70
     1
  9
$ANGBASE
 50
0.0
  9
$ANGDIR
 70
     0
  9
$PDMODE
 70
     0
  9
$PDSIZE
 40
0.0
  9
$PLINEWID
 40
0.0
  9
$COORDS
 70
     1
  9
$SPLFRAME
 70
     0
  9
$SPLINETYPE
 70
     6
  9
$SPLINESEGS
 70
     8
  9
$ATTDIA
 70
     0
  9
$ATTREQ
 70
     1
  9
$HANDLING
 70
     1
  9
$HANDSEED
  5
B0
  9
$SURFTAB1
 70
     6
  9
$SURFTAB2
 70
     6
  9
$SURFTYPE
 70
     6
  9
$SURFU
 70
     6
  9
$SURFV
 70
     6
  9
$UCSNAME
  2

  9
$UCSORG
 10
0.0
 20
0.0
 30
0.0
  9
$UCSXDIR
 10
1.0
 20
0.0
 30
0.0
  9
$UCSYDIR
 10
0.0
 20
1.0
 30
0.0
  9
$USERI1
 70
     0
  9
$USERI2
 70
     0
  9
$USERI3
 70
     0
  9
$USERI4
 70
     0
  9
$USERI5
 70
     0
  9
$USERR1
 40
0.0
  9
$USERR2
 40
0.0
  9
$USERR3
 40
0.0
  9
$USERR4
 40
0.0
  9
$USERR5
 40
0.0
  9
$WORLDVIEW
 70
     1
  0
ENDSEC
  0
SECTION
  2
TABLES
  0
TABLE
  2
VPORT
 70
     1
  0
VPORT
  2
*ACTIVE
 70
     0
 10
0.0
 20
0.0
 11
1.0
 21
1.0
 12
96.93965657241743
 22
185.3750194724294
 13
0.0
 23
0.0
 14
0.5
 24
0.5
 15
0.5
 25
0.5
 16
0.0
 26
0.0
 36
1.0
 17
0.0
 27
0.0
 37
0.0
 40
48.00000000000009
 41
1.6
 42
50.0
 43
0.0
 44
0.0
 50
0.0
 51
0.0
 71
     0
 72
   100
 73
     1
 74
     3
 75
     0
 76
     0
 77
     0
 78
     0
  0
ENDTAB
  0
TABLE
  2
LTYPE
 70
     3
  0
LTYPE
  2
CONTINUOUS
 70
     0
  3
Solid line
 72
    65
 73
     0
 40
0.0
  0
LTYPE
  2
DOT
 70
     0
  3

 72
    65
 73
     0
 40
0.0
  0
LTYPE
  2
CENTER
 70
     0
  3

 72
    65
 73
     0
 40
0.0
  0
ENDTAB
  0
TABLE
  2
LAYER
 70
     1
  0
LAYER
  2
0
 70
     0
 62
     7
  6
CONTINUOUS
  0
ENDTAB
  0
TABLE
  2
STYLE
 70
     2
  0
STYLE
  2
STANDARD
 70
     0
 40
0.0
 41
1.0
 50
0.0
 71
     0
 42
0.2
  3
txt
  4

  0
STYLE
  2
ＭＳ_ゴシック
 70
     0
 40
0.0
 41
1.0
 50
0.0
 71
     0
 42
0.2
  3
ＭＳ ゴシック.shx
  4

  0
ENDTAB
  0
TABLE
  2
VIEW
 70
     0
  0
ENDTAB
  0
TABLE
  2
UCS
 70
     0
  0
ENDTAB
  0
ENDSEC
  0
SECTION
  2
BLOCKS
  0
BLOCK
  8
0
  2
D_FRAME_VIEW_1330
 70
     0
 10
0.0
 20
0.0
 30
0.0
  0
LINE
  5
70
  8
0
  6
CONTINUOUS
 62
     7
 10
126.1719310582558
 20
198.3750194724293
 30
0.0
 11
126.1719310582558
 21
199.3750194724293
 31
0.0
  0
LINE
  5
71
  8
0
  6
CONTINUOUS
 62
     7
 10
126.1719310582558
 20
207.3750194724293
 30
0.0
 11
33.67193105825579
 21
207.3750194724293
 31
0.0
  0
LINE
  5
72
  8
0
  6
CONTINUOUS
 62
     7
 10
126.1719310582558
 20
199.3750194724293
 30
0.0
 11
126.1719310582558
 21
207.3750194724293
 31
0.0
  0
LINE
  5
73
  8
0
  6
CONTINUOUS
 62
     7
 10
33.67193105825579
 20
207.3750194724293
 30
0.0
 11
33.67193105825578
 21
199.3750194724293
 31
0.0
  0
LINE
  5
74
  8
0
  6
CONTINUOUS
 62
     7
 10
33.67193105825578
 20
198.3750194724293
 30
0.0
 11
33.67193105825578
 21
199.3750194724293
 31
0.0
  0
LINE
  5
75
  8
0
  6
CONTINUOUS
 62
     7
 10
125.1719310582558
 20
187.8750194724293
 30
0.0
 11
126.1719310582558
 21
188.8750194724293
 31
0.0
  0
LINE
  5
76
  8
0
  6
CONTINUOUS
 62
     7
 10
125.1719310582558
 20
182.1429686648604
 30
0.0
 11
125.1719310582558
 21
187.8750194724293
 31
0.0
  0
LINE
  5
77
  8
0
  6
CONTINUOUS
 62
     7
 10
112.1719310582558
 20
181.8750194724293
 30
0.0
 11
124.1719310582558
 21
181.8750194724293
 31
0.0
  0
ARC
  5
78
  8
0
  6
CONTINUOUS
 62
     7
 10
112.1719310582558
 20
180.8750194724293
 30
0.0
 40
1.000000000000004
 50
90.0
 51
180.0
  0
LINE
  5
79
  8
0
  6
CONTINUOUS
 62
     7
 10
111.1719310582558
 20
176.3750194724293
 30
0.0
 11
111.1719310582558
 21
180.8750194724293
 31
0.0
  0
ARC
  5
7A
  8
0
  6
CONTINUOUS
 62
     7
 10
110.1719310582558
 20
176.3750194724293
 30
0.0
 40
1.000000000000001
 50
270.0
 51
0.0
  0
ARC
  5
7B
  8
0
  6
CONTINUOUS
 62
     7
 10
47.67193105825579
 20
180.8750194724293
 30
0.0
 40
1.000000000000001
 50
0.0
 51
89.9999999999992
  0
LINE
  5
7C
  8
0
  6
CONTINUOUS
 62
     7
 10
35.67193105825579
 20
181.8750194724293
 30
0.0
 11
47.6719310582558
 21
181.8750194724293
 31
0.0
  0
LINE
  5
7D
  8
0
  6
CONTINUOUS
 62
     7
 10
34.67193105825579
 20
187.8750194724293
 30
0.0
 11
34.67193105825579
 21
182.1429686648604
 31
0.0
  0
LINE
  5
7E
  8
0
  6
CONTINUOUS
 62
     7
 10
33.67193105825578
 20
197.8750194724293
 30
0.0
 11
33.67193105825579
 21
188.8750194724293
 31
0.0
  0
LINE
  5
7F
  8
0
  6
CONTINUOUS
 62
     7
 10
48.67193105825579
 20
180.8750194724293
 30
0.0
 11
48.67193105825579
 21
176.3750194724293
 31
0.0
  0
ARC
  5
80
  8
0
  6
CONTINUOUS
 62
     7
 10
124.1719310582558
 20
183.8750194724293
 30
0.0
 40
2.000000000000002
 50
270.0
 51
299.9999999999995
  0
ARC
  5
81
  8
0
  6
CONTINUOUS
 62
     7
 10
49.67193105825579
 20
176.3750194724293
 30
0.0
 40
1.000000000000001
 50
180.0
 51
270.0
  0
LINE
  5
82
  8
0
  6
CONTINUOUS
 62
     7
 10
49.67193105825579
 20
175.3750194724293
 30
0.0
 11
110.1719310582558
 21
175.3750194724293
 31
0.0
  0
ARC
  5
83
  8
0
  6
CONTINUOUS
 62
     7
 10
35.67193105825579
 20
183.8750194724293
 30
0.0
 40
2.000000000000002
 50
240.0
 51
270.0
  0
LINE
  5
84
  8
0
  6
CONTINUOUS
 62
     7
 10
33.67193105825579
 20
188.8750194724293
 30
0.0
 11
34.67193105825579
 21
187.8750194724293
 31
0.0
  0
LINE
  5
85
  8
0
  6
CONTINUOUS
 62
     7
 10
126.1719310582558
 20
188.8750194724293
 30
0.0
 11
126.1719310582558
 21
197.8750194724293
 31
0.0
  0
LINE
  5
86
  8
0
  6
CONTINUOUS
 62
     7
 10
33.67193105825578
 20
197.8750194724293
 30
0.0
 11
33.67193105825578
 21
198.3750194724293
 31
0.0
  0
LINE
  5
87
  8
0
  6
CONTINUOUS
 62
     7
 10
126.1719310582558
 20
197.8750194724293
 30
0.0
 11
126.1719310582558
 21
198.3750194724293
 31
0.0
  0
ENDBLK
  8
0
  0
BLOCK
  8
0
  2
D_FRAME_VIEW_1495
 70
     0
 10
0.0
 20
0.0
 30
0.0
  0
LINE
  5
91
  8
0
  6
CONTINUOUS
 62
     7
 10
158.2073820865791
 20
188.8750194724293
 30
0.0
 11
160.2073820865791
 21
188.8750194724293
 31
0.0
  0
LINE
  5
92
  8
0
  6
CONTINUOUS
 62
     7
 10
158.2073820865791
 20
188.8750194724293
 30
0.0
 11
158.2073820865791
 21
197.8750194724293
 31
0.0
  0
LINE
  5
93
  8
0
  6
CONTINUOUS
 62
     7
 10
158.2073820865791
 20
199.3750194724293
 30
0.0
 11
158.2073820865791
 21
207.3750194724293
 31
0.0
  0
LINE
  5
94
  8
0
  6
CONTINUOUS
 62
     7
 10
160.2073820865791
 20
188.8750194724293
 30
0.0
 11
160.2073820865791
 21
207.3750194724293
 31
0.0
  0
LINE
  5
95
  8
0
  6
CONTINUOUS
 62
     7
 10
160.2073820865791
 20
207.3750194724293
 30
0.0
 11
158.2073820865791
 21
207.3750194724293
 31
0.0
  0
LINE
  5
96
  8
0
  6
CONTINUOUS
 62
     7
 10
160.2073820865791
 20
187.8750194724293
 30
0.0
 11
158.2073820865791
 21
187.8750194724293
 31
0.0
  0
LINE
  5
97
  8
0
  6
CONTINUOUS
 62
     7
 10
158.2073820865791
 20
187.8750194724293
 30
0.0
 11
158.2073820865791
 21
188.8750194724293
 31
0.0
  0
LINE
  5
98
  8
0
  6
CONTINUOUS
 62
     7
 10
160.2073820865791
 20
188.8750194724293
 30
0.0
 11
160.2073820865791
 21
187.8750194724293
 31
0.0
  0
LINE
  5
99
  8
0
  6
CONTINUOUS
 62
     7
 10
158.2073820865791
 20
181.8750194724293
 30
0.0
 11
158.2073820865791
 21
182.1429686648604
 31
0.0
  0
LINE
  5
9A
  8
0
  6
CONTINUOUS
 62
     7
 10
160.2073820865791
 20
181.8750194724293
 30
0.0
 11
160.2073820865791
 21
182.1429686648604
 31
0.0
  0
LINE
  5
9B
  8
0
  6
CONTINUOUS
 62
     7
 10
158.2073820865791
 20
182.1429686648604
 30
0.0
 11
158.2073820865791
 21
187.8750194724293
 31
0.0
  0
LINE
  5
9C
  8
0
  6
CONTINUOUS
 62
     7
 10
160.2073820865791
 20
182.1429686648604
 30
0.0
 11
160.2073820865791
 21
187.8750194724293
 31
0.0
  0
LINE
  5
9D
  8
0
  6
CONTINUOUS
 62
     7
 10
160.2073820865791
 20
180.8750194724293
 30
0.0
 11
158.2073820865791
 21
180.8750194724293
 31
0.0
  0
LINE
  5
9E
  8
0
  6
CONTINUOUS
 62
     7
 10
158.2073820865791
 20
181.8750194724293
 30
0.0
 11
158.2073820865791
 21
180.8750194724293
 31
0.0
  0
LINE
  5
9F
  8
0
  6
CONTINUOUS
 62
     7
 10
160.2073820865791
 20
181.8750194724293
 30
0.0
 11
160.2073820865791
 21
180.8750194724293
 31
0.0
  0
LINE
  5
A0
  8
0
  6
CONTINUOUS
 62
     7
 10
160.2073820865791
 20
175.3750194724293
 30
0.0
 11
158.2073820865791
 21
175.3750194724293
 31
0.0
  0
LINE
  5
A1
  8
0
  6
CONTINUOUS
 62
     7
 10
158.2073820865791
 20
175.3750194724293
 30
0.0
 11
158.2073820865791
 21
176.3750194724293
 31
0.0
  0
LINE
  5
A2
  8
0
  6
CONTINUOUS
 62
     7
 10
160.2073820865791
 20
175.3750194724293
 30
0.0
 11
160.2073820865791
 21
176.3750194724293
 31
0.0
  0
LINE
  5
A3
  8
0
  6
CONTINUOUS
 62
     7
 10
158.2073820865791
 20
176.3750194724293
 30
0.0
 11
158.2073820865791
 21
180.8750194724293
 31
0.0
  0
LINE
  5
A4
  8
0
  6
CONTINUOUS
 62
     7
 10
160.2073820865791
 20
176.3750194724293
 30
0.0
 11
160.2073820865791
 21
180.8750194724293
 31
0.0
  0
LINE
  5
A5
  8
0
  6
CONTINUOUS
 62
     7
 10
158.0073820865791
 20
181.3750194724293
 30
0.0
 11
158.0073820865791
 21
181.380025040365
 31
0.0
  0
ENDBLK
  8
0
  0
ENDSEC
  0
SECTION
  2
ENTITIES
  0
INSERT
  5
88
  8
0
  6
DOT
 62
     7
  2
D_FRAME_VIEW_1330
 10
0.0
 20
0.0
 30
0.0
  0
TEXT
  5
8A
  8
0
  6
CONTINUOUS
 62
     7
 10
93.8936300545671
 20
160.852292199702
 30
0.0
 40
5.0
  1
３ＭＫ
  0
LINE
  5
8B
  8
0
  6
CONTINUOUS
 62
     7
 10
158.2073820865791
 20
199.3750194724293
 30
0.0
 11
158.2073820865791
 21
197.8750194724293
 31
0.0
  0
LINE
  5
8C
  8
0
  6
CENTER
 62
     1
 10
79.92193105825581
 20
209.3750194724294
 30
0.0
 11
79.92193105825577
 21
172.3750194724292
 31
0.0
  0
INSERT
  5
A6
  8
0
  6
DOT
 62
     7
  2
D_FRAME_VIEW_1495
 10
0.0
 20
0.0
 30
0.0
  0
ENDSEC
  0
EOF
