  0
SECTION
  2
HEADER
  9
$ACADVER
  1
AC1006
  9
$DWGCODEPAGE
  3
ansi_932
  9
$INSBASE
 10
0.0
 20
0.0
 30
0.0
  9
$EXTMIN
 10
149.9
 20
65.03636363636365
  9
$EXTMAX
 10
248.7636363636364
 20
240.91
  9
$LIMMIN
 10
0.0
 20
0.0
  9
$LIMMAX
 10
12.0
 20
9.0
  9
$ORTHOMODE
 70
     0
  9
$REGENMODE
 70
     1
  9
$FILLMODE
 70
     1
  9
$QTEXTMODE
 70
     0
  9
$MIRRTEXT
 70
     1
  9
$DRAGMODE
 70
     2
  9
$LTSCALE
 40
1.0
  9
$OSMODE
 70
    37
  9
$ATTMODE
 70
     1
  9
$TEXTSIZE
 40
0.2
  9
$TRACEWID
 40
0.05
  9
$TEXTSTYLE
  7
STANDARD
  9
$CLAYER
  8
0
  9
$CELTYPE
  6
BYLAYER
  9
$CECOLOR
 62
   256
  9
$DIMSCALE
 40
1.0
  9
$DIMASZ
 40
3.0
  9
$DIMEXO
 40
0.0625
  9
$DIMDLI
 40
0.38
  9
$DIMRND
 40
0.0
  9
$DIMDLE
 40
0.0
  9
$DIMEXE
 40
1.5
  9
$DIMTP
 40
0.0
  9
$DIMTM
 40
0.0
  9
$DIMTXT
 40
3.0
  9
$DIMCEN
 40
0.09
  9
$DIMTSZ
 40
0.0
  9
$DIMTOL
 70
     0
  9
$DIMLIM
 70
     0
  9
$DIMTIH
 70
     1
  9
$DIMTOH
 70
     1
  9
$DIMSE1
 70
     0
  9
$DIMSE2
 70
     0
  9
$DIMTAD
 70
     1
  9
$DIMZIN
 70
     0
  9
$DIMBLK
  1

  9
$DIMASO
 70
     1
  9
$DIMSHO
 70
     1
  9
$DIMPOST
  1

  9
$DIMAPOST
  1

  9
$DIMALT
 70
     0
  9
$DIMALTD
 70
     2
  9
$DIMALTF
 40
25.4
  9
$DIMLFAC
 40
1.0
  9
$DIMTOFL
 70
     0
  9
$DIMTVP
 40
0.0
  9
$DIMTIX
 70
     0
  9
$DIMSOXD
 70
     0
  9
$DIMSAH
 70
     0
  9
$DIMBLK1
  1

  9
$DIMBLK2
  1

  9
$LUNITS
 70
     2
  9
$LUPREC
 70
     4
  9
$SKETCHINC
 40
0.1
  9
$FILLETRAD
 40
0.5
  9
$AUNITS
 70
     0
  9
$AUPREC
 70
     0
  9
$MENU
  1
.
  9
$ELEVATION
 40
0.0
  9
$THICKNESS
 40
0.0
  9
$LIMCHECK
 70
     0
  9
$CHAMFERA
 40
0.0
  9
$CHAMFERB
 40
0.0
  9
$SKPOLY
 70
     0
  9
$TDCREATE
 40
2460158.433389873
  9
$TDUPDATE
 40
2460158.433390162
  9
$TDINDWG
 40
0.0000000116
  9
$TDUSRTIMER
 40
0.0000000116
  9
$USRTIMER
 70
     1
  9
$ANGBASE
 50
0.0
  9
$ANGDIR
 70
     0
  9
$PDMODE
 70
     0
  9
$PDSIZE
 40
0.0
  9
$PLINEWID
 40
0.0
  9
$COORDS
 70
     1
  9
$SPLFRAME
 70
     0
  9
$SPLINETYPE
 70
     6
  9
$SPLINESEGS
 70
     8
  9
$ATTDIA
 70
     0
  9
$ATTREQ
 70
     1
  9
$HANDLING
 70
     1
  9
$HANDSEED
  5
273
  9
$SURFTAB1
 70
     6
  9
$SURFTAB2
 70
     6
  9
$SURFTYPE
 70
     6
  9
$SURFU
 70
     6
  9
$SURFV
 70
     6
  9
$UCSNAME
  2

  9
$UCSORG
 10
0.0
 20
0.0
 30
0.0
  9
$UCSXDIR
 10
1.0
 20
0.0
 30
0.0
  9
$UCSYDIR
 10
0.0
 20
1.0
 30
0.0
  9
$USERI1
 70
     0
  9
$USERI2
 70
     0
  9
$USERI3
 70
     0
  9
$USERI4
 70
     0
  9
$USERI5
 70
     0
  9
$USERR1
 40
0.0
  9
$USERR2
 40
0.0
  9
$USERR3
 40
0.0
  9
$USERR4
 40
0.0
  9
$USERR5
 40
0.0
  9
$WORLDVIEW
 70
     1
  0
ENDSEC
  0
SECTION
  2
TABLES
  0
TABLE
  2
VPORT
 70
     1
  0
VPORT
  2
*ACTIVE
 70
     0
 10
0.0
 20
0.0
 11
1.0
 21
1.0
 12
199.3318181818182
 22
152.9731818181818
 13
0.0
 23
0.0
 14
0.5
 24
0.5
 15
0.5
 25
0.5
 16
0.0
 26
0.0
 36
1.0
 17
0.0
 27
0.0
 37
0.0
 40
175.8736363636364
 41
1.6
 42
50.0
 43
0.0
 44
0.0
 50
0.0
 51
0.0
 71
     0
 72
   100
 73
     1
 74
     3
 75
     0
 76
     0
 77
     0
 78
     0
  0
ENDTAB
  0
TABLE
  2
LTYPE
 70
     1
  0
LTYPE
  2
CONTINUOUS
 70
     0
  3
Solid line
 72
    65
 73
     0
 40
0.0
  0
ENDTAB
  0
TABLE
  2
LAYER
 70
     2
  0
LAYER
  2
0
 70
     0
 62
     7
  6
CONTINUOUS
  0
LAYER
  2
1
 70
     0
 62
     7
  6
CONTINUOUS
  0
ENDTAB
  0
TABLE
  2
STYLE
 70
     2
  0
STYLE
  2
STANDARD
 70
     0
 40
0.0
 41
1.0
 50
0.0
 71
     0
 42
0.2
  3
txt
  4

  0
STYLE
  2
ＭＳ_ゴシック
 70
     0
 40
0.0
 41
1.0
 50
0.0
 71
     0
 42
0.2
  3
ＭＳ ゴシック.shx
  4

  0
ENDTAB
  0
TABLE
  2
VIEW
 70
     0
  0
ENDTAB
  0
TABLE
  2
UCS
 70
     0
  0
ENDTAB
  0
ENDSEC
  0
SECTION
  2
BLOCKS
  0
ENDSEC
  0
SECTION
  2
ENTITIES
  0
LINE
  5
70
  8
1
  6
CONTINUOUS
 62
     7
 10
195.2961113167201
 20
133.2505553499465
 30
0.0
 11
195.18
 21
132.5
 31
0.0
  0
LINE
  5
71
  8
1
  6
CONTINUOUS
 62
     7
 10
195.18
 20
132.5
 30
0.0
 11
195.18
 21
133.6258330249198
 31
0.0
  0
LINE
  5
72
  8
1
  6
CONTINUOUS
 62
     7
 10
195.18
 20
133.6258330249198
 30
0.0
 11
195.2961113167202
 21
133.2505553499465
 31
0.0
  0
LINE
  5
73
  8
1
  6
CONTINUOUS
 62
     7
 10
195.2961113167201
 20
131.7494446500535
 30
0.0
 11
195.18
 21
131.3741669750802
 31
0.0
  0
LINE
  5
74
  8
1
  6
CONTINUOUS
 62
     7
 10
195.18
 20
131.3741669750802
 30
0.0
 11
195.18
 21
132.5
 31
0.0
  0
LINE
  5
75
  8
1
  6
CONTINUOUS
 62
     7
 10
195.18
 20
132.5
 30
0.0
 11
195.2961113167202
 21
131.7494446500535
 31
0.0
  0
LINE
  5
76
  8
1
  6
CONTINUOUS
 62
     7
 10
196.3638886832799
 20
133.2505553499465
 30
0.0
 11
196.48
 21
133.6258330249198
 31
0.0
  0
LINE
  5
77
  8
1
  6
CONTINUOUS
 62
     7
 10
196.48
 20
132.5
 30
0.0
 11
196.3638886832799
 21
133.2505553499465
 31
0.0
  0
LINE
  5
78
  8
1
  6
CONTINUOUS
 62
     7
 10
196.48
 20
131.3741669750802
 30
0.0
 11
196.3638886832799
 21
131.7494446500535
 31
0.0
  0
LINE
  5
79
  8
1
  6
CONTINUOUS
 62
     7
 10
196.3638886832799
 20
131.7494446500535
 30
0.0
 11
196.48
 21
132.5
 31
0.0
  0
LINE
  5
7A
  8
1
  6
CONTINUOUS
 62
     7
 10
195.2961113167201
 20
133.2505553499465
 30
0.0
 11
196.3638886832798
 21
133.2505553499465
 31
0.0
  0
LINE
  5
7B
  8
1
  6
CONTINUOUS
 62
     7
 10
195.2961113167201
 20
131.7494446500535
 30
0.0
 11
196.3638886832798
 21
131.7494446500535
 31
0.0
  0
LINE
  5
7C
  8
1
  6
CONTINUOUS
 62
     7
 10
195.18
 20
131.3741669750802
 30
0.0
 11
195.2961113167202
 21
130.998889300107
 31
0.0
  0
LINE
  5
7D
  8
1
  6
CONTINUOUS
 62
     7
 10
196.3638886832799
 20
130.998889300107
 30
0.0
 11
196.48
 21
131.3741669750802
 31
0.0
  0
LINE
  5
7E
  8
1
  6
CONTINUOUS
 62
     7
 10
195.2961113167201
 20
130.998889300107
 30
0.0
 11
196.3638886832798
 21
130.998889300107
 31
0.0
  0
LINE
  5
7F
  8
1
  6
CONTINUOUS
 62
     7
 10
195.2961113167201
 20
134.001110699893
 30
0.0
 11
195.18
 21
133.6258330249198
 31
0.0
  0
LINE
  5
80
  8
1
  6
CONTINUOUS
 62
     7
 10
195.2961113167201
 20
134.001110699893
 30
0.0
 11
196.3638886832798
 21
134.001110699893
 31
0.0
  0
LINE
  5
81
  8
1
  6
CONTINUOUS
 62
     7
 10
196.48
 20
133.6258330249198
 30
0.0
 11
196.3638886832799
 21
134.001110699893
 31
0.0
  0
LINE
  5
82
  8
1
  6
CONTINUOUS
 62
     7
 10
195.18
 20
133.6258330249198
 30
0.0
 11
195.18
 21
133.8
 31
0.0
  0
LINE
  5
83
  8
1
  6
CONTINUOUS
 62
     7
 10
195.18
 20
131.2
 30
0.0
 11
195.18
 21
131.3741669750802
 31
0.0
  0
LINE
  5
84
  8
1
  6
CONTINUOUS
 62
     7
 10
195.2961113167201
 20
161.7494446500535
 30
0.0
 11
195.18
 21
161.3741669750802
 31
0.0
  0
LINE
  5
85
  8
1
  6
CONTINUOUS
 62
     7
 10
195.18
 20
161.3741669750802
 30
0.0
 11
195.18
 21
162.5
 31
0.0
  0
LINE
  5
86
  8
1
  6
CONTINUOUS
 62
     7
 10
195.18
 20
162.5
 30
0.0
 11
195.2961113167202
 21
161.7494446500535
 31
0.0
  0
LINE
  5
87
  8
1
  6
CONTINUOUS
 62
     7
 10
195.2961113167201
 20
163.2505553499465
 30
0.0
 11
195.18
 21
162.5
 31
0.0
  0
LINE
  5
88
  8
1
  6
CONTINUOUS
 62
     7
 10
195.18
 20
163.6258330249198
 30
0.0
 11
195.2961113167202
 21
163.2505553499465
 31
0.0
  0
LINE
  5
89
  8
1
  6
CONTINUOUS
 62
     7
 10
195.18
 20
162.5
 30
0.0
 11
195.18
 21
163.6258330249198
 31
0.0
  0
LINE
  5
8A
  8
1
  6
CONTINUOUS
 62
     7
 10
196.48
 20
161.3741669750802
 30
0.0
 11
196.3638886832799
 21
161.7494446500535
 31
0.0
  0
LINE
  5
8B
  8
1
  6
CONTINUOUS
 62
     7
 10
196.3638886832799
 20
161.7494446500535
 30
0.0
 11
196.48
 21
162.5
 31
0.0
  0
LINE
  5
8C
  8
1
  6
CONTINUOUS
 62
     7
 10
196.3638886832799
 20
163.2505553499465
 30
0.0
 11
196.48
 21
163.6258330249198
 31
0.0
  0
LINE
  5
8D
  8
1
  6
CONTINUOUS
 62
     7
 10
196.48
 20
162.5
 30
0.0
 11
196.3638886832799
 21
163.2505553499465
 31
0.0
  0
LINE
  5
8E
  8
1
  6
CONTINUOUS
 62
     7
 10
195.2961113167201
 20
164.001110699893
 30
0.0
 11
195.18
 21
163.6258330249198
 31
0.0
  0
LINE
  5
8F
  8
1
  6
CONTINUOUS
 62
     7
 10
195.2961113167201
 20
164.001110699893
 30
0.0
 11
196.3638886832798
 21
164.001110699893
 31
0.0
  0
LINE
  5
90
  8
1
  6
CONTINUOUS
 62
     7
 10
196.48
 20
163.6258330249198
 30
0.0
 11
196.3638886832799
 21
164.001110699893
 31
0.0
  0
LINE
  5
91
  8
1
  6
CONTINUOUS
 62
     7
 10
195.2961113167201
 20
163.2505553499465
 30
0.0
 11
196.3638886832798
 21
163.2505553499465
 31
0.0
  0
LINE
  5
92
  8
1
  6
CONTINUOUS
 62
     7
 10
195.18
 20
161.3741669750802
 30
0.0
 11
195.2961113167202
 21
160.998889300107
 31
0.0
  0
LINE
  5
93
  8
1
  6
CONTINUOUS
 62
     7
 10
195.2961113167201
 20
161.7494446500535
 30
0.0
 11
196.3638886832798
 21
161.7494446500535
 31
0.0
  0
LINE
  5
94
  8
1
  6
CONTINUOUS
 62
     7
 10
196.3638886832799
 20
160.998889300107
 30
0.0
 11
196.48
 21
161.3741669750802
 31
0.0
  0
LINE
  5
95
  8
1
  6
CONTINUOUS
 62
     7
 10
195.2961113167201
 20
160.998889300107
 30
0.0
 11
196.3638886832798
 21
160.998889300107
 31
0.0
  0
LINE
  5
96
  8
1
  6
CONTINUOUS
 62
     7
 10
195.18
 20
163.6258330249198
 30
0.0
 11
195.18
 21
163.8
 31
0.0
  0
LINE
  5
97
  8
1
  6
CONTINUOUS
 62
     7
 10
195.18
 20
161.2
 30
0.0
 11
195.18
 21
161.3741669750802
 31
0.0
  0
LINE
  5
98
  8
1
  6
CONTINUOUS
 62
     7
 10
196.48
 20
130.9
 30
0.0
 11
196.48
 21
132.5
 31
0.0
  0
LINE
  5
99
  8
1
  6
CONTINUOUS
 62
     7
 10
196.48
 20
132.5
 30
0.0
 11
196.48
 21
134.1
 31
0.0
  0
LINE
  5
9A
  8
1
  6
CONTINUOUS
 62
     7
 10
196.48
 20
160.9
 30
0.0
 11
196.48
 21
162.5
 31
0.0
  0
LINE
  5
9B
  8
1
  6
CONTINUOUS
 62
     7
 10
196.48
 20
162.5
 30
0.0
 11
196.48
 21
164.1
 31
0.0
  0
LINE
  5
9C
  8
1
  6
CONTINUOUS
 62
     7
 10
233.598889300107
 20
162.5
 30
0.0
 11
234.3494446500535
 21
161.2
 31
0.0
  0
LINE
  5
9D
  8
1
  6
CONTINUOUS
 62
     7
 10
234.3494446500535
 20
163.8
 30
0.0
 11
233.598889300107
 21
162.5
 31
0.0
  0
LINE
  5
9E
  8
1
  6
CONTINUOUS
 62
     7
 10
235.8505553499465
 20
163.8
 30
0.0
 11
234.3494446500535
 21
163.8
 31
0.0
  0
LINE
  5
9F
  8
1
  6
CONTINUOUS
 62
     7
 10
236.601110699893
 20
162.5
 30
0.0
 11
235.8505553499465
 21
163.8
 31
0.0
  0
LINE
  5
A0
  8
1
  6
CONTINUOUS
 62
     7
 10
235.8505553499465
 20
161.2
 30
0.0
 11
236.601110699893
 21
162.5
 31
0.0
  0
LINE
  5
A1
  8
1
  6
CONTINUOUS
 62
     7
 10
234.3494446500535
 20
161.2
 30
0.0
 11
235.8505553499465
 21
161.2
 31
0.0
  0
LINE
  5
A2
  8
1
  6
CONTINUOUS
 62
     7
 10
235.199
 20
161.2
 30
0.0
 11
235.199
 21
161.1636620936305
 31
0.0
  0
ARC
  5
A3
  8
1
  6
CONTINUOUS
 62
     7
 10
235.1
 20
162.5
 30
0.0
 40
1.34
 50
271.4539295441573
 51
274.2369067894284
  0
LINE
  5
A4
  8
1
  6
CONTINUOUS
 62
     7
 10
235.134
 20
161.1604314127302
 30
0.0
 11
235.134
 21
161.2
 31
0.0
  0
ARC
  5
A5
  8
1
  6
CONTINUOUS
 62
     7
 10
235.1
 20
162.5
 30
0.0
 40
1.339999999999993
 50
274.2369067894282
 51
284.0346479351984
  0
ARC
  5
A6
  8
1
  6
CONTINUOUS
 62
     7
 10
235.1
 20
162.5
 30
0.0
 40
1.340000000000001
 50
315.9653520648012
 51
344.0346479351988
  0
ARC
  5
A7
  8
1
  6
CONTINUOUS
 62
     7
 10
235.1
 20
162.5
 30
0.0
 40
1.339999999999996
 50
15.96535206480125
 51
44.0346479351988
  0
ARC
  5
A8
  8
1
  6
CONTINUOUS
 62
     7
 10
235.1
 20
162.5
 30
0.0
 40
1.339999999999995
 50
75.96535206480148
 51
104.0346479351985
  0
ARC
  5
A9
  8
1
  6
CONTINUOUS
 62
     7
 10
235.1
 20
162.5
 30
0.0
 40
1.340000000000006
 50
135.9653520648012
 51
164.0346479351987
  0
ARC
  5
AA
  8
1
  6
CONTINUOUS
 62
     7
 10
235.1
 20
162.5
 30
0.0
 40
1.340000000000006
 50
195.9653520648013
 51
224.0346479351988
  0
ARC
  5
AB
  8
1
  6
CONTINUOUS
 62
     7
 10
235.1
 20
162.5
 30
0.0
 40
1.340000000000008
 50
255.9653520648015
 51
271.325617639194
  0
LINE
  5
AC
  8
1
  6
CONTINUOUS
 62
     7
 10
235.131
 20
161.1603586300804
 30
0.0
 11
235.131
 21
161.2
 31
0.0
  0
CIRCLE
  5
AD
  8
1
  6
CONTINUOUS
 62
     7
 10
235.1
 20
162.5
 30
0.0
 40
1.600000000000004
  0
LINE
  5
AE
  8
1
  6
CONTINUOUS
 62
     7
 10
200.298889300107
 20
132.5
 30
0.0
 11
201.0494446500535
 21
131.2
 31
0.0
  0
LINE
  5
AF
  8
1
  6
CONTINUOUS
 62
     7
 10
201.0494446500535
 20
133.8
 30
0.0
 11
200.298889300107
 21
132.5
 31
0.0
  0
LINE
  5
B0
  8
1
  6
CONTINUOUS
 62
     7
 10
202.5505553499465
 20
133.8
 30
0.0
 11
201.0494446500535
 21
133.8
 31
0.0
  0
LINE
  5
B1
  8
1
  6
CONTINUOUS
 62
     7
 10
203.301110699893
 20
132.5
 30
0.0
 11
202.5505553499465
 21
133.8
 31
0.0
  0
LINE
  5
B2
  8
1
  6
CONTINUOUS
 62
     7
 10
202.5505553499465
 20
131.2
 30
0.0
 11
203.301110699893
 21
132.5
 31
0.0
  0
LINE
  5
B3
  8
1
  6
CONTINUOUS
 62
     7
 10
201.0494446500535
 20
131.2
 30
0.0
 11
202.5505553499465
 21
131.2
 31
0.0
  0
LINE
  5
B4
  8
1
  6
CONTINUOUS
 62
     7
 10
200.298889300107
 20
162.5
 30
0.0
 11
201.0494446500535
 21
161.2
 31
0.0
  0
LINE
  5
B5
  8
1
  6
CONTINUOUS
 62
     7
 10
201.0494446500535
 20
163.8
 30
0.0
 11
200.298889300107
 21
162.5
 31
0.0
  0
LINE
  5
B6
  8
1
  6
CONTINUOUS
 62
     7
 10
202.5505553499465
 20
161.2
 30
0.0
 11
203.301110699893
 21
162.5
 31
0.0
  0
LINE
  5
B7
  8
1
  6
CONTINUOUS
 62
     7
 10
201.0494446500535
 20
161.2
 30
0.0
 11
202.5505553499465
 21
161.2
 31
0.0
  0
LINE
  5
B8
  8
1
  6
CONTINUOUS
 62
     7
 10
203.301110699893
 20
162.5
 30
0.0
 11
202.5505553499465
 21
163.8
 31
0.0
  0
LINE
  5
B9
  8
1
  6
CONTINUOUS
 62
     7
 10
202.5505553499465
 20
163.8
 30
0.0
 11
201.0494446500535
 21
163.8
 31
0.0
  0
LINE
  5
BA
  8
1
  6
CONTINUOUS
 62
     7
 10
201.899
 20
131.2
 30
0.0
 11
201.899
 21
131.1636620936305
 31
0.0
  0
ARC
  5
BB
  8
1
  6
CONTINUOUS
 62
     7
 10
201.8
 20
132.5
 30
0.0
 40
1.34
 50
271.4539295441573
 51
274.236906789428
  0
LINE
  5
BC
  8
1
  6
CONTINUOUS
 62
     7
 10
201.834
 20
131.1604314127302
 30
0.0
 11
201.834
 21
131.2
 31
0.0
  0
LINE
  5
BD
  8
1
  6
CONTINUOUS
 62
     7
 10
201.831
 20
131.1603586300804
 30
0.0
 11
201.831
 21
131.2
 31
0.0
  0
ARC
  5
BE
  8
1
  6
CONTINUOUS
 62
     7
 10
201.8
 20
132.5
 30
0.0
 40
1.339999999999993
 50
274.2369067894282
 51
284.0346479352003
  0
ARC
  5
BF
  8
1
  6
CONTINUOUS
 62
     7
 10
201.8
 20
132.5
 30
0.0
 40
1.339999999999999
 50
315.9653520648004
 51
344.0346479351996
  0
ARC
  5
C0
  8
1
  6
CONTINUOUS
 62
     7
 10
201.8
 20
132.5
 30
0.0
 40
1.34
 50
15.96535206480125
 51
44.0346479351988
  0
ARC
  5
C1
  8
1
  6
CONTINUOUS
 62
     7
 10
201.8
 20
132.5
 30
0.0
 40
1.339999999999997
 50
75.96535206480353
 51
104.0346479351964
  0
ARC
  5
C2
  8
1
  6
CONTINUOUS
 62
     7
 10
201.8
 20
132.5
 30
0.0
 40
1.339999999999998
 50
135.9653520648025
 51
164.0346479351978
  0
ARC
  5
C3
  8
1
  6
CONTINUOUS
 62
     7
 10
201.8
 20
132.5
 30
0.0
 40
1.339999999999999
 50
195.9653520648013
 51
224.0346479351987
  0
ARC
  5
C4
  8
1
  6
CONTINUOUS
 62
     7
 10
201.8
 20
132.5
 30
0.0
 40
1.339999999999999
 50
255.9653520647996
 51
271.325617639194
  0
LINE
  5
C5
  8
1
  6
CONTINUOUS
 62
     7
 10
201.831
 20
161.1603586300804
 30
0.0
 11
201.831
 21
161.2
 31
0.0
  0
LINE
  5
C6
  8
1
  6
CONTINUOUS
 62
     7
 10
201.899
 20
161.2
 30
0.0
 11
201.899
 21
161.1636620936305
 31
0.0
  0
ARC
  5
C7
  8
1
  6
CONTINUOUS
 62
     7
 10
201.8
 20
162.5
 30
0.0
 40
1.340000000000007
 50
274.2369067894282
 51
284.0346479351984
  0
ARC
  5
C8
  8
1
  6
CONTINUOUS
 62
     7
 10
201.8
 20
162.5
 30
0.0
 40
1.340000000000003
 50
315.9653520648012
 51
344.0346479351987
  0
ARC
  5
C9
  8
1
  6
CONTINUOUS
 62
     7
 10
201.8
 20
162.5
 30
0.0
 40
1.339999999999998
 50
15.96535206480125
 51
44.0346479351988
  0
ARC
  5
CA
  8
1
  6
CONTINUOUS
 62
     7
 10
201.8
 20
162.5
 30
0.0
 40
1.339999999999995
 50
75.96535206480159
 51
104.0346479351984
  0
ARC
  5
CB
  8
1
  6
CONTINUOUS
 62
     7
 10
201.8
 20
162.5
 30
0.0
 40
1.339999999999992
 50
135.9653520648012
 51
164.0346479351987
  0
ARC
  5
CC
  8
1
  6
CONTINUOUS
 62
     7
 10
201.8
 20
162.5
 30
0.0
 40
1.340000000000001
 50
195.9653520648013
 51
224.0346479351987
  0
ARC
  5
CD
  8
1
  6
CONTINUOUS
 62
     7
 10
201.8
 20
162.5
 30
0.0
 40
1.340000000000008
 50
255.9653520648017
 51
271.325617639194
  0
LINE
  5
CE
  8
1
  6
CONTINUOUS
 62
     7
 10
201.834
 20
161.1604314127302
 30
0.0
 11
201.834
 21
161.2
 31
0.0
  0
ARC
  5
CF
  8
1
  6
CONTINUOUS
 62
     7
 10
201.8
 20
162.5
 30
0.0
 40
1.34
 50
271.4539295441573
 51
274.236906789428
  0
CIRCLE
  5
D0
  8
1
  6
CONTINUOUS
 62
     7
 10
201.8
 20
132.5
 30
0.0
 40
1.600000000000004
  0
CIRCLE
  5
D1
  8
1
  6
CONTINUOUS
 62
     7
 10
201.8
 20
162.5
 30
0.0
 40
1.59999999999999
  0
LINE
  5
D2
  8
1
  6
CONTINUOUS
 62
     7
 10
199.78
 20
133.2505553499465
 30
0.0
 11
198.72
 21
133.2505553499465
 31
0.0
  0
LINE
  5
D3
  8
1
  6
CONTINUOUS
 62
     7
 10
199.78
 20
131.7494446500535
 30
0.0
 11
198.72
 21
131.7494446500535
 31
0.0
  0
LINE
  5
D4
  8
1
  6
CONTINUOUS
 62
     7
 10
199.78
 20
133.2505553499465
 30
0.0
 11
199.78
 21
131.7494446500535
 31
0.0
  0
LINE
  5
D5
  8
1
  6
CONTINUOUS
 62
     7
 10
198.72
 20
133.2505553499465
 30
0.0
 11
198.72
 21
132.8249615361854
 31
0.0
  0
LINE
  5
D6
  8
1
  6
CONTINUOUS
 62
     7
 10
198.72
 20
132.1750384638146
 30
0.0
 11
198.72
 21
131.7494446500535
 31
0.0
  0
LINE
  5
D7
  8
1
  6
CONTINUOUS
 62
     7
 10
199.78
 20
130.998889300107
 30
0.0
 11
198.72
 21
130.998889300107
 31
0.0
  0
LINE
  5
D8
  8
1
  6
CONTINUOUS
 62
     7
 10
199.78
 20
131.7494446500535
 30
0.0
 11
199.78
 21
130.998889300107
 31
0.0
  0
LINE
  5
D9
  8
1
  6
CONTINUOUS
 62
     7
 10
198.72
 20
131.7494446500535
 30
0.0
 11
198.72
 21
131.5366477431729
 31
0.0
  0
LINE
  5
DA
  8
1
  6
CONTINUOUS
 62
     7
 10
198.72
 20
131.2116862069875
 30
0.0
 11
198.72
 21
130.998889300107
 31
0.0
  0
LINE
  5
DB
  8
1
  6
CONTINUOUS
 62
     7
 10
199.78
 20
134.001110699893
 30
0.0
 11
198.72
 21
134.001110699893
 31
0.0
  0
LINE
  5
DC
  8
1
  6
CONTINUOUS
 62
     7
 10
199.78
 20
134.001110699893
 30
0.0
 11
199.78
 21
133.2505553499465
 31
0.0
  0
LINE
  5
DD
  8
1
  6
CONTINUOUS
 62
     7
 10
198.72
 20
134.001110699893
 30
0.0
 11
198.72
 21
133.7883137930125
 31
0.0
  0
LINE
  5
DE
  8
1
  6
CONTINUOUS
 62
     7
 10
198.72
 20
133.463352256827
 30
0.0
 11
198.72
 21
133.2505553499465
 31
0.0
  0
LINE
  5
DF
  8
1
  6
CONTINUOUS
 62
     7
 10
199.78
 20
164.001110699893
 30
0.0
 11
198.72
 21
164.001110699893
 31
0.0
  0
LINE
  5
E0
  8
1
  6
CONTINUOUS
 62
     7
 10
199.78
 20
164.001110699893
 30
0.0
 11
199.78
 21
163.2505553499465
 31
0.0
  0
LINE
  5
E1
  8
1
  6
CONTINUOUS
 62
     7
 10
199.78
 20
163.2505553499465
 30
0.0
 11
198.72
 21
163.2505553499465
 31
0.0
  0
LINE
  5
E2
  8
1
  6
CONTINUOUS
 62
     7
 10
198.72
 20
164.001110699893
 30
0.0
 11
198.72
 21
163.7883137930125
 31
0.0
  0
LINE
  5
E3
  8
1
  6
CONTINUOUS
 62
     7
 10
198.72
 20
163.463352256827
 30
0.0
 11
198.72
 21
163.2505553499465
 31
0.0
  0
LINE
  5
E4
  8
1
  6
CONTINUOUS
 62
     7
 10
199.78
 20
161.7494446500535
 30
0.0
 11
198.72
 21
161.7494446500535
 31
0.0
  0
LINE
  5
E5
  8
1
  6
CONTINUOUS
 62
     7
 10
198.72
 20
163.2505553499465
 30
0.0
 11
198.72
 21
162.8249615361854
 31
0.0
  0
LINE
  5
E6
  8
1
  6
CONTINUOUS
 62
     7
 10
198.72
 20
162.1750384638146
 30
0.0
 11
198.72
 21
161.7494446500535
 31
0.0
  0
LINE
  5
E7
  8
1
  6
CONTINUOUS
 62
     7
 10
199.78
 20
163.2505553499465
 30
0.0
 11
199.78
 21
161.7494446500535
 31
0.0
  0
LINE
  5
E8
  8
1
  6
CONTINUOUS
 62
     7
 10
199.78
 20
160.998889300107
 30
0.0
 11
198.72
 21
160.998889300107
 31
0.0
  0
LINE
  5
E9
  8
1
  6
CONTINUOUS
 62
     7
 10
198.72
 20
161.7494446500535
 30
0.0
 11
198.72
 21
161.5366477431729
 31
0.0
  0
LINE
  5
EA
  8
1
  6
CONTINUOUS
 62
     7
 10
198.72
 20
161.2116862069875
 30
0.0
 11
198.72
 21
160.998889300107
 31
0.0
  0
LINE
  5
EB
  8
1
  6
CONTINUOUS
 62
     7
 10
199.78
 20
161.7494446500535
 30
0.0
 11
199.78
 21
160.998889300107
 31
0.0
  0
LINE
  5
EC
  8
1
  6
CONTINUOUS
 62
     7
 10
198.72
 20
133.7883137930125
 30
0.0
 11
198.72
 21
133.463352256827
 31
0.0
  0
LINE
  5
ED
  8
1
  6
CONTINUOUS
 62
     7
 10
198.72
 20
132.8249615361854
 30
0.0
 11
198.72
 21
132.1750384638146
 31
0.0
  0
LINE
  5
EE
  8
1
  6
CONTINUOUS
 62
     7
 10
198.72
 20
131.5366477431729
 30
0.0
 11
198.72
 21
131.2116862069875
 31
0.0
  0
LINE
  5
EF
  8
1
  6
CONTINUOUS
 62
     7
 10
198.72
 20
163.7883137930125
 30
0.0
 11
198.72
 21
163.463352256827
 31
0.0
  0
LINE
  5
F0
  8
1
  6
CONTINUOUS
 62
     7
 10
198.72
 20
162.8249615361854
 30
0.0
 11
198.72
 21
162.1750384638146
 31
0.0
  0
LINE
  5
F1
  8
1
  6
CONTINUOUS
 62
     7
 10
198.72
 20
161.5366477431729
 30
0.0
 11
198.72
 21
161.2116862069875
 31
0.0
  0
LINE
  5
F2
  8
1
  6
CONTINUOUS
 62
     7
 10
198.22
 20
134.1
 30
0.0
 11
198.22
 21
130.9
 31
0.0
  0
LINE
  5
F3
  8
1
  6
CONTINUOUS
 62
     7
 10
198.22
 20
164.1
 30
0.0
 11
198.22
 21
160.9
 31
0.0
  0
LINE
  5
F4
  8
1
  6
CONTINUOUS
 62
     7
 10
203.2
 20
167.5
 30
0.0
 11
245.1
 21
167.5
 31
0.0
  0
LINE
  5
F5
  8
1
  6
CONTINUOUS
 62
     7
 10
245.1
 20
167.5
 30
0.0
 11
245.1
 21
157.5
 31
0.0
  0
LINE
  5
F6
  8
1
  6
CONTINUOUS
 62
     7
 10
245.1
 20
157.5
 30
0.0
 11
241.3
 21
153.7
 31
0.0
  0
LINE
  5
F7
  8
1
  6
CONTINUOUS
 62
     7
 10
241.3
 20
153.7
 30
0.0
 11
241.3
 21
82.49999999999999
 31
0.0
  0
LINE
  5
F8
  8
1
  6
CONTINUOUS
 62
     7
 10
241.3
 20
82.49999999999999
 30
0.0
 11
215.3
 21
77.49999999999999
 31
0.0
  0
LINE
  5
F9
  8
1
  6
CONTINUOUS
 62
     7
 10
215.3
 20
77.49999999999999
 30
0.0
 11
198.2
 21
77.49999999999999
 31
0.0
  0
LINE
  5
FA
  8
1
  6
CONTINUOUS
 62
     7
 10
198.2
 20
77.49999999999999
 30
0.0
 11
198.2
 21
127.5
 31
0.0
  0
LINE
  5
FB
  8
1
  6
CONTINUOUS
 62
     7
 10
198.2
 20
138.5
 30
0.0
 11
198.2
 21
156.5
 31
0.0
  0
LINE
  5
FC
  8
1
  6
CONTINUOUS
 62
     7
 10
196.8
 20
157.5
 30
0.0
 11
149.9
 21
157.5
 31
0.0
  0
LINE
  5
FD
  8
1
  6
CONTINUOUS
 62
     7
 10
149.9
 20
157.5
 30
0.0
 11
149.9
 21
167.5
 31
0.0
  0
LINE
  5
FE
  8
1
  6
CONTINUOUS
 62
     7
 10
149.9
 20
167.5
 30
0.0
 11
196.8
 21
167.5
 31
0.0
  0
LINE
  5
FF
  8
1
  6
CONTINUOUS
 62
     7
 10
196.8
 20
166.5
 30
0.0
 11
197.1
 21
166.5
 31
0.0
  0
LINE
  5
100
  8
1
  6
CONTINUOUS
 62
     7
 10
196.8
 20
166.5
 30
0.0
 11
196.8
 21
167.5
 31
0.0
  0
LINE
  5
101
  8
1
  6
CONTINUOUS
 62
     7
 10
196.8
 20
167.5
 30
0.0
 11
197.1
 21
167.5
 31
0.0
  0
LINE
  5
102
  8
1
  6
CONTINUOUS
 62
     7
 10
198.7
 20
155.5
 30
0.0
 11
198.4
 21
155.5
 31
0.0
  0
LINE
  5
103
  8
1
  6
CONTINUOUS
 62
     7
 10
198.7
 20
154.5
 30
0.0
 11
198.4
 21
154.5
 31
0.0
  0
LINE
  5
104
  8
1
  6
CONTINUOUS
 62
     7
 10
198.7
 20
154.5
 30
0.0
 11
198.7
 21
155.5
 31
0.0
  0
LINE
  5
105
  8
1
  6
CONTINUOUS
 62
     7
 10
198.4
 20
154.5
 30
0.0
 11
198.4
 21
155.5
 31
0.0
  0
LINE
  5
106
  8
1
  6
CONTINUOUS
 62
     7
 10
196.8
 20
156.5
 30
0.0
 11
197.1
 21
156.5
 31
0.0
  0
LINE
  5
107
  8
1
  6
CONTINUOUS
 62
     7
 10
196.8
 20
157.5
 30
0.0
 11
197.1
 21
157.5
 31
0.0
  0
LINE
  5
108
  8
1
  6
CONTINUOUS
 62
     7
 10
196.8
 20
156.5
 30
0.0
 11
196.8
 21
157.5
 31
0.0
  0
LINE
  5
109
  8
1
  6
CONTINUOUS
 62
     7
 10
196.8
 20
157.5
 30
0.0
 11
196.8
 21
166.5
 31
0.0
  0
LINE
  5
10A
  8
1
  6
CONTINUOUS
 62
     7
 10
198.7
 20
140.5
 30
0.0
 11
198.4
 21
140.5
 31
0.0
  0
LINE
  5
10B
  8
1
  6
CONTINUOUS
 62
     7
 10
198.7
 20
140.5
 30
0.0
 11
198.7
 21
154.5
 31
0.0
  0
LINE
  5
10C
  8
1
  6
CONTINUOUS
 62
     7
 10
198.4
 20
140.5
 30
0.0
 11
198.4
 21
154.5
 31
0.0
  0
LINE
  5
10D
  8
1
  6
CONTINUOUS
 62
     7
 10
196.8
 20
137.5
 30
0.0
 11
197.1
 21
137.5
 31
0.0
  0
LINE
  5
10E
  8
1
  6
CONTINUOUS
 62
     7
 10
196.8
 20
138.5
 30
0.0
 11
196.8
 21
137.5
 31
0.0
  0
LINE
  5
10F
  8
1
  6
CONTINUOUS
 62
     7
 10
196.8
 20
138.5
 30
0.0
 11
197.1
 21
138.5
 31
0.0
  0
LINE
  5
110
  8
1
  6
CONTINUOUS
 62
     7
 10
198.7
 20
139.5
 30
0.0
 11
198.4
 21
139.5
 31
0.0
  0
LINE
  5
111
  8
1
  6
CONTINUOUS
 62
     7
 10
198.7
 20
140.5
 30
0.0
 11
198.7
 21
139.5
 31
0.0
  0
LINE
  5
112
  8
1
  6
CONTINUOUS
 62
     7
 10
198.4
 20
140.5
 30
0.0
 11
198.4
 21
139.5
 31
0.0
  0
LINE
  5
113
  8
1
  6
CONTINUOUS
 62
     7
 10
196.8
 20
127.5
 30
0.0
 11
197.1
 21
127.5
 31
0.0
  0
LINE
  5
114
  8
1
  6
CONTINUOUS
 62
     7
 10
196.8
 20
128.5
 30
0.0
 11
197.1
 21
128.5
 31
0.0
  0
LINE
  5
115
  8
1
  6
CONTINUOUS
 62
     7
 10
196.8
 20
128.5
 30
0.0
 11
196.8
 21
127.5
 31
0.0
  0
LINE
  5
116
  8
1
  6
CONTINUOUS
 62
     7
 10
196.8
 20
137.5
 30
0.0
 11
196.8
 21
128.5
 31
0.0
  0
ARC
  5
117
  8
1
  6
CONTINUOUS
 62
     7
 10
203.2
 20
128.5
 30
0.0
 40
0.9999999999999991
 50
270.0
 51
0.0
  0
ARC
  5
118
  8
1
  6
CONTINUOUS
 62
     7
 10
198.8
 20
138.7
 30
0.0
 40
0.1999999999999988
 50
270.0000000000004
 51
0.0
  0
LINE
  5
119
  8
1
  6
CONTINUOUS
 62
     7
 10
199.0
 20
139.3
 30
0.0
 11
199.0
 21
138.7
 31
0.0
  0
ARC
  5
11A
  8
1
  6
CONTINUOUS
 62
     7
 10
198.8
 20
139.3
 30
0.0
 40
0.1999999999999999
 50
0.0
 51
90.00000000000277
  0
ARC
  5
11B
  8
1
  6
CONTINUOUS
 62
     7
 10
198.8
 20
155.7
 30
0.0
 40
0.1999999999999999
 50
269.9999999999972
 51
0.0
  0
LINE
  5
11C
  8
1
  6
CONTINUOUS
 62
     7
 10
199.0
 20
155.7
 30
0.0
 11
199.0
 21
156.3
 31
0.0
  0
ARC
  5
11D
  8
1
  6
CONTINUOUS
 62
     7
 10
198.8
 20
156.3
 30
0.0
 40
0.2000000000000057
 50
0.0
 51
89.99999999999962
  0
ARC
  5
11E
  8
1
  6
CONTINUOUS
 62
     7
 10
203.2
 20
166.5
 30
0.0
 40
1.000000000000001
 50
0.0
 51
90.0
  0
LINE
  5
11F
  8
1
  6
CONTINUOUS
 62
     7
 10
204.2
 20
128.5
 30
0.0
 11
204.2
 21
166.5
 31
0.0
  0
CIRCLE
  5
120
  8
1
  6
CONTINUOUS
 62
     7
 10
201.8
 20
160.0
 30
0.0
 40
0.5499999999999949
  0
CIRCLE
  5
121
  8
1
  6
CONTINUOUS
 62
     7
 10
201.8
 20
135.0
 30
0.0
 40
0.5499999999999949
  0
LINE
  5
122
  8
1
  6
CONTINUOUS
 62
     7
 10
203.2
 20
127.5
 30
0.0
 11
197.9
 21
127.5
 31
0.0
  0
LINE
  5
123
  8
1
  6
CONTINUOUS
 62
     7
 10
203.2
 20
167.5
 30
0.0
 11
197.9
 21
167.5
 31
0.0
  0
LINE
  5
124
  8
1
  6
CONTINUOUS
 62
     7
 10
197.9
 20
138.5
 30
0.0
 11
198.8
 21
138.5
 31
0.0
  0
LINE
  5
125
  8
1
  6
CONTINUOUS
 62
     7
 10
197.9
 20
156.5
 30
0.0
 11
198.8
 21
156.5
 31
0.0
  0
LINE
  5
126
  8
1
  6
CONTINUOUS
 62
     7
 10
198.7
 20
139.5
 30
0.0
 11
198.8
 21
139.5
 31
0.0
  0
LINE
  5
127
  8
1
  6
CONTINUOUS
 62
     7
 10
198.7
 20
155.5
 30
0.0
 11
198.8
 21
155.5
 31
0.0
  0
LINE
  5
128
  8
1
  6
CONTINUOUS
 62
     7
 10
197.1
 20
153.7
 30
0.0
 11
197.9
 21
153.7
 31
0.0
  0
LINE
  5
129
  8
1
  6
CONTINUOUS
 62
     7
 10
197.1
 20
157.5
 30
0.0
 11
197.1
 21
153.7
 31
0.0
  0
LINE
  5
12A
  8
1
  6
CONTINUOUS
 62
     7
 10
197.1
 20
157.5
 30
0.0
 11
197.9
 21
157.5
 31
0.0
  0
LINE
  5
12B
  8
1
  6
CONTINUOUS
 62
     7
 10
197.9
 20
157.5
 30
0.0
 11
197.9
 21
153.7
 31
0.0
  0
LINE
  5
12C
  8
1
  6
CONTINUOUS
 62
     7
 10
197.1
 20
167.5
 30
0.0
 11
197.9
 21
167.5
 31
0.0
  0
LINE
  5
12D
  8
1
  6
CONTINUOUS
 62
     7
 10
197.9
 20
167.5
 30
0.0
 11
197.9
 21
157.5
 31
0.0
  0
LINE
  5
12E
  8
1
  6
CONTINUOUS
 62
     7
 10
197.1
 20
167.5
 30
0.0
 11
197.1
 21
157.5
 31
0.0
  0
LINE
  5
12F
  8
1
  6
CONTINUOUS
 62
     7
 10
197.1
 20
77.49999999999999
 30
0.0
 11
197.9
 21
77.49999999999999
 31
0.0
  0
LINE
  5
130
  8
1
  6
CONTINUOUS
 62
     7
 10
197.1
 20
82.49999999999999
 30
0.0
 11
197.9
 21
82.49999999999999
 31
0.0
  0
LINE
  5
131
  8
1
  6
CONTINUOUS
 62
     7
 10
197.9
 20
82.49999999999999
 30
0.0
 11
197.9
 21
77.49999999999999
 31
0.0
  0
LINE
  5
132
  8
1
  6
CONTINUOUS
 62
     7
 10
197.1
 20
82.49999999999999
 30
0.0
 11
197.1
 21
77.49999999999999
 31
0.0
  0
LINE
  5
133
  8
1
  6
CONTINUOUS
 62
     7
 10
197.9
 20
153.7
 30
0.0
 11
197.9
 21
82.49999999999999
 31
0.0
  0
LINE
  5
134
  8
1
  6
CONTINUOUS
 62
     7
 10
197.1
 20
153.7
 30
0.0
 11
197.1
 21
82.49999999999999
 31
0.0
  0
LINE
  5
135
  8
1
  6
CONTINUOUS
 62
     7
 10
197.92
 20
163.5
 30
0.0
 11
197.92
 21
163.0499636499916
 31
0.0
  0
LINE
  5
136
  8
1
  6
CONTINUOUS
 62
     7
 10
197.9
 20
163.0499636499919
 30
0.0
 11
197.92
 21
163.0499636499916
 31
0.0
  0
LINE
  5
137
  8
1
  6
CONTINUOUS
 62
     7
 10
197.9
 20
163.5
 30
0.0
 11
197.92
 21
163.5
 31
0.0
  0
LINE
  5
138
  8
1
  6
CONTINUOUS
 62
     7
 10
197.92
 20
163.0499636499919
 30
0.0
 11
197.92
 21
162.9801630388876
 31
0.0
  0
LINE
  5
139
  8
1
  6
CONTINUOUS
 62
     7
 10
197.9
 20
162.9801630388876
 30
0.0
 11
197.92
 21
162.9801630388876
 31
0.0
  0
LINE
  5
13A
  8
1
  6
CONTINUOUS
 62
     7
 10
197.92
 20
162.7384529946162
 30
0.0
 11
197.92
 21
161.25
 31
0.0
  0
LINE
  5
13B
  8
1
  6
CONTINUOUS
 62
     7
 10
197.9
 20
161.25
 30
0.0
 11
197.92
 21
161.25
 31
0.0
  0
LINE
  5
13C
  8
1
  6
CONTINUOUS
 62
     7
 10
197.9
 20
162.7384529946162
 30
0.0
 11
197.92
 21
162.7384529946162
 31
0.0
  0
LINE
  5
13D
  8
1
  6
CONTINUOUS
 62
     7
 10
197.9
 20
162.813238304703
 30
0.0
 11
197.92
 21
162.813238304703
 31
0.0
  0
LINE
  5
13E
  8
1
  6
CONTINUOUS
 62
     7
 10
197.9
 20
162.8548199968448
 30
0.0
 11
197.92
 21
162.8548199968448
 31
0.0
  0
LINE
  5
13F
  8
1
  6
CONTINUOUS
 62
     7
 10
197.92
 20
162.8548199968448
 30
0.0
 11
197.92
 21
162.813238304703
 31
0.0
  0
LINE
  5
140
  8
1
  6
CONTINUOUS
 62
     7
 10
197.92
 20
162.9801630388876
 30
0.0
 11
197.92
 21
162.8548199968448
 31
0.0
  0
LINE
  5
141
  8
1
  6
CONTINUOUS
 62
     7
 10
197.92
 20
162.813238304703
 30
0.0
 11
197.92
 21
162.7893850783374
 31
0.0
  0
LINE
  5
142
  8
1
  6
CONTINUOUS
 62
     7
 10
197.9
 20
162.7893850783374
 30
0.0
 11
197.92
 21
162.7893850783374
 31
0.0
  0
LINE
  5
143
  8
1
  6
CONTINUOUS
 62
     7
 10
197.9
 20
162.7662503955622
 30
0.0
 11
197.92
 21
162.7662503955622
 31
0.0
  0
LINE
  5
144
  8
1
  6
CONTINUOUS
 62
     7
 10
197.92
 20
162.7893850783374
 30
0.0
 11
197.92
 21
162.7662503955622
 31
0.0
  0
LINE
  5
145
  8
1
  6
CONTINUOUS
 62
     7
 10
197.92
 20
162.7662503955622
 30
0.0
 11
197.92
 21
162.7551510192745
 31
0.0
  0
LINE
  5
146
  8
1
  6
CONTINUOUS
 62
     7
 10
197.9
 20
162.7551510192745
 30
0.0
 11
197.92
 21
162.7551510192745
 31
0.0
  0
LINE
  5
147
  8
1
  6
CONTINUOUS
 62
     7
 10
197.9
 20
162.75
 30
0.0
 11
197.92
 21
162.75
 31
0.0
  0
LINE
  5
148
  8
1
  6
CONTINUOUS
 62
     7
 10
197.92
 20
162.7551510192745
 30
0.0
 11
197.92
 21
162.75
 31
0.0
  0
LINE
  5
149
  8
1
  6
CONTINUOUS
 62
     7
 10
197.9
 20
161.175
 30
0.0
 11
197.92
 21
161.175
 31
0.0
  0
LINE
  5
14A
  8
1
  6
CONTINUOUS
 62
     7
 10
197.92
 20
161.175
 30
0.0
 11
197.92
 21
161.25
 31
0.0
  0
LINE
  5
14B
  8
1
  6
CONTINUOUS
 62
     7
 10
197.9
 20
160.5
 30
0.0
 11
197.92
 21
160.5
 31
0.0
  0
LINE
  5
14C
  8
1
  6
CONTINUOUS
 62
     7
 10
197.92
 20
161.175
 30
0.0
 11
197.92
 21
160.5
 31
0.0
  0
LINE
  5
14D
  8
1
  6
CONTINUOUS
 62
     7
 10
197.92
 20
162.7426794919243
 30
0.0
 11
197.92
 21
162.7384529946162
 31
0.0
  0
ARC
  5
14E
  8
1
  6
CONTINUOUS
 62
     7
 10
195.18
 20
132.5
 30
0.0
 40
1.2
 50
90.00000000000001
 51
270.0
  0
LINE
  5
14F
  8
1
  6
CONTINUOUS
 62
     7
 10
195.2961113167201
 20
134.001110699893
 30
0.0
 11
195.18
 21
133.8
 31
0.0
  0
LINE
  5
150
  8
1
  6
CONTINUOUS
 62
     7
 10
196.48
 20
133.8
 30
0.0
 11
196.3638886832799
 21
134.001110699893
 31
0.0
  0
LINE
  5
151
  8
1
  6
CONTINUOUS
 62
     7
 10
195.18
 20
131.2
 30
0.0
 11
195.2961113167202
 21
130.998889300107
 31
0.0
  0
LINE
  5
152
  8
1
  6
CONTINUOUS
 62
     7
 10
196.3638886832799
 20
130.998889300107
 30
0.0
 11
196.48
 21
131.2
 31
0.0
  0
ARC
  5
153
  8
1
  6
CONTINUOUS
 62
     7
 10
195.18
 20
162.5
 30
0.0
 40
1.199999999999993
 50
90.00000000000001
 51
270.0
  0
LINE
  5
154
  8
1
  6
CONTINUOUS
 62
     7
 10
195.2961113167201
 20
164.001110699893
 30
0.0
 11
195.18
 21
163.8
 31
0.0
  0
LINE
  5
155
  8
1
  6
CONTINUOUS
 62
     7
 10
196.48
 20
163.8
 30
0.0
 11
196.3638886832799
 21
164.001110699893
 31
0.0
  0
LINE
  5
156
  8
1
  6
CONTINUOUS
 62
     7
 10
195.18
 20
161.2
 30
0.0
 11
195.2961113167202
 21
160.998889300107
 31
0.0
  0
LINE
  5
157
  8
1
  6
CONTINUOUS
 62
     7
 10
196.3638886832799
 20
160.998889300107
 30
0.0
 11
196.48
 21
161.2
 31
0.0
  0
LINE
  5
158
  8
1
  6
CONTINUOUS
 62
     7
 10
196.8
 20
134.1
 30
0.0
 11
196.48
 21
134.1
 31
0.0
  0
LINE
  5
159
  8
1
  6
CONTINUOUS
 62
     7
 10
196.48
 20
130.9
 30
0.0
 11
196.8
 21
130.9
 31
0.0
  0
LINE
  5
15A
  8
1
  6
CONTINUOUS
 62
     7
 10
196.8
 20
164.1
 30
0.0
 11
196.48
 21
164.1
 31
0.0
  0
LINE
  5
15B
  8
1
  6
CONTINUOUS
 62
     7
 10
196.48
 20
160.9
 30
0.0
 11
196.8
 21
160.9
 31
0.0
  0
LINE
  5
15C
  8
1
  6
CONTINUOUS
 62
     7
 10
198.22
 20
131.16
 30
0.0
 11
198.72
 21
131.16
 31
0.0
  0
LINE
  5
15D
  8
1
  6
CONTINUOUS
 62
     7
 10
198.72
 20
133.84
 30
0.0
 11
198.22
 21
133.84
 31
0.0
  0
LINE
  5
15E
  8
1
  6
CONTINUOUS
 62
     7
 10
198.22
 20
161.16
 30
0.0
 11
198.72
 21
161.16
 31
0.0
  0
LINE
  5
15F
  8
1
  6
CONTINUOUS
 62
     7
 10
198.72
 20
163.84
 30
0.0
 11
198.22
 21
163.84
 31
0.0
  0
LINE
  5
160
  8
1
  6
CONTINUOUS
 62
     7
 10
197.9
 20
130.9
 30
0.0
 11
198.22
 21
130.9
 31
0.0
  0
LINE
  5
161
  8
1
  6
CONTINUOUS
 62
     7
 10
198.22
 20
134.1
 30
0.0
 11
197.9
 21
134.1
 31
0.0
  0
LINE
  5
162
  8
1
  6
CONTINUOUS
 62
     7
 10
197.92
 20
160.9
 30
0.0
 11
198.22
 21
160.9
 31
0.0
  0
LINE
  5
163
  8
1
  6
CONTINUOUS
 62
     7
 10
198.22
 20
164.1
 30
0.0
 11
197.9
 21
164.1
 31
0.0
  0
LINE
  5
164
  8
1
  6
CONTINUOUS
 62
     7
 10
197.92
 20
162.7426794919243
 30
0.0
 11
197.9
 21
162.7426794919243
 31
0.0
  0
LINE
  5
165
  8
1
  6
CONTINUOUS
 62
     7
 10
197.9225
 20
162.3636363636364
 30
0.0
 11
197.92
 21
162.3636363636364
 31
0.0
  0
LINE
  5
166
  8
1
  6
CONTINUOUS
 62
     7
 10
197.92
 20
160.9545454545455
 30
0.0
 11
197.9225
 21
160.9545454545455
 31
0.0
  0
LINE
  5
167
  8
1
  6
CONTINUOUS
 62
     7
 10
197.92
 20
160.5
 30
0.0
 11
197.9225
 21
160.5
 31
0.0
  0
LINE
  5
168
  8
1
  6
CONTINUOUS
 62
     7
 10
197.9225
 20
161.7818181818182
 30
0.0
 11
197.92
 21
161.7818181818182
 31
0.0
  0
LINE
  5
169
  8
1
  6
CONTINUOUS
 62
     7
 10
197.92
 20
161.3713185898334
 30
0.0
 11
197.9225
 21
161.3713185898334
 31
0.0
  0
LINE
  5
16A
  8
1
  6
CONTINUOUS
 62
     7
 10
197.9225
 20
161.0636294468909
 30
0.0
 11
197.92
 21
161.0636294468909
 31
0.0
  0
LINE
  5
16B
  8
1
  6
CONTINUOUS
 62
     7
 10
197.92
 20
160.5090909090909
 30
0.0
 11
197.9225
 21
160.5090909090909
 31
0.0
  0
LINE
  5
16C
  8
1
  6
CONTINUOUS
 62
     7
 10
233.9741669750803
 20
239.39
 30
0.0
 11
233.598889300107
 21
239.2738886832798
 31
0.0
  0
LINE
  5
16D
  8
1
  6
CONTINUOUS
 62
     7
 10
234.3494446500535
 20
239.2738886832798
 30
0.0
 11
233.9741669750803
 21
239.39
 31
0.0
  0
LINE
  5
16E
  8
1
  6
CONTINUOUS
 62
     7
 10
234.3494446500535
 20
239.2738886832798
 30
0.0
 11
234.3494446500535
 21
238.41
 31
0.0
  0
LINE
  5
16F
  8
1
  6
CONTINUOUS
 62
     7
 10
233.598889300107
 20
239.2738886832798
 30
0.0
 11
233.598889300107
 21
238.41
 31
0.0
  0
LINE
  5
170
  8
1
  6
CONTINUOUS
 62
     7
 10
235.1
 20
239.39
 30
0.0
 11
234.3494446500535
 21
239.2738886832798
 31
0.0
  0
LINE
  5
171
  8
1
  6
CONTINUOUS
 62
     7
 10
235.8505553499465
 20
239.2738886832798
 30
0.0
 11
235.1
 21
239.39
 31
0.0
  0
LINE
  5
172
  8
1
  6
CONTINUOUS
 62
     7
 10
235.8505553499465
 20
239.2738886832798
 30
0.0
 11
235.8505553499465
 21
238.41
 31
0.0
  0
LINE
  5
173
  8
1
  6
CONTINUOUS
 62
     7
 10
233.9741669750803
 20
239.39
 30
0.0
 11
235.1
 21
239.39
 31
0.0
  0
LINE
  5
174
  8
1
  6
CONTINUOUS
 62
     7
 10
236.2258330249198
 20
239.39
 30
0.0
 11
235.8505553499465
 21
239.2738886832798
 31
0.0
  0
LINE
  5
175
  8
1
  6
CONTINUOUS
 62
     7
 10
235.1
 20
239.39
 30
0.0
 11
236.2258330249198
 21
239.39
 31
0.0
  0
LINE
  5
176
  8
1
  6
CONTINUOUS
 62
     7
 10
236.6011106998931
 20
239.2738886832798
 30
0.0
 11
236.2258330249198
 21
239.39
 31
0.0
  0
LINE
  5
177
  8
1
  6
CONTINUOUS
 62
     7
 10
236.6011106998931
 20
239.2738886832798
 30
0.0
 11
236.6011106998931
 21
238.41
 31
0.0
  0
LINE
  5
178
  8
1
  6
CONTINUOUS
 62
     7
 10
236.2258330249198
 20
239.39
 30
0.0
 11
236.4000000000001
 21
239.39
 31
0.0
  0
LINE
  5
179
  8
1
  6
CONTINUOUS
 62
     7
 10
233.8
 20
239.39
 30
0.0
 11
233.9741669750803
 21
239.39
 31
0.0
  0
LINE
  5
17A
  8
1
  6
CONTINUOUS
 62
     7
 10
233.5
 20
238.41
 30
0.0
 11
235.1
 21
238.41
 31
0.0
  0
LINE
  5
17B
  8
1
  6
CONTINUOUS
 62
     7
 10
235.1
 20
238.41
 30
0.0
 11
236.7
 21
238.41
 31
0.0
  0
LINE
  5
17C
  8
1
  6
CONTINUOUS
 62
     7
 10
200.298889300107
 20
238.5261113167201
 30
0.0
 11
200.298889300107
 21
238.41
 31
0.0
  0
LINE
  5
17D
  8
1
  6
CONTINUOUS
 62
     7
 10
203.3011106998931
 20
238.5261113167201
 30
0.0
 11
203.3011106998931
 21
238.41
 31
0.0
  0
LINE
  5
17E
  8
1
  6
CONTINUOUS
 62
     7
 10
202.5505553499465
 20
238.5261113167201
 30
0.0
 11
202.9258330249198
 21
238.41
 31
0.0
  0
LINE
  5
17F
  8
1
  6
CONTINUOUS
 62
     7
 10
201.8
 20
238.41
 30
0.0
 11
202.5505553499465
 21
238.5261113167201
 31
0.0
  0
LINE
  5
180
  8
1
  6
CONTINUOUS
 62
     7
 10
200.6741669750803
 20
239.71
 30
0.0
 11
200.298889300107
 21
239.5938886832799
 31
0.0
  0
LINE
  5
181
  8
1
  6
CONTINUOUS
 62
     7
 10
201.0494446500535
 20
239.5938886832799
 30
0.0
 11
200.6741669750803
 21
239.71
 31
0.0
  0
LINE
  5
182
  8
1
  6
CONTINUOUS
 62
     7
 10
201.0494446500535
 20
239.5938886832799
 30
0.0
 11
201.0494446500535
 21
238.5261113167201
 31
0.0
  0
LINE
  5
183
  8
1
  6
CONTINUOUS
 62
     7
 10
200.6741669750803
 20
238.41
 30
0.0
 11
201.0494446500535
 21
238.5261113167201
 31
0.0
  0
LINE
  5
184
  8
1
  6
CONTINUOUS
 62
     7
 10
200.298889300107
 20
238.5261113167201
 30
0.0
 11
200.6741669750803
 21
238.41
 31
0.0
  0
LINE
  5
185
  8
1
  6
CONTINUOUS
 62
     7
 10
200.298889300107
 20
239.5938886832799
 30
0.0
 11
200.298889300107
 21
238.5261113167201
 31
0.0
  0
LINE
  5
186
  8
1
  6
CONTINUOUS
 62
     7
 10
202.5505553499465
 20
239.5938886832799
 30
0.0
 11
201.8
 21
239.71
 31
0.0
  0
LINE
  5
187
  8
1
  6
CONTINUOUS
 62
     7
 10
202.9258330249198
 20
239.71
 30
0.0
 11
202.5505553499465
 21
239.5938886832799
 31
0.0
  0
LINE
  5
188
  8
1
  6
CONTINUOUS
 62
     7
 10
201.8
 20
239.71
 30
0.0
 11
202.9258330249198
 21
239.71
 31
0.0
  0
LINE
  5
189
  8
1
  6
CONTINUOUS
 62
     7
 10
201.0494446500535
 20
238.5261113167201
 30
0.0
 11
201.8
 21
238.41
 31
0.0
  0
LINE
  5
18A
  8
1
  6
CONTINUOUS
 62
     7
 10
201.8
 20
239.71
 30
0.0
 11
201.0494446500535
 21
239.5938886832799
 31
0.0
  0
LINE
  5
18B
  8
1
  6
CONTINUOUS
 62
     7
 10
200.6741669750803
 20
239.71
 30
0.0
 11
201.8
 21
239.71
 31
0.0
  0
LINE
  5
18C
  8
1
  6
CONTINUOUS
 62
     7
 10
203.3011106998931
 20
239.5938886832799
 30
0.0
 11
202.9258330249198
 21
239.71
 31
0.0
  0
LINE
  5
18D
  8
1
  6
CONTINUOUS
 62
     7
 10
203.3011106998931
 20
239.5938886832799
 30
0.0
 11
203.3011106998931
 21
238.5261113167201
 31
0.0
  0
LINE
  5
18E
  8
1
  6
CONTINUOUS
 62
     7
 10
202.9258330249198
 20
238.41
 30
0.0
 11
203.3011106998931
 21
238.5261113167201
 31
0.0
  0
LINE
  5
18F
  8
1
  6
CONTINUOUS
 62
     7
 10
202.5505553499465
 20
239.5938886832799
 30
0.0
 11
202.5505553499465
 21
238.5261113167201
 31
0.0
  0
LINE
  5
190
  8
1
  6
CONTINUOUS
 62
     7
 10
202.9258330249198
 20
239.71
 30
0.0
 11
203.1
 21
239.71
 31
0.0
  0
LINE
  5
191
  8
1
  6
CONTINUOUS
 62
     7
 10
200.5
 20
239.71
 30
0.0
 11
200.6741669750803
 21
239.71
 31
0.0
  0
LINE
  5
192
  8
1
  6
CONTINUOUS
 62
     7
 10
195.18
 20
231.14
 30
0.0
 11
195.2961113167202
 21
230.49
 31
0.0
  0
LINE
  5
193
  8
1
  6
CONTINUOUS
 62
     7
 10
195.2961113167202
 20
231.79
 30
0.0
 11
195.18
 21
231.14
 31
0.0
  0
LINE
  5
194
  8
1
  6
CONTINUOUS
 62
     7
 10
195.2961113167202
 20
231.79
 30
0.0
 11
196.3638886832799
 21
231.79
 31
0.0
  0
LINE
  5
195
  8
1
  6
CONTINUOUS
 62
     7
 10
196.48
 20
231.14
 30
0.0
 11
196.3638886832799
 21
231.79
 31
0.0
  0
LINE
  5
196
  8
1
  6
CONTINUOUS
 62
     7
 10
196.3638886832799
 20
230.49
 30
0.0
 11
196.4238080830015
 21
230.6962741909383
 31
0.0
  0
LINE
  5
197
  8
1
  6
CONTINUOUS
 62
     7
 10
196.4238080830015
 20
230.6962741909383
 30
0.0
 11
196.48
 21
231.14
 31
0.0
  0
LINE
  5
198
  8
1
  6
CONTINUOUS
 62
     7
 10
195.2961113167202
 20
230.49
 30
0.0
 11
196.3638886832799
 21
230.49
 31
0.0
  0
LINE
  5
199
  8
1
  6
CONTINUOUS
 62
     7
 10
195.18
 20
229.84
 30
0.0
 11
195.2961113167202
 21
229.19
 31
0.0
  0
LINE
  5
19A
  8
1
  6
CONTINUOUS
 62
     7
 10
195.2961113167202
 20
230.49
 30
0.0
 11
195.18
 21
229.84
 31
0.0
  0
LINE
  5
19B
  8
1
  6
CONTINUOUS
 62
     7
 10
196.48
 20
229.84
 30
0.0
 11
196.3638886832799
 21
230.49
 31
0.0
  0
LINE
  5
19C
  8
1
  6
CONTINUOUS
 62
     7
 10
196.3638886832799
 20
229.19
 30
0.0
 11
196.48
 21
229.84
 31
0.0
  0
LINE
  5
19D
  8
1
  6
CONTINUOUS
 62
     7
 10
195.2961113167202
 20
229.19
 30
0.0
 11
196.3638886832799
 21
229.19
 31
0.0
  0
LINE
  5
19E
  8
1
  6
CONTINUOUS
 62
     7
 10
195.18
 20
229.84
 30
0.0
 11
195.18
 21
231.14
 31
0.0
  0
LINE
  5
19F
  8
1
  6
CONTINUOUS
 62
     7
 10
196.3638886832799
 20
231.79
 30
0.0
 11
196.48
 21
231.79
 31
0.0
  0
LINE
  5
1A0
  8
1
  6
CONTINUOUS
 62
     7
 10
195.2961113167202
 20
229.19
 30
0.0
 11
195.18
 21
229.19
 31
0.0
  0
LINE
  5
1A1
  8
1
  6
CONTINUOUS
 62
     7
 10
195.18
 20
229.19
 30
0.0
 11
195.18
 21
229.84
 31
0.0
  0
LINE
  5
1A2
  8
1
  6
CONTINUOUS
 62
     7
 10
195.18
 20
231.79
 30
0.0
 11
195.2961113167202
 21
231.79
 31
0.0
  0
LINE
  5
1A3
  8
1
  6
CONTINUOUS
 62
     7
 10
195.18
 20
231.14
 30
0.0
 11
195.18
 21
231.79
 31
0.0
  0
LINE
  5
1A4
  8
1
  6
CONTINUOUS
 62
     7
 10
196.48
 20
229.19
 30
0.0
 11
196.3638886832799
 21
229.19
 31
0.0
  0
LINE
  5
1A5
  8
1
  6
CONTINUOUS
 62
     7
 10
196.48
 20
228.89
 30
0.0
 11
196.48
 21
229.19
 31
0.0
  0
LINE
  5
1A6
  8
1
  6
CONTINUOUS
 62
     7
 10
196.48
 20
229.19
 30
0.0
 11
196.48
 21
231.7901864907734
 31
0.0
  0
LINE
  5
1A7
  8
1
  6
CONTINUOUS
 62
     7
 10
196.48
 20
231.7901864907734
 30
0.0
 11
196.48
 21
232.09
 31
0.0
  0
LINE
  5
1A8
  8
1
  6
CONTINUOUS
 62
     7
 10
200.2
 20
238.41
 30
0.0
 11
201.8
 21
238.41
 31
0.0
  0
LINE
  5
1A9
  8
1
  6
CONTINUOUS
 62
     7
 10
201.8
 20
238.41
 30
0.0
 11
203.4
 21
238.41
 31
0.0
  0
LINE
  5
1AA
  8
1
  6
CONTINUOUS
 62
     7
 10
235.8505553499465
 20
234.41
 30
0.0
 11
235.8505553499465
 21
235.47
 31
0.0
  0
LINE
  5
1AB
  8
1
  6
CONTINUOUS
 62
     7
 10
235.8505553499465
 20
234.41
 30
0.0
 11
234.3494446500535
 21
234.41
 31
0.0
  0
LINE
  5
1AC
  8
1
  6
CONTINUOUS
 62
     7
 10
234.3494446500535
 20
234.41
 30
0.0
 11
234.3494446500535
 21
235.47
 31
0.0
  0
LINE
  5
1AD
  8
1
  6
CONTINUOUS
 62
     7
 10
235.8505553499465
 20
235.47
 30
0.0
 11
235.4249615361855
 21
235.47
 31
0.0
  0
LINE
  5
1AE
  8
1
  6
CONTINUOUS
 62
     7
 10
234.7750384638146
 20
235.47
 30
0.0
 11
234.3494446500535
 21
235.47
 31
0.0
  0
LINE
  5
1AF
  8
1
  6
CONTINUOUS
 62
     7
 10
234.3494446500535
 20
234.41
 30
0.0
 11
233.598889300107
 21
234.41
 31
0.0
  0
LINE
  5
1B0
  8
1
  6
CONTINUOUS
 62
     7
 10
233.598889300107
 20
234.41
 30
0.0
 11
233.598889300107
 21
235.47
 31
0.0
  0
LINE
  5
1B1
  8
1
  6
CONTINUOUS
 62
     7
 10
234.3494446500535
 20
235.47
 30
0.0
 11
234.136647743173
 21
235.47
 31
0.0
  0
LINE
  5
1B2
  8
1
  6
CONTINUOUS
 62
     7
 10
233.8116862069876
 20
235.47
 30
0.0
 11
233.598889300107
 21
235.47
 31
0.0
  0
LINE
  5
1B3
  8
1
  6
CONTINUOUS
 62
     7
 10
236.6011106998931
 20
234.41
 30
0.0
 11
236.6011106998931
 21
235.47
 31
0.0
  0
LINE
  5
1B4
  8
1
  6
CONTINUOUS
 62
     7
 10
236.6011106998931
 20
234.41
 30
0.0
 11
235.8505553499465
 21
234.41
 31
0.0
  0
LINE
  5
1B5
  8
1
  6
CONTINUOUS
 62
     7
 10
236.6011106998931
 20
235.47
 30
0.0
 11
236.3883137930125
 21
235.47
 31
0.0
  0
LINE
  5
1B6
  8
1
  6
CONTINUOUS
 62
     7
 10
236.0633522568271
 20
235.47
 30
0.0
 11
235.8505553499465
 21
235.47
 31
0.0
  0
LINE
  5
1B7
  8
1
  6
CONTINUOUS
 62
     7
 10
236.3883137930125
 20
235.47
 30
0.0
 11
236.0633522568271
 21
235.47
 31
0.0
  0
LINE
  5
1B8
  8
1
  6
CONTINUOUS
 62
     7
 10
235.4249615361855
 20
235.47
 30
0.0
 11
234.7750384638146
 21
235.47
 31
0.0
  0
LINE
  5
1B9
  8
1
  6
CONTINUOUS
 62
     7
 10
234.136647743173
 20
235.47
 30
0.0
 11
233.8116862069876
 21
235.47
 31
0.0
  0
LINE
  5
1BA
  8
1
  6
CONTINUOUS
 62
     7
 10
236.7
 20
235.97
 30
0.0
 11
233.5
 21
235.97
 31
0.0
  0
LINE
  5
1BB
  8
1
  6
CONTINUOUS
 62
     7
 10
202.5505553499465
 20
234.11
 30
0.0
 11
202.5505553499465
 21
235.17
 31
0.0
  0
LINE
  5
1BC
  8
1
  6
CONTINUOUS
 62
     7
 10
202.5505553499465
 20
234.11
 30
0.0
 11
201.0494446500535
 21
234.11
 31
0.0
  0
LINE
  5
1BD
  8
1
  6
CONTINUOUS
 62
     7
 10
201.0494446500535
 20
234.11
 30
0.0
 11
201.0494446500535
 21
235.17
 31
0.0
  0
LINE
  5
1BE
  8
1
  6
CONTINUOUS
 62
     7
 10
202.5505553499465
 20
235.17
 30
0.0
 11
202.1249615361855
 21
235.17
 31
0.0
  0
LINE
  5
1BF
  8
1
  6
CONTINUOUS
 62
     7
 10
201.4750384638146
 20
235.17
 30
0.0
 11
201.0494446500535
 21
235.17
 31
0.0
  0
LINE
  5
1C0
  8
1
  6
CONTINUOUS
 62
     7
 10
203.3011106998931
 20
234.11
 30
0.0
 11
203.3011106998931
 21
235.17
 31
0.0
  0
LINE
  5
1C1
  8
1
  6
CONTINUOUS
 62
     7
 10
203.3011106998931
 20
234.11
 30
0.0
 11
202.5505553499465
 21
234.11
 31
0.0
  0
LINE
  5
1C2
  8
1
  6
CONTINUOUS
 62
     7
 10
203.3011106998931
 20
235.17
 30
0.0
 11
203.0883137930125
 21
235.17
 31
0.0
  0
LINE
  5
1C3
  8
1
  6
CONTINUOUS
 62
     7
 10
202.7633522568271
 20
235.17
 30
0.0
 11
202.5505553499465
 21
235.17
 31
0.0
  0
LINE
  5
1C4
  8
1
  6
CONTINUOUS
 62
     7
 10
200.298889300107
 20
234.11
 30
0.0
 11
200.298889300107
 21
235.17
 31
0.0
  0
LINE
  5
1C5
  8
1
  6
CONTINUOUS
 62
     7
 10
201.0494446500535
 20
234.11
 30
0.0
 11
200.298889300107
 21
234.11
 31
0.0
  0
LINE
  5
1C6
  8
1
  6
CONTINUOUS
 62
     7
 10
201.0494446500535
 20
235.17
 30
0.0
 11
200.836647743173
 21
235.17
 31
0.0
  0
LINE
  5
1C7
  8
1
  6
CONTINUOUS
 62
     7
 10
200.5116862069875
 20
235.17
 30
0.0
 11
200.298889300107
 21
235.17
 31
0.0
  0
LINE
  5
1C8
  8
1
  6
CONTINUOUS
 62
     7
 10
203.0883137930125
 20
235.17
 30
0.0
 11
202.7633522568271
 21
235.17
 31
0.0
  0
LINE
  5
1C9
  8
1
  6
CONTINUOUS
 62
     7
 10
202.1249615361855
 20
235.17
 30
0.0
 11
201.4750384638146
 21
235.17
 31
0.0
  0
LINE
  5
1CA
  8
1
  6
CONTINUOUS
 62
     7
 10
200.836647743173
 20
235.17
 30
0.0
 11
200.5116862069875
 21
235.17
 31
0.0
  0
LINE
  5
1CB
  8
1
  6
CONTINUOUS
 62
     7
 10
203.4
 20
235.67
 30
0.0
 11
200.2
 21
235.67
 31
0.0
  0
LINE
  5
1CC
  8
1
  6
CONTINUOUS
 62
     7
 10
199.78
 20
231.99
 30
0.0
 11
198.72
 21
231.99
 31
0.0
  0
LINE
  5
1CD
  8
1
  6
CONTINUOUS
 62
     7
 10
199.78
 20
231.99
 30
0.0
 11
199.78
 21
230.69
 31
0.0
  0
LINE
  5
1CE
  8
1
  6
CONTINUOUS
 62
     7
 10
199.78
 20
230.69
 30
0.0
 11
198.72
 21
230.69
 31
0.0
  0
LINE
  5
1CF
  8
1
  6
CONTINUOUS
 62
     7
 10
198.72
 20
231.99
 30
0.0
 11
198.72
 21
231.6214249455894
 31
0.0
  0
LINE
  5
1D0
  8
1
  6
CONTINUOUS
 62
     7
 10
198.72
 20
231.0585750544106
 30
0.0
 11
198.72
 21
230.69
 31
0.0
  0
LINE
  5
1D1
  8
1
  6
CONTINUOUS
 62
     7
 10
199.78
 20
229.39
 30
0.0
 11
198.72
 21
229.39
 31
0.0
  0
LINE
  5
1D2
  8
1
  6
CONTINUOUS
 62
     7
 10
198.72
 20
230.69
 30
0.0
 11
198.72
 21
230.3214249455894
 31
0.0
  0
LINE
  5
1D3
  8
1
  6
CONTINUOUS
 62
     7
 10
198.72
 20
229.7585750544106
 30
0.0
 11
198.72
 21
229.39
 31
0.0
  0
LINE
  5
1D4
  8
1
  6
CONTINUOUS
 62
     7
 10
199.78
 20
230.69
 30
0.0
 11
199.78
 21
229.39
 31
0.0
  0
LINE
  5
1D5
  8
1
  6
CONTINUOUS
 62
     7
 10
198.72
 20
232.03
 30
0.0
 11
198.72
 21
232.0296413699196
 31
0.0
  0
LINE
  5
1D6
  8
1
  6
CONTINUOUS
 62
     7
 10
198.4815384615385
 20
232.03
 30
0.0
 11
198.2200000000001
 21
232.0295685872698
 31
0.0
  0
LINE
  5
1D7
  8
1
  6
CONTINUOUS
 62
     7
 10
198.72
 20
232.0263379063695
 30
0.0
 11
198.72
 21
231.99
 31
0.0
  0
LINE
  5
1D8
  8
1
  6
CONTINUOUS
 62
     7
 10
198.72
 20
231.6214249455894
 30
0.0
 11
198.72
 21
231.0585750544106
 31
0.0
  0
LINE
  5
1D9
  8
1
  6
CONTINUOUS
 62
     7
 10
198.72
 20
230.3214249455894
 30
0.0
 11
198.72
 21
229.7585750544106
 31
0.0
  0
LINE
  5
1DA
  8
1
  6
CONTINUOUS
 62
     7
 10
198.72
 20
229.39
 30
0.0
 11
198.72
 21
229.35
 31
0.0
  0
LINE
  5
1DB
  8
1
  6
CONTINUOUS
 62
     7
 10
198.7200000000001
 20
232.0296413699195
 30
0.0
 11
198.4815384615385
 21
232.03
 31
0.0
  0
LINE
  5
1DC
  8
1
  6
CONTINUOUS
 62
     7
 10
198.7200000000001
 20
232.0263379063695
 30
0.0
 11
198.2200000000001
 21
232.0295685872698
 31
0.0
  0
LINE
  5
1DD
  8
1
  6
CONTINUOUS
 62
     7
 10
198.72
 20
232.0296413699196
 30
0.0
 11
198.72
 21
232.0263379063695
 31
0.0
  0
LINE
  5
1DE
  8
1
  6
CONTINUOUS
 62
     7
 10
198.22
 20
232.29
 30
0.0
 11
198.22
 21
229.09
 31
0.0
  0
LINE
  5
1DF
  8
1
  6
CONTINUOUS
 62
     7
 10
245.1
 20
236.29
 30
0.0
 11
245.1
 21
237.09
 31
0.0
  0
LINE
  5
1E0
  8
1
  6
CONTINUOUS
 62
     7
 10
198.2
 20
236.29
 30
0.0
 11
245.1
 21
236.29
 31
0.0
  0
LINE
  5
1E1
  8
1
  6
CONTINUOUS
 62
     7
 10
198.2
 20
237.09
 30
0.0
 11
241.3000000000001
 21
237.09
 31
0.0
  0
LINE
  5
1E2
  8
1
  6
CONTINUOUS
 62
     7
 10
241.3000000000001
 20
237.09
 30
0.0
 11
245.1
 21
237.09
 31
0.0
  0
LINE
  5
1E3
  8
1
  6
CONTINUOUS
 62
     7
 10
198.2
 20
236.29
 30
0.0
 11
198.2
 21
237.09
 31
0.0
  0
LINE
  5
1E4
  8
1
  6
CONTINUOUS
 62
     7
 10
149.9
 20
238.09
 30
0.0
 11
149.9
 21
237.09
 31
0.0
  0
LINE
  5
1E5
  8
1
  6
CONTINUOUS
 62
     7
 10
241.3000000000001
 20
238.09
 30
0.0
 11
241.3000000000001
 21
237.09
 31
0.0
  0
LINE
  5
1E6
  8
1
  6
CONTINUOUS
 62
     7
 10
149.9
 20
238.09
 30
0.0
 11
241.3000000000001
 21
238.09
 31
0.0
  0
LINE
  5
1E7
  8
1
  6
CONTINUOUS
 62
     7
 10
149.9
 20
237.09
 30
0.0
 11
198.2
 21
237.09
 31
0.0
  0
LINE
  5
1E8
  8
1
  6
CONTINUOUS
 62
     7
 10
198.2
 20
237.09
 30
0.0
 11
241.3000000000001
 21
237.09
 31
0.0
  0
LINE
  5
1E9
  8
1
  6
CONTINUOUS
 62
     7
 10
203.2
 20
235.99
 30
0.0
 11
203.2
 21
236.29
 31
0.0
  0
LINE
  5
1EA
  8
1
  6
CONTINUOUS
 62
     7
 10
203.2
 20
235.99
 30
0.0
 11
197.9
 21
235.99
 31
0.0
  0
LINE
  5
1EB
  8
1
  6
CONTINUOUS
 62
     7
 10
197.9
 20
235.99
 30
0.0
 11
197.1
 21
235.99
 31
0.0
  0
LINE
  5
1EC
  8
1
  6
CONTINUOUS
 62
     7
 10
197.1
 20
227.29
 30
0.0
 11
197.1
 21
235.99
 31
0.0
  0
LINE
  5
1ED
  8
1
  6
CONTINUOUS
 62
     7
 10
196.8
 20
227.29
 30
0.0
 11
197.1
 21
227.29
 31
0.0
  0
ARC
  5
1EE
  8
1
  6
CONTINUOUS
 62
     7
 10
197.1
 20
235.99
 30
0.0
 40
0.3000000000000225
 50
90.0
 51
180.0
  0
LINE
  5
1EF
  8
1
  6
CONTINUOUS
 62
     7
 10
203.2
 20
236.29
 30
0.0
 11
198.2
 21
236.29
 31
0.0
  0
LINE
  5
1F0
  8
1
  6
CONTINUOUS
 62
     7
 10
198.2
 20
236.29
 30
0.0
 11
197.1
 21
236.29
 31
0.0
  0
LINE
  5
1F1
  8
1
  6
CONTINUOUS
 62
     7
 10
196.8
 20
227.29
 30
0.0
 11
196.8
 21
235.99
 31
0.0
  0
LINE
  5
1F2
  8
1
  6
CONTINUOUS
 62
     7
 10
204.2
 20
236.29
 30
0.0
 11
204.2
 21
235.99
 31
0.0
  0
LINE
  5
1F3
  8
1
  6
CONTINUOUS
 62
     7
 10
204.2
 20
235.99
 30
0.0
 11
203.2
 21
235.99
 31
0.0
  0
LINE
  5
1F4
  8
1
  6
CONTINUOUS
 62
     7
 10
196.8
 20
226.29
 30
0.0
 11
197.1
 21
226.29
 31
0.0
  0
LINE
  5
1F5
  8
1
  6
CONTINUOUS
 62
     7
 10
196.8
 20
226.29
 30
0.0
 11
196.8
 21
227.29
 31
0.0
  0
LINE
  5
1F6
  8
1
  6
CONTINUOUS
 62
     7
 10
198.7
 20
227.29
 30
0.0
 11
198.4
 21
227.29
 31
0.0
  0
LINE
  5
1F7
  8
1
  6
CONTINUOUS
 62
     7
 10
198.4
 20
227.29
 30
0.0
 11
198.4
 21
229.35
 31
0.0
  0
LINE
  5
1F8
  8
1
  6
CONTINUOUS
 62
     7
 10
198.4
 20
232.0299580739709
 30
0.0
 11
198.4
 21
235.99
 31
0.0
  0
LINE
  5
1F9
  8
1
  6
CONTINUOUS
 62
     7
 10
198.7
 20
227.29
 30
0.0
 11
198.7
 21
229.35
 31
0.0
  0
LINE
  5
1FA
  8
1
  6
CONTINUOUS
 62
     7
 10
198.7
 20
232.03
 30
0.0
 11
198.7
 21
235.99
 31
0.0
  0
LINE
  5
1FB
  8
1
  6
CONTINUOUS
 62
     7
 10
198.7
 20
226.29
 30
0.0
 11
198.4
 21
226.29
 31
0.0
  0
LINE
  5
1FC
  8
1
  6
CONTINUOUS
 62
     7
 10
198.4
 20
226.29
 30
0.0
 11
198.4
 21
227.29
 31
0.0
  0
LINE
  5
1FD
  8
1
  6
CONTINUOUS
 62
     7
 10
198.7
 20
226.29
 30
0.0
 11
198.7
 21
227.29
 31
0.0
  0
LINE
  5
1FE
  8
1
  6
CONTINUOUS
 62
     7
 10
197.9
 20
235.99
 30
0.0
 11
197.9
 21
189.09
 31
0.0
  0
LINE
  5
1FF
  8
1
  6
CONTINUOUS
 62
     7
 10
197.1
 20
235.99
 30
0.0
 11
197.9
 21
235.99
 31
0.0
  0
LINE
  5
200
  8
1
  6
CONTINUOUS
 62
     7
 10
197.1
 20
189.09
 30
0.0
 11
197.9
 21
189.09
 31
0.0
  0
LINE
  5
201
  8
1
  6
CONTINUOUS
 62
     7
 10
197.1
 20
235.99
 30
0.0
 11
197.1
 21
189.09
 31
0.0
  0
LINE
  5
202
  8
1
  6
CONTINUOUS
 62
     7
 10
197.92
 20
200.807587478715
 30
0.0
 11
197.92
 21
200.7175305859455
 31
0.0
  0
LINE
  5
203
  8
1
  6
CONTINUOUS
 62
     7
 10
197.9
 20
200.7175305859455
 30
0.0
 11
197.92
 21
200.7175305859455
 31
0.0
  0
LINE
  5
204
  8
1
  6
CONTINUOUS
 62
     7
 10
197.9
 20
200.807587478715
 30
0.0
 11
197.92
 21
200.807587478715
 31
0.0
  0
LINE
  5
205
  8
1
  6
CONTINUOUS
 62
     7
 10
197.92
 20
201.791500041954
 30
0.0
 11
197.92
 21
201.675125853063
 31
0.0
  0
LINE
  5
206
  8
1
  6
CONTINUOUS
 62
     7
 10
197.9
 20
201.675125853063
 30
0.0
 11
197.92
 21
201.675125853063
 31
0.0
  0
LINE
  5
207
  8
1
  6
CONTINUOUS
 62
     7
 10
197.9
 20
201.791500041954
 30
0.0
 11
197.92
 21
201.791500041954
 31
0.0
  0
LINE
  5
208
  8
1
  6
CONTINUOUS
 62
     7
 10
197.9
 20
201.011424860691
 30
0.0
 11
197.92
 21
201.011424860691
 31
0.0
  0
LINE
  5
209
  8
1
  6
CONTINUOUS
 62
     7
 10
197.9
 20
201.157234632285
 30
0.0
 11
197.92
 21
201.157234632285
 31
0.0
  0
LINE
  5
20A
  8
1
  6
CONTINUOUS
 62
     7
 10
197.92
 20
201.157234632285
 30
0.0
 11
197.92
 21
201.011424860691
 31
0.0
  0
LINE
  5
20B
  8
1
  6
CONTINUOUS
 62
     7
 10
197.9
 20
202.2124340665022
 30
0.0
 11
197.92
 21
202.2124340665022
 31
0.0
  0
LINE
  5
20C
  8
1
  6
CONTINUOUS
 62
     7
 10
197.92
 20
202.2124340665022
 30
0.0
 11
197.92
 21
201.791500041954
 31
0.0
  0
LINE
  5
20D
  8
1
  6
CONTINUOUS
 62
     7
 10
197.92
 20
201.4859327260755
 30
0.0
 11
197.92
 21
201.675125853063
 31
0.0
  0
LINE
  5
20E
  8
1
  6
CONTINUOUS
 62
     7
 10
197.9
 20
201.4859327260755
 30
0.0
 11
197.92
 21
201.4859327260755
 31
0.0
  0
LINE
  5
20F
  8
1
  6
CONTINUOUS
 62
     7
 10
197.92
 20
201.3835572706905
 30
0.0
 11
197.92
 21
201.4859327260755
 31
0.0
  0
LINE
  5
210
  8
1
  6
CONTINUOUS
 62
     7
 10
197.9
 20
201.3835572706905
 30
0.0
 11
197.92
 21
201.3835572706905
 31
0.0
  0
LINE
  5
211
  8
1
  6
CONTINUOUS
 62
     7
 10
197.9
 20
200.8663868647245
 30
0.0
 11
197.92
 21
200.8663868647245
 31
0.0
  0
LINE
  5
212
  8
1
  6
CONTINUOUS
 62
     7
 10
197.92
 20
200.8663868647245
 30
0.0
 11
197.92
 21
200.807587478715
 31
0.0
  0
LINE
  5
213
  8
1
  6
CONTINUOUS
 62
     7
 10
197.92
 20
201.342566680779
 30
0.0
 11
197.92
 21
201.157234632285
 31
0.0
  0
LINE
  5
214
  8
1
  6
CONTINUOUS
 62
     7
 10
197.92
 20
200.9466353054145
 30
0.0
 11
197.92
 21
200.8663868647245
 31
0.0
  0
LINE
  5
215
  8
1
  6
CONTINUOUS
 62
     7
 10
197.9
 20
200.9466353054145
 30
0.0
 11
197.92
 21
200.9466353054145
 31
0.0
  0
LINE
  5
216
  8
1
  6
CONTINUOUS
 62
     7
 10
197.92
 20
200.7175305859455
 30
0.0
 11
197.92
 21
200.498043528018
 31
0.0
  0
LINE
  5
217
  8
1
  6
CONTINUOUS
 62
     7
 10
197.92
 20
201.011424860691
 30
0.0
 11
197.92
 21
200.9466353054145
 31
0.0
  0
LINE
  5
218
  8
1
  6
CONTINUOUS
 62
     7
 10
197.9
 20
200.3884999580445
 30
0.0
 11
197.92
 21
200.3884999580445
 31
0.0
  0
LINE
  5
219
  8
1
  6
CONTINUOUS
 62
     7
 10
197.9
 20
200.498043528018
 30
0.0
 11
197.92
 21
200.498043528018
 31
0.0
  0
LINE
  5
21A
  8
1
  6
CONTINUOUS
 62
     7
 10
197.92
 20
200.498043528018
 30
0.0
 11
197.92
 21
200.3884999580445
 31
0.0
  0
LINE
  5
21B
  8
1
  6
CONTINUOUS
 62
     7
 10
197.9
 20
199.9675659334967
 30
0.0
 11
197.92
 21
199.9675659334966
 31
0.0
  0
LINE
  5
21C
  8
1
  6
CONTINUOUS
 62
     7
 10
197.92
 20
200.3884999580445
 30
0.0
 11
197.92
 21
199.9675659334966
 31
0.0
  0
LINE
  5
21D
  8
1
  6
CONTINUOUS
 62
     7
 10
197.92
 20
201.3835572706905
 30
0.0
 11
197.92
 21
201.342566680779
 31
0.0
  0
LINE
  5
21E
  8
1
  6
CONTINUOUS
 62
     7
 10
197.8999999999999
 20
212.9809090909091
 30
0.0
 11
197.92
 21
212.9809090909091
 31
0.0
  0
LINE
  5
21F
  8
1
  6
CONTINUOUS
 62
     7
 10
197.92
 20
212.2354545454545
 30
0.0
 11
197.92
 21
213.1627272727272
 31
0.0
  0
LINE
  5
220
  8
1
  6
CONTINUOUS
 62
     7
 10
197.8999999999999
 20
212.2354545454545
 30
0.0
 11
197.92
 21
212.2354545454545
 31
0.0
  0
LINE
  5
221
  8
1
  6
CONTINUOUS
 62
     7
 10
197.92
 20
206.891506277934
 30
0.0
 11
197.92
 21
208.2627272727273
 31
0.0
  0
LINE
  5
222
  8
1
  6
CONTINUOUS
 62
     7
 10
197.9
 20
208.2627272727273
 30
0.0
 11
197.92
 21
208.2627272727273
 31
0.0
  0
LINE
  5
223
  8
1
  6
CONTINUOUS
 62
     7
 10
197.8999999999999
 20
206.8718181818182
 30
0.0
 11
197.92
 21
206.8718181818182
 31
0.0
  0
LINE
  5
224
  8
1
  6
CONTINUOUS
 62
     7
 10
197.92
 20
206.8718181818182
 30
0.0
 11
197.92
 21
206.8725415882415
 31
0.0
  0
LINE
  5
225
  8
1
  6
CONTINUOUS
 62
     7
 10
197.92
 20
206.8725415882415
 30
0.0
 11
197.92
 21
206.8732635575832
 31
0.0
  0
LINE
  5
226
  8
1
  6
CONTINUOUS
 62
     7
 10
197.92
 20
206.8732635575832
 30
0.0
 11
197.92
 21
206.8739840898432
 31
0.0
  0
LINE
  5
227
  8
1
  6
CONTINUOUS
 62
     7
 10
197.92
 20
206.8739840898432
 30
0.0
 11
197.9200000000001
 21
206.8747031850216
 31
0.0
  0
LINE
  5
228
  8
1
  6
CONTINUOUS
 62
     7
 10
197.9200000000001
 20
206.8747031850216
 30
0.0
 11
197.92
 21
206.8754208431182
 31
0.0
  0
LINE
  5
229
  8
1
  6
CONTINUOUS
 62
     7
 10
197.92
 20
206.8754208431182
 30
0.0
 11
197.92
 21
206.8761370641332
 31
0.0
  0
LINE
  5
22A
  8
1
  6
CONTINUOUS
 62
     7
 10
197.92
 20
206.8761370641332
 30
0.0
 11
197.92
 21
206.8768518480665
 31
0.0
  0
LINE
  5
22B
  8
1
  6
CONTINUOUS
 62
     7
 10
197.92
 20
206.8768518480665
 30
0.0
 11
197.92
 21
206.8775651949181
 31
0.0
  0
LINE
  5
22C
  8
1
  6
CONTINUOUS
 62
     7
 10
197.92
 20
206.8775651949181
 30
0.0
 11
197.92
 21
206.878277104688
 31
0.0
  0
LINE
  5
22D
  8
1
  6
CONTINUOUS
 62
     7
 10
197.92
 20
206.878277104688
 30
0.0
 11
197.92
 21
206.8789875773762
 31
0.0
  0
LINE
  5
22E
  8
1
  6
CONTINUOUS
 62
     7
 10
197.92
 20
206.8789875773762
 30
0.0
 11
197.92
 21
206.8796966129827
 31
0.0
  0
LINE
  5
22F
  8
1
  6
CONTINUOUS
 62
     7
 10
197.92
 20
206.8796966129827
 30
0.0
 11
197.92
 21
206.8804042115076
 31
0.0
  0
LINE
  5
230
  8
1
  6
CONTINUOUS
 62
     7
 10
197.92
 20
206.8804042115076
 30
0.0
 11
197.92
 21
206.8811103729508
 31
0.0
  0
LINE
  5
231
  8
1
  6
CONTINUOUS
 62
     7
 10
197.92
 20
206.8811103729508
 30
0.0
 11
197.92
 21
206.8818150973123
 31
0.0
  0
LINE
  5
232
  8
1
  6
CONTINUOUS
 62
     7
 10
197.92
 20
206.8818150973123
 30
0.0
 11
197.92
 21
206.8825183845921
 31
0.0
  0
LINE
  5
233
  8
1
  6
CONTINUOUS
 62
     7
 10
197.92
 20
206.8825183845921
 30
0.0
 11
197.92
 21
206.8832202347903
 31
0.0
  0
LINE
  5
234
  8
1
  6
CONTINUOUS
 62
     7
 10
197.92
 20
204.4081818557239
 30
0.0
 11
197.92
 21
205.6990909090909
 31
0.0
  0
LINE
  5
235
  8
1
  6
CONTINUOUS
 62
     7
 10
197.9
 20
205.6990909090909
 30
0.0
 11
197.92
 21
205.6990909090909
 31
0.0
  0
LINE
  5
236
  8
1
  6
CONTINUOUS
 62
     7
 10
197.92
 20
216.4445454545454
 30
0.0
 11
197.92
 21
217.5809090909091
 31
0.0
  0
LINE
  5
237
  8
1
  6
CONTINUOUS
 62
     7
 10
197.92
 20
216.2627272727272
 30
0.0
 11
197.92
 21
216.4445454545454
 31
0.0
  0
LINE
  5
238
  8
1
  6
CONTINUOUS
 62
     7
 10
197.92
 20
211.3081818181818
 30
0.0
 11
197.92
 21
211.4809090909091
 31
0.0
  0
LINE
  5
239
  8
1
  6
CONTINUOUS
 62
     7
 10
197.9
 20
211.4809090909091
 30
0.0
 11
197.92
 21
211.4809090909091
 31
0.0
  0
LINE
  5
23A
  8
1
  6
CONTINUOUS
 62
     7
 10
197.92
 20
209.0990909090909
 30
0.0
 11
197.92
 21
210.4718181818182
 31
0.0
  0
LINE
  5
23B
  8
1
  6
CONTINUOUS
 62
     7
 10
197.92
 20
210.4718181818182
 30
0.0
 11
197.92
 21
210.7172727272727
 31
0.0
  0
LINE
  5
23C
  8
1
  6
CONTINUOUS
 62
     7
 10
197.92
 20
211.4809090909091
 30
0.0
 11
197.92
 21
212.2354545454545
 31
0.0
  0
LINE
  5
23D
  8
1
  6
CONTINUOUS
 62
     7
 10
197.92
 20
206.8148354289436
 30
0.0
 11
197.92
 21
206.8718181818182
 31
0.0
  0
LINE
  5
23E
  8
1
  6
CONTINUOUS
 62
     7
 10
197.92
 20
208.2709704327906
 30
0.0
 11
197.92
 21
208.3809090694967
 31
0.0
  0
LINE
  5
23F
  8
1
  6
CONTINUOUS
 62
     7
 10
197.92
 20
213.6263636363636
 30
0.0
 11
197.92
 21
215.4263636363636
 31
0.0
  0
LINE
  5
240
  8
1
  6
CONTINUOUS
 62
     7
 10
197.92
 20
215.4263636363636
 30
0.0
 11
197.92
 21
215.4990909090909
 31
0.0
  0
LINE
  5
241
  8
1
  6
CONTINUOUS
 62
     7
 10
197.92
 20
205.6990909090909
 30
0.0
 11
197.92
 21
206.1271212100315
 31
0.0
  0
ARC
  5
242
  8
1
  6
CONTINUOUS
 62
     7
 10
235.1
 20
239.39
 30
0.0
 40
1.200000000000007
 50
0.0
 51
180.0
  0
LINE
  5
243
  8
1
  6
CONTINUOUS
 62
     7
 10
236.6011106998931
 20
239.2738886832798
 30
0.0
 11
236.4000000000001
 21
239.39
 31
0.0
  0
LINE
  5
244
  8
1
  6
CONTINUOUS
 62
     7
 10
233.8
 20
239.39
 30
0.0
 11
233.598889300107
 21
239.2738886832798
 31
0.0
  0
LINE
  5
245
  8
1
  6
CONTINUOUS
 62
     7
 10
236.7
 20
238.09
 30
0.0
 11
236.7
 21
238.41
 31
0.0
  0
LINE
  5
246
  8
1
  6
CONTINUOUS
 62
     7
 10
233.5
 20
238.41
 30
0.0
 11
233.5
 21
238.09
 31
0.0
  0
ARC
  5
247
  8
1
  6
CONTINUOUS
 62
     7
 10
201.8
 20
239.71
 30
0.0
 40
1.200000000000007
 50
0.0000000000000296
 51
180.0
  0
LINE
  5
248
  8
1
  6
CONTINUOUS
 62
     7
 10
200.298889300107
 20
238.5261113167201
 30
0.0
 11
200.5
 21
238.41
 31
0.0
  0
LINE
  5
249
  8
1
  6
CONTINUOUS
 62
     7
 10
203.1
 20
238.41
 30
0.0
 11
203.3011106998931
 21
238.5261113167201
 31
0.0
  0
LINE
  5
24A
  8
1
  6
CONTINUOUS
 62
     7
 10
203.3011106998931
 20
239.5938886832799
 30
0.0
 11
203.1
 21
239.71
 31
0.0
  0
LINE
  5
24B
  8
1
  6
CONTINUOUS
 62
     7
 10
200.5
 20
239.71
 30
0.0
 11
200.298889300107
 21
239.5938886832799
 31
0.0
  0
ARC
  5
24C
  8
1
  6
CONTINUOUS
 62
     7
 10
195.18
 20
230.49
 30
0.0
 40
1.200000000000007
 50
90.00000000000001
 51
270.0
  0
LINE
  5
24D
  8
1
  6
CONTINUOUS
 62
     7
 10
196.8
 20
232.09
 30
0.0
 11
196.48
 21
232.09
 31
0.0
  0
LINE
  5
24E
  8
1
  6
CONTINUOUS
 62
     7
 10
196.48
 20
228.89
 30
0.0
 11
196.8
 21
228.89
 31
0.0
  0
LINE
  5
24F
  8
1
  6
CONTINUOUS
 62
     7
 10
203.4
 20
238.09
 30
0.0
 11
203.4
 21
238.41
 31
0.0
  0
LINE
  5
250
  8
1
  6
CONTINUOUS
 62
     7
 10
200.2
 20
238.41
 30
0.0
 11
200.2
 21
238.09
 31
0.0
  0
LINE
  5
251
  8
1
  6
CONTINUOUS
 62
     7
 10
233.76
 20
235.97
 30
0.0
 11
233.76
 21
235.47
 31
0.0
  0
LINE
  5
252
  8
1
  6
CONTINUOUS
 62
     7
 10
236.44
 20
235.47
 30
0.0
 11
236.44
 21
235.97
 31
0.0
  0
LINE
  5
253
  8
1
  6
CONTINUOUS
 62
     7
 10
233.5
 20
236.29
 30
0.0
 11
233.5
 21
235.97
 31
0.0
  0
LINE
  5
254
  8
1
  6
CONTINUOUS
 62
     7
 10
236.7
 20
235.97
 30
0.0
 11
236.7
 21
236.29
 31
0.0
  0
LINE
  5
255
  8
1
  6
CONTINUOUS
 62
     7
 10
200.46
 20
235.67
 30
0.0
 11
200.46
 21
235.17
 31
0.0
  0
LINE
  5
256
  8
1
  6
CONTINUOUS
 62
     7
 10
203.14
 20
235.17
 30
0.0
 11
203.14
 21
235.67
 31
0.0
  0
LINE
  5
257
  8
1
  6
CONTINUOUS
 62
     7
 10
200.2
 20
235.99
 30
0.0
 11
200.2
 21
235.67
 31
0.0
  0
LINE
  5
258
  8
1
  6
CONTINUOUS
 62
     7
 10
203.4
 20
235.67
 30
0.0
 11
203.4
 21
235.99
 31
0.0
  0
LINE
  5
259
  8
1
  6
CONTINUOUS
 62
     7
 10
198.22
 20
229.35
 30
0.0
 11
198.72
 21
229.35
 31
0.0
  0
LINE
  5
25A
  8
1
  6
CONTINUOUS
 62
     7
 10
198.72
 20
232.03
 30
0.0
 11
198.4815384615385
 21
232.03
 31
0.0
  0
LINE
  5
25B
  8
1
  6
CONTINUOUS
 62
     7
 10
197.9
 20
229.09
 30
0.0
 11
198.22
 21
229.09
 31
0.0
  0
LINE
  5
25C
  8
1
  6
CONTINUOUS
 62
     7
 10
198.22
 20
232.29
 30
0.0
 11
197.9
 21
232.29
 31
0.0
  0
LINE
  5
25D
  8
1
  6
CONTINUOUS
 62
     7
 10
197.92
 20
201.342566680779
 30
0.0
 11
197.9
 21
201.342566680779
 31
0.0
  0
LINE
  5
25E
  8
1
  6
CONTINUOUS
 62
     7
 10
197.92
 20
213.1627272727272
 30
0.0
 11
197.8999999999999
 21
213.1627272727272
 31
0.0
  0
LINE
  5
25F
  8
1
  6
CONTINUOUS
 62
     7
 10
197.9
 20
206.8915062773335
 30
0.0
 11
197.9225
 21
206.8915062773335
 31
0.0
  0
LINE
  5
260
  8
1
  6
CONTINUOUS
 62
     7
 10
197.9
 20
204.4081818181818
 30
0.0
 11
197.9225
 21
204.4081818181818
 31
0.0
  0
LINE
  5
261
  8
1
  6
CONTINUOUS
 62
     7
 10
197.9
 20
216.2627272727272
 30
0.0
 11
197.9225
 21
216.2627272727272
 31
0.0
  0
LINE
  5
262
  8
1
  6
CONTINUOUS
 62
     7
 10
197.9225
 20
217.5809090909091
 30
0.0
 11
197.9
 21
217.5809090909091
 31
0.0
  0
LINE
  5
263
  8
1
  6
CONTINUOUS
 62
     7
 10
197.9
 20
211.3081818181818
 30
0.0
 11
197.9225
 21
211.3081818181818
 31
0.0
  0
LINE
  5
264
  8
1
  6
CONTINUOUS
 62
     7
 10
197.9
 20
209.0990909090909
 30
0.0
 11
197.9225
 21
209.0990909090909
 31
0.0
  0
LINE
  5
265
  8
1
  6
CONTINUOUS
 62
     7
 10
197.9225
 20
210.7172727272727
 30
0.0
 11
197.9
 21
210.7172727272727
 31
0.0
  0
LINE
  5
266
  8
1
  6
CONTINUOUS
 62
     7
 10
197.9
 20
206.8148354288723
 30
0.0
 11
197.9225
 21
206.8148354288723
 31
0.0
  0
LINE
  5
267
  8
1
  6
CONTINUOUS
 62
     7
 10
197.9225
 20
208.3809090909091
 30
0.0
 11
197.9
 21
208.3809090909091
 31
0.0
  0
LINE
  5
268
  8
1
  6
CONTINUOUS
 62
     7
 10
197.9
 20
213.6263636363636
 30
0.0
 11
197.92
 21
213.6263636363636
 31
0.0
  0
LINE
  5
269
  8
1
  6
CONTINUOUS
 62
     7
 10
197.92
 20
215.4990909090909
 30
0.0
 11
197.9
 21
215.4990909090909
 31
0.0
  0
LINE
  5
26A
  8
1
  6
CONTINUOUS
 62
     7
 10
197.92
 20
206.1271212121212
 30
0.0
 11
197.9
 21
206.1271212121212
 31
0.0
  0
TEXT
  5
26B
  8
0
  6
CONTINUOUS
 62
     7
 10
235.1102913592597
 20
64.58031761910718
 30
0.0
 40
4.0
  1
450M-L
  0
ENDSEC
  0
EOF
