  0
SECTION
  2
HEADER
  9
$ACADVER
  1
AC1004
  9
$INSBASE
 10
0.0
 20
0.0
  9
$EXTMIN
 10
0.0
 20
0.0
  9
$EXTMAX
 10
404.2371507359818
 20
164.0727272728273
  9
$LIMMIN
 10
0.0
 20
0.0
  9
$LIMMAX
 10
12.0
 20
9.0
  9
$ORTHOMODE
 70
     0
  9
$REGENMODE
 70
     1
  9
$FILLMODE
 70
     1
  9
$QTEXTMODE
 70
     0
  9
$DRAGMODE
 70
     2
  9
$LTSCALE
 40
1.0
  9
$OSMODE
 70
    37
  9
$ATTMODE
 70
     1
  9
$TEXTSIZE
 40
0.2
  9
$TRACEWID
 40
0.05
  9
$TEXTSTYLE
  7
STANDARD
  9
$CLAYER
  8
0
  9
$CELTYPE
  6
BYLAYER
  9
$CECOLOR
 62
   256
  9
$DIMSCALE
 40
1.0
  9
$DIMASZ
 40
3.0
  9
$DIMEXO
 40
0.0625
  9
$DIMDLI
 40
0.38
  9
$DIMRND
 40
0.0
  9
$DIMDLE
 40
0.0
  9
$DIMEXE
 40
1.5
  9
$DIMTP
 40
0.0
  9
$DIMTM
 40
0.0
  9
$DIMTXT
 40
3.0
  9
$DIMCEN
 40
0.09
  9
$DIMTSZ
 40
0.0
  9
$DIMTOL
 70
     0
  9
$DIMLIM
 70
     0
  9
$DIMTIH
 70
     1
  9
$DIMTOH
 70
     1
  9
$DIMSE1
 70
     0
  9
$DIMSE2
 70
     0
  9
$DIMTAD
 70
     1
  9
$DIMZIN
 70
     0
  9
$DIMBLK
  1

  9
$DIMASO
 70
     1
  9
$DIMSHO
 70
     1
  9
$DIMPOST
  1

  9
$DIMAPOST
  1

  9
$DIMALT
 70
     0
  9
$DIMALTD
 70
     2
  9
$DIMALTF
 40
25.4
  9
$DIMLFAC
 40
1.0
  9
$DIMTOFL
 70
     0
  9
$DIMTVP
 40
0.0
  9
$DIMTIX
 70
     0
  9
$DIMSOXD
 70
     0
  9
$DIMSAH
 70
     0
  9
$DIMBLK1
  1

  9
$DIMBLK2
  1

  9
$LUNITS
 70
     2
  9
$LUPREC
 70
     4
  9
$SKETCHINC
 40
0.1
  9
$FILLETRAD
 40
0.5
  9
$AUNITS
 70
     0
  9
$AUPREC
 70
     0
  9
$MENU
  1
.
  9
$ELEVATION
 40
0.0
  9
$THICKNESS
 40
0.0
  9
$LIMCHECK
 70
     0
  9
$CHAMFERA
 40
0.0
  9
$CHAMFERB
 40
0.0
  9
$SKPOLY
 70
     0
  9
$TDCREATE
 40
2460557.660054803
  9
$TDUPDATE
 40
2460557.660059167
  9
$TDINDWG
 40
0.0000000116
  9
$TDUSRTIMER
 40
0.0000000116
  9
$USRTIMER
 70
     1
  9
$ANGBASE
 50
0.0
  9
$ANGDIR
 70
     0
  9
$PDMODE
 70
     0
  9
$PDSIZE
 40
0.0
  9
$PLINEWID
 40
0.0
  9
$COORDS
 70
     1
  9
$SPLFRAME
 70
     0
  9
$SPLINETYPE
 70
     6
  9
$SPLINESEGS
 70
     8
  9
$ATTDIA
 70
     0
  9
$ATTREQ
 70
     1
  9
$SURFTAB1
 70
     6
  9
$SURFTAB2
 70
     6
  9
$SURFTYPE
 70
     6
  9
$SURFU
 70
     6
  9
$SURFV
 70
     6
  9
$UCSNAME
  2

  9
$UCSORG
 10
0.0
 20
0.0
 30
0.0
  9
$UCSXDIR
 10
1.0
 20
0.0
 30
0.0
  9
$UCSYDIR
 10
0.0
 20
1.0
 30
0.0
  9
$USERI1
 70
     0
  9
$USERI2
 70
     0
  9
$USERI3
 70
     0
  9
$USERI4
 70
     0
  9
$USERI5
 70
     0
  9
$USERR1
 40
0.0
  9
$USERR2
 40
0.0
  9
$USERR3
 40
0.0
  9
$USERR4
 40
0.0
  9
$USERR5
 40
0.0
  9
$WORLDVIEW
 70
     1
  0
ENDSEC
  0
SECTION
  2
TABLES
  0
TABLE
  2
LTYPE
 70
     2
  0
LTYPE
  2
CONTINUOUS
 70
     0
  3
Solid line
 72
    65
 73
     0
 40
0.0
  0
LTYPE
  2
CENTER
 70
     0
  3

 72
    65
 73
     0
 40
0.0
  0
ENDTAB
  0
TABLE
  2
LAYER
 70
     2
  0
LAYER
  2
0
 70
     0
 62
     7
  6
CONTINUOUS
  0
LAYER
  2
1
 70
     0
 62
     7
  6
CONTINUOUS
  0
ENDTAB
  0
TABLE
  2
STYLE
 70
     2
  0
STYLE
  2
STANDARD
 70
     0
 40
0.0
 41
1.0
 50
0.0
 71
     0
 42
0.2
  3
txt
  4

  0
STYLE
  2
ＭＳ_ゴシック
 70
     0
 40
0.0
 41
1.0
 50
0.0
 71
     0
 42
0.2
  3
ＭＳ ゴシック.shx
  4

  0
ENDTAB
  0
TABLE
  2
VIEW
 70
     0
  0
ENDTAB
  0
ENDSEC
  0
SECTION
  2
BLOCKS
  0
BLOCK
  8
0
  2
D_FRAME_VIEW_1961
 70
     0
 10
0.0
 20
0.0
  0
LINE
  8
1
  6
CONTINUOUS
 62
     7
 10
172.4999999999999
 20
89.75000000000006
 11
172.4999999999999
 21
96.25000000000003
  0
LINE
  8
1
  6
CONTINUOUS
 62
     7
 10
172.4999999999999
 20
89.75000000000006
 11
157.0000000000001
 21
89.75000000000003
  0
LINE
  8
1
  6
CONTINUOUS
 62
     7
 10
157.0000000000001
 20
89.75000000000003
 11
155.5000000000001
 21
88.25000000000001
  0
LINE
  8
1
  6
CONTINUOUS
 62
     7
 10
155.5000000000001
 20
88.25000000000001
 11
152.5000000000001
 21
88.25000000000001
  0
LINE
  8
1
  6
CONTINUOUS
 62
     7
 10
152.5000000000001
 20
88.25000000000001
 11
151.0000000000001
 21
89.75000000000003
  0
LINE
  8
1
  6
CONTINUOUS
 62
     7
 10
151.0000000000001
 20
89.75000000000001
 11
114.0000000000001
 21
89.75000000000003
  0
LINE
  8
1
  6
CONTINUOUS
 62
     7
 10
114.0000000000001
 20
89.75000000000003
 11
112.5000000000001
 21
88.25000000000001
  0
LINE
  8
1
  6
CONTINUOUS
 62
     7
 10
112.5000000000001
 20
88.25000000000001
 11
109.5000000000001
 21
88.25000000000001
  0
LINE
  8
1
  6
CONTINUOUS
 62
     7
 10
109.5000000000001
 20
88.25000000000001
 11
108.0000000000001
 21
89.75000000000003
  0
LINE
  8
1
  6
CONTINUOUS
 62
     7
 10
108.0000000000001
 20
89.75000000000003
 11
92.50000000000007
 21
89.75000000000007
  0
LINE
  8
1
  6
CONTINUOUS
 62
     7
 10
92.50000000000006
 20
96.25000000000004
 11
92.50000000000006
 21
89.75000000000007
  0
ARC
  8
1
  6
CONTINUOUS
 62
     7
 10
90.50000000000004
 20
111.75
 40
1.999999999999998
 50
359.9999999999998
 51
90.0
  0
LINE
  8
1
  6
CONTINUOUS
 62
     7
 10
85.15000000000006
 20
113.75
 11
90.50000000000006
 21
113.75
  0
ARC
  8
1
  6
CONTINUOUS
 62
     7
 10
85.15000000000006
 20
114.75
 40
1.000000000000001
 50
180.0
 51
270.0
  0
LINE
  8
1
  6
CONTINUOUS
 62
     7
 10
84.15000000000003
 20
120.75
 11
84.15000000000005
 21
114.75
  0
LINE
  8
1
  6
CONTINUOUS
 62
     7
 10
89.50000000000006
 20
120.75
 11
84.15000000000003
 21
120.75
  0
LINE
  8
1
  6
CONTINUOUS
 62
     7
 10
89.50000000000006
 20
120.75
 11
89.50000000000007
 21
118.25
  0
LINE
  8
1
  6
CONTINUOUS
 62
     7
 10
89.50000000000007
 20
118.25
 11
96.50000000000009
 21
118.25
  0
LINE
  8
1
  6
CONTINUOUS
 62
     7
 10
96.5000000000001
 20
118.25
 11
96.50000000000009
 21
113.75
  0
LINE
  8
1
  6
CONTINUOUS
 62
     7
 10
96.50000000000009
 20
113.75
 11
168.5000000000001
 21
113.75
  0
LINE
  8
1
  6
CONTINUOUS
 62
     7
 10
168.5000000000001
 20
113.75
 11
168.5000000000001
 21
118.25
  0
LINE
  8
1
  6
CONTINUOUS
 62
     7
 10
168.5000000000001
 20
118.25
 11
175.5000000000001
 21
118.25
  0
LINE
  8
1
  6
CONTINUOUS
 62
     7
 10
175.5000000000001
 20
118.25
 11
175.5000000000001
 21
120.75
  0
LINE
  8
1
  6
CONTINUOUS
 62
     7
 10
180.85
 20
114.75
 11
180.85
 21
120.75
  0
ARC
  8
1
  6
CONTINUOUS
 62
     7
 10
179.85
 20
114.75
 40
0.9999999999999991
 50
270.0000000000007
 51
359.9999999999999
  0
LINE
  8
1
  6
CONTINUOUS
 62
     7
 10
174.5
 20
113.75
 11
179.85
 21
113.75
  0
ARC
  8
1
  6
CONTINUOUS
 62
     7
 10
174.5
 20
111.75
 40
2.000000000000002
 50
90.0
 51
180.0000000000003
  0
LINE
  8
1
  6
CONTINUOUS
 62
     7
 10
172.5
 20
97.75000000000003
 11
172.5
 21
111.75
  0
LINE
  8
1
  6
CONTINUOUS
 62
     7
 10
172.5
 20
97.75000000000003
 11
157.0000000000001
 21
97.75000000000001
  0
LINE
  8
1
  6
CONTINUOUS
 62
     7
 10
157.0000000000001
 20
97.75000000000001
 11
155.5000000000001
 21
96.25000000000001
  0
LINE
  8
1
  6
CONTINUOUS
 62
     7
 10
155.5000000000001
 20
96.25000000000001
 11
152.5000000000001
 21
96.25000000000001
  0
LINE
  8
1
  6
CONTINUOUS
 62
     7
 10
152.5000000000001
 20
96.25000000000001
 11
151.0000000000001
 21
97.75000000000001
  0
LINE
  8
1
  6
CONTINUOUS
 62
     7
 10
151.0000000000001
 20
97.75000000000001
 11
114.0000000000001
 21
97.75000000000001
  0
LINE
  8
1
  6
CONTINUOUS
 62
     7
 10
114.0000000000001
 20
97.75000000000001
 11
112.5000000000001
 21
96.25000000000003
  0
LINE
  8
1
  6
CONTINUOUS
 62
     7
 10
112.5000000000001
 20
96.25000000000003
 11
109.5000000000001
 21
96.25000000000001
  0
LINE
  8
1
  6
CONTINUOUS
 62
     7
 10
109.5000000000001
 20
96.25000000000001
 11
108.0000000000001
 21
97.75000000000001
  0
LINE
  8
1
  6
CONTINUOUS
 62
     7
 10
108.0000000000001
 20
97.75000000000001
 11
92.50000000000006
 21
97.75000000000004
  0
LINE
  8
1
  6
CONTINUOUS
 62
     7
 10
92.50000000000006
 20
111.75
 11
92.50000000000006
 21
97.75000000000004
  0
LINE
  8
1
  6
CONTINUOUS
 62
     7
 10
180.85
 20
120.75
 11
175.5000000000001
 21
120.75
  0
LINE
  8
1
  6
CONTINUOUS
 62
     7
 10
172.5
 20
81.25000000000001
 11
172.5
 21
88.25000000000006
  0
ARC
  8
1
  6
CONTINUOUS
 62
     7
 10
170.5
 20
81.25000000000001
 40
2.000000000000002
 50
270.0
 51
0.0
  0
LINE
  8
1
  6
CONTINUOUS
 62
     7
 10
152.5000000000001
 20
79.24999999999999
 11
170.4999999999999
 21
79.25
  0
LINE
  8
1
  6
CONTINUOUS
 62
     7
 10
152.5000000000001
 20
79.24999999999999
 11
151.0000000000001
 21
80.74999999999999
  0
LINE
  8
1
  6
CONTINUOUS
 62
     7
 10
151.0000000000001
 20
80.74999999999999
 11
114.0000000000001
 21
80.75
  0
LINE
  8
1
  6
CONTINUOUS
 62
     7
 10
114.0000000000001
 20
80.75000000000001
 11
112.5000000000001
 21
79.25000000000001
  0
LINE
  8
1
  6
CONTINUOUS
 62
     7
 10
94.50000000000003
 20
79.25000000000001
 11
112.5
 21
79.25
  0
ARC
  8
1
  6
CONTINUOUS
 62
     7
 10
94.50000000000003
 20
81.25000000000001
 40
1.999999999999995
 50
180.0000000000002
 51
270.0
  0
LINE
  8
1
  6
CONTINUOUS
 62
     7
 10
92.50000000000006
 20
88.25000000000006
 11
92.50000000000004
 21
81.25000000000001
  0
LINE
  8
1
  6
CONTINUOUS
 62
     7
 10
98.0000000000001
 20
118.25
 11
167.0000000000001
 21
118.25
  0
LINE
  8
1
  6
CONTINUOUS
 62
     7
 10
92.50000000000006
 20
89.75000000000007
 11
92.50000000000006
 21
88.25000000000006
  0
LINE
  8
1
  6
CONTINUOUS
 62
     7
 10
172.5
 20
97.75000000000003
 11
172.5
 21
96.25000000000003
  0
LINE
  8
1
  6
CONTINUOUS
 62
     7
 10
172.4999999999999
 20
89.75000000000006
 11
172.4999999999999
 21
88.25000000000004
  0
LINE
  8
1
  6
CONTINUOUS
 62
     7
 10
92.50000000000006
 20
97.75000000000003
 11
92.50000000000006
 21
96.25000000000003
  0
LINE
  8
1
  6
CONTINUOUS
 62
     7
 10
167.0000000000001
 20
118.25
 11
168.5000000000001
 21
118.25
  0
LINE
  8
1
  6
CONTINUOUS
 62
     7
 10
98.0000000000001
 20
118.25
 11
96.5000000000001
 21
118.25
  0
ENDBLK
  8
0
  0
BLOCK
  8
0
  2
D_FRAME_VIEW_2182
 70
     0
 10
0.0
 20
0.0
  0
LINE
  8
1
  6
CONTINUOUS
 62
     7
 10
218.475
 20
113.75
 11
218.475
 21
114.75
  0
LINE
  8
1
  6
CONTINUOUS
 62
     7
 10
216.5249999999999
 20
113.75
 11
216.5249999999999
 21
114.75
  0
LINE
  8
1
  6
CONTINUOUS
 62
     7
 10
218.475
 20
114.75
 11
218.475
 21
120.75
  0
LINE
  8
1
  6
CONTINUOUS
 62
     7
 10
216.5249999999999
 20
114.75
 11
216.5249999999999
 21
120.75
  0
LINE
  8
1
  6
CONTINUOUS
 62
     7
 10
218.475
 20
120.75
 11
216.5249999999999
 21
120.75
  0
LINE
  8
1
  6
CONTINUOUS
 62
     7
 10
218.475
 20
113.75
 11
218.475
 21
111.75
  0
LINE
  8
1
  6
CONTINUOUS
 62
     7
 10
216.5249999999999
 20
113.75
 11
216.5249999999999
 21
111.75
  0
LINE
  8
1
  6
CONTINUOUS
 62
     7
 10
218.475
 20
79.25000000000001
 11
216.5249999999999
 21
79.25000000000001
  0
LINE
  8
1
  6
CONTINUOUS
 62
     7
 10
216.5249999999999
 20
79.25000000000001
 11
216.5249999999999
 21
81.25000000000001
  0
LINE
  8
1
  6
CONTINUOUS
 62
     7
 10
218.475
 20
79.25000000000001
 11
218.475
 21
81.25000000000001
  0
LINE
  8
1
  6
CONTINUOUS
 62
     7
 10
216.5249999999999
 20
89.75000000000007
 11
216.5249999999999
 21
96.25000000000003
  0
LINE
  8
1
  6
CONTINUOUS
 62
     7
 10
216.5249999999999
 20
81.25000000000001
 11
216.5249999999999
 21
88.25000000000006
  0
LINE
  8
1
  6
CONTINUOUS
 62
     7
 10
218.475
 20
81.25000000000001
 11
218.475
 21
111.75
  0
LINE
  8
1
  6
CONTINUOUS
 62
     7
 10
216.5249999999999
 20
97.75000000000003
 11
216.5249999999999
 21
111.75
  0
LINE
  8
1
  6
CONTINUOUS
 62
     7
 10
216.5249999999999
 20
89.75000000000003
 11
216.5249999999999
 21
88.25000000000001
  0
LINE
  8
1
  6
CONTINUOUS
 62
     7
 10
216.5249999999999
 20
97.75000000000003
 11
216.5249999999999
 21
96.25000000000003
  0
ENDBLK
  8
0
  0
BLOCK
  8
0
  2
D_FRAME_DRAWING_17
 70
     0
 10
0.0
 20
0.0
  0
LINE
  8
0
  6
CONTINUOUS
 62
     7
 10
0.0
 20
0.0
 11
420.0
 21
0.0
  0
LINE
  8
0
  6
CONTINUOUS
 62
     7
 10
420.0
 20
0.0
 11
420.0
 21
297.0
  0
LINE
  8
0
  6
CONTINUOUS
 62
     7
 10
420.0
 20
297.0
 11
0.0
 21
297.0
  0
LINE
  8
0
  6
CONTINUOUS
 62
     7
 10
0.0
 20
297.0
 11
0.0
 21
0.0
  0
ENDBLK
  8
0
  0
ENDSEC
  0
SECTION
  2
ENTITIES
  0
LINE
  8
1
  6
CENTER
 62
     1
 10
132.5
 20
80.74999999999999
 11
132.5
 21
118.25
  0
INSERT
  8
1
  6
CONTINUOUS
 62
     7
  2
D_FRAME_VIEW_1961
 10
0.0
 20
0.0
 30
0.0
  0
INSERT
  8
1
  6
CONTINUOUS
 62
     7
  2
D_FRAME_VIEW_2182
 10
0.0
 20
0.0
 30
0.0
  0
TEXT
  8
1
  6
CONTINUOUS
 62
     1
 10
130.1219050894086
 20
69.71403338752033
 40
5.0
  1
64M-Y
  0
INSERT
  8
0
 62
     7
  2
D_FRAME_DRAWING_17
 10
0.0
 20
0.0
 30
0.0
  0
ENDSEC
  0
EOF
