  0
SECTION
  2
HEADER
  9
$ACADVER
  1
AC1004
  9
$INSBASE
 10
0.0
 20
0.0
  9
$EXTMIN
 10
116.4304082984662
 20
123.2272943045504
  9
$EXTMAX
 10
194.72446763902
 20
181.9244946928758
  9
$LIMMIN
 10
0.0
 20
0.0
  9
$LIMMAX
 10
12.0
 20
9.0
  9
$ORTHOMODE
 70
     0
  9
$REGENMODE
 70
     1
  9
$FILLMODE
 70
     1
  9
$QTEXTMODE
 70
     0
  9
$DRAGMODE
 70
     2
  9
$LTSCALE
 40
1.0
  9
$OSMODE
 70
    37
  9
$ATTMODE
 70
     1
  9
$TEXTSIZE
 40
0.2
  9
$TRACEWID
 40
0.05
  9
$TEXTSTYLE
  7
STANDARD
  9
$CLAYER
  8
0
  9
$CELTYPE
  6
BYLAYER
  9
$CECOLOR
 62
   256
  9
$DIMSCALE
 40
1.0
  9
$DIMASZ
 40
3.0
  9
$DIMEXO
 40
0.0625
  9
$DIMDLI
 40
0.38
  9
$DIMRND
 40
0.0
  9
$DIMDLE
 40
0.0
  9
$DIMEXE
 40
1.5
  9
$DIMTP
 40
0.0
  9
$DIMTM
 40
0.0
  9
$DIMTXT
 40
3.0
  9
$DIMCEN
 40
0.09
  9
$DIMTSZ
 40
0.0
  9
$DIMTOL
 70
     0
  9
$DIMLIM
 70
     0
  9
$DIMTIH
 70
     1
  9
$DIMTOH
 70
     1
  9
$DIMSE1
 70
     0
  9
$DIMSE2
 70
     0
  9
$DIMTAD
 70
     1
  9
$DIMZIN
 70
     0
  9
$DIMBLK
  1

  9
$DIMASO
 70
     1
  9
$DIMSHO
 70
     1
  9
$DIMPOST
  1

  9
$DIMAPOST
  1

  9
$DIMALT
 70
     0
  9
$DIMALTD
 70
     2
  9
$DIMALTF
 40
25.4
  9
$DIMLFAC
 40
1.0
  9
$DIMTOFL
 70
     0
  9
$DIMTVP
 40
0.0
  9
$DIMTIX
 70
     0
  9
$DIMSOXD
 70
     0
  9
$DIMSAH
 70
     0
  9
$DIMBLK1
  1

  9
$DIMBLK2
  1

  9
$LUNITS
 70
     2
  9
$LUPREC
 70
     4
  9
$SKETCHINC
 40
0.1
  9
$FILLETRAD
 40
0.5
  9
$AUNITS
 70
     0
  9
$AUPREC
 70
     0
  9
$MENU
  1
.
  9
$ELEVATION
 40
0.0
  9
$THICKNESS
 40
0.0
  9
$LIMCHECK
 70
     0
  9
$CHAMFERA
 40
0.0
  9
$CHAMFERB
 40
0.0
  9
$SKPOLY
 70
     0
  9
$TDCREATE
 40
2460381.55374265
  9
$TDUPDATE
 40
2460381.553742697
  9
$TDINDWG
 40
0.0000000116
  9
$TDUSRTIMER
 40
0.0000000116
  9
$USRTIMER
 70
     1
  9
$ANGBASE
 50
0.0
  9
$ANGDIR
 70
     0
  9
$PDMODE
 70
     0
  9
$PDSIZE
 40
0.0
  9
$PLINEWID
 40
0.0
  9
$COORDS
 70
     1
  9
$SPLFRAME
 70
     0
  9
$SPLINETYPE
 70
     6
  9
$SPLINESEGS
 70
     8
  9
$ATTDIA
 70
     0
  9
$ATTREQ
 70
     1
  9
$SURFTAB1
 70
     6
  9
$SURFTAB2
 70
     6
  9
$SURFTYPE
 70
     6
  9
$SURFU
 70
     6
  9
$SURFV
 70
     6
  9
$UCSNAME
  2

  9
$UCSORG
 10
0.0
 20
0.0
 30
0.0
  9
$UCSXDIR
 10
1.0
 20
0.0
 30
0.0
  9
$UCSYDIR
 10
0.0
 20
1.0
 30
0.0
  9
$USERI1
 70
     0
  9
$USERI2
 70
     0
  9
$USERI3
 70
     0
  9
$USERI4
 70
     0
  9
$USERI5
 70
     0
  9
$USERR1
 40
0.0
  9
$USERR2
 40
0.0
  9
$USERR3
 40
0.0
  9
$USERR4
 40
0.0
  9
$USERR5
 40
0.0
  9
$WORLDVIEW
 70
     1
  0
ENDSEC
  0
SECTION
  2
TABLES
  0
TABLE
  2
LTYPE
 70
     2
  0
LTYPE
  2
CONTINUOUS
 70
     0
  3
Solid line
 72
    65
 73
     0
 40
0.0
  0
LTYPE
  2
CENTER
 70
     0
  3

 72
    65
 73
     0
 40
0.0
  0
ENDTAB
  0
TABLE
  2
LAYER
 70
     1
  0
LAYER
  2
0
 70
     0
 62
     7
  6
CONTINUOUS
  0
ENDTAB
  0
TABLE
  2
STYLE
 70
     2
  0
STYLE
  2
STANDARD
 70
     0
 40
0.0
 41
1.0
 50
0.0
 71
     0
 42
0.2
  3
txt
  4

  0
STYLE
  2
ＭＳ_ゴシック
 70
     0
 40
0.0
 41
1.0
 50
0.0
 71
     0
 42
0.2
  3
ＭＳ ゴシック.shx
  4

  0
ENDTAB
  0
TABLE
  2
VIEW
 70
     0
  0
ENDTAB
  0
ENDSEC
  0
SECTION
  2
BLOCKS
  0
ENDSEC
  0
SECTION
  2
ENTITIES
  0
LINE
  8
0
  6
CONTINUOUS
 62
     7
 10
138.3126828620003
 20
144.1528483111827
 11
137.6674263264054
 21
144.1024026142083
  0
POLYLINE
  8
0
  6
CONTINUOUS
 62
     7
 66
     1
  0
VERTEX
  8
0
  6
CONTINUOUS
 62
     7
 10
189.72446763902
 20
142.1891848253161
  0
VERTEX
  8
0
  6
CONTINUOUS
 62
     7
 10
189.0235763047939
 20
142.1514236442141
  0
VERTEX
  8
0
  6
CONTINUOUS
 62
     7
 10
188.3473870228653
 20
142.0394709472534
  0
VERTEX
  8
0
  6
CONTINUOUS
 62
     7
 10
187.719731252106
 20
141.8572723694275
  0
VERTEX
  8
0
  6
CONTINUOUS
 62
     7
 10
187.1627299475302
 20
141.6112492753308
  0
VERTEX
  8
0
  6
CONTINUOUS
 62
     7
 10
186.6960139344646
 20
141.3100724460673
  0
VERTEX
  8
0
  6
CONTINUOUS
 62
     7
 10
186.3360320442758
 20
140.9643564882442
  0
VERTEX
  8
0
  6
CONTINUOUS
 62
     7
 10
186.0954713955561
 20
140.5862857352286
  0
VERTEX
  8
0
  6
CONTINUOUS
 62
     7
 10
185.9828102522461
 20
140.1891848253161
  0
SEQEND
  8
0
  6
CONTINUOUS
 62
     7
  0
LINE
  8
0
  6
CONTINUOUS
 62
     7
 10
116.7190991675959
 20
163.0881215545787
 11
121.6108097658143
 21
160.8070794411515
  0
LINE
  8
0
  6
CONTINUOUS
 62
     7
 10
123.3659452740775
 20
159.9886463125486
 11
124.1189272200898
 21
159.6375250646706
  0
LINE
  8
0
  6
CONTINUOUS
 62
     7
 10
129.8659452740774
 20
146.2891848253161
 11
120.3759432746773
 21
146.0993847853281
  0
LINE
  8
0
  6
CONTINUOUS
 62
     7
 10
119.8659452740775
 20
146.599284815318
 11
119.8659452740775
 21
148.7773156686023
  0
LINE
  8
0
  6
CONTINUOUS
 62
     7
 10
123.879729324893
 20
161.4041317534591
 11
119.6187960277986
 21
163.3910375807819
  0
LINE
  8
0
  6
CONTINUOUS
 62
     7
 10
124.517605034723
 20
160.0362028793038
 11
123.879729324893
 21
161.4041317534591
  0
LINE
  8
0
  6
CONTINUOUS
 62
     7
 10
121.3659452740775
 20
148.6460826733134
 11
123.3659452740775
 21
159.9886463125486
  0
LINE
  8
0
  6
CONTINUOUS
 62
     7
 10
121.3659452740775
 20
148.1295847853241
 11
121.3659452740775
 21
148.6460826733134
  0
LINE
  8
0
  6
CONTINUOUS
 62
     7
 10
129.8509467737775
 20
147.7891848253161
 11
130.3659452740775
 21
147.7891848253161
  0
LINE
  8
0
  6
CONTINUOUS
 62
     7
 10
130.8659452740775
 20
148.2891848253161
 11
130.8659452740775
 21
150.0809409058423
  0
LINE
  8
0
  6
CONTINUOUS
 62
     7
 10
125.4194618000353
 20
158.4917779116885
 11
124.788010422531
 21
157.3980720433418
  0
LINE
  8
0
  6
CONTINUOUS
 62
     7
 10
143.8659452740775
 20
161.2891848253161
 11
143.8659452740775
 21
159.7891848253161
  0
LINE
  8
0
  6
CONTINUOUS
 62
     7
 10
133.8659452740775
 20
170.2891848253161
 11
134.8659452740775
 21
170.2891848253161
  0
LINE
  8
0
  6
CONTINUOUS
 62
     7
 10
116.8998726666886
 20
164.658892366004
 11
116.4772544049479
 21
163.7525845789674
  0
LINE
  8
0
  6
CONTINUOUS
 62
     7
 10
121.8759432746774
 20
147.629684755334
 11
129.8509467737775
 21
147.7891848253161
  0
LINE
  8
0
  6
CONTINUOUS
 62
     7
 10
124.3115995246122
 20
162.7891848253161
 11
124.5788574635742
 21
162.7891848253161
  0
LINE
  8
0
  6
CONTINUOUS
 62
     7
 10
121.8919045114501
 20
160.2671014587997
 11
119.8659452740775
 21
148.7773156686023
  0
LINE
  8
0
  6
CONTINUOUS
 62
     7
 10
139.8659452740775
 20
146.2891848253161
 11
129.8659452740774
 21
146.2891848253161
  0
LINE
  8
0
  6
CONTINUOUS
 62
     7
 10
126.2937709744622
 20
168.563260462553
 11
125.4329182200519
 21
169.5891848253161
  0
LINE
  8
0
  6
CONTINUOUS
 62
     7
 10
129.9111691248076
 20
171.0159389400845
 11
129.1775525203633
 21
172.5891848253161
  0
LINE
  8
0
  6
CONTINUOUS
 62
     7
 10
192.72446763902
 20
146.089184825316
 11
186.72446763902
 21
146.089184825316
  0
LINE
  8
0
  6
CONTINUOUS
 62
     7
 10
142.9159452740776
 20
144.3891848253161
 11
138.8159452740776
 21
144.3891848253161
  0
LINE
  8
0
  6
CONTINUOUS
 62
     7
 10
192.72446763902
 20
146.089184825316
 11
192.72446763902
 21
147.5895171984644
  0
LINE
  8
0
  6
CONTINUOUS
 62
     7
 10
124.9462010570171
 20
166.8288746273009
 11
124.185890859002
 21
167.5891848253161
  0
LINE
  8
0
  6
CONTINUOUS
 62
     7
 10
139.4159452740776
 20
140.1891848253161
 11
139.1659452740776
 21
140.1891848253161
  0
LINE
  8
0
  6
CONTINUOUS
 62
     7
 10
143.1159452740776
 20
142.3034705396018
 11
143.1159452740776
 21
144.3891848253161
  0
LINE
  8
0
  6
CONTINUOUS
 62
     7
 10
192.72446763902
 20
147.5895171984644
 11
194.72446763902
 21
147.6316224616223
  0
LINE
  8
0
  6
CONTINUOUS
 62
     7
 10
130.9159452740775
 20
144.3891848253161
 11
130.9159452740775
 21
146.2891848253161
  0
LINE
  8
0
  6
CONTINUOUS
 62
     7
 10
147.3659452740776
 20
147.6316224616223
 11
149.3659452740776
 21
147.5895171984644
  0
LINE
  8
0
  6
CONTINUOUS
 62
     7
 10
130.3159452740776
 20
140.1891848253161
 11
126.6159452740775
 21
142.3034705396018
  0
LINE
  8
0
  6
CONTINUOUS
 62
     7
 10
137.6674263264054
 20
144.1024026142083
 11
137.6674263264054
 21
146.2891848253161
  0
LINE
  8
0
  6
CONTINUOUS
 62
     7
 10
138.3126828620003
 20
144.1528483111827
 11
138.3126828620003
 21
146.2891848253161
  0
LINE
  8
0
  6
CONTINUOUS
 62
     7
 10
134.6610344394595
 20
171.7891848253161
 11
133.8659452740775
 21
171.7891848253161
  0
LINE
  8
0
  6
CONTINUOUS
 62
     7
 10
184.72446763902
 20
147.6316224616223
 11
186.72446763902
 21
147.5895171984644
  0
LINE
  8
0
  6
CONTINUOUS
 62
     7
 10
184.72446763902
 20
146.1312900884739
 11
184.72446763902
 21
147.6316224616223
  0
LINE
  8
0
  6
CONTINUOUS
 62
     7
 10
184.72446763902
 20
159.7891848253161
 11
184.72446763902
 21
161.289184825316
  0
LINE
  8
0
  6
CONTINUOUS
 62
     7
 10
192.47446763902
 20
142.1891848253161
 11
193.47446763902
 21
142.3034705396018
  0
LINE
  8
0
  6
CONTINUOUS
 62
     7
 10
194.72446763902
 20
147.7891848253161
 11
184.72446763902
 21
147.7891848253161
  0
LINE
  8
0
  6
CONTINUOUS
 62
     7
 10
193.47446763902
 20
142.3034705396018
 11
193.47446763902
 21
140.1891848253161
  0
LINE
  8
0
  6
CONTINUOUS
 62
     7
 10
185.9828102522461
 20
140.1891848253161
 11
193.47446763902
 21
140.1891848253161
  0
LINE
  8
0
  6
CONTINUOUS
 62
     7
 10
189.72446763902
 20
142.1891848253161
 11
192.47446763902
 21
142.1891848253161
  0
LINE
  8
0
  6
CONTINUOUS
 62
     7
 10
135.0659452740776
 20
143.8891848253161
 11
135.0659452740776
 21
146.2891848253161
  0
LINE
  8
0
  6
CONTINUOUS
 62
     7
 10
138.8659452740775
 20
150.0809409058423
 11
138.8659452740775
 21
148.2891848253161
  0
LINE
  8
0
  6
CONTINUOUS
 62
     7
 10
139.8817329986232
 20
147.7891848253161
 11
147.3659452740775
 21
147.6316224616223
  0
LINE
  8
0
  6
CONTINUOUS
 62
     7
 10
139.1659452740776
 20
140.1891848253161
 11
139.1659452740776
 21
143.8891848253161
  0
LINE
  8
0
  6
CONTINUOUS
 62
     7
 10
145.3659452740775
 20
159.7891848253161
 11
145.3659452740775
 21
161.289184825316
  0
LINE
  8
0
  6
CONTINUOUS
 62
     7
 10
129.1775525203633
 20
172.5891848253161
 11
127.9549641976732
 21
169.967335706373
  0
LINE
  8
0
  6
CONTINUOUS
 62
     7
 10
139.3659452740775
 20
147.7891848253161
 11
139.8817329986232
 21
147.7891848253161
  0
LINE
  8
0
  6
CONTINUOUS
 62
     7
 10
124.185890859002
 20
167.5891848253161
 11
123.8135021755663
 21
163.3327626966899
  0
LINE
  8
0
  6
CONTINUOUS
 62
     7
 10
137.1486133893789
 20
171.5380592159692
 11
137.4350506759886
 21
174.8120523833785
  0
LINE
  8
0
  6
CONTINUOUS
 62
     7
 10
149.3659452740776
 20
147.5895171984644
 11
149.3659452740776
 21
146.089184825316
  0
LINE
  8
0
  6
CONTINUOUS
 62
     7
 10
139.1659452740776
 20
140.1891848253161
 11
130.3159452740776
 21
140.1891848253161
  0
LINE
  8
0
  6
CONTINUOUS
 62
     7
 10
138.3126828620003
 20
144.1528483111827
 11
138.8159452740776
 21
144.2839084571259
  0
LINE
  8
0
  6
CONTINUOUS
 62
     7
 10
134.9445639307592
 20
175.0299417402476
 11
134.6610344394595
 21
171.7891848253161
  0
LINE
  8
0
  6
CONTINUOUS
 62
     7
 10
194.72446763902
 20
147.7891848253161
 11
194.72446763902
 21
147.6316224616223
  0
LINE
  8
0
  6
CONTINUOUS
 62
     7
 10
186.72446763902
 20
147.5895171984644
 11
186.72446763902
 21
146.089184825316
  0
LINE
  8
0
  6
CONTINUOUS
 62
     7
 10
194.72446763902
 20
161.289184825316
 11
184.72446763902
 21
161.289184825316
  0
LINE
  8
0
  6
CONTINUOUS
 62
     7
 10
149.3659452740776
 20
146.0891848253161
 11
147.3659452740776
 21
146.1312900884739
  0
LINE
  8
0
  6
CONTINUOUS
 62
     7
 10
142.9159452740776
 20
144.3891848253161
 11
142.9159452740776
 21
142.1891848253161
  0
LINE
  8
0
  6
CONTINUOUS
 62
     7
 10
127.9549641976732
 20
169.967335706373
 11
127.2495292799424
 21
171.1891848253161
  0
LINE
  8
0
  6
CONTINUOUS
 62
     7
 10
138.8159452740776
 20
144.2839084571259
 11
138.8159452740776
 21
146.2891848253161
  0
LINE
  8
0
  6
CONTINUOUS
 62
     7
 10
125.4329182200519
 20
169.5891848253161
 11
124.9462010570171
 21
166.8288746273009
  0
LINE
  8
0
  6
CONTINUOUS
 62
     7
 10
192.72446763902
 20
147.5895171984644
 11
186.72446763902
 21
147.5895171984644
  0
LINE
  8
0
  6
CONTINUOUS
 62
     7
 10
194.72446763902
 20
171.5380592159692
 11
184.72446763902
 21
171.5380592159692
  0
LINE
  8
0
  6
CONTINUOUS
 62
     7
 10
142.9159452740776
 20
142.1891848253161
 11
139.4159452740776
 21
140.1891848253161
  0
LINE
  8
0
  6
CONTINUOUS
 62
     7
 10
142.9159452740776
 20
144.3891848253161
 11
143.1159452740776
 21
144.3891848253161
  0
LINE
  8
0
  6
CONTINUOUS
 62
     7
 10
126.6159452740775
 20
144.3891848253161
 11
130.9159452740775
 21
144.3891848253161
  0
LINE
  8
0
  6
CONTINUOUS
 62
     7
 10
139.1659452740776
 20
143.8891848253161
 11
135.0659452740776
 21
143.8891848253161
  0
LINE
  8
0
  6
CONTINUOUS
 62
     7
 10
126.6159452740775
 20
142.3034705396018
 11
126.6159452740775
 21
144.3891848253161
  0
LINE
  8
0
  6
CONTINUOUS
 62
     7
 10
194.72446763902
 20
146.1312900884739
 11
192.72446763902
 21
146.0891848253161
  0
LINE
  8
0
  6
CONTINUOUS
 62
     7
 10
194.72446763902
 20
159.7891848253161
 11
194.72446763902
 21
161.289184825316
  0
LINE
  8
0
  6
CONTINUOUS
 62
     7
 10
186.72446763902
 20
146.0891848253161
 11
184.72446763902
 21
146.1312900884739
  0
LINE
  8
0
  6
CONTINUOUS
 62
     7
 10
142.8452511917709
 20
144.3485749593952
 11
142.9159452740776
 21
144.3891848253161
  0
LINE
  8
0
  6
CONTINUOUS
 62
     7
 10
194.72446763902
 20
150.0809409058423
 11
184.72446763902
 21
150.0809409058423
  0
LINE
  8
0
  6
CONTINUOUS
 62
     7
 10
147.3659452740776
 20
146.1312900884739
 11
147.3659452740776
 21
147.6316224616223
  0
LINE
  8
0
  6
CONTINUOUS
 62
     7
 10
184.72446763902
 20
150.0809409058423
 11
184.72446763902
 21
159.7891848253161
  0
LINE
  8
0
  6
CONTINUOUS
 62
     7
 10
127.2495292799424
 20
171.1891848253161
 11
126.2937709744622
 21
168.563260462553
  0
LINE
  8
0
  6
CONTINUOUS
 62
     7
 10
194.72446763902
 20
159.7891848253161
 11
184.72446763902
 21
159.7891848253161
  0
LINE
  8
0
  6
CONTINUOUS
 62
     7
 10
194.72446763902
 20
147.6316224616223
 11
194.72446763902
 21
146.1312900884739
  0
LINE
  8
0
  6
CONTINUOUS
 62
     7
 10
194.72446763902
 20
150.0809409058423
 11
194.72446763902
 21
159.7891848253161
  0
LINE
  8
0
  6
CONTINUOUS
 62
     7
 10
142.9159452740776
 20
142.1891848253161
 11
143.1159452740776
 21
142.3034705396018
  0
LINE
  8
0
  6
CONTINUOUS
 62
     7
 10
147.3659452740776
 20
146.1312900884739
 11
139.8659452740775
 21
146.2891848253161
  0
LINE
  8
0
  6
CONTINUOUS
 62
     7
 10
185.97446763902
 20
140.1891848253161
 11
185.97446763902
 21
143.8891848253161
  0
LINE
  8
0
  6
CONTINUOUS
 62
     7
 10
184.72446763902
 20
150.0809409058423
 11
184.72446763902
 21
148.2891848253161
  0
LINE
  8
0
  6
CONTINUOUS
 62
     7
 10
188.297057396658
 20
144.2839084571259
 11
188.297057396658
 21
146.089184825316
  0
LINE
  8
0
  6
CONTINUOUS
 62
     7
 10
193.47446763902
 20
146.0922574648577
 11
193.47446763902
 21
144.3891848253161
  0
LINE
  8
0
  6
CONTINUOUS
 62
     7
 10
192.47446763902
 20
144.3891848253161
 11
193.47446763902
 21
144.3891848253161
  0
LINE
  8
0
  6
CONTINUOUS
 62
     7
 10
187.32446763902
 20
144.1528483111827
 11
187.32446763902
 21
146.089184825316
  0
LINE
  8
0
  6
CONTINUOUS
 62
     7
 10
194.72446763902
 20
150.0809409058423
 11
194.72446763902
 21
148.2891848253161
  0
LINE
  8
0
  6
CONTINUOUS
 62
     7
 10
187.0235795749975
 20
144.1024026142083
 11
187.0235795749975
 21
146.089184825316
  0
LINE
  8
0
  6
CONTINUOUS
 62
     7
 10
189.72446763902
 20
144.3891848253161
 11
189.72446763902
 21
142.1891848253161
  0
LINE
  8
0
  6
CONTINUOUS
 62
     7
 10
185.9828102522461
 20
140.1891848253161
 11
185.97446763902
 21
140.1891848253161
  0
LINE
  8
0
  6
CONTINUOUS
 62
     7
 10
189.72446763902
 20
144.3891848253161
 11
192.47446763902
 21
144.3891848253161
  0
LINE
  8
0
  6
CONTINUOUS
 62
     7
 10
192.47446763902
 20
142.1891848253161
 11
192.47446763902
 21
144.3891848253161
  0
LINE
  8
0
  6
CONTINUOUS
 62
     7
 10
193.47446763902
 20
142.3034705396018
 11
193.47446763902
 21
144.3891848253161
  0
ARC
  8
0
  6
CONTINUOUS
 62
     7
 10
120.3659452740775
 20
146.599284815318
 40
0.5000000000000004
 50
180.0
 51
271.145762838176
  0
ARC
  8
0
  6
CONTINUOUS
 62
     7
 10
139.2978392821112
 20
157.7965084429022
 40
13.90794903045103
 50
269.4566356791454
 51
284.7773553205324
  0
ARC
  8
0
  6
CONTINUOUS
 62
     7
 10
130.3659452740775
 20
148.2891848253161
 40
0.5000000000000004
 50
270.0
 51
0.0
  0
ARC
  8
0
  6
CONTINUOUS
 62
     7
 10
190.4809026514943
 20
124.4034222317594
 40
20.00007250922125
 50
92.16753580512402
 51
103.0217509320592
  0
ARC
  8
0
  6
CONTINUOUS
 62
     7
 10
135.0815107464445
 20
159.6762797089844
 40
15.78710255714696
 50
269.943508568845
 51
279.4274876464356
  0
ARC
  8
0
  6
CONTINUOUS
 62
     7
 10
133.8659452740775
 20
161.2891848253161
 40
9.0
 50
167.8468025309922
 51
180.0
  0
ARC
  8
0
  6
CONTINUOUS
 62
     7
 10
139.3659452740775
 20
148.2891848253161
 40
0.5000000000000004
 50
180.0
 51
270.0
  0
ARC
  8
0
  6
CONTINUOUS
 62
     7
 10
134.8659452740775
 20
161.2891848253161
 40
10.50000000000001
 50
359.9999999999998
 51
77.44381001928429
  0
ARC
  8
0
  6
CONTINUOUS
 62
     7
 10
121.399500634944
 20
160.3539255476331
 40
0.5000000000000001
 50
350.0000000000013
 51
65.00000000000017
  0
TEXT
  8
0
  6
CONTINUOUS
 62
     7
 10
155.2622633187216
 20
122.8852597916081
 40
3.0
  1
AFP-C16M3
  0
ARC
  8
0
  6
CONTINUOUS
 62
     7
 10
136.3475929007877
 20
176.7244946928757
 40
2.199999999999981
 50
299.6235354791759
 51
230.3764645208246
  0
ARC
  8
0
  6
CONTINUOUS
 62
     7
 10
125.2210231244233
 20
157.1480720433418
 40
0.500000000000002
 50
150.0000000000001
 51
195.3141514992161
  0
ARC
  8
0
  6
CONTINUOUS
 62
     7
 10
124.3115995246122
 20
163.2891848253161
 40
0.5000000000000051
 50
175.0000000000007
 51
270.0
  0
ARC
  8
0
  6
CONTINUOUS
 62
     7
 10
124.5788574635742
 20
163.2891848253161
 40
0.5000000000000004
 50
270.0
 51
347.846802530991
  0
ARC
  8
0
  6
CONTINUOUS
 62
     7
 10
116.9304082984662
 20
163.541275448097
 40
0.500000000000007
 50
154.9999999999987
 51
245.0000000000001
  0
ARC
  8
0
  6
CONTINUOUS
 62
     7
 10
121.8659452740775
 20
148.1295847853241
 40
0.5000000000000004
 50
180.0
 51
271.1457628381745
  0
ARC
  8
0
  6
CONTINUOUS
 62
     7
 10
134.8659452740775
 20
159.7891848253161
 40
10.50000000000001
 50
292.3926878054016
 51
0.0
  0
ARC
  8
0
  6
CONTINUOUS
 62
     7
 10
133.8659452740775
 20
161.2891848253161
 40
10.50000000000001
 50
90.0
 51
112.1260419226535
  0
ARC
  8
0
  6
CONTINUOUS
 62
     7
 10
133.8659452740775
 20
161.2891848253161
 40
9.000000000000007
 50
90.0
 51
167.8468025309922
  0
ARC
  8
0
  6
CONTINUOUS
 62
     7
 10
124.245712698612
 20
159.9094174007816
 40
0.3000000000000019
 50
244.9999999999997
 51
25.00000000000034
  0
ARC
  8
0
  6
CONTINUOUS
 62
     7
 10
134.8659452740775
 20
159.7891848253161
 40
10.5
 50
195.3141514992168
 51
247.6073121945984
  0
ARC
  8
0
  6
CONTINUOUS
 62
     7
 10
125.6792694211706
 20
158.3417779116885
 40
0.2999999999999843
 50
8.953634834022964
 51
150.0000000000007
  0
ARC
  8
0
  6
CONTINUOUS
 62
     7
 10
134.8659452740775
 20
161.2891848253161
 40
9.000000000000007
 50
0.0
 51
90.0
  0
ARC
  8
0
  6
CONTINUOUS
 62
     7
 10
118.2593343472436
 20
164.024964973393
 40
1.500000000000009
 50
334.9999999999996
 51
155.0000000000009
  0
ARC
  8
0
  6
CONTINUOUS
 62
     7
 10
134.8659452740775
 20
159.7891848253161
 40
9.00000000000001
 50
188.9536348340232
 51
0.0
  0
LINE
  8
0
  6
CONTINUOUS
 62
     7
 10
184.72446763902
 20
146.0993847853281
 11
185.4193799052553
 21
146.0993847853281
  0
LINE
  8
0
  6
CONTINUOUS
 62
     7
 10
185.97446763902
 20
143.8891848253161
 11
185.97446763902
 21
146.0922574648577
  0
LINE
  8
0
  6
CENTER
 62
     7
 10
189.72446763902
 20
137.1891848253161
 11
189.72446763902
 21
181.9244946928758
  0
LINE
  8
0
  6
CONTINUOUS
 62
     7
 10
184.72446763902
 20
148.2891848253161
 11
194.72446763902
 21
148.2891848253161
  0
LINE
  8
0
  6
CONTINUOUS
 62
     7
 10
184.72446763902
 20
148.2891848253161
 11
184.72446763902
 21
147.7891848253161
  0
LINE
  8
0
  6
CONTINUOUS
 62
     7
 10
194.72446763902
 20
161.289184825316
 11
194.72446763902
 21
171.5380592159692
  0
LINE
  8
0
  6
CONTINUOUS
 62
     7
 10
194.72446763902
 20
146.1312900884739
 11
194.72446763902
 21
146.0993847853281
  0
LINE
  8
0
  6
CONTINUOUS
 62
     7
 10
194.0295553727848
 20
146.0993847853281
 11
194.72446763902
 21
146.0993847853281
  0
LINE
  8
0
  6
CENTER
 62
     7
 10
134.8659452740775
 20
137.1891848253161
 11
134.8659452740775
 21
181.3507543001537
  0
LINE
  8
0
  6
CONTINUOUS
 62
     7
 10
194.72446763902
 20
178.9244946928758
 11
184.72446763902
 21
178.9244946928758
  0
LINE
  8
0
  6
CONTINUOUS
 62
     7
 10
184.72446763902
 20
146.1312900884739
 11
184.72446763902
 21
146.0993847853281
  0
LINE
  8
0
  6
CONTINUOUS
 62
     7
 10
184.72446763902
 20
171.5380592159692
 11
184.72446763902
 21
174.8120523833785
  0
LINE
  8
0
  6
CONTINUOUS
 62
     7
 10
194.72446763902
 20
174.8120523833785
 11
184.72446763902
 21
174.8120523833785
  0
LINE
  8
0
  6
CONTINUOUS
 62
     7
 10
194.72446763902
 20
147.7891848253161
 11
194.72446763902
 21
148.2891848253161
  0
LINE
  8
0
  6
CONTINUOUS
 62
     7
 10
184.72446763902
 20
161.289184825316
 11
184.72446763902
 21
171.5380592159692
  0
LINE
  8
0
  6
CONTINUOUS
 62
     7
 10
184.72446763902
 20
174.8120523833785
 11
184.72446763902
 21
178.9244946928758
  0
LINE
  8
0
  6
CONTINUOUS
 62
     7
 10
194.72446763902
 20
174.8120523833785
 11
194.72446763902
 21
178.9244946928758
  0
LINE
  8
0
  6
CONTINUOUS
 62
     7
 10
194.72446763902
 20
171.5380592159692
 11
194.72446763902
 21
174.8120523833785
  0
ENDSEC
  0
EOF
