  0
SECTION
  2
HEADER
  9
$ACADVER
  1
AC1004
  9
$INSBASE
 10
0.0
 20
0.0
  9
$EXTMIN
 10
28.62818929656484
 20
133.2272943045505
  9
$EXTMAX
 10
93.77111093275947
 20
179.0968978753305
  9
$LIMMIN
 10
0.0
 20
0.0
  9
$LIMMAX
 10
12.0
 20
9.0
  9
$ORTHOMODE
 70
     0
  9
$REGENMODE
 70
     1
  9
$FILLMODE
 70
     1
  9
$QTEXTMODE
 70
     0
  9
$DRAGMODE
 70
     2
  9
$LTSCALE
 40
1.0
  9
$OSMODE
 70
    37
  9
$ATTMODE
 70
     1
  9
$TEXTSIZE
 40
0.2
  9
$TRACEWID
 40
0.05
  9
$TEXTSTYLE
  7
STANDARD
  9
$CLAYER
  8
0
  9
$CELTYPE
  6
BYLAYER
  9
$CECOLOR
 62
   256
  9
$DIMSCALE
 40
1.0
  9
$DIMASZ
 40
3.0
  9
$DIMEXO
 40
0.0625
  9
$DIMDLI
 40
0.38
  9
$DIMRND
 40
0.0
  9
$DIMDLE
 40
0.0
  9
$DIMEXE
 40
1.5
  9
$DIMTP
 40
0.0
  9
$DIMTM
 40
0.0
  9
$DIMTXT
 40
3.0
  9
$DIMCEN
 40
0.09
  9
$DIMTSZ
 40
0.0
  9
$DIMTOL
 70
     0
  9
$DIMLIM
 70
     0
  9
$DIMTIH
 70
     1
  9
$DIMTOH
 70
     1
  9
$DIMSE1
 70
     0
  9
$DIMSE2
 70
     0
  9
$DIMTAD
 70
     1
  9
$DIMZIN
 70
     0
  9
$DIMBLK
  1

  9
$DIMASO
 70
     1
  9
$DIMSHO
 70
     1
  9
$DIMPOST
  1

  9
$DIMAPOST
  1

  9
$DIMALT
 70
     0
  9
$DIMALTD
 70
     2
  9
$DIMALTF
 40
25.4
  9
$DIMLFAC
 40
1.0
  9
$DIMTOFL
 70
     0
  9
$DIMTVP
 40
0.0
  9
$DIMTIX
 70
     0
  9
$DIMSOXD
 70
     0
  9
$DIMSAH
 70
     0
  9
$DIMBLK1
  1

  9
$DIMBLK2
  1

  9
$LUNITS
 70
     2
  9
$LUPREC
 70
     4
  9
$SKETCHINC
 40
0.1
  9
$FILLETRAD
 40
0.5
  9
$AUNITS
 70
     0
  9
$AUPREC
 70
     0
  9
$MENU
  1
.
  9
$ELEVATION
 40
0.0
  9
$THICKNESS
 40
0.0
  9
$LIMCHECK
 70
     0
  9
$CHAMFERA
 40
0.0
  9
$CHAMFERB
 40
0.0
  9
$SKPOLY
 70
     0
  9
$TDCREATE
 40
2460381.552213947
  9
$TDUPDATE
 40
2460381.552214016
  9
$TDINDWG
 40
0.0000000116
  9
$TDUSRTIMER
 40
0.0000000116
  9
$USRTIMER
 70
     1
  9
$ANGBASE
 50
0.0
  9
$ANGDIR
 70
     0
  9
$PDMODE
 70
     0
  9
$PDSIZE
 40
0.0
  9
$PLINEWID
 40
0.0
  9
$COORDS
 70
     1
  9
$SPLFRAME
 70
     0
  9
$SPLINETYPE
 70
     6
  9
$SPLINESEGS
 70
     8
  9
$ATTDIA
 70
     0
  9
$ATTREQ
 70
     1
  9
$SURFTAB1
 70
     6
  9
$SURFTAB2
 70
     6
  9
$SURFTYPE
 70
     6
  9
$SURFU
 70
     6
  9
$SURFV
 70
     6
  9
$UCSNAME
  2

  9
$UCSORG
 10
0.0
 20
0.0
 30
0.0
  9
$UCSXDIR
 10
1.0
 20
0.0
 30
0.0
  9
$UCSYDIR
 10
0.0
 20
1.0
 30
0.0
  9
$USERI1
 70
     0
  9
$USERI2
 70
     0
  9
$USERI3
 70
     0
  9
$USERI4
 70
     0
  9
$USERI5
 70
     0
  9
$USERR1
 40
0.0
  9
$USERR2
 40
0.0
  9
$USERR3
 40
0.0
  9
$USERR4
 40
0.0
  9
$USERR5
 40
0.0
  9
$WORLDVIEW
 70
     1
  0
ENDSEC
  0
SECTION
  2
TABLES
  0
TABLE
  2
LTYPE
 70
     2
  0
LTYPE
  2
CONTINUOUS
 70
     0
  3
Solid line
 72
    65
 73
     0
 40
0.0
  0
LTYPE
  2
CENTER
 70
     0
  3

 72
    65
 73
     0
 40
0.0
  0
ENDTAB
  0
TABLE
  2
LAYER
 70
     1
  0
LAYER
  2
0
 70
     0
 62
     7
  6
CONTINUOUS
  0
ENDTAB
  0
TABLE
  2
STYLE
 70
     2
  0
STYLE
  2
STANDARD
 70
     0
 40
0.0
 41
1.0
 50
0.0
 71
     0
 42
0.2
  3
txt
  4

  0
STYLE
  2
ＭＳ_ゴシック
 70
     0
 40
0.0
 41
1.0
 50
0.0
 71
     0
 42
0.2
  3
ＭＳ ゴシック.shx
  4

  0
ENDTAB
  0
TABLE
  2
VIEW
 70
     0
  0
ENDTAB
  0
ENDSEC
  0
SECTION
  2
BLOCKS
  0
ENDSEC
  0
SECTION
  2
ENTITIES
  0
LINE
  8
0
  6
CONTINUOUS
 62
     7
 10
46.57492688448765
 20
149.9276760780628
 11
45.92967034889266
 21
149.8772303810885
  0
POLYLINE
  8
0
  6
CONTINUOUS
 62
     7
 66
     1
  0
VERTEX
  8
0
  6
CONTINUOUS
 62
     7
 10
88.77111093275948
 20
147.9640125921962
  0
VERTEX
  8
0
  6
CONTINUOUS
 62
     7
 10
88.07021959853337
 20
147.9262514110943
  0
VERTEX
  8
0
  6
CONTINUOUS
 62
     7
 10
87.39403031660477
 20
147.8142987141335
  0
VERTEX
  8
0
  6
CONTINUOUS
 62
     7
 10
86.7663745458455
 20
147.6321001363077
  0
VERTEX
  8
0
  6
CONTINUOUS
 62
     7
 10
86.20937324126959
 20
147.386077042211
  0
VERTEX
  8
0
  6
CONTINUOUS
 62
     7
 10
85.74265722820407
 20
147.0849002129474
  0
VERTEX
  8
0
  6
CONTINUOUS
 62
     7
 10
85.38267533801529
 20
146.7391842551244
  0
VERTEX
  8
0
  6
CONTINUOUS
 62
     7
 10
85.14211468929551
 20
146.3611135021087
  0
VERTEX
  8
0
  6
CONTINUOUS
 62
     7
 10
85.02945354598555
 20
145.9640125921962
  0
SEQEND
  8
0
  6
CONTINUOUS
 62
     7
  0
LINE
  8
0
  6
CENTER
 62
     7
 10
88.77111093275947
 20
142.9640125921962
 11
88.77111093275947
 21
179.0968978753305
  0
LINE
  8
0
  6
CONTINUOUS
 62
     7
 10
93.77111093275947
 20
163.0640125921962
 11
83.77111093275947
 21
163.0640125921962
  0
LINE
  8
0
  6
CONTINUOUS
 62
     7
 10
93.77111093275947
 20
156.4018909353578
 11
93.77111093275947
 21
161.5640125921962
  0
LINE
  8
0
  6
CONTINUOUS
 62
     7
 10
86.37111093275945
 20
149.9276760780628
 11
86.37111093275945
 21
151.8640125921962
  0
LINE
  8
0
  6
CONTINUOUS
 62
     7
 10
83.77111093275947
 20
169.1287213688989
 11
83.77111093275947
 21
171.8969547960986
  0
LINE
  8
0
  6
CONTINUOUS
 62
     7
 10
83.57111093275947
 20
152.5640125921962
 11
83.57111093275947
 21
152.5679058117017
  0
LINE
  8
0
  6
CONTINUOUS
 62
     7
 10
83.77111093275947
 20
156.4018909353578
 11
83.77111093275947
 21
161.5640125921962
  0
LINE
  8
0
  6
CONTINUOUS
 62
     7
 10
83.77111093275947
 20
156.4018909353578
 11
83.77111093275947
 21
154.0640125921962
  0
LINE
  8
0
  6
CONTINUOUS
 62
     7
 10
93.77111093275947
 20
169.1287213688989
 11
93.77111093275947
 21
171.8969547960986
  0
LINE
  8
0
  6
CONTINUOUS
 62
     7
 10
93.77111093275947
 20
161.5640125921962
 11
93.77111093275947
 21
163.0640125921962
  0
LINE
  8
0
  6
CONTINUOUS
 62
     7
 10
83.77111093275947
 20
161.5640125921962
 11
83.77111093275947
 21
163.0640125921962
  0
LINE
  8
0
  6
CONTINUOUS
 62
     7
 10
85.02945354598553
 20
145.9640125921962
 11
85.02111093275947
 21
145.9640125921962
  0
LINE
  8
0
  6
CONTINUOUS
 62
     7
 10
93.77111093275947
 20
169.1287213688989
 11
83.77111093275947
 21
169.1287213688989
  0
LINE
  8
0
  6
CENTER
 62
     7
 10
43.12818929656483
 20
142.9640125921962
 11
43.12818929656483
 21
179.0968978753305
  0
LINE
  8
0
  6
CONTINUOUS
 62
     7
 10
93.77111093275947
 20
161.5640125921962
 11
83.77111093275947
 21
161.5640125921962
  0
LINE
  8
0
  6
CONTINUOUS
 62
     7
 10
86.07022286873696
 20
149.8772303810884
 11
86.07022286873696
 21
151.8640125921962
  0
LINE
  8
0
  6
CONTINUOUS
 62
     7
 10
87.34370069039745
 20
150.0587362240061
 11
87.34370069039745
 21
151.8640125921962
  0
LINE
  8
0
  6
CONTINUOUS
 62
     7
 10
83.77111093275947
 20
154.0640125921962
 11
93.77111093275947
 21
154.0640125921962
  0
LINE
  8
0
  6
CONTINUOUS
 62
     7
 10
83.77111093275947
 20
163.0640125921962
 11
83.77111093275947
 21
169.1287213688989
  0
LINE
  8
0
  6
CONTINUOUS
 62
     7
 10
93.77111093275947
 20
176.0968978753305
 11
83.77111093275948
 21
176.0968978753305
  0
LINE
  8
0
  6
CONTINUOUS
 62
     7
 10
83.77111093275947
 20
154.0640125921962
 11
83.77111093275947
 21
153.5640125921962
  0
LINE
  8
0
  6
CONTINUOUS
 62
     7
 10
83.77111093275947
 20
171.8969547960986
 11
83.77111093275947
 21
176.0968978753305
  0
LINE
  8
0
  6
CONTINUOUS
 62
     7
 10
85.02111093275947
 20
145.9640125921962
 11
85.02111093275947
 21
149.6640125921962
  0
LINE
  8
0
  6
CONTINUOUS
 62
     7
 10
88.77111093275938
 20
150.1640125921962
 11
91.52111093275947
 21
150.1640125921962
  0
LINE
  8
0
  6
CONTINUOUS
 62
     7
 10
93.77111093275947
 20
171.8969547960986
 11
93.77111093275947
 21
176.0968978753305
  0
LINE
  8
0
  6
CONTINUOUS
 62
     7
 10
85.02111093275947
 20
149.6640125921962
 11
85.02111093275947
 21
151.8670852317378
  0
LINE
  8
0
  6
CONTINUOUS
 62
     7
 10
93.77111093275947
 20
156.4018909353578
 11
83.77111093275947
 21
156.4018909353578
  0
LINE
  8
0
  6
CONTINUOUS
 62
     7
 10
93.77111093275947
 20
171.8969547960986
 11
83.77111093275947
 21
171.8969547960986
  0
LINE
  8
0
  6
CONTINUOUS
 62
     7
 10
93.77111093275947
 20
156.4018909353578
 11
93.77111093275947
 21
154.0640125921962
  0
LINE
  8
0
  6
CONTINUOUS
 62
     7
 10
93.77111093275947
 20
153.5640125921962
 11
93.77111093275947
 21
154.0640125921962
  0
LINE
  8
0
  6
CONTINUOUS
 62
     7
 10
92.52111093275947
 20
151.8670852317378
 11
92.52111093275947
 21
150.1640125921962
  0
LINE
  8
0
  6
CONTINUOUS
 62
     7
 10
93.77111093275947
 20
163.0640125921962
 11
93.77111093275947
 21
169.1287213688989
  0
ARC
  8
0
  6
CONTINUOUS
 62
     7
 10
37.83761851789927
 20
160.0607292403526
 40
0.4999999999999934
 50
15.86217501608693
 51
150.0000000000001
  0
ARC
  8
0
  6
CONTINUOUS
 62
     7
 10
43.12818929656483
 20
161.5640125921962
 40
5.0
 50
195.8621750160867
 51
0.0
  0
ARC
  8
0
  6
CONTINUOUS
 62
     7
 10
42.12818929656483
 20
163.0640125921962
 40
5.000000000000004
 50
90.0
 51
174.7840914295459
  0
ARC
  8
0
  6
CONTINUOUS
 62
     7
 10
43.12818929656483
 20
163.0640125921962
 40
5.000000000000004
 50
0.0
 51
90.0
  0
ARC
  8
0
  6
CONTINUOUS
 62
     7
 10
36.65096372151316
 20
163.5640125921962
 40
0.5000000000000004
 50
270.0
 51
354.7840914295462
  0
ARC
  8
0
  6
CONTINUOUS
 62
     7
 10
36.34725084656225
 20
163.5640125921962
 40
0.5000000000000001
 50
189.9999999999986
 51
270.0
  0
ARC
  8
0
  6
CONTINUOUS
 62
     7
 10
42.12818929656483
 20
163.0640125921962
 40
6.500000000000005
 50
89.99999999999915
 51
112.5196432570687
  0
ARC
  8
0
  6
CONTINUOUS
 62
     7
 10
43.12818929656483
 20
161.5640125921962
 40
6.500000000000005
 50
307.4228281820836
 51
0.0
  0
ARC
  8
0
  6
CONTINUOUS
 62
     7
 10
29.95711534534218
 20
164.5315326169166
 40
1.000000000000015
 50
155.0000000000005
 51
245.0000000000001
  0
ARC
  8
0
  6
CONTINUOUS
 62
     7
 10
30.34968603361987
 20
164.9001628580869
 40
1.199999999999995
 50
334.9999999999994
 51
155.0000000000013
  0
ARC
  8
0
  6
CONTINUOUS
 62
     7
 10
45.03831925090107
 20
173.8968978753305
 40
2.200000000000006
 50
294.6235354791748
 51
225.3764645208248
  0
ARC
  8
0
  6
CONTINUOUS
 62
     7
 10
47.58881973238607
 20
163.2061029210112
 40
13.54304295978925
 50
269.3204140413308
 51
285.2079644870877
  0
ARC
  8
0
  6
CONTINUOUS
 62
     7
 10
43.34375476893176
 20
165.4511074758637
 40
15.78710255714615
 50
269.9435085688448
 51
279.427487646436
  0
ARC
  8
0
  6
CONTINUOUS
 62
     7
 10
42.12818929656483
 20
163.0640125921962
 40
5.000000000000004
 50
90.0
 51
122.9281094212463
  0
ARC
  8
0
  6
CONTINUOUS
 62
     7
 10
47.57818929656482
 20
154.0640125921962
 40
0.5000000000000004
 50
180.0
 51
270.0
  0
ARC
  8
0
  6
CONTINUOUS
 62
     7
 10
33.15432636137247
 20
161.3855817569605
 40
0.5000000000000001
 50
350.0000000000013
 51
65.00000000000017
  0
ARC
  8
0
  6
CONTINUOUS
 62
     7
 10
43.12818929656483
 20
163.0640125921962
 40
6.499999999999992
 50
0.0
 51
68.91251078902937
  0
ARC
  8
0
  6
CONTINUOUS
 62
     7
 10
31.8400719024232
 20
153.9320743375699
 40
0.49999999999999
 50
271.2060487792205
 51
350.0000000000013
  0
ARC
  8
0
  6
CONTINUOUS
 62
     7
 10
43.12818929656483
 20
161.5640125921962
 40
6.499999999999993
 50
200.3307719067022
 51
232.5771718179164
  0
ARC
  8
0
  6
CONTINUOUS
 62
     7
 10
38.67818929656483
 20
154.0640125921962
 40
0.5000000000000004
 50
270.0
 51
0.0
  0
ARC
  8
0
  6
CONTINUOUS
 62
     7
 10
34.38809707604565
 20
153.9857169728041
 40
0.4999999999999865
 50
170.0000000000011
 51
271.2060487792189
  0
ARC
  8
0
  6
CONTINUOUS
 62
     7
 10
37.50197447507816
 20
159.4793767049287
 40
0.500000000000002
 50
150.0000000000001
 51
200.3307719067037
  0
ARC
  8
0
  6
CONTINUOUS
 62
     7
 10
89.527536318994
 20
130.1783221954375
 40
20.00000000000089
 50
92.16751607030105
 51
103.0217706668822
  0
ARC
  8
0
  6
CONTINUOUS
 62
     7
 10
35.90795672109932
 20
160.9842451676617
 40
0.3000000000000019
 50
244.9999999999997
 51
25.00000000000034
  0
LINE
  8
0
  6
CONTINUOUS
 62
     7
 10
93.77111093275947
 20
153.4064502285024
 11
93.77111093275947
 21
153.5640125921962
  0
LINE
  8
0
  6
CONTINUOUS
 62
     7
 10
91.52111093275947
 20
150.1640125921962
 11
92.52111093275947
 21
150.1640125921962
  0
LINE
  8
0
  6
CONTINUOUS
 62
     7
 10
91.52111093275947
 20
147.9640125921962
 11
92.52111093275947
 21
148.0782983064819
  0
LINE
  8
0
  6
CONTINUOUS
 62
     7
 10
83.77111093275947
 20
153.4064502285024
 11
85.77111093275947
 21
153.3643449653445
  0
LINE
  8
0
  6
CONTINUOUS
 62
     7
 10
93.77111093275947
 20
153.5640125921962
 11
83.77111093275947
 21
153.5640125921962
  0
LINE
  8
0
  6
CONTINUOUS
 62
     7
 10
91.52111093275947
 20
147.9640125921962
 11
91.52111093275947
 21
150.1640125921962
  0
LINE
  8
0
  6
CONTINUOUS
 62
     7
 10
92.52111093275947
 20
148.0782983064819
 11
92.52111093275947
 21
150.1640125921962
  0
LINE
  8
0
  6
CONTINUOUS
 62
     7
 10
93.77111093275947
 20
153.4064502285024
 11
93.77111093275947
 21
151.9061178553541
  0
LINE
  8
0
  6
CONTINUOUS
 62
     7
 10
91.77111093275948
 20
153.3643449653445
 11
85.77111093275947
 21
153.3643449653445
  0
LINE
  8
0
  6
CONTINUOUS
 62
     7
 10
91.77111093275948
 20
151.8640125921962
 11
85.77111093275947
 21
151.8640125921962
  0
LINE
  8
0
  6
CONTINUOUS
 62
     7
 10
83.77111093275947
 20
151.9061178553541
 11
83.77111093275947
 21
153.4064502285024
  0
LINE
  8
0
  6
CONTINUOUS
 62
     7
 10
85.02945354598553
 20
145.9640125921962
 11
92.52111093275947
 21
145.9640125921962
  0
LINE
  8
0
  6
CONTINUOUS
 62
     7
 10
83.77111093275947
 20
153.4064502285024
 11
83.77111093275947
 21
153.5640125921962
  0
LINE
  8
0
  6
CONTINUOUS
 62
     7
 10
88.77111093275948
 20
147.9640125921962
 11
91.52111093275947
 21
147.9640125921962
  0
LINE
  8
0
  6
CONTINUOUS
 62
     7
 10
92.52111093275947
 20
148.0782983064819
 11
92.52111093275947
 21
145.9640125921962
  0
LINE
  8
0
  6
CONTINUOUS
 62
     7
 10
88.77111093275938
 20
150.1640125921962
 11
88.77111093275948
 21
147.9640125921962
  0
LINE
  8
0
  6
CONTINUOUS
 62
     7
 10
91.77111093275948
 20
151.8640125921962
 11
91.77111093275948
 21
153.3643449653445
  0
LINE
  8
0
  6
CONTINUOUS
 62
     7
 10
85.77111093275947
 20
151.8640125921962
 11
83.77111093275947
 21
151.9061178553541
  0
LINE
  8
0
  6
CONTINUOUS
 62
     7
 10
91.77111093275948
 20
153.3643449653445
 11
93.77111093275947
 21
153.4064502285024
  0
LINE
  8
0
  6
CONTINUOUS
 62
     7
 10
93.77111093275947
 20
151.9061178553541
 11
91.77111093275948
 21
151.8640125921962
  0
TEXT
  8
0
  6
CONTINUOUS
 62
     7
 10
56.13499059144883
 20
132.8852597916081
 40
3.0
  1
AFP-C9M3
  0
LINE
  8
0
  6
CONTINUOUS
 62
     7
 10
38.11240157201922
 20
153.5640125921962
 11
34.39862105990868
 21
153.4858277393097
  0
LINE
  8
0
  6
CONTINUOUS
 62
     7
 10
43.00503140631267
 20
169.5640125921962
 11
42.12818929656492
 21
169.5640125921962
  0
LINE
  8
0
  6
CONTINUOUS
 62
     7
 10
38.24724381143798
 20
168.278249079111
 11
37.33618004806244
 21
169.3640125921962
  0
LINE
  8
0
  6
CONTINUOUS
 62
     7
 10
43.49293920847799
 20
172.331075240266
 11
43.00503140631267
 21
169.5640125921962
  0
LINE
  8
0
  6
CONTINUOUS
 62
     7
 10
29.26211668917587
 20
165.4073047721756
 11
29.05080755830553
 21
164.9541508786573
  0
LINE
  8
0
  6
CONTINUOUS
 62
     7
 10
29.53449708360148
 20
163.62522482988
 11
33.36563549224282
 21
161.8387356504788
  0
LINE
  8
0
  6
CONTINUOUS
 62
     7
 10
48.12818929656486
 20
152.0640125921962
 11
55.62818929656483
 21
151.9061178553541
  0
LINE
  8
0
  6
CONTINUOUS
 62
     7
 10
39.17818929656483
 20
150.1640125921962
 11
39.17818929656483
 21
152.0640125921962
  0
LINE
  8
0
  6
CONTINUOUS
 62
     7
 10
47.42818929656484
 20
149.6640125921962
 11
43.32818929656483
 21
149.6640125921962
  0
LINE
  8
0
  6
CONTINUOUS
 62
     7
 10
30.62818929656484
 20
151.9061178553541
 11
38.12818929656481
 21
152.0640125921962
  0
LINE
  8
0
  6
CONTINUOUS
 62
     7
 10
33.89569319953953
 20
154.0725410616376
 11
35.12077100050599
 21
161.0203025218759
  0
LINE
  8
0
  6
CONTINUOUS
 62
     7
 10
34.87818929656481
 20
148.0782983064819
 11
34.87818929656481
 21
150.1640125921962
  0
LINE
  8
0
  6
CONTINUOUS
 62
     7
 10
47.42818929656484
 20
145.9640125921962
 11
38.57818929656484
 21
145.9640125921962
  0
LINE
  8
0
  6
CONTINUOUS
 62
     7
 10
47.42818929656484
 20
145.9640125921962
 11
47.42818929656484
 21
149.6640125921962
  0
LINE
  8
0
  6
CONTINUOUS
 62
     7
 10
36.27170878674279
 20
168.0640125921962
 11
36.52818929656483
 21
165.6237635463445
  0
LINE
  8
0
  6
CONTINUOUS
 62
     7
 10
51.17818929656484
 20
150.1640125921962
 11
47.07818929656484
 21
150.1640125921962
  0
LINE
  8
0
  6
CONTINUOUS
 62
     7
 10
30.62818929656484
 20
153.4064502285024
 11
30.62818929656484
 21
151.9061178553541
  0
LINE
  8
0
  6
CONTINUOUS
 62
     7
 10
30.62818929656484
 20
151.9061178553541
 11
28.62818929656484
 21
151.8640125921962
  0
LINE
  8
0
  6
CONTINUOUS
 62
     7
 10
46.5749268844876
 20
149.9276760780628
 11
47.07818929656484
 21
150.0587362240061
  0
LINE
  8
0
  6
CONTINUOUS
 62
     7
 10
51.14147572036684
 20
150.1373367955592
 11
51.17818929656484
 21
150.1640125921962
  0
LINE
  8
0
  6
CONTINUOUS
 62
     7
 10
51.17818929656484
 20
150.1640125921962
 11
51.17818929656484
 21
147.9640125921962
  0
LINE
  8
0
  6
CONTINUOUS
 62
     7
 10
51.17818929656484
 20
147.9640125921962
 11
47.67818929656484
 21
145.9640125921962
  0
LINE
  8
0
  6
CONTINUOUS
 62
     7
 10
47.67818929656484
 20
145.9640125921962
 11
47.42818929656484
 21
145.9640125921962
  0
LINE
  8
0
  6
CONTINUOUS
 62
     7
 10
37.40460581600705
 20
160.3107292403526
 11
37.06896177318594
 21
159.7293767049287
  0
LINE
  8
0
  6
CONTINUOUS
 62
     7
 10
45.92967034889264
 20
149.8772303810884
 11
45.92967034889264
 21
152.0640125921962
  0
LINE
  8
0
  6
CONTINUOUS
 62
     7
 10
37.33618004806244
 20
169.3640125921962
 11
37.15073025937217
 21
167.2443118079304
  0
LINE
  8
0
  6
CONTINUOUS
 62
     7
 10
36.34725084656225
 20
163.0640125921962
 11
36.65096372151316
 21
163.0640125921962
  0
LINE
  8
0
  6
CONTINUOUS
 62
     7
 10
57.62818929656483
 20
153.3643449653445
 11
57.62818929656483
 21
151.8640125921962
  0
LINE
  8
0
  6
CONTINUOUS
 62
     7
 10
36.52818929656483
 20
165.6237635463445
 11
35.32818929656484
 21
166.4640125921962
  0
LINE
  8
0
  6
CONTINUOUS
 62
     7
 10
39.63868830676727
 20
169.0683764071059
 11
38.8329173796146
 21
170.4640125921962
  0
LINE
  8
0
  6
CONTINUOUS
 62
     7
 10
55.62818929656483
 20
153.4064502285024
 11
57.62818929656483
 21
153.3643449653445
  0
LINE
  8
0
  6
CONTINUOUS
 62
     7
 10
35.32818929656484
 20
166.4640125921962
 11
35.85484697005614
 21
163.4771885033628
  0
LINE
  8
0
  6
CONTINUOUS
 62
     7
 10
45.46684434889411
 20
169.1287213688989
 11
45.9549585910085
 21
171.8969547960986
  0
LINE
  8
0
  6
CONTINUOUS
 62
     7
 10
28.62818929656484
 20
151.8640125921962
 11
28.62818929656484
 21
153.3643449653445
  0
LINE
  8
0
  6
CONTINUOUS
 62
     7
 10
49.62818929656482
 20
161.5640125921962
 11
49.62818929656482
 21
163.0640125921962
  0
LINE
  8
0
  6
CONTINUOUS
 62
     7
 10
55.62818929656483
 20
151.9061178553541
 11
55.62818929656483
 21
153.4064502285024
  0
LINE
  8
0
  6
CONTINUOUS
 62
     7
 10
57.62818929656483
 20
151.8640125921962
 11
55.62818929656483
 21
151.9061178553541
  0
LINE
  8
0
  6
CONTINUOUS
 62
     7
 10
47.07818929656482
 20
156.4018909353578
 11
47.07818929656482
 21
154.0640125921962
  0
LINE
  8
0
  6
CONTINUOUS
 62
     7
 10
28.62818929656484
 20
153.3643449653445
 11
30.62818929656484
 21
153.4064502285024
  0
LINE
  8
0
  6
CONTINUOUS
 62
     7
 10
38.8329173796146
 20
170.4640125921962
 11
38.24724381143798
 21
168.278249079111
  0
LINE
  8
0
  6
CONTINUOUS
 62
     7
 10
33.64673023787858
 20
161.298757668127
 11
32.33247577892931
 21
153.8452502487365
  0
LINE
  8
0
  6
CONTINUOUS
 62
     7
 10
35.54197334738032
 20
162.4789595203393
 11
31.43725537806379
 21
164.393020943998
  0
LINE
  8
0
  6
CONTINUOUS
 62
     7
 10
36.17984905721032
 20
161.1110306461839
 11
35.54197334738032
 21
162.4789595203393
  0
LINE
  8
0
  6
CONTINUOUS
 62
     7
 10
35.12077100050599
 20
161.0203025218759
 11
35.78117124257712
 21
160.7123528315507
  0
LINE
  8
0
  6
CONTINUOUS
 62
     7
 10
38.67818929656483
 20
153.5640125921962
 11
38.11240157201922
 21
153.5640125921962
  0
LINE
  8
0
  6
CONTINUOUS
 62
     7
 10
38.12818929656481
 20
152.0640125921962
 11
48.12818929656486
 21
152.0640125921962
  0
LINE
  8
0
  6
CONTINUOUS
 62
     7
 10
48.14397702111045
 20
153.5640125921962
 11
47.57818929656482
 21
153.5640125921962
  0
LINE
  8
0
  6
CONTINUOUS
 62
     7
 10
55.62818929656483
 20
153.4064502285024
 11
48.14397702111045
 21
153.5640125921962
  0
LINE
  8
0
  6
CONTINUOUS
 62
     7
 10
31.85059588628625
 20
153.4321851040755
 11
30.62818929656484
 21
153.4064502285024
  0
LINE
  8
0
  6
CONTINUOUS
 62
     7
 10
38.57818929656484
 20
145.9640125921962
 11
34.87818929656481
 21
148.0782983064819
  0
LINE
  8
0
  6
CONTINUOUS
 62
     7
 10
39.17818929656483
 20
154.0640125921962
 11
39.17818929656483
 21
156.4018909353578
  0
LINE
  8
0
  6
CONTINUOUS
 62
     7
 10
34.87818929656481
 20
150.1640125921962
 11
39.17818929656483
 21
150.1640125921962
  0
LINE
  8
0
  6
CONTINUOUS
 62
     7
 10
43.32818929656483
 20
149.6640125921962
 11
43.32818929656483
 21
152.0640125921962
  0
LINE
  8
0
  6
CONTINUOUS
 62
     7
 10
48.12818929656481
 20
163.0640125921962
 11
48.12818929656483
 21
161.5640125921962
  0
LINE
  8
0
  6
CONTINUOUS
 62
     7
 10
42.12818929656483
 20
168.0640125921962
 11
43.12818929656483
 21
168.0640125921962
  0
LINE
  8
0
  6
CONTINUOUS
 62
     7
 10
37.15073025937217
 20
167.2443118079304
 11
36.27170878674279
 21
168.0640125921962
  0
LINE
  8
0
  6
CONTINUOUS
 62
     7
 10
46.5749268844876
 20
149.9276760780628
 11
46.5749268844876
 21
152.0640125921962
  0
LINE
  8
0
  6
CONTINUOUS
 62
     7
 10
47.07818929656484
 20
150.0587362240061
 11
47.07818929656484
 21
152.0640125921962
  0
LINE
  8
0
  6
CONTINUOUS
 62
     7
 10
51.37818929656488
 20
148.0782983064819
 11
51.37818929656488
 21
150.1640125921962
  0
LINE
  8
0
  6
CONTINUOUS
 62
     7
 10
51.17818929656484
 20
147.9640125921962
 11
51.37818929656488
 21
148.0782983064819
  0
LINE
  8
0
  6
CONTINUOUS
 62
     7
 10
85.77111093275947
 20
153.3643449653445
 11
85.77111093275947
 21
151.8640125921962
  0
LINE
  8
0
  6
CONTINUOUS
 62
     7
 10
51.17818929656484
 20
150.1640125921962
 11
51.37818929656488
 21
150.1640125921962
  0
ENDSEC
  0
EOF
