  0
SECTION
  2
HEADER
  9
$ACADVER
  1
AC1004
  9
$INSBASE
 10
0.0
 20
0.0
  9
$EXTMIN
 10
-113.0
 20
86.17045454545453
  9
$EXTMAX
 10
35.30000000000001
 20
227.5
  9
$LIMMIN
 10
0.0
 20
0.0
  9
$LIMMAX
 10
12.0
 20
9.0
  9
$ORTHOMODE
 70
     0
  9
$REGENMODE
 70
     1
  9
$FILLMODE
 70
     1
  9
$QTEXTMODE
 70
     0
  9
$DRAGMODE
 70
     2
  9
$LTSCALE
 40
1.0
  9
$OSMODE
 70
    37
  9
$ATTMODE
 70
     1
  9
$TEXTSIZE
 40
0.2
  9
$TRACEWID
 40
0.05
  9
$TEXTSTYLE
  7
STANDARD
  9
$CLAYER
  8
0
  9
$CELTYPE
  6
BYLAYER
  9
$CECOLOR
 62
   256
  9
$DIMSCALE
 40
1.0
  9
$DIMASZ
 40
3.0
  9
$DIMEXO
 40
0.0625
  9
$DIMDLI
 40
0.38
  9
$DIMRND
 40
0.0
  9
$DIMDLE
 40
0.0
  9
$DIMEXE
 40
1.5
  9
$DIMTP
 40
0.0
  9
$DIMTM
 40
0.0
  9
$DIMTXT
 40
3.0
  9
$DIMCEN
 40
0.09
  9
$DIMTSZ
 40
0.0
  9
$DIMTOL
 70
     0
  9
$DIMLIM
 70
     0
  9
$DIMTIH
 70
     1
  9
$DIMTOH
 70
     1
  9
$DIMSE1
 70
     0
  9
$DIMSE2
 70
     0
  9
$DIMTAD
 70
     1
  9
$DIMZIN
 70
     0
  9
$DIMBLK
  1

  9
$DIMASO
 70
     1
  9
$DIMSHO
 70
     1
  9
$DIMPOST
  1

  9
$DIMAPOST
  1

  9
$DIMALT
 70
     0
  9
$DIMALTD
 70
     2
  9
$DIMALTF
 40
25.4
  9
$DIMLFAC
 40
1.0
  9
$DIMTOFL
 70
     0
  9
$DIMTVP
 40
0.0
  9
$DIMTIX
 70
     0
  9
$DIMSOXD
 70
     0
  9
$DIMSAH
 70
     0
  9
$DIMBLK1
  1

  9
$DIMBLK2
  1

  9
$LUNITS
 70
     2
  9
$LUPREC
 70
     4
  9
$SKETCHINC
 40
0.1
  9
$FILLETRAD
 40
0.5
  9
$AUNITS
 70
     0
  9
$AUPREC
 70
     0
  9
$MENU
  1
.
  9
$ELEVATION
 40
0.0
  9
$THICKNESS
 40
0.0
  9
$LIMCHECK
 70
     0
  9
$CHAMFERA
 40
0.0
  9
$CHAMFERB
 40
0.0
  9
$SKPOLY
 70
     0
  9
$TDCREATE
 40
2459695.734069884
  9
$TDUPDATE
 40
2459695.734070567
  9
$TDINDWG
 40
0.0000000116
  9
$TDUSRTIMER
 40
0.0000000116
  9
$USRTIMER
 70
     1
  9
$ANGBASE
 50
0.0
  9
$ANGDIR
 70
     0
  9
$PDMODE
 70
     0
  9
$PDSIZE
 40
0.0
  9
$PLINEWID
 40
0.0
  9
$COORDS
 70
     1
  9
$SPLFRAME
 70
     0
  9
$SPLINETYPE
 70
     6
  9
$SPLINESEGS
 70
     8
  9
$ATTDIA
 70
     0
  9
$ATTREQ
 70
     1
  9
$SURFTAB1
 70
     6
  9
$SURFTAB2
 70
     6
  9
$SURFTYPE
 70
     6
  9
$SURFU
 70
     6
  9
$SURFV
 70
     6
  9
$UCSNAME
  2

  9
$UCSORG
 10
0.0
 20
0.0
 30
0.0
  9
$UCSXDIR
 10
1.0
 20
0.0
 30
0.0
  9
$UCSYDIR
 10
0.0
 20
1.0
 30
0.0
  9
$USERI1
 70
     0
  9
$USERI2
 70
     0
  9
$USERI3
 70
     0
  9
$USERI4
 70
     0
  9
$USERI5
 70
     0
  9
$USERR1
 40
0.0
  9
$USERR2
 40
0.0
  9
$USERR3
 40
0.0
  9
$USERR4
 40
0.0
  9
$USERR5
 40
0.0
  9
$WORLDVIEW
 70
     1
  0
ENDSEC
  0
SECTION
  2
TABLES
  0
TABLE
  2
LTYPE
 70
     2
  0
LTYPE
  2
CONTINUOUS
 70
     0
  3
Solid line
 72
    65
 73
     0
 40
0.0
  0
LTYPE
  2
CENTER
 70
     0
  3

 72
    65
 73
     0
 40
0.0
  0
ENDTAB
  0
TABLE
  2
LAYER
 70
     2
  0
LAYER
  2
0
 70
     0
 62
     7
  6
CONTINUOUS
  0
LAYER
  2
1
 70
     0
 62
     7
  6
CONTINUOUS
  0
ENDTAB
  0
TABLE
  2
STYLE
 70
     2
  0
STYLE
  2
STANDARD
 70
     0
 40
0.0
 41
1.0
 50
0.0
 71
     0
 42
0.2
  3
txt
  4

  0
STYLE
  2
ＭＳ_ゴシック
 70
     0
 40
0.0
 41
1.0
 50
0.0
 71
     0
 42
0.2
  3
ＭＳ ゴシック.shx
  4

  0
ENDTAB
  0
TABLE
  2
VIEW
 70
     0
  0
ENDTAB
  0
ENDSEC
  0
SECTION
  2
BLOCKS
  0
ENDSEC
  0
SECTION
  2
ENTITIES
  0
LINE
  8
1
  6
CONTINUOUS
 62
     7
 10
-73.2
 20
202.9928932188134
 11
-73.2
 21
199.3313708498985
  0
LINE
  8
1
  6
CONTINUOUS
 62
     7
 10
-73.43431457505076
 20
198.7656854249492
 11
-73.80000000000001
 21
198.4
  0
LINE
  8
1
  6
CONTINUOUS
 62
     7
 10
-94.2
 20
183.5
 11
-94.2
 21
189.5
  0
LINE
  8
1
  6
CONTINUOUS
 62
     7
 10
-76.20000000000002
 20
183.5
 11
-77.39999999999999
 21
183.5
  0
LINE
  8
1
  6
CONTINUOUS
 62
     7
 10
-76.20000000000002
 20
189.5
 11
-76.20000000000002
 21
183.5
  0
LINE
  8
1
  6
CONTINUOUS
 62
     7
 10
-96.04644660940671
 20
180.6464466094067
 11
-97.05355339059327
 21
181.6535533905933
  0
LINE
  8
1
  6
CONTINUOUS
 62
     7
 10
-96.96568542494924
 20
194.7343145750508
 11
-96.59999999999998
 21
195.1
  0
LINE
  8
1
  6
CONTINUOUS
 62
     7
 10
-93.0
 20
180.5
 11
-95.69289321881344
 21
180.5
  0
LINE
  8
1
  6
CONTINUOUS
 62
     7
 10
-97.2
 20
199.3313708498985
 11
-97.2
 21
202.9928932188134
  0
LINE
  8
1
  6
CONTINUOUS
 62
     7
 10
-94.2
 20
189.5
 11
-93.0
 21
189.5
  0
LINE
  8
1
  6
CONTINUOUS
 62
     7
 10
-97.2
 20
193.9387494569938
 11
-97.2
 21
194.1686291501015
  0
LINE
  8
1
  6
CONTINUOUS
 62
     7
 10
-96.60000000000001
 20
198.4
 11
-96.96568542494926
 21
198.7656854249492
  0
LINE
  8
1
  6
CONTINUOUS
 62
     7
 10
-95.69289321881345
 20
204.5
 11
-93.0
 21
204.5
  0
LINE
  8
1
  6
CONTINUOUS
 62
     7
 10
-96.59999999999998
 20
186.6
 11
-96.60000000000001
 21
189.9
  0
LINE
  8
1
  6
CONTINUOUS
 62
     7
 10
-97.2
 20
182.0071067811866
 11
-97.2
 21
185.6686291501015
  0
LINE
  8
1
  6
CONTINUOUS
 62
     7
 10
-97.19999999999997
 20
190.8313708498984
 11
-97.19999999999999
 21
191.0612505430061
  0
LINE
  8
1
  6
CONTINUOUS
 62
     7
 10
-86.86862915010154
 20
204.5
 11
-86.63874945699382
 21
204.5
  0
LINE
  8
1
  6
CONTINUOUS
 62
     7
 10
-93.0
 20
183.5
 11
-94.2
 21
183.5
  0
LINE
  8
1
  6
CONTINUOUS
 62
     7
 10
-77.39999999999999
 20
189.5
 11
-76.20000000000002
 21
189.5
  0
LINE
  8
1
  6
CONTINUOUS
 62
     7
 10
-96.96568542494924
 20
186.2343145750508
 11
-96.59999999999998
 21
186.6
  0
LINE
  8
1
  6
CONTINUOUS
 62
     7
 10
-97.05355339059328
 20
203.3464466094067
 11
-96.04644660940673
 21
204.3535533905933
  0
LINE
  8
1
  6
CONTINUOUS
 62
     7
 10
-96.59999999999998
 20
195.1
 11
-96.60000000000001
 21
198.4
  0
LINE
  8
1
  6
CONTINUOUS
 62
     7
 10
-96.60000000000001
 20
189.9
 11
-96.96568542494924
 21
190.2656854249493
  0
LINE
  8
1
  6
CONTINUOUS
 62
     7
 10
-89.7
 20
203.9
 11
-87.80000000000001
 21
203.9
  0
LINE
  8
1
  6
CONTINUOUS
 62
     7
 10
-83.76125054300617
 20
204.5
 11
-83.53137084989848
 21
204.5
  0
LINE
  8
1
  6
CONTINUOUS
 62
     7
 10
-82.96568542494926
 20
204.2656854249493
 11
-82.59999999999998
 21
203.9
  0
LINE
  8
1
  6
CONTINUOUS
 62
     7
 10
-82.59999999999998
 20
203.9
 11
-80.69999999999999
 21
203.9
  0
LINE
  8
1
  6
CONTINUOUS
 62
     7
 10
-77.39999999999999
 20
204.5
 11
-74.70710678118655
 21
204.5
  0
LINE
  8
1
  6
CONTINUOUS
 62
     7
 10
-74.35355339059326
 20
204.3535533905933
 11
-73.34644660940673
 21
203.3464466094067
  0
LINE
  8
1
  6
CONTINUOUS
 62
     7
 10
-87.80000000000001
 20
203.9
 11
-87.43431457505076
 21
204.2656854249493
  0
LINE
  8
1
  6
CONTINUOUS
 62
     7
 10
-13.99999999999999
 20
182.5
 11
-13.99999999999999
 21
166.4856235267131
  0
LINE
  8
1
  6
CONTINUOUS
 62
     7
 10
-77.39999999999999
 20
204.6
 11
-73.1
 21
204.6
  0
LINE
  8
1
  6
CONTINUOUS
 62
     7
 10
-77.39999999999999
 20
188.3603143195101
 11
-77.33411404552648
 21
188.3603143195101
  0
LINE
  8
1
  6
CONTINUOUS
 62
     7
 10
-73.20000000000002
 20
194.1686291501015
 11
-73.2
 21
193.9387494569938
  0
LINE
  8
1
  6
CONTINUOUS
 62
     7
 10
-77.39999999999999
 20
185.9821325013283
 11
-77.38647768189011
 21
185.9821325013283
  0
LINE
  8
1
  6
CONTINUOUS
 62
     7
 10
-11.99999994792966
 20
200.050510246588
 11
-11.99999999999999
 21
184.949489753412
  0
LINE
  8
1
  6
CONTINUOUS
 62
     7
 10
-23.55051024658803
 20
218.4999999479297
 11
-16.44948975341196
 21
218.5
  0
LINE
  8
1
  6
CONTINUOUS
 62
     7
 10
-73.2
 20
191.0612505430062
 11
-73.2
 21
190.8313708498985
  0
LINE
  8
1
  6
CONTINUOUS
 62
     7
 10
-88.2
 20
201.1
 11
-82.19999999999999
 21
201.1
  0
LINE
  8
1
  6
CONTINUOUS
 62
     7
 10
-93.1304776818901
 20
185.7203143195101
 11
-92.99999999999999
 21
185.7203143195101
  0
LINE
  8
1
  6
CONTINUOUS
 62
     7
 10
-100.3
 20
202.25
 11
-97.3
 21
202.25
  0
LINE
  8
1
  6
CONTINUOUS
 62
     7
 10
-80.69999999999999
 20
202.6
 11
-80.69999999999999
 21
204.6
  0
LINE
  8
1
  6
CONTINUOUS
 62
     7
 10
-77.39999999999999
 20
204.6
 11
-77.39999999999999
 21
178.5
  0
LINE
  8
1
  6
CONTINUOUS
 62
     7
 10
-94.5
 20
177.0
 11
-97.3
 21
177.0
  0
LINE
  8
1
  6
CONTINUOUS
 62
     7
 10
-93.0
 20
204.6
 11
-93.0
 21
178.5
  0
LINE
  8
1
  6
CONTINUOUS
 62
     7
 10
-97.3
 20
177.0
 11
-97.3
 21
182.75
  0
LINE
  8
1
  6
CONTINUOUS
 62
     7
 10
-97.3
 20
202.25
 11
-97.3
 21
204.6
  0
LINE
  8
1
  6
CONTINUOUS
 62
     7
 10
-73.80000000000001
 20
189.9
 11
-73.8
 21
186.6
  0
LINE
  8
1
  6
CONTINUOUS
 62
     7
 10
-77.33411404552648
 20
187.9021325013283
 11
-77.3995781244832
 21
187.7509089574136
  0
LINE
  8
1
  6
CONTINUOUS
 62
     7
 10
-107.5
 20
160.5
 11
-12.49999999999998
 21
160.5
  0
LINE
  8
1
  6
CONTINUOUS
 62
     7
 10
-75.89999999999999
 20
177.0
 11
-73.1
 21
177.0
  0
LINE
  8
1
  6
CONTINUOUS
 62
     7
 10
-18.0
 20
205.5
 11
-22.0
 21
205.5
  0
LINE
  8
1
  6
CONTINUOUS
 62
     7
 10
-73.8
 20
186.6
 11
-73.43431457505076
 21
186.2343145750508
  0
LINE
  8
1
  6
CONTINUOUS
 62
     7
 10
-22.0
 20
179.5
 11
-18.0
 21
179.5
  0
LINE
  8
1
  6
CONTINUOUS
 62
     7
 10
-13.99999999999999
 20
182.5
 11
-13.99999999999999
 21
202.5
  0
LINE
  8
1
  6
CONTINUOUS
 62
     7
 10
-73.1
 20
202.25
 11
-73.1
 21
204.6
  0
LINE
  8
1
  6
CONTINUOUS
 62
     7
 10
-13.99999999999999
 20
218.5143764732869
 11
-13.99999999999999
 21
202.5
  0
LINE
  8
1
  6
CONTINUOUS
 62
     7
 10
-73.1
 20
177.0
 11
-73.1
 21
182.75
  0
LINE
  8
1
  6
CONTINUOUS
 62
     7
 10
-106.0
 20
164.5
 11
-106.0
 21
220.5
  0
LINE
  8
1
  6
CONTINUOUS
 62
     7
 10
-80.44948975341201
 20
166.5000000520703
 11
-87.55051024658799
 21
166.5
  0
LINE
  8
1
  6
CONTINUOUS
 62
     7
 10
-48.44948975341201
 20
166.5000000520703
 11
-55.550510246588
 21
166.5
  0
LINE
  8
1
  6
CONTINUOUS
 62
     7
 10
-10.99999999999999
 20
164.5
 11
-106.0
 21
164.5
  0
LINE
  8
1
  6
CONTINUOUS
 62
     7
 10
-77.38647768189011
 20
185.9821325013283
 11
-77.39957137603325
 21
185.8181512901417
  0
LINE
  8
1
  6
CONTINUOUS
 62
     7
 10
-18.15213529414958
 20
224.5
 11
-107.5
 21
224.5
  0
LINE
  8
1
  6
CONTINUOUS
 62
     7
 10
-9.999999999999988
 20
221.5
 11
-9.999999999999988
 21
222.0
  0
LINE
  8
1
  6
CONTINUOUS
 62
     7
 10
-80.44948975341201
 20
218.4999999479297
 11
-87.55051024658799
 21
218.5
  0
LINE
  8
1
  6
CONTINUOUS
 62
     7
 10
-73.34644660940673
 20
181.6535533905933
 11
-74.35355339059154
 21
180.6464466094085
  0
LINE
  8
1
  6
CONTINUOUS
 62
     7
 10
-77.33411404552648
 20
188.3603143195101
 11
-77.33411404552648
 21
187.9021325013283
  0
LINE
  8
1
  6
CONTINUOUS
 62
     7
 10
-106.0
 20
220.5
 11
-10.99999999999998
 21
220.5
  0
LINE
  8
1
  6
CONTINUOUS
 62
     7
 10
-23.55051024658803
 20
166.5000000520703
 11
-16.44948975341196
 21
166.5
  0
LINE
  8
1
  6
CONTINUOUS
 62
     7
 10
-9.999999999999988
 20
163.5
 11
-9.999999999999988
 21
221.5
  0
LINE
  8
1
  6
CONTINUOUS
 62
     7
 10
-97.3
 20
182.75
 11
-100.3
 21
182.75
  0
LINE
  8
1
  6
CONTINUOUS
 62
     7
 10
-97.3
 20
204.6
 11
-93.0
 21
204.6
  0
LINE
  8
1
  6
CONTINUOUS
 62
     7
 10
-12.49999999999998
 20
224.5
 11
-18.15213529414958
 21
224.5
  0
LINE
  8
1
  6
CONTINUOUS
 62
     7
 10
-9.999999999999995
 20
163.0
 11
-9.999999999999995
 21
163.5
  0
LINE
  8
1
  6
CONTINUOUS
 62
     7
 10
-103.9999999479297
 20
184.949489753412
 11
-104.0
 21
200.050510246588
  0
LINE
  8
1
  6
CONTINUOUS
 62
     7
 10
-73.8
 20
195.1
 11
-73.43431457505076
 21
194.7343145750507
  0
LINE
  8
1
  6
CONTINUOUS
 62
     7
 10
-73.2
 20
185.6686291501015
 11
-73.2
 21
182.0071067811866
  0
LINE
  8
1
  6
CONTINUOUS
 62
     7
 10
-80.69999999999999
 20
204.6
 11
-89.7
 21
204.6
  0
LINE
  8
1
  6
CONTINUOUS
 62
     7
 10
-70.1
 20
202.25
 11
-73.1
 21
202.25
  0
LINE
  8
1
  6
CONTINUOUS
 62
     7
 10
-74.70710678118459
 20
180.5000000000017
 11
-77.39999999999999
 21
180.5000000000006
  0
LINE
  8
1
  6
CONTINUOUS
 62
     7
 10
-100.3
 20
182.75
 11
-100.3
 21
202.25
  0
LINE
  8
1
  6
CONTINUOUS
 62
     7
 10
-73.43431457505076
 20
190.2656854249492
 11
-73.80000000000001
 21
189.9
  0
LINE
  8
1
  6
CONTINUOUS
 62
     7
 10
-73.80000000000001
 20
198.4
 11
-73.8
 21
195.1
  0
LINE
  8
1
  6
CONTINUOUS
 62
     7
 10
-110.0
 20
222.0
 11
-110.0
 21
163.0
  0
LINE
  8
1
  6
CONTINUOUS
 62
     7
 10
-48.44948975341201
 20
218.4999999479297
 11
-55.550510246588
 21
218.5
  0
LINE
  8
1
  6
CONTINUOUS
 62
     7
 10
-89.7
 20
204.6
 11
-89.7
 21
202.6
  0
TEXT
  8
1
  6
CONTINUOUS
 62
     7
 10
-34.44273164936848
 20
85.82842003251218
 40
3.0
  1
AFP-CH20MSY
  0
POLYLINE
  8
1
  6
CONTINUOUS
 62
     7
 66
     1
  0
VERTEX
  8
1
  6
CONTINUOUS
 62
     7
 10
30.10000000000001
 20
192.5
  0
VERTEX
  8
1
  6
CONTINUOUS
 62
     7
 10
30.133214015303
 20
191.9635016144557
  0
VERTEX
  8
1
  6
CONTINUOUS
 62
     7
 10
30.2315796652305
 20
191.447620560996
  0
VERTEX
  8
1
  6
CONTINUOUS
 62
     7
 10
30.39131681301989
 20
190.9721818591961
  0
VERTEX
  8
1
  6
CONTINUOUS
 62
     7
 10
30.60628684966326
 20
190.555456351737
  0
VERTEX
  8
1
  6
CONTINUOUS
 62
     7
 10
30.86822859720898
 20
190.213458566168
  0
VERTEX
  8
1
  6
CONTINUOUS
 62
     7
 10
31.1670757811975
 20
189.9593312855939
  0
VERTEX
  8
1
  6
CONTINUOUS
 62
     7
 10
31.49134387194356
 20
189.8028404788911
  0
VERTEX
  8
1
  6
CONTINUOUS
 62
     7
 10
31.82857142857144
 20
189.75
  0
SEQEND
  8
1
  6
CONTINUOUS
 62
     7
  0
LINE
  8
1
  6
CONTINUOUS
 62
     7
 10
-82.55424868893543
 20
108.0473102137988
 11
-83.11808927434554
 21
108.0194400539129
  0
LINE
  8
1
  6
CONTINUOUS
 62
     7
 10
-97.3
 20
177.5
 11
-94.5
 21
177.5
  0
LINE
  8
1
  6
CONTINUOUS
 62
     7
 10
-93.5
 20
204.5
 11
-93.5
 21
204.6
  0
LINE
  8
1
  6
CONTINUOUS
 62
     7
 10
-73.1
 20
202.25
 11
-73.2
 21
202.25
  0
LINE
  8
1
  6
CONTINUOUS
 62
     7
 10
22.20000000000001
 20
224.0
 11
22.20000000000001
 21
222.0
  0
LINE
  8
1
  6
CONTINUOUS
 62
     7
 10
-80.4641057177539
 20
217.4999715754169
 11
-87.5358942822461
 21
217.4999715754169
  0
LINE
  8
1
  6
CONTINUOUS
 62
     7
 10
-73.1
 20
191.6514718625761
 11
-73.1
 21
182.75
  0
LINE
  8
1
  6
CONTINUOUS
 62
     7
 10
-73.2
 20
182.75
 11
-73.1
 21
182.75
  0
LINE
  8
1
  6
CONTINUOUS
 62
     7
 10
-97.3
 20
202.25
 11
-97.2
 21
202.25
  0
LINE
  8
1
  6
CONTINUOUS
 62
     7
 10
-76.89999999999999
 20
178.5
 11
-76.89999999999999
 21
180.5000000000008
  0
LINE
  8
1
  6
CONTINUOUS
 62
     7
 10
-73.1
 20
177.5
 11
-75.89999999999999
 21
177.5
  0
LINE
  8
1
  6
CONTINUOUS
 62
     7
 10
-16.99999999999999
 20
180.5
 11
-16.99999999999999
 21
204.5
  0
LINE
  8
1
  6
CONTINUOUS
 62
     7
 10
29.97428571428573
 20
195.25
 11
30.10000000000002
 21
194.25
  0
LINE
  8
1
  6
CONTINUOUS
 62
     7
 10
32.30000000000001
 20
195.25
 11
32.30000000000001
 21
189.75
  0
LINE
  8
1
  6
CONTINUOUS
 62
     7
 10
29.3
 20
194.25
 11
29.3
 21
195.25
  0
LINE
  8
1
  6
CONTINUOUS
 62
     7
 10
-48.46410571775389
 20
217.4999715754169
 11
-55.53589428224613
 21
217.4999715754169
  0
LINE
  8
1
  6
CONTINUOUS
 62
     7
 10
-80.46410571775388
 20
167.5000284245831
 11
-87.5358942822461
 21
167.5000284245831
  0
LINE
  8
1
  6
CONTINUOUS
 62
     7
 10
30.10000000000002
 20
194.25
 11
29.3
 21
194.25
  0
LINE
  8
1
  6
CONTINUOUS
 62
     7
 10
-103.0
 20
200.0358983848622
 11
-103.0
 21
184.9641016151378
  0
LINE
  8
1
  6
CONTINUOUS
 62
     7
 10
-81.19999999999999
 20
203.9
 11
-81.19999999999999
 21
204.6
  0
LINE
  8
1
  6
CONTINUOUS
 62
     7
 10
29.3
 20
192.5
 11
29.3
 21
194.25
  0
LINE
  8
1
  6
CONTINUOUS
 62
     7
 10
29.6
 20
189.75
 11
29.3
 21
192.5
  0
LINE
  8
1
  6
CONTINUOUS
 62
     7
 10
31.82857142857143
 20
189.75
 11
29.6
 21
189.75
  0
LINE
  8
1
  6
CONTINUOUS
 62
     7
 10
-100.0
 20
202.25
 11
-100.0
 21
182.75
  0
LINE
  8
1
  6
CONTINUOUS
 62
     7
 10
29.3
 20
195.25
 11
27.50000000000001
 21
195.25
  0
LINE
  8
1
  6
CONTINUOUS
 62
     7
 10
-73.1
 20
182.75
 11
-70.1
 21
182.75
  0
LINE
  8
1
  6
CONTINUOUS
 62
     7
 10
-70.39999999999999
 20
202.25
 11
-70.4
 21
182.75
  0
LINE
  8
1
  6
CONTINUOUS
 62
     7
 10
-93.5
 20
178.5
 11
-93.5
 21
180.5
  0
LINE
  8
1
  6
CONTINUOUS
 62
     7
 10
-23.53589428224612
 20
217.4999715754169
 11
-16.46410571775386
 21
217.4999715754169
  0
LINE
  8
1
  6
CONTINUOUS
 62
     7
 10
-48.46410571775389
 20
167.5000284245831
 11
-55.53589428224613
 21
167.5000284245831
  0
LINE
  8
1
  6
CONTINUOUS
 62
     7
 10
-97.3
 20
191.6514718625761
 11
-97.3
 21
182.75
  0
LINE
  8
1
  6
CONTINUOUS
 62
     7
 10
-97.2
 20
182.75
 11
-97.3
 21
182.75
  0
LINE
  8
1
  6
CONTINUOUS
 62
     7
 10
-73.1
 20
202.25
 11
-73.1
 21
193.3485281374238
  0
LINE
  8
1
  6
CONTINUOUS
 62
     7
 10
-23.53589428224612
 20
167.5000284245831
 11
-16.46410571775386
 21
167.5000284245831
  0
LINE
  8
1
  6
CONTINUOUS
 62
     7
 10
-70.1
 20
182.75
 11
-70.1
 21
202.25
  0
LINE
  8
1
  6
CONTINUOUS
 62
     7
 10
-89.2
 20
204.6
 11
-89.2
 21
203.9
  0
LINE
  8
1
  6
CONTINUOUS
 62
     7
 10
30.10000000000002
 20
192.5
 11
30.10000000000002
 21
194.25
  0
LINE
  8
1
  6
CONTINUOUS
 62
     7
 10
29.97428571428573
 20
195.25
 11
32.30000000000001
 21
195.25
  0
LINE
  8
1
  6
CONTINUOUS
 62
     7
 10
29.97428571428573
 20
195.25
 11
29.3
 21
195.25
  0
LINE
  8
1
  6
CONTINUOUS
 62
     7
 10
29.45268978620126
 20
190.7
 11
27.5
 21
190.7
  0
LINE
  8
1
  6
CONTINUOUS
 62
     7
 10
-76.89999999999999
 20
204.5
 11
-76.89999999999999
 21
204.6
  0
LINE
  8
1
  6
CONTINUOUS
 62
     7
 10
32.30000000000001
 20
189.75
 11
31.82857142857143
 21
189.75
  0
LINE
  8
1
  6
CONTINUOUS
 62
     7
 10
-97.3
 20
202.25
 11
-97.3
 21
193.3485281374239
  0
LINE
  8
1
  6
CONTINUOUS
 62
     7
 10
29.38759884139413
 20
191.2600403232363
 11
27.5
 21
191.2600403232363
  0
LINE
  8
1
  6
CONTINUOUS
 62
     7
 10
27.5
 20
190.4947788100395
 11
29.48055994608712
 21
190.4947788100395
  0
LINE
  8
1
  6
CONTINUOUS
 62
     7
 10
29.6
 20
189.75
 11
27.50000000000001
 21
189.75
  0
LINE
  8
1
  6
CONTINUOUS
 62
     7
 10
22.20000000000001
 20
222.0
 11
22.20000000000001
 21
163.0
  0
LINE
  8
1
  6
CONTINUOUS
 62
     7
 10
27.5
 20
201.75
 11
27.5
 21
183.25
  0
LINE
  8
1
  6
CONTINUOUS
 62
     7
 10
18.4
 20
184.949489753412
 11
18.4
 21
200.050510246588
  0
LINE
  8
1
  6
CONTINUOUS
 62
     7
 10
18.4
 20
182.5
 11
18.4
 21
184.949489753412
  0
LINE
  8
1
  6
CONTINUOUS
 62
     7
 10
19.50000000000002
 20
202.5
 11
18.4
 21
202.5
  0
LINE
  8
1
  6
CONTINUOUS
 62
     7
 10
18.4
 20
200.050510246588
 11
18.4
 21
202.5
  0
LINE
  8
1
  6
CONTINUOUS
 62
     7
 10
27.5
 20
206.3
 11
27.5
 21
202.75
  0
LINE
  8
1
  6
CONTINUOUS
 62
     7
 10
19.6
 20
218.4999999479297
 11
19.6
 21
220.5
  0
LINE
  8
1
  6
CONTINUOUS
 62
     7
 10
-92.03137084989847
 20
112.6
 11
-95.69289321881344
 21
112.6
  0
LINE
  8
1
  6
CONTINUOUS
 62
     7
 10
-78.36862915010131
 20
112.6
 11
-78.9343145750509
 21
112.6
  0
LINE
  8
1
  6
CONTINUOUS
 62
     7
 10
-73.34644660940673
 20
112.6
 11
-74.35355339059154
 21
112.6
  0
LINE
  8
1
  6
CONTINUOUS
 62
     7
 10
-86.36898393380747
 20
112.6
 11
-84.03101606619252
 21
112.6
  0
LINE
  8
1
  6
CONTINUOUS
 62
     7
 10
-82.59999999999998
 20
112.6
 11
-82.96568542494926
 21
112.6
  0
LINE
  8
1
  6
CONTINUOUS
 62
     7
 10
-79.30000000000001
 20
115.3
 11
-79.30000000000001
 21
112.6
  0
LINE
  8
1
  6
CONTINUOUS
 62
     7
 10
19.50000000000002
 20
182.5
 11
18.4
 21
182.5
  0
LINE
  8
1
  6
CONTINUOUS
 62
     7
 10
-74.70710678118459
 20
112.6
 11
-78.36862915010131
 21
112.6
  0
LINE
  8
1
  6
CONTINUOUS
 62
     7
 10
20.00000000000002
 20
163.5
 11
20.00000000000002
 21
221.5
  0
LINE
  8
1
  6
CONTINUOUS
 62
     7
 10
27.0
 20
202.25
 11
25.55
 21
202.25
  0
LINE
  8
1
  6
CONTINUOUS
 62
     7
 10
-86.86862915010151
 20
112.6
 11
-87.43431457505076
 21
112.6
  0
LINE
  8
1
  6
CONTINUOUS
 62
     7
 10
27.5
 20
182.25
 11
27.5
 21
178.0
  0
LINE
  8
1
  6
CONTINUOUS
 62
     7
 10
22.20000000000001
 20
163.0
 11
22.20000000000001
 21
161.0
  0
LINE
  8
1
  6
CONTINUOUS
 62
     7
 10
-82.59999999999998
 20
115.3
 11
-82.59999999999998
 21
112.6
  0
LINE
  8
1
  6
CONTINUOUS
 62
     7
 10
22.20000000000001
 20
206.8
 11
27.0
 21
206.8
  0
LINE
  8
1
  6
CONTINUOUS
 62
     7
 10
19.6
 20
166.5000000520703
 11
19.6
 21
164.5
  0
LINE
  8
1
  6
CONTINUOUS
 62
     7
 10
-78.9343145750509
 20
112.6
 11
-79.30000000000001
 21
112.6
  0
LINE
  8
1
  6
CONTINUOUS
 62
     7
 10
27.0
 20
177.5
 11
22.20000000000001
 21
177.5
  0
LINE
  8
1
  6
CONTINUOUS
 62
     7
 10
18.40000000000001
 20
166.5000000520703
 11
18.40000000000001
 21
164.5
  0
LINE
  8
1
  6
CONTINUOUS
 62
     7
 10
-87.80000000000001
 20
112.6
 11
-91.09999999999998
 21
112.6
  0
LINE
  8
1
  6
CONTINUOUS
 62
     7
 10
17.70000000000001
 20
222.0
 11
17.70000000000001
 21
224.5
  0
LINE
  8
1
  6
CONTINUOUS
 62
     7
 10
17.70000000000001
 20
224.5
 11
21.70000000000001
 21
224.5
  0
LINE
  8
1
  6
CONTINUOUS
 62
     7
 10
-79.30000000000001
 20
112.6
 11
-82.59999999999998
 21
112.6
  0
LINE
  8
1
  6
CONTINUOUS
 62
     7
 10
21.70000000000001
 20
160.5
 11
17.70000000000001
 21
160.5
  0
LINE
  8
1
  6
CONTINUOUS
 62
     7
 10
-86.63874945699382
 20
112.6
 11
-86.86862915010151
 21
112.6
  0
LINE
  8
1
  6
CONTINUOUS
 62
     7
 10
18.40000000000001
 20
218.4999999479297
 11
18.40000000000001
 21
220.5
  0
LINE
  8
1
  6
CONTINUOUS
 62
     7
 10
17.70000000000001
 20
221.5
 11
17.70000000000001
 21
222.0
  0
LINE
  8
1
  6
CONTINUOUS
 62
     7
 10
25.55
 20
182.75
 11
27.0
 21
182.75
  0
LINE
  8
1
  6
CONTINUOUS
 62
     7
 10
-83.76125054300617
 20
112.6
 11
-84.03101606619252
 21
112.6
  0
LINE
  8
1
  6
CONTINUOUS
 62
     7
 10
-82.96568542494926
 20
112.6
 11
-83.53137084989844
 21
112.6
  0
LINE
  8
1
  6
CONTINUOUS
 62
     7
 10
-96.04644660940671
 20
112.6
 11
-97.05355339059327
 21
112.6
  0
LINE
  8
1
  6
CONTINUOUS
 62
     7
 10
17.70000000000001
 20
164.5
 11
17.70000000000001
 21
220.5
  0
LINE
  8
1
  6
CONTINUOUS
 62
     7
 10
17.70000000000001
 20
160.5
 11
17.70000000000001
 21
163.0
  0
LINE
  8
1
  6
CONTINUOUS
 62
     7
 10
19.50000000000002
 20
202.5
 11
19.50000000000002
 21
200.050510246588
  0
LINE
  8
1
  6
CONTINUOUS
 62
     7
 10
-91.09999999999998
 20
115.3
 11
-91.09999999999998
 21
112.6
  0
LINE
  8
1
  6
CONTINUOUS
 62
     7
 10
27.5
 20
183.25
 11
27.5
 21
182.25
  0
LINE
  8
1
  6
CONTINUOUS
 62
     7
 10
-91.09999999999998
 20
112.6
 11
-91.46568542494924
 21
112.6
  0
LINE
  8
1
  6
CONTINUOUS
 62
     7
 10
19.50000000000002
 20
200.050510246588
 11
19.50000000000002
 21
184.949489753412
  0
LINE
  8
1
  6
CONTINUOUS
 62
     7
 10
-74.35355339059154
 20
112.6
 11
-74.70710678118459
 21
112.6
  0
LINE
  8
1
  6
CONTINUOUS
 62
     7
 10
-87.80000000000001
 20
115.3
 11
-87.80000000000001
 21
112.6
  0
LINE
  8
1
  6
CONTINUOUS
 62
     7
 10
17.70000000000001
 20
163.0
 11
17.70000000000001
 21
163.5
  0
LINE
  8
1
  6
CONTINUOUS
 62
     7
 10
-86.36898393380747
 20
112.6
 11
-86.63874945699382
 21
112.6
  0
LINE
  8
1
  6
CONTINUOUS
 62
     7
 10
20.00000000000002
 20
220.5
 11
17.70000000000001
 21
220.5
  0
LINE
  8
1
  6
CONTINUOUS
 62
     7
 10
17.70000000000001
 20
220.5
 11
17.70000000000001
 21
221.5
  0
LINE
  8
1
  6
CONTINUOUS
 62
     7
 10
20.0
 20
182.5
 11
19.50000000000002
 21
182.5
  0
LINE
  8
1
  6
CONTINUOUS
 62
     7
 10
-95.69289321881344
 20
112.6
 11
-96.04644660940671
 21
112.6
  0
LINE
  8
1
  6
CONTINUOUS
 62
     7
 10
17.70000000000001
 20
164.5
 11
20.00000000000002
 21
164.5
  0
LINE
  8
1
  6
CONTINUOUS
 62
     7
 10
19.6
 20
166.5
 11
18.40000000000001
 21
166.5
  0
LINE
  8
1
  6
CONTINUOUS
 62
     7
 10
27.5
 20
202.75
 11
27.5
 21
201.75
  0
LINE
  8
1
  6
CONTINUOUS
 62
     7
 10
-91.46568542494924
 20
112.6
 11
-92.03137084989847
 21
112.6
  0
LINE
  8
1
  6
CONTINUOUS
 62
     7
 10
-83.53137084989844
 20
112.6
 11
-83.76125054300617
 21
112.6
  0
LINE
  8
1
  6
CONTINUOUS
 62
     7
 10
-87.43431457505076
 20
112.6
 11
-87.80000000000001
 21
112.6
  0
LINE
  8
1
  6
CONTINUOUS
 62
     7
 10
19.6
 20
218.5
 11
18.40000000000001
 21
218.5
  0
LINE
  8
1
  6
CONTINUOUS
 62
     7
 10
25.05
 20
201.75
 11
25.05
 21
183.25
  0
LINE
  8
1
  6
CONTINUOUS
 62
     7
 10
20.0
 20
202.5
 11
19.50000000000002
 21
202.5
  0
LINE
  8
1
  6
CONTINUOUS
 62
     7
 10
17.70000000000001
 20
163.5
 11
17.70000000000001
 21
164.5
  0
LINE
  8
1
  6
CONTINUOUS
 62
     7
 10
19.50000000000002
 20
184.949489753412
 11
19.50000000000002
 21
182.5
  0
LINE
  8
1
  6
CONTINUOUS
 62
     7
 10
-87.49999999999999
 20
105.2
 11
-82.9
 21
105.2
  0
LINE
  8
1
  6
CONTINUOUS
 62
     7
 10
-79.39999999999999
 20
108.2
 11
-79.39999999999999
 21
107.4
  0
LINE
  8
1
  6
CONTINUOUS
 62
     7
 10
-97.05355339059327
 20
112.6
 11
-97.2
 21
112.6
  0
LINE
  8
1
  6
CONTINUOUS
 62
     7
 10
-82.9
 20
105.2
 11
-82.15
 21
105.6714285714286
  0
LINE
  8
1
  6
CONTINUOUS
 62
     7
 10
-91.2
 20
108.2
 11
-88.15
 21
108.2
  0
LINE
  8
1
  6
CONTINUOUS
 62
     7
 10
-91.2
 20
107.5257142857143
 11
-91.2
 21
108.2
  0
LINE
  8
1
  6
CONTINUOUS
 62
     7
 10
-88.15
 20
108.2
 11
-88.15
 21
112.6
  0
LINE
  8
1
  6
CONTINUOUS
 62
     7
 10
-91.2
 20
107.5257142857143
 11
-87.49999999999999
 21
105.2
  0
LINE
  8
1
  6
CONTINUOUS
 62
     7
 10
-79.47166213887097
 20
108.165621011208
 11
-79.39999999999999
 21
108.2
  0
LINE
  8
1
  6
CONTINUOUS
 62
     7
 10
-73.2
 20
115.3
 11
-73.2
 21
112.6
  0
LINE
  8
1
  6
CONTINUOUS
 62
     7
 10
-73.2
 20
112.6
 11
-73.34644660940673
 21
112.6
  0
LINE
  8
1
  6
CONTINUOUS
 62
     7
 10
-82.15
 20
107.9
 11
-84.99999999999999
 21
107.9
  0
LINE
  8
1
  6
CONTINUOUS
 62
     7
 10
-97.2
 20
112.6
 11
-97.2
 21
115.3
  0
ARC
  8
1
  6
CONTINUOUS
 62
     7
 10
-75.89999999999999
 20
178.5
 40
1.000000000000001
 50
180.0
 51
270.0
  0
ARC
  8
1
  6
CONTINUOUS
 62
     7
 10
-76.39999999999999
 20
110.5
 40
0.5000000000000004
 50
180.0
 51
270.0
  0
ARC
  8
1
  6
CONTINUOUS
 62
     7
 10
-16.46410571775386
 20
164.0000284245831
 40
3.5
 50
45.24875105344694
 51
90.00000000000001
  0
ARC
  8
1
  6
CONTINUOUS
 62
     7
 10
-88.7
 20
110.5
 40
0.5000000000000004
 50
180.0
 51
270.0
  0
ARC
  8
1
  6
CONTINUOUS
 62
     7
 10
-55.53589428224612
 20
164.0000284245831
 40
3.500000000000003
 50
90.00000000000011
 51
171.7872594368027
  0
ARC
  8
1
  6
CONTINUOUS
 62
     7
 10
-48.46410571775389
 20
164.0000284245831
 40
3.500000000000004
 50
8.212740563197357
 51
90.00000000000001
  0
ARC
  8
1
  6
CONTINUOUS
 62
     7
 10
27.0
 20
182.25
 40
0.5000000000000004
 50
0.0
 51
90.0
  0
ARC
  8
1
  6
CONTINUOUS
 62
     7
 10
-70.9
 20
110.5
 40
0.5000000000000004
 50
270.0
 51
0.0
  0
ARC
  8
1
  6
CONTINUOUS
 62
     7
 10
-80.4641057177539
 20
220.9999715754169
 40
3.500000000000003
 50
270.0
 51
351.7872594368026
  0
ARC
  8
1
  6
CONTINUOUS
 62
     7
 10
-55.53589428224612
 20
220.9999715754169
 40
3.500000000000004
 50
188.2127405631974
 51
269.9999999999999
  0
ARC
  8
1
  6
CONTINUOUS
 62
     7
 10
-94.5
 20
178.5
 40
1.000000000000001
 50
270.0
 51
0.0
  0
ARC
  8
1
  6
CONTINUOUS
 62
     7
 10
21.70000000000001
 20
161.0
 40
0.5000000000000004
 50
270.0
 51
0.0
  0
ARC
  8
1
  6
CONTINUOUS
 62
     7
 10
27.0
 20
206.3
 40
0.5000000000000004
 50
0.0
 51
90.0
  0
ARC
  8
1
  6
CONTINUOUS
 62
     7
 10
-18.0
 20
180.5
 40
1.000000000000001
 50
270.0
 51
0.0
  0
ARC
  8
1
  6
CONTINUOUS
 62
     7
 10
-97.6
 20
192.5
 40
0.9000000000000105
 50
289.471220634491
 51
70.52877936550897
  0
ARC
  8
1
  6
CONTINUOUS
 62
     7
 10
27.0
 20
178.0
 40
0.5000000000000004
 50
270.0
 51
0.0
  0
ARC
  8
1
  6
CONTINUOUS
 62
     7
 10
-23.53589428224612
 20
220.9999715754169
 40
3.500000000000004
 50
188.2127405631974
 51
270.0
  0
ARC
  8
1
  6
CONTINUOUS
 62
     7
 10
-16.46410571775386
 20
220.9999715754169
 40
3.500000000000003
 50
270.0
 51
314.7512489465531
  0
ARC
  8
1
  6
CONTINUOUS
 62
     7
 10
-87.5358942822461
 20
164.0000284245831
 40
3.500000000000003
 50
90.0
 51
171.7872594368027
  0
ARC
  8
1
  6
CONTINUOUS
 62
     7
 10
21.70000000000001
 20
224.0
 40
0.5000000000000004
 50
0.0
 51
90.0
  0
ARC
  8
1
  6
CONTINUOUS
 62
     7
 10
-72.8
 20
192.5
 40
0.9000000000000105
 50
109.4712206344911
 51
250.5287793655089
  0
ARC
  8
1
  6
CONTINUOUS
 62
     7
 10
-82.19999999999999
 20
202.6
 40
1.500000000000001
 50
270.0
 51
0.0
  0
ARC
  8
1
  6
CONTINUOUS
 62
     7
 10
25.55
 20
183.25
 40
0.5000000000000004
 50
180.0
 51
270.0
  0
ARC
  8
1
  6
CONTINUOUS
 62
     7
 10
-10.49999999999998
 20
115.8
 40
0.5000000000000004
 50
270.0
 51
0.0
  0
ARC
  8
1
  6
CONTINUOUS
 62
     7
 10
-82.04732039046529
 20
120.500710346562
 40
12.60112869310401
 50
269.5331233005206
 51
281.7943200364415
  0
ARC
  8
1
  6
CONTINUOUS
 62
     7
 10
-99.5
 20
110.5
 40
0.5000000000000004
 50
180.0
 51
270.0000000000015
  0
ARC
  8
1
  6
CONTINUOUS
 62
     7
 10
-80.4641057177539
 20
164.0000284245831
 40
3.500000000000004
 50
8.212740563197357
 51
90.00000000000001
  0
ARC
  8
1
  6
CONTINUOUS
 62
     7
 10
27.0
 20
202.75
 40
0.5000000000000004
 50
270.0
 51
0.0
  0
ARC
  8
1
  6
CONTINUOUS
 62
     7
 10
-75.89999999999999
 20
178.5
 40
1.500000000000001
 50
180.0
 51
270.0
  0
ARC
  8
1
  6
CONTINUOUS
 62
     7
 10
-48.46410571775389
 20
220.9999715754169
 40
3.500000000000003
 50
270.0
 51
351.7872594368026
  0
ARC
  8
1
  6
CONTINUOUS
 62
     7
 10
-94.5
 20
178.5
 40
1.500000000000001
 50
270.0
 51
0.0
  0
ARC
  8
1
  6
CONTINUOUS
 62
     7
 10
-106.5
 20
184.9641016151378
 40
3.499999999999989
 50
278.2132107017382
 51
0.0
  0
ARC
  8
1
  6
CONTINUOUS
 62
     7
 10
-87.5358942822461
 20
220.9999715754169
 40
3.500000000000004
 50
188.2127405631974
 51
270.0
  0
ARC
  8
1
  6
CONTINUOUS
 62
     7
 10
-22.0
 20
192.5
 40
13.00000000000001
 50
90.0
 51
270.0
  0
ARC
  8
1
  6
CONTINUOUS
 62
     7
 10
-94.0
 20
110.5
 40
0.5000000000000004
 50
270.0
 51
0.0
  0
ARC
  8
1
  6
CONTINUOUS
 62
     7
 10
-109.5
 20
115.8
 40
0.5000000000000004
 50
180.0
 51
270.0
  0
ARC
  8
1
  6
CONTINUOUS
 62
     7
 10
-81.69999999999999
 20
110.5
 40
0.5000000000000004
 50
270.0
 51
0.0
  0
ARC
  8
1
  6
CONTINUOUS
 62
     7
 10
-18.0
 20
204.5
 40
1.000000000000001
 50
0.0
 51
90.0
  0
ARC
  8
1
  6
CONTINUOUS
 62
     7
 10
25.55
 20
201.75
 40
0.5000000000000004
 50
90.0
 51
180.0
  0
ARC
  8
1
  6
CONTINUOUS
 62
     7
 10
-106.5
 20
200.0358983848622
 40
3.500000000000017
 50
0.0
 51
81.78678929826187
  0
ARC
  8
1
  6
CONTINUOUS
 62
     7
 10
-23.53589428224612
 20
164.0000284245831
 40
3.500000000000003
 50
90.0
 51
171.7872594368027
  0
ARC
  8
1
  6
CONTINUOUS
 62
     7
 10
-96.7
 20
202.9928932188134
 40
0.500000000000008
 50
134.9999999999989
 51
180.0
  0
ARC
  8
1
  6
CONTINUOUS
 62
     7
 10
-86.63874945699382
 20
204.2
 40
0.2999999999999928
 50
25.94447977237056
 51
90.00000000000001
  0
ARC
  8
1
  6
CONTINUOUS
 62
     7
 10
-74.70710678118655
 20
204.0
 40
0.4999999999999884
 50
44.99999999999888
 51
90.0
  0
ARC
  8
1
  6
CONTINUOUS
 62
     7
 10
-83.53137084989848
 20
203.7
 40
0.8000000000000108
 50
45.00000000000071
 51
90.0
  0
ARC
  8
1
  6
CONTINUOUS
 62
     7
 10
-73.7
 20
202.9928932188134
 40
0.5000000000000004
 50
0.0
 51
45.00000000000113
  0
ARC
  8
1
  6
CONTINUOUS
 62
     7
 10
-96.9
 20
193.9387494569938
 40
0.2999999999999947
 50
180.0
 51
244.0555202276318
  0
ARC
  8
1
  6
CONTINUOUS
 62
     7
 10
-96.39999999999999
 20
199.3313708498985
 40
0.800000000000009
 50
180.0
 51
224.9999999999986
  0
ARC
  8
1
  6
CONTINUOUS
 62
     7
 10
-95.69289321881344
 20
181.0
 40
0.4999999999999786
 50
225.0
 51
270.0
  0
ARC
  8
1
  6
CONTINUOUS
 62
     7
 10
-96.7
 20
182.0071067811866
 40
0.5000000000000004
 50
180.0
 51
225.0000000000012
  0
ARC
  8
1
  6
CONTINUOUS
 62
     7
 10
-96.4
 20
194.1686291501015
 40
0.8000000000000108
 50
134.9999999999993
 51
180.0
  0
ARC
  8
1
  6
CONTINUOUS
 62
     7
 10
-74.00000000000001
 20
199.3313708498985
 40
0.8000000000000108
 50
314.9999999999993
 51
0.0
  0
ARC
  8
1
  6
CONTINUOUS
 62
     7
 10
-74.0
 20
190.8313708498985
 40
0.8000000000000108
 50
314.9999999999993
 51
0.0
  0
ARC
  8
1
  6
CONTINUOUS
 62
     7
 10
-73.7
 20
182.0071067811866
 40
0.4999999999999884
 50
315.0000000000011
 51
0.0
  0
ARC
  8
1
  6
CONTINUOUS
 62
     7
 10
-72.8
 20
192.5
 40
1.300000000000014
 50
115.94447977237
 51
244.0555202276305
  0
ARC
  8
1
  6
CONTINUOUS
 62
     7
 10
-85.2
 20
204.9
 40
1.300000000000014
 50
205.94447977237
 51
334.05552022763
  0
ARC
  8
1
  6
CONTINUOUS
 62
     7
 10
-95.69289321881345
 20
204.0
 40
0.5000000000000004
 50
90.0
 51
134.9999999999989
  0
ARC
  8
1
  6
CONTINUOUS
 62
     7
 10
-96.39999999999999
 20
185.6686291501015
 40
0.8000000000000108
 50
134.9999999999993
 51
180.0
  0
ARC
  8
1
  6
CONTINUOUS
 62
     7
 10
-73.5
 20
191.0612505430062
 40
0.2999999999999947
 50
0.0
 51
64.05552022762946
  0
ARC
  8
1
  6
CONTINUOUS
 62
     7
 10
-96.89999999999998
 20
191.0612505430062
 40
0.2999999999999928
 50
115.9444797723706
 51
180.0000000000053
  0
ARC
  8
1
  6
CONTINUOUS
 62
     7
 10
-74.0
 20
185.6686291501015
 40
0.7999999999999952
 50
0.0
 51
44.9999999999993
  0
ARC
  8
1
  6
CONTINUOUS
 62
     7
 10
-74.70710678118482
 20
181.0000000000017
 40
0.5000000000000004
 50
270.0000000000255
 51
314.9999999999989
  0
ARC
  8
1
  6
CONTINUOUS
 62
     7
 10
-91.9840621677022
 20
187.3402702936418
 40
1.181336995242992
 50
149.3359176622467
 51
210.6818775460768
  0
ARC
  8
1
  6
CONTINUOUS
 62
     7
 10
-91.89347809507213
 20
185.7698985569831
 40
1.237992962174519
 50
182.2954311857914
 51
206.6310016244855
  0
ARC
  8
1
  6
CONTINUOUS
 62
     7
 10
-10.99999999999998
 20
221.5
 40
1.000000000000001
 50
270.0
 51
0.0
  0
ARC
  8
1
  6
CONTINUOUS
 62
     7
 10
-73.50000000000001
 20
193.9387494569938
 40
0.2999999999999928
 50
295.9444797723705
 51
0.0
  0
ARC
  8
1
  6
CONTINUOUS
 62
     7
 10
-74.00000000000001
 20
194.1686291501015
 40
0.7999999999999952
 50
0.0000000000019878
 51
44.99999999999859
  0
ARC
  8
1
  6
CONTINUOUS
 62
     7
 10
-97.6
 20
192.5
 40
1.300000000000014
 50
295.94447977237
 51
64.05552022762993
  0
ARC
  8
1
  6
CONTINUOUS
 62
     7
 10
-10.99999999999999
 20
163.5
 40
1.000000000000001
 50
0.0
 51
90.0
  0
ARC
  8
1
  6
CONTINUOUS
 62
     7
 10
-12.49999999999998
 20
163.0
 40
2.500000000000002
 50
270.0
 51
0.0
  0
ARC
  8
1
  6
CONTINUOUS
 62
     7
 10
-107.5
 20
163.0
 40
2.500000000000002
 50
180.0
 51
270.0
  0
ARC
  8
1
  6
CONTINUOUS
 62
     7
 10
-96.39999999999998
 20
190.8313708498985
 40
0.7999999999999952
 50
180.000000000004
 51
224.9999999999965
  0
ARC
  8
1
  6
CONTINUOUS
 62
     7
 10
-86.86862915010154
 20
203.7
 40
0.8000000000000229
 50
90.0
 51
135.0
  0
ARC
  8
1
  6
CONTINUOUS
 62
     7
 10
-83.76125054300617
 20
204.2
 40
0.3000000000000225
 50
90.0
 51
154.0555202276318
  0
ARC
  8
1
  6
CONTINUOUS
 62
     7
 10
-16.46410571775386
 20
220.9999715754169
 40
3.5
 50
314.7512489465531
 51
351.7872594368027
  0
ARC
  8
1
  6
CONTINUOUS
 62
     7
 10
-48.449489753412
 20
164.0000000520703
 40
2.499999999999998
 50
11.53695781484365
 51
90.00000000000016
  0
ARC
  8
1
  6
CONTINUOUS
 62
     7
 10
-80.449489753412
 20
220.9999999479297
 40
2.500000000000002
 50
269.9999999999997
 51
348.4630421851563
  0
ARC
  8
1
  6
CONTINUOUS
 62
     7
 10
-16.46410571775386
 20
164.0000284245831
 40
3.500000000000004
 50
8.212740563197357
 51
45.24875105344696
  0
ARC
  8
1
  6
CONTINUOUS
 62
     7
 10
-88.2
 20
202.6
 40
1.500000000000001
 50
180.0
 51
270.0
  0
ARC
  8
1
  6
CONTINUOUS
 62
     7
 10
-48.449489753412
 20
220.9999999479297
 40
2.500000000000002
 50
269.9999999999997
 51
348.4630421851564
  0
ARC
  8
1
  6
CONTINUOUS
 62
     7
 10
-87.55051024658799
 20
164.0000000520703
 40
2.500000000000002
 50
90.0
 51
168.4630421851564
  0
ARC
  8
1
  6
CONTINUOUS
 62
     7
 10
-16.44948975341197
 20
220.9999999479297
 40
2.500000000000002
 50
270.0000000000003
 51
348.4630421851564
  0
ARC
  8
1
  6
CONTINUOUS
 62
     7
 10
-80.449489753412
 20
164.0000000520703
 40
2.499999999999998
 50
11.53695781484365
 51
90.00000000000034
  0
ARC
  8
1
  6
CONTINUOUS
 62
     7
 10
-55.55051024658801
 20
220.9999999479297
 40
2.500000000000005
 50
191.5369578148437
 51
270.0000000000003
  0
ARC
  8
1
  6
CONTINUOUS
 62
     7
 10
-12.49999999999998
 20
222.0
 40
2.500000000000002
 50
0.0
 51
90.0
  0
ARC
  8
1
  6
CONTINUOUS
 62
     7
 10
-106.4999999479297
 20
200.050510246588
 40
2.500000000000002
 50
0.0
 51
78.46304218515672
  0
ARC
  8
1
  6
CONTINUOUS
 62
     7
 10
-55.55051024658801
 20
164.0000000520703
 40
2.500000000000002
 50
89.99999999999969
 51
168.4630421851564
  0
ARC
  8
1
  6
CONTINUOUS
 62
     7
 10
-87.55051024658799
 20
220.9999999479297
 40
2.499999999999998
 50
191.5369578148436
 51
270.0
  0
ARC
  8
1
  6
CONTINUOUS
 62
     7
 10
-16.44948975341197
 20
164.0000000520703
 40
2.499999999999998
 50
11.53695781484365
 51
89.99999999999969
  0
ARC
  8
1
  6
CONTINUOUS
 62
     7
 10
-23.55051024658801
 20
220.9999999479297
 40
2.499999999999998
 50
191.5369578148436
 51
269.9999999999997
  0
ARC
  8
1
  6
CONTINUOUS
 62
     7
 10
-23.55051024658801
 20
164.0000000520703
 40
2.500000000000002
 50
90.0000000000003
 51
168.4630421851564
  0
ARC
  8
1
  6
CONTINUOUS
 62
     7
 10
-106.4999999479297
 20
184.949489753412
 40
2.500000000000011
 50
281.5369578148436
 51
0.0
  0
ARC
  8
1
  6
CONTINUOUS
 62
     7
 10
-107.5
 20
222.0
 40
2.500000000000002
 50
90.0
 51
180.0
  0
ARC
  8
1
  6
CONTINUOUS
 62
     7
 10
-14.49999994792966
 20
184.949489753412
 40
2.499999999999983
 50
281.5369578148436
 51
0.0
  0
ARC
  8
1
  6
CONTINUOUS
 62
     7
 10
-14.49999994792966
 20
200.050510246588
 40
2.500000000000009
 50
0.0
 51
78.46304218515657
  0
LINE
  8
1
  6
CONTINUOUS
 62
     7
 10
-107.5
 20
119.8
 11
-12.49999999999998
 21
119.8
  0
LINE
  8
1
  6
CONTINUOUS
 62
     7
 10
-73.1
 20
115.3
 11
-73.1
 21
112.45
  0
LINE
  8
1
  6
CONTINUOUS
 62
     7
 10
-12.49999999999998
 20
115.3
 11
-107.5
 21
115.3
  0
LINE
  8
1
  6
CONTINUOUS
 62
     7
 10
-82.55424868893547
 20
108.0473102137988
 11
-82.25
 21
108.1124011586059
  0
LINE
  8
1
  6
CONTINUOUS
 62
     7
 10
-94.0
 20
110.0
 11
-94.5
 21
110.0
  0
LINE
  8
1
  6
CONTINUOUS
 62
     7
 10
-100.0
 20
110.5
 11
-100.0
 21
115.3
  0
LINE
  8
1
  6
CONTINUOUS
 62
     7
 10
-75.89999999999999
 20
110.0
 11
-76.39999999999999
 21
110.0
  0
LINE
  8
1
  6
CONTINUOUS
 62
     7
 10
-97.3
 20
112.45
 11
-94.5
 21
112.45
  0
LINE
  8
1
  6
CONTINUOUS
 62
     7
 10
-10.49999999999998
 20
115.3
 11
-12.49999999999998
 21
115.3
  0
LINE
  8
1
  6
CONTINUOUS
 62
     7
 10
-79.39999999999999
 20
108.2
 11
-82.25
 21
108.2
  0
LINE
  8
1
  6
CONTINUOUS
 62
     7
 10
-97.3
 20
115.3
 11
-97.3
 21
112.45
  0
LINE
  8
1
  6
CONTINUOUS
 62
     7
 10
-93.5
 20
112.45
 11
-93.5
 21
110.5
  0
LINE
  8
1
  6
CONTINUOUS
 62
     7
 10
-79.2
 20
107.5257142857143
 11
-79.2
 21
108.2
  0
LINE
  8
1
  6
CONTINUOUS
 62
     7
 10
-9.999999999999995
 20
119.8
 11
-9.999999999999988
 21
115.8
  0
LINE
  8
1
  6
CONTINUOUS
 62
     7
 10
-76.89999999999999
 20
110.5
 11
-76.89999999999999
 21
112.45
  0
LINE
  8
1
  6
CONTINUOUS
 62
     7
 10
-76.89999999999999
 20
112.45
 11
-75.89999999999999
 21
112.45
  0
LINE
  8
1
  6
CONTINUOUS
 62
     7
 10
-83.11808927434554
 20
108.0194400539129
 11
-84.99999999999999
 21
107.9
  0
LINE
  8
1
  6
CONTINUOUS
 62
     7
 10
-79.39999999999999
 20
108.2
 11
-79.2
 21
108.2
  0
LINE
  8
1
  6
CONTINUOUS
 62
     7
 10
-73.1
 20
112.45
 11
-75.89999999999999
 21
112.45
  0
LINE
  8
1
  6
CONTINUOUS
 62
     7
 10
-12.49999999999998
 20
119.8
 11
-9.99999999999998
 21
119.8
  0
LINE
  8
1
  6
CONTINUOUS
 62
     7
 10
-94.5
 20
110.0
 11
-99.49999999999999
 21
110.0
  0
LINE
  8
1
  6
CONTINUOUS
 62
     7
 10
-73.1
 20
112.5
 11
-73.69999999999999
 21
112.5
  0
LINE
  8
1
  6
CONTINUOUS
 62
     7
 10
-70.4
 20
115.3
 11
-70.4
 21
110.5
  0
LINE
  8
1
  6
CONTINUOUS
 62
     7
 10
-97.3
 20
112.5
 11
-96.7
 21
112.5
  0
LINE
  8
1
  6
CONTINUOUS
 62
     7
 10
-73.1
 20
115.0
 11
-73.2
 21
115.0
  0
LINE
  8
1
  6
CONTINUOUS
 62
     7
 10
-97.3
 20
115.0
 11
-97.2
 21
115.0
  0
LINE
  8
1
  6
CONTINUOUS
 62
     7
 10
-82.19999999999999
 20
112.45
 11
-81.19999999999999
 21
112.45
  0
LINE
  8
1
  6
CONTINUOUS
 62
     7
 10
-81.19999999999999
 20
112.45
 11
-81.19999999999999
 21
110.5
  0
LINE
  8
1
  6
CONTINUOUS
 62
     7
 10
-88.2
 20
112.45
 11
-88.15
 21
112.45
  0
LINE
  8
1
  6
CONTINUOUS
 62
     7
 10
-82.25
 20
108.1124011586059
 11
-82.25
 21
112.6
  0
LINE
  8
1
  6
CONTINUOUS
 62
     7
 10
-79.2
 20
107.5257142857143
 11
-79.39999999999999
 21
107.4
  0
LINE
  8
1
  6
CONTINUOUS
 62
     7
 10
-79.39999999999999
 20
107.4
 11
-82.15
 21
105.6714285714286
  0
LINE
  8
1
  6
CONTINUOUS
 62
     7
 10
-107.5
 20
115.3
 11
-109.5
 21
115.3
  0
LINE
  8
1
  6
CONTINUOUS
 62
     7
 10
-110.0
 20
115.8
 11
-110.0
 21
119.8
  0
LINE
  8
1
  6
CONTINUOUS
 62
     7
 10
-110.0
 20
119.8
 11
-107.5
 21
119.8
  0
LINE
  8
1
  6
CONTINUOUS
 62
     7
 10
-70.9
 20
110.0
 11
-75.89999999999999
 21
110.0
  0
LINE
  8
1
  6
CONTINUOUS
 62
     7
 10
-94.5
 20
112.45
 11
-93.5
 21
112.45
  0
LINE
  8
1
  6
CONTINUOUS
 62
     7
 10
-82.19999999999999
 20
110.0
 11
-82.25
 21
110.0
  0
LINE
  8
1
  6
CONTINUOUS
 62
     7
 10
-88.15
 20
110.0
 11
-88.2
 21
110.0
  0
LINE
  8
1
  6
CONTINUOUS
 62
     7
 10
-88.2
 20
110.0
 11
-88.7
 21
110.0
  0
LINE
  8
1
  6
CONTINUOUS
 62
     7
 10
-82.25
 20
112.45
 11
-82.19999999999999
 21
112.45
  0
LINE
  8
1
  6
CONTINUOUS
 62
     7
 10
-81.69999999999999
 20
110.0
 11
-82.19999999999999
 21
110.0
  0
LINE
  8
1
  6
CONTINUOUS
 62
     7
 10
-91.60000000000002
 20
112.45
 11
-91.60000000000001
 21
112.6
  0
LINE
  8
1
  6
CONTINUOUS
 62
     7
 10
-89.2
 20
112.45
 11
-88.2
 21
112.45
  0
LINE
  8
1
  6
CONTINUOUS
 62
     7
 10
-79.86992407621545
 20
112.45
 11
-80.69999999999999
 21
112.45
  0
LINE
  8
1
  6
CONTINUOUS
 62
     7
 10
-78.80000000000001
 20
112.45
 11
-78.80000000000001
 21
112.6
  0
LINE
  8
1
  6
CONTINUOUS
 62
     7
 10
-78.80000000000001
 20
112.45
 11
-76.89999999999999
 21
112.45
  0
LINE
  8
1
  6
CONTINUOUS
 62
     7
 10
-89.7
 20
112.45
 11
-89.2
 21
112.45
  0
LINE
  8
1
  6
CONTINUOUS
 62
     7
 10
-78.80000000000001
 20
112.45
 11
-79.21913270275948
 21
112.45
  0
LINE
  8
1
  6
CONTINUOUS
 62
     7
 10
-81.19999999999999
 20
112.45
 11
-80.69999999999999
 21
112.45
  0
LINE
  8
1
  6
CONTINUOUS
 62
     7
 10
-73.69999999999999
 20
112.6
 11
-73.69999999999999
 21
112.5
  0
LINE
  8
1
  6
CONTINUOUS
 62
     7
 10
-89.2
 20
110.5
 11
-89.2
 21
112.45
  0
LINE
  8
1
  6
CONTINUOUS
 62
     7
 10
-90.53007592378454
 20
112.45
 11
-91.1808672972405
 21
112.45
  0
LINE
  8
1
  6
CENTER
 62
     1
 10
14.7
 20
192.5
 11
35.30000000000001
 21
192.5
  0
LINE
  8
1
  6
CENTER
 62
     1
 10
-60.0
 20
157.5
 11
-60.0
 21
227.5
  0
LINE
  8
1
  6
CONTINUOUS
 62
     7
 10
-80.69999999999999
 20
112.45
 11
-80.69999999999999
 21
112.6
  0
LINE
  8
1
  6
CONTINUOUS
 62
     7
 10
-96.7
 20
112.5
 11
-96.7
 21
112.6
  0
LINE
  8
1
  6
CENTER
 62
     1
 10
-60.0
 20
102.2
 11
-60.0
 21
122.8
  0
LINE
  8
1
  6
CONTINUOUS
 62
     7
 10
-89.7
 20
112.45
 11
-89.7
 21
112.6
  0
LINE
  8
1
  6
CENTER
 62
     1
 10
-113.0
 20
192.5
 11
-6.999999999999979
 21
192.5
  0
LINE
  8
1
  6
CONTINUOUS
 62
     7
 10
-91.60000000000002
 20
112.45
 11
-91.1808672972405
 21
112.45
  0
LINE
  8
1
  6
CONTINUOUS
 62
     7
 10
-90.53007592378454
 20
112.45
 11
-89.7
 21
112.45
  0
LINE
  8
1
  6
CONTINUOUS
 62
     7
 10
-93.5
 20
112.45
 11
-91.60000000000002
 21
112.45
  0
LINE
  8
1
  6
CONTINUOUS
 62
     7
 10
-79.21913270275948
 20
112.45
 11
-79.86992407621545
 21
112.45
  0
ENDSEC
  0
EOF
