  0
SECTION
  2
HEADER
  9
$ACADVER
  1
AC1004
  9
$INSBASE
 10
0.0
 20
0.0
  9
$EXTMIN
 10
81.99999999999999
 20
81.17045454545455
  9
$EXTMAX
 10
238.4
 20
225.0
  9
$LIMMIN
 10
0.0
 20
0.0
  9
$LIMMAX
 10
12.0
 20
9.0
  9
$ORTHOMODE
 70
     0
  9
$REGENMODE
 70
     1
  9
$FILLMODE
 70
     1
  9
$QTEXTMODE
 70
     0
  9
$DRAGMODE
 70
     2
  9
$LTSCALE
 40
1.0
  9
$OSMODE
 70
    37
  9
$ATTMODE
 70
     1
  9
$TEXTSIZE
 40
0.2
  9
$TRACEWID
 40
0.05
  9
$TEXTSTYLE
  7
STANDARD
  9
$CLAYER
  8
0
  9
$CELTYPE
  6
BYLAYER
  9
$CECOLOR
 62
   256
  9
$DIMSCALE
 40
1.0
  9
$DIMASZ
 40
3.0
  9
$DIMEXO
 40
0.0625
  9
$DIMDLI
 40
0.38
  9
$DIMRND
 40
0.0
  9
$DIMDLE
 40
0.0
  9
$DIMEXE
 40
1.5
  9
$DIMTP
 40
0.0
  9
$DIMTM
 40
0.0
  9
$DIMTXT
 40
3.0
  9
$DIMCEN
 40
0.09
  9
$DIMTSZ
 40
0.0
  9
$DIMTOL
 70
     0
  9
$DIMLIM
 70
     0
  9
$DIMTIH
 70
     1
  9
$DIMTOH
 70
     1
  9
$DIMSE1
 70
     0
  9
$DIMSE2
 70
     0
  9
$DIMTAD
 70
     1
  9
$DIMZIN
 70
     0
  9
$DIMBLK
  1

  9
$DIMASO
 70
     1
  9
$DIMSHO
 70
     1
  9
$DIMPOST
  1

  9
$DIMAPOST
  1

  9
$DIMALT
 70
     0
  9
$DIMALTD
 70
     2
  9
$DIMALTF
 40
25.4
  9
$DIMLFAC
 40
1.0
  9
$DIMTOFL
 70
     0
  9
$DIMTVP
 40
0.0
  9
$DIMTIX
 70
     0
  9
$DIMSOXD
 70
     0
  9
$DIMSAH
 70
     0
  9
$DIMBLK1
  1

  9
$DIMBLK2
  1

  9
$LUNITS
 70
     2
  9
$LUPREC
 70
     4
  9
$SKETCHINC
 40
0.1
  9
$FILLETRAD
 40
0.5
  9
$AUNITS
 70
     0
  9
$AUPREC
 70
     0
  9
$MENU
  1
.
  9
$ELEVATION
 40
0.0
  9
$THICKNESS
 40
0.0
  9
$LIMCHECK
 70
     0
  9
$CHAMFERA
 40
0.0
  9
$CHAMFERB
 40
0.0
  9
$SKPOLY
 70
     0
  9
$TDCREATE
 40
2459695.734449329
  9
$TDUPDATE
 40
2459695.73445
  9
$TDINDWG
 40
0.0000000116
  9
$TDUSRTIMER
 40
0.0000000116
  9
$USRTIMER
 70
     1
  9
$ANGBASE
 50
0.0
  9
$ANGDIR
 70
     0
  9
$PDMODE
 70
     0
  9
$PDSIZE
 40
0.0
  9
$PLINEWID
 40
0.0
  9
$COORDS
 70
     1
  9
$SPLFRAME
 70
     0
  9
$SPLINETYPE
 70
     6
  9
$SPLINESEGS
 70
     8
  9
$ATTDIA
 70
     0
  9
$ATTREQ
 70
     1
  9
$SURFTAB1
 70
     6
  9
$SURFTAB2
 70
     6
  9
$SURFTYPE
 70
     6
  9
$SURFU
 70
     6
  9
$SURFV
 70
     6
  9
$UCSNAME
  2

  9
$UCSORG
 10
0.0
 20
0.0
 30
0.0
  9
$UCSXDIR
 10
1.0
 20
0.0
 30
0.0
  9
$UCSYDIR
 10
0.0
 20
1.0
 30
0.0
  9
$USERI1
 70
     0
  9
$USERI2
 70
     0
  9
$USERI3
 70
     0
  9
$USERI4
 70
     0
  9
$USERI5
 70
     0
  9
$USERR1
 40
0.0
  9
$USERR2
 40
0.0
  9
$USERR3
 40
0.0
  9
$USERR4
 40
0.0
  9
$USERR5
 40
0.0
  9
$WORLDVIEW
 70
     1
  0
ENDSEC
  0
SECTION
  2
TABLES
  0
TABLE
  2
LTYPE
 70
     2
  0
LTYPE
  2
CONTINUOUS
 70
     0
  3
Solid line
 72
    65
 73
     0
 40
0.0
  0
LTYPE
  2
CENTER
 70
     0
  3

 72
    65
 73
     0
 40
0.0
  0
ENDTAB
  0
TABLE
  2
LAYER
 70
     2
  0
LAYER
  2
0
 70
     0
 62
     7
  6
CONTINUOUS
  0
LAYER
  2
1
 70
     0
 62
     7
  6
CONTINUOUS
  0
ENDTAB
  0
TABLE
  2
STYLE
 70
     2
  0
STYLE
  2
STANDARD
 70
     0
 40
0.0
 41
1.0
 50
0.0
 71
     0
 42
0.2
  3
txt
  4

  0
STYLE
  2
ＭＳ_ゴシック
 70
     0
 40
0.0
 41
1.0
 50
0.0
 71
     0
 42
0.2
  3
ＭＳ ゴシック.shx
  4

  0
ENDTAB
  0
TABLE
  2
VIEW
 70
     0
  0
ENDTAB
  0
ENDSEC
  0
SECTION
  2
BLOCKS
  0
ENDSEC
  0
SECTION
  2
ENTITIES
  0
LINE
  8
1
  6
CONTINUOUS
 62
     7
 10
113.2467375879228
 20
108.5636634858666
 11
112.6014810523277
 21
108.5132177888922
  0
POLYLINE
  8
1
  6
CONTINUOUS
 62
     7
 66
     1
  0
VERTEX
  8
1
  6
CONTINUOUS
 62
     7
 10
233.4
 20
189.9999999999999
  0
VERTEX
  8
1
  6
CONTINUOUS
 62
     7
 10
233.437761181102
 20
189.2991086657738
  0
VERTEX
  8
1
  6
CONTINUOUS
 62
     7
 10
233.5497138780628
 20
188.6229193838452
  0
VERTEX
  8
1
  6
CONTINUOUS
 62
     7
 10
233.7319124558886
 20
187.9952636130859
  0
VERTEX
  8
1
  6
CONTINUOUS
 62
     7
 10
233.9779355499853
 20
187.43826230851
  0
VERTEX
  8
1
  6
CONTINUOUS
 62
     7
 10
234.2791123792488
 20
186.9715462954445
  0
VERTEX
  8
1
  6
CONTINUOUS
 62
     7
 10
234.6248283370719
 20
186.6115644052557
  0
VERTEX
  8
1
  6
CONTINUOUS
 62
     7
 10
235.0028990900875
 20
186.3710037565359
  0
VERTEX
  8
1
  6
CONTINUOUS
 62
     7
 10
235.4
 20
186.2583426132259
  0
SEQEND
  8
1
  6
CONTINUOUS
 62
     7
  0
TEXT
  8
1
  6
CONTINUOUS
 62
     7
 10
140.5572683506315
 20
80.8284200325122
 40
3.0
  1
AFP-CH30MSY
  0
ARC
  8
1
  6
CONTINUOUS
 62
     7
 10
107.449489753412
 20
161.5000000520703
 40
2.500000000000002
 50
90.0
 51
168.4630421851564
  0
ARC
  8
1
  6
CONTINUOUS
 62
     7
 10
227.45
 20
199.25
 40
0.5000000000000004
 50
90.0
 51
180.0
  0
ARC
  8
1
  6
CONTINUOUS
 62
     7
 10
139.4641057177539
 20
218.4999715754169
 40
3.500000000000004
 50
188.2127405631974
 51
270.0
  0
ARC
  8
1
  6
CONTINUOUS
 62
     7
 10
228.9
 20
175.5
 40
0.5000000000000004
 50
270.0
 51
0.0
  0
ARC
  8
1
  6
CONTINUOUS
 62
     7
 10
227.45
 20
180.75
 40
0.5000000000000004
 50
180.0
 51
270.0
  0
ARC
  8
1
  6
CONTINUOUS
 62
     7
 10
114.2293538667044
 20
122.2507084368666
 40
13.95130812193938
 50
269.4687568538918
 51
284.7106845973681
  0
ARC
  8
1
  6
CONTINUOUS
 62
     7
 10
121.3
 20
179.5071067811865
 40
0.500000000000008
 50
314.9999999999989
 51
0.0
  0
ARC
  8
1
  6
CONTINUOUS
 62
     7
 10
122.2
 20
190.0
 40
0.9000000000000058
 50
109.4712206344902
 51
250.5287793655089
  0
ARC
  8
1
  6
CONTINUOUS
 62
     7
 10
182.5
 20
219.5
 40
2.500000000000002
 50
0.0
 51
90.0
  0
ARC
  8
1
  6
CONTINUOUS
 62
     7
 10
99.30710678118653
 20
178.5
 40
0.500000000000008
 50
225.0000000000011
 51
270.0
  0
ARC
  8
1
  6
CONTINUOUS
 62
     7
 10
100.5
 20
176.0
 40
1.500000000000001
 50
270.0
 51
0.0
  0
ARC
  8
1
  6
CONTINUOUS
 62
     7
 10
120.2928932188135
 20
178.5
 40
0.5000000000000004
 50
270.0
 51
314.9999999999989
  0
ARC
  8
1
  6
CONTINUOUS
 62
     7
 10
112.8
 20
200.1
 40
1.500000000000001
 50
270.0
 51
0.0
  0
ARC
  8
1
  6
CONTINUOUS
 62
     7
 10
177.0
 20
178.0
 40
1.000000000000001
 50
270.0
 51
0.0
  0
ARC
  8
1
  6
CONTINUOUS
 62
     7
 10
114.550510246588
 20
161.5000000520703
 40
2.499999999999998
 50
11.53695781484365
 51
90.00000000000034
  0
ARC
  8
1
  6
CONTINUOUS
 62
     7
 10
180.5000000520703
 20
197.550510246588
 40
2.500000000000002
 50
0.0
 51
78.46304218515643
  0
ARC
  8
1
  6
CONTINUOUS
 62
     7
 10
88.50000000000001
 20
197.5358983848622
 40
3.500000000000003
 50
0.0
 51
81.78678929826201
  0
ARC
  8
1
  6
CONTINUOUS
 62
     7
 10
184.0
 20
161.0
 40
1.000000000000001
 50
0.0
 51
90.0
  0
ARC
  8
1
  6
CONTINUOUS
 62
     7
 10
178.550510246588
 20
161.5000000520703
 40
2.499999999999984
 50
11.53695781484371
 51
89.99999999999936
  0
ARC
  8
1
  6
CONTINUOUS
 62
     7
 10
173.0
 20
190.0
 40
13.00000000000001
 50
90.0
 51
270.0
  0
ARC
  8
1
  6
CONTINUOUS
 62
     7
 10
107.4641057177539
 20
161.500028424583
 40
3.500000000000003
 50
90.0
 51
171.7872594368027
  0
ARC
  8
1
  6
CONTINUOUS
 62
     7
 10
88.50000000000001
 20
182.4641016151378
 40
3.499999999999989
 50
278.2132107017382
 51
0.0
  0
ARC
  8
1
  6
CONTINUOUS
 62
     7
 10
228.9
 20
203.8
 40
0.5000000000000004
 50
0.0
 51
90.0
  0
ARC
  8
1
  6
CONTINUOUS
 62
     7
 10
139.4641057177539
 20
161.500028424583
 40
3.500000000000003
 50
90.0
 51
171.7872594368027
  0
ARC
  8
1
  6
CONTINUOUS
 62
     7
 10
100.5
 20
176.0
 40
1.000000000000001
 50
270.0
 51
0.0
  0
ARC
  8
1
  6
CONTINUOUS
 62
     7
 10
177.0
 20
202.0
 40
1.000000000000001
 50
0.0
 51
90.0
  0
ARC
  8
1
  6
CONTINUOUS
 62
     7
 10
88.50000005207032
 20
197.550510246588
 40
2.500000000000002
 50
0.0
 51
78.46304218515672
  0
ARC
  8
1
  6
CONTINUOUS
 62
     7
 10
114.550510246588
 20
218.4999999479297
 40
2.500000000000002
 50
269.9999999999997
 51
348.4630421851563
  0
ARC
  8
1
  6
CONTINUOUS
 62
     7
 10
116.5565431947173
 20
195.1182155690214
 40
1.192359791773234
 50
331.061953355323
 51
28.93455065167092
  0
ARC
  8
1
  6
CONTINUOUS
 62
     7
 10
146.550510246588
 20
161.5000000520703
 40
2.500000000000011
 50
11.53695781484359
 51
90.00000000000001
  0
ARC
  8
1
  6
CONTINUOUS
 62
     7
 10
107.449489753412
 20
218.4999999479297
 40
2.499999999999998
 50
191.5369578148436
 51
270.0
  0
ARC
  8
1
  6
CONTINUOUS
 62
     7
 10
180.5000000520703
 20
182.449489753412
 40
2.499999999999984
 50
281.5369578148437
 51
0.0
  0
ARC
  8
1
  6
CONTINUOUS
 62
     7
 10
171.4641057177539
 20
218.4999715754169
 40
3.500000000000004
 50
188.2127405631974
 51
270.0
  0
ARC
  8
1
  6
CONTINUOUS
 62
     7
 10
87.50000000000001
 20
160.5
 40
2.500000000000002
 50
180.0
 51
270.0
  0
ARC
  8
1
  6
CONTINUOUS
 62
     7
 10
114.5358942822461
 20
161.500028424583
 40
3.500000000000004
 50
8.212740563197357
 51
90.00000000000001
  0
ARC
  8
1
  6
CONTINUOUS
 62
     7
 10
171.449489753412
 20
218.4999999479297
 40
2.499999999999984
 50
191.5369578148437
 51
269.9999999999994
  0
ARC
  8
1
  6
CONTINUOUS
 62
     7
 10
119.1
 20
176.0
 40
1.000000000000001
 50
180.0
 51
270.0
  0
ARC
  8
1
  6
CONTINUOUS
 62
     7
 10
139.449489753412
 20
161.5000000520703
 40
2.500000000000002
 50
90.0
 51
168.4630421851563
  0
ARC
  8
1
  6
CONTINUOUS
 62
     7
 10
119.1
 20
176.0
 40
1.500000000000001
 50
180.0
 51
270.0
  0
ARC
  8
1
  6
CONTINUOUS
 62
     7
 10
139.449489753412
 20
218.4999999479297
 40
2.500000000000011
 50
191.5369578148436
 51
270.0
  0
ARC
  8
1
  6
CONTINUOUS
 62
     7
 10
146.5358942822461
 20
161.500028424583
 40
3.500000000000004
 50
8.212740563197357
 51
90.00000000000001
  0
ARC
  8
1
  6
CONTINUOUS
 62
     7
 10
171.4641057177539
 20
161.500028424583
 40
3.500000000000003
 50
90.0
 51
171.7872594368027
  0
ARC
  8
1
  6
CONTINUOUS
 62
     7
 10
223.6
 20
221.5
 40
0.5000000000000004
 50
0.0
 51
90.0
  0
ARC
  8
1
  6
CONTINUOUS
 62
     7
 10
228.9
 20
200.25
 40
0.5000000000000004
 50
270.0
 51
0.0
  0
ARC
  8
1
  6
CONTINUOUS
 62
     7
 10
228.9
 20
179.75
 40
0.5000000000000004
 50
0.0
 51
90.0
  0
ARC
  8
1
  6
CONTINUOUS
 62
     7
 10
114.5358942822461
 20
218.4999715754169
 40
3.500000000000003
 50
270.0
 51
351.7872594368026
  0
ARC
  8
1
  6
CONTINUOUS
 62
     7
 10
146.5358942822461
 20
218.4999715754169
 40
3.500000000000003
 50
270.0
 51
351.7872594368026
  0
ARC
  8
1
  6
CONTINUOUS
 62
     7
 10
182.5
 20
160.5
 40
2.500000000000002
 50
270.0
 51
0.0
  0
ARC
  8
1
  6
CONTINUOUS
 62
     7
 10
178.550510246588
 20
218.4999999479297
 40
2.500000000000002
 50
270.0000000000007
 51
348.4630421851563
  0
ARC
  8
1
  6
CONTINUOUS
 62
     7
 10
121.0
 20
183.1686291501015
 40
0.7999999999999952
 50
0.0
 51
44.99999999999859
  0
ARC
  8
1
  6
CONTINUOUS
 62
     7
 10
184.0000000000001
 20
219.0
 40
1.000000000000001
 50
270.0
 51
0.0
  0
ARC
  8
1
  6
CONTINUOUS
 62
     7
 10
171.449489753412
 20
161.5000000520703
 40
2.500000000000002
 50
90.0
 51
168.4630421851563
  0
ARC
  8
1
  6
CONTINUOUS
 62
     7
 10
178.5358942822461
 20
161.500028424583
 40
3.500000000000004
 50
8.212740563197357
 51
45.24875105344686
  0
ARC
  8
1
  6
CONTINUOUS
 62
     7
 10
107.4641057177539
 20
218.4999715754169
 40
3.500000000000004
 50
188.2127405631974
 51
270.0
  0
ARC
  8
1
  6
CONTINUOUS
 62
     7
 10
146.550510246588
 20
218.4999999479297
 40
2.500000000000002
 50
270.0
 51
348.4630421851564
  0
ARC
  8
1
  6
CONTINUOUS
 62
     7
 10
88.50000005207032
 20
182.449489753412
 40
2.500000000000011
 50
281.5369578148436
 51
0.0
  0
ARC
  8
1
  6
CONTINUOUS
 62
     7
 10
178.5358942822461
 20
218.4999715754169
 40
3.500000000000004
 50
314.7512489465532
 51
351.7872594368027
  0
ARC
  8
1
  6
CONTINUOUS
 62
     7
 10
178.5358942822461
 20
161.500028424583
 40
3.500000000000004
 50
45.24875105344685
 51
90.0
  0
ARC
  8
1
  6
CONTINUOUS
 62
     7
 10
178.5358942822461
 20
218.4999715754169
 40
3.500000000000003
 50
270.0
 51
314.7512489465531
  0
ARC
  8
1
  6
CONTINUOUS
 62
     7
 10
223.6
 20
158.5
 40
0.5000000000000004
 50
270.0
 51
0.0
  0
ARC
  8
1
  6
CONTINUOUS
 62
     7
 10
87.50000000000001
 20
219.5
 40
2.500000000000002
 50
90.0
 51
180.0
  0
ARC
  8
1
  6
CONTINUOUS
 62
     7
 10
106.8
 20
200.1
 40
1.500000000000001
 50
180.0
 51
270.0
  0
ARC
  8
1
  6
CONTINUOUS
 62
     7
 10
97.39999999999999
 20
190.0
 40
0.9000000000000105
 50
289.471220634491
 51
70.52877936550897
  0
ARC
  8
1
  6
CONTINUOUS
 62
     7
 10
251.1856903967525
 20
190.7564253862341
 40
19.99999999999464
 50
182.1675160702987
 51
193.0217706668838
  0
ARC
  8
1
  6
CONTINUOUS
 62
     7
 10
110.0156934741741
 20
124.0855331271289
 40
15.78554092810304
 50
269.9430383799776
 51
279.4279578353018
  0
ARC
  8
1
  6
CONTINUOUS
 62
     7
 10
85.49999999999999
 20
116.4
 40
0.5000000000000004
 50
180.0
 51
270.0
  0
ARC
  8
1
  6
CONTINUOUS
 62
     7
 10
106.3
 20
111.1
 40
0.5000000000000004
 50
180.0
 51
205.8419327631684
  0
ARC
  8
1
  6
CONTINUOUS
 62
     7
 10
113.3
 20
111.1
 40
0.4999999999999964
 50
334.1580672368279
 51
0.0
  0
ARC
  8
1
  6
CONTINUOUS
 62
     7
 10
184.5
 20
116.4
 40
0.5000000000000004
 50
270.0
 51
0.0
  0
ARC
  8
1
  6
CONTINUOUS
 62
     7
 10
101.0
 20
111.1
 40
0.5000000000000004
 50
270.0
 51
0.0
  0
ARC
  8
1
  6
CONTINUOUS
 62
     7
 10
118.6
 20
111.1
 40
0.5000000000000004
 50
180.0
 51
270.0
  0
ARC
  8
1
  6
CONTINUOUS
 62
     7
 10
124.1
 20
111.1
 40
0.5000000000000004
 50
270.0
 51
0.0
  0
ARC
  8
1
  6
CONTINUOUS
 62
     7
 10
95.5
 20
111.1
 40
0.5000000000000004
 50
180.0
 51
270.0000000000015
  0
LINE
  8
1
  6
CONTINUOUS
 62
     7
 10
120.2928932188135
 20
178.0
 11
117.6
 21
178.0
  0
LINE
  8
1
  6
CONTINUOUS
 62
     7
 10
97.9464466094067
 20
200.8464466094067
 11
98.95355339059152
 21
201.8535533905916
  0
LINE
  8
1
  6
CONTINUOUS
 62
     7
 10
102.0
 20
178.0
 11
99.30710678118652
 21
178.0
  0
LINE
  8
1
  6
CONTINUOUS
 62
     7
 10
98.39999999999999
 20
195.9
 11
98.03431457505074
 21
196.2656854249492
  0
LINE
  8
1
  6
CONTINUOUS
 62
     7
 10
121.2
 20
187.4
 11
121.2
 21
184.1
  0
LINE
  8
1
  6
CONTINUOUS
 62
     7
 10
105.7801960972814
 20
199.0
 11
113.8198039027186
 21
199.0
  0
LINE
  8
1
  6
CONTINUOUS
 62
     7
 10
97.8
 20
191.4387494569938
 11
97.8
 21
191.6686291501015
  0
LINE
  8
1
  6
CONTINUOUS
 62
     7
 10
97.8
 20
188.3313708498985
 11
97.79999999999998
 21
188.7630683123147
  0
LINE
  8
1
  6
CONTINUOUS
 62
     7
 10
100.8
 20
199.0
 11
102.0
 21
199.0
  0
LINE
  8
1
  6
CONTINUOUS
 62
     7
 10
100.8
 20
193.0
 11
100.8
 21
199.0
  0
LINE
  8
1
  6
CONTINUOUS
 62
     7
 10
121.6535533905933
 20
179.1535533905933
 11
120.6464466094068
 21
178.1464466094067
  0
LINE
  8
1
  6
CONTINUOUS
 62
     7
 10
121.2
 20
184.1
 11
121.5656854249493
 21
183.7343145750507
  0
LINE
  8
1
  6
CONTINUOUS
 62
     7
 10
117.7139880882227
 20
196.7364824330171
 11
117.6
 21
196.7364824330171
  0
LINE
  8
1
  6
CONTINUOUS
 62
     7
 10
98.0343145750508
 20
183.7343145750508
 11
98.40000000000003
 21
184.1
  0
LINE
  8
1
  6
CONTINUOUS
 62
     7
 10
121.8
 20
191.6686291501016
 11
121.8
 21
191.4387494569939
  0
LINE
  8
1
  6
CONTINUOUS
 62
     7
 10
121.2
 20
192.6
 11
121.5656854249493
 21
192.2343145750507
  0
LINE
  8
1
  6
CONTINUOUS
 62
     7
 10
111.8
 20
202.0
 11
112.4
 21
201.4
  0
LINE
  8
1
  6
CONTINUOUS
 62
     7
 10
98.9535533905933
 20
178.1464466094067
 11
97.94644660940676
 21
179.1535533905933
  0
LINE
  8
1
  6
CONTINUOUS
 62
     7
 10
117.6003114447356
 20
197.2070860809638
 11
117.7139880882227
 21
196.7364824330171
  0
LINE
  8
1
  6
CONTINUOUS
 62
     7
 10
121.2
 20
195.9
 11
121.2
 21
192.6
  0
LINE
  8
1
  6
CONTINUOUS
 62
     7
 10
98.40000000000003
 20
184.1
 11
98.40000000000002
 21
187.4
  0
LINE
  8
1
  6
CONTINUOUS
 62
     7
 10
98.03431457505074
 20
192.2343145750508
 11
98.39999999999999
 21
192.6
  0
LINE
  8
1
  6
CONTINUOUS
 62
     7
 10
120.6464466094067
 20
201.8535533905933
 11
121.6535533905933
 21
200.8464466094067
  0
LINE
  8
1
  6
CONTINUOUS
 62
     7
 10
117.6
 20
199.0
 11
118.8
 21
199.0
  0
LINE
  8
1
  6
CONTINUOUS
 62
     7
 10
98.39999999999999
 20
187.4
 11
98.03431457505074
 21
187.7656854249492
  0
LINE
  8
1
  6
CONTINUOUS
 62
     7
 10
118.8
 20
193.0
 11
117.6
 21
193.0
  0
LINE
  8
1
  6
CONTINUOUS
 62
     7
 10
102.0
 20
193.0
 11
100.8
 21
193.0
  0
LINE
  8
1
  6
CONTINUOUS
 62
     7
 10
107.2
 20
201.4
 11
107.8
 21
201.9999999999999
  0
LINE
  8
1
  6
CONTINUOUS
 62
     7
 10
107.8
 20
202.0
 11
108.3612505430062
 21
202.0
  0
LINE
  8
1
  6
CONTINUOUS
 62
     7
 10
121.5656854249492
 20
196.2656854249492
 11
121.2
 21
195.8999999999999
  0
LINE
  8
1
  6
CONTINUOUS
 62
     7
 10
121.8
 20
200.4928932188134
 11
121.8
 21
196.8313708498985
  0
LINE
  8
1
  6
CONTINUOUS
 62
     7
 10
97.8
 20
196.8313708498985
 11
97.8
 21
200.4928932188135
  0
LINE
  8
1
  6
CONTINUOUS
 62
     7
 10
121.8
 20
183.1686291501015
 11
121.8
 21
179.5071067811865
  0
LINE
  8
1
  6
CONTINUOUS
 62
     7
 10
99.30710678118459
 20
201.9999999999983
 11
102.0
 21
201.9999999999995
  0
LINE
  8
1
  6
CONTINUOUS
 62
     7
 10
105.3
 20
201.4
 11
107.2
 21
201.4
  0
LINE
  8
1
  6
CONTINUOUS
 62
     7
 10
111.2387494569938
 20
202.0
 11
111.8
 21
202.0
  0
LINE
  8
1
  6
CONTINUOUS
 62
     7
 10
118.8
 20
199.0
 11
118.8
 21
193.0
  0
LINE
  8
1
  6
CONTINUOUS
 62
     7
 10
97.8
 20
179.5071067811866
 11
97.8
 21
183.1686291501015
  0
LINE
  8
1
  6
CONTINUOUS
 62
     7
 10
98.40000000000003
 20
192.6
 11
98.40000000000003
 21
195.9
  0
LINE
  8
1
  6
CONTINUOUS
 62
     7
 10
117.6
 20
202.0
 11
120.2928932188135
 21
202.0
  0
LINE
  8
1
  6
CONTINUOUS
 62
     7
 10
121.5656854249493
 20
187.7656854249492
 11
121.2
 21
187.3999999999999
  0
LINE
  8
1
  6
CONTINUOUS
 62
     7
 10
112.4
 20
201.4
 11
114.3
 21
201.4
  0
LINE
  8
1
  6
CONTINUOUS
 62
     7
 10
121.8
 20
188.5612505430062
 11
121.8
 21
188.3313708498985
  0
LINE
  8
1
  6
CONTINUOUS
 62
     7
 10
97.7
 20
174.5
 11
97.7
 21
180.25
  0
LINE
  8
1
  6
CONTINUOUS
 62
     7
 10
101.9997230655532
 20
194.7518977402129
 11
101.8652608154954
 21
195.3837551602899
  0
LINE
  8
1
  6
CONTINUOUS
 62
     7
 10
101.8652608154955
 20
195.3837551602899
 11
102.0
 21
195.3837551602899
  0
LINE
  8
1
  6
CONTINUOUS
 62
     7
 10
91.00000005207032
 20
182.449489753412
 11
91.0
 21
197.550510246588
  0
LINE
  8
1
  6
CONTINUOUS
 62
     7
 10
101.9350789973136
 20
196.7364824330171
 11
101.9997664176622
 21
197.0445991819662
  0
LINE
  8
1
  6
CONTINUOUS
 62
     7
 10
114.3
 20
200.1
 11
114.3
 21
202.1
  0
LINE
  8
1
  6
CONTINUOUS
 62
     7
 10
119.1
 20
174.5
 11
121.9
 21
174.5
  0
LINE
  8
1
  6
CONTINUOUS
 62
     7
 10
171.449489753412
 20
164.0000000520703
 11
178.5505102465881
 21
164.0
  0
LINE
  8
1
  6
CONTINUOUS
 62
     7
 10
121.9
 20
174.5
 11
121.9
 21
180.25
  0
LINE
  8
1
  6
CONTINUOUS
 62
     7
 10
88.99999999999997
 20
162.0
 11
88.99999999999997
 21
218.0
  0
LINE
  8
1
  6
CONTINUOUS
 62
     7
 10
182.5
 20
222.0
 11
176.8478647058504
 21
222.0
  0
LINE
  8
1
  6
CONTINUOUS
 62
     7
 10
146.550510246588
 20
215.9999999479297
 11
139.449489753412
 21
216.0
  0
LINE
  8
1
  6
CONTINUOUS
 62
     7
 10
183.0000000520703
 20
197.550510246588
 11
183.0
 21
182.449489753412
  0
LINE
  8
1
  6
CONTINUOUS
 62
     7
 10
102.0
 20
202.1
 11
102.0
 21
176.0
  0
LINE
  8
1
  6
CONTINUOUS
 62
     7
 10
97.7
 20
202.1
 11
102.0
 21
202.1
  0
LINE
  8
1
  6
CONTINUOUS
 62
     7
 10
114.550510246588
 20
164.0000000520703
 11
107.449489753412
 21
164.0
  0
LINE
  8
1
  6
CONTINUOUS
 62
     7
 10
97.7
 20
199.75
 11
97.7
 21
202.1
  0
LINE
  8
1
  6
CONTINUOUS
 62
     7
 10
185.0
 20
219.0
 11
185.0
 21
219.5
  0
LINE
  8
1
  6
CONTINUOUS
 62
     7
 10
184.0
 20
162.0
 11
88.99999999999997
 21
162.0
  0
LINE
  8
1
  6
CONTINUOUS
 62
     7
 10
173.0
 20
177.0
 11
177.0
 21
177.0
  0
LINE
  8
1
  6
CONTINUOUS
 62
     7
 10
114.550510246588
 20
215.9999999479297
 11
107.449489753412
 21
216.0
  0
LINE
  8
1
  6
CONTINUOUS
 62
     7
 10
178.0
 20
178.0
 11
178.0
 21
202.0
  0
LINE
  8
1
  6
CONTINUOUS
 62
     7
 10
114.5358942822461
 20
214.9999715754169
 11
107.4641057177539
 21
214.9999715754169
  0
LINE
  8
1
  6
CONTINUOUS
 62
     7
 10
124.6
 20
199.75
 11
124.6
 21
180.25
  0
LINE
  8
1
  6
CONTINUOUS
 62
     7
 10
171.4641057177539
 20
165.0000284245831
 11
178.5358942822461
 21
165.0000284245831
  0
LINE
  8
1
  6
CONTINUOUS
 62
     7
 10
121.9
 20
199.75
 11
121.9
 21
190.8485281374239
  0
LINE
  8
1
  6
CONTINUOUS
 62
     7
 10
146.550510246588
 20
164.0000000520703
 11
139.449489753412
 21
164.0
  0
LINE
  8
1
  6
CONTINUOUS
 62
     7
 10
95.00000000000003
 20
199.75
 11
95.00000000000003
 21
180.25
  0
LINE
  8
1
  6
CONTINUOUS
 62
     7
 10
102.0
 20
196.7364824330171
 11
101.9350789973136
 21
196.7364824330171
  0
LINE
  8
1
  6
CONTINUOUS
 62
     7
 10
185.0
 20
160.5
 11
185.0
 21
161.0
  0
LINE
  8
1
  6
CONTINUOUS
 62
     7
 10
87.50000000000001
 20
158.0
 11
182.5000000000001
 21
158.0
  0
LINE
  8
1
  6
CONTINUOUS
 62
     7
 10
171.449489753412
 20
215.9999999479297
 11
178.5505102465881
 21
216.0
  0
LINE
  8
1
  6
CONTINUOUS
 62
     7
 10
181.0
 20
180.0
 11
181.0
 21
163.9856235267131
  0
LINE
  8
1
  6
CONTINUOUS
 62
     7
 10
94.7
 20
199.75
 11
97.7
 21
199.75
  0
LINE
  8
1
  6
CONTINUOUS
 62
     7
 10
146.5358942822461
 20
214.9999715754169
 11
139.4641057177539
 21
214.9999715754169
  0
LINE
  8
1
  6
CONTINUOUS
 62
     7
 10
117.6
 20
202.1
 11
117.6
 21
176.0
  0
LINE
  8
1
  6
CONTINUOUS
 62
     7
 10
94.7
 20
180.25
 11
94.7
 21
199.75
  0
LINE
  8
1
  6
CONTINUOUS
 62
     7
 10
88.99999999999997
 20
218.0
 11
184.0
 21
218.0
  0
LINE
  8
1
  6
CONTINUOUS
 62
     7
 10
176.8478647058504
 20
222.0
 11
87.50000000000003
 21
222.0
  0
LINE
  8
1
  6
CONTINUOUS
 62
     7
 10
185.0
 20
161.0
 11
185.0
 21
219.0
  0
LINE
  8
1
  6
CONTINUOUS
 62
     7
 10
114.3
 20
202.1
 11
105.3
 21
202.1
  0
LINE
  8
1
  6
CONTINUOUS
 62
     7
 10
85.00000000000001
 20
219.5
 11
85.00000000000001
 21
160.5
  0
LINE
  8
1
  6
CONTINUOUS
 62
     7
 10
97.7
 20
180.25
 11
94.7
 21
180.25
  0
LINE
  8
1
  6
CONTINUOUS
 62
     7
 10
146.5358942822461
 20
165.0000284245831
 11
139.4641057177539
 21
165.0000284245831
  0
LINE
  8
1
  6
CONTINUOUS
 62
     7
 10
114.5358942822461
 20
165.0000284245831
 11
107.4641057177539
 21
165.0000284245831
  0
LINE
  8
1
  6
CONTINUOUS
 62
     7
 10
121.9
 20
199.75
 11
121.9
 21
202.1
  0
LINE
  8
1
  6
CONTINUOUS
 62
     7
 10
106.8
 20
198.6
 11
112.8
 21
198.6
  0
LINE
  8
1
  6
CONTINUOUS
 62
     7
 10
92.00000000000003
 20
197.5358983848622
 11
92.00000000000003
 21
182.4641016151378
  0
LINE
  8
1
  6
CONTINUOUS
 62
     7
 10
100.5
 20
174.5
 11
97.70000000000003
 21
174.5
  0
LINE
  8
1
  6
CONTINUOUS
 62
     7
 10
124.9
 20
180.25
 11
124.9
 21
199.75
  0
LINE
  8
1
  6
CONTINUOUS
 62
     7
 10
181.0
 20
180.0
 11
181.0
 21
200.0
  0
LINE
  8
1
  6
CONTINUOUS
 62
     7
 10
117.6
 20
202.1
 11
121.9
 21
202.1
  0
LINE
  8
1
  6
CONTINUOUS
 62
     7
 10
177.0
 20
203.0
 11
173.0
 21
203.0
  0
LINE
  8
1
  6
CONTINUOUS
 62
     7
 10
121.9
 20
180.25
 11
124.9
 21
180.25
  0
LINE
  8
1
  6
CONTINUOUS
 62
     7
 10
97.7
 20
199.75
 11
97.7
 21
190.8485281374239
  0
LINE
  8
1
  6
CONTINUOUS
 62
     7
 10
97.7
 20
189.1514718625761
 11
97.7
 21
180.25
  0
LINE
  8
1
  6
CONTINUOUS
 62
     7
 10
121.9
 20
199.75
 11
121.8
 21
199.75
  0
LINE
  8
1
  6
CONTINUOUS
 62
     7
 10
121.8
 20
180.25
 11
121.9
 21
180.25
  0
LINE
  8
1
  6
CONTINUOUS
 62
     7
 10
105.3
 20
202.1
 11
105.3
 21
200.1
  0
LINE
  8
1
  6
CONTINUOUS
 62
     7
 10
124.9
 20
199.75
 11
121.9
 21
199.75
  0
LINE
  8
1
  6
CONTINUOUS
 62
     7
 10
181.0
 20
216.0143764732869
 11
181.0
 21
200.0
  0
LINE
  8
1
  6
CONTINUOUS
 62
     7
 10
171.4641057177539
 20
214.9999715754169
 11
178.5358942822461
 21
214.9999715754169
  0
LINE
  8
1
  6
CONTINUOUS
 62
     7
 10
121.9
 20
189.1514718625761
 11
121.9
 21
180.25
  0
LINE
  8
1
  6
CONTINUOUS
 62
     7
 10
118.1
 20
176.0
 11
118.1
 21
178.0
  0
LINE
  8
1
  6
CONTINUOUS
 62
     7
 10
233.0
 20
193.75
 11
231.2
 21
193.75
  0
LINE
  8
1
  6
CONTINUOUS
 62
     7
 10
231.2
 20
192.75
 11
231.2
 21
193.75
  0
LINE
  8
1
  6
CONTINUOUS
 62
     7
 10
233.0
 20
192.75
 11
231.2
 21
192.75
  0
LINE
  8
1
  6
CONTINUOUS
 62
     7
 10
233.0
 20
192.75
 11
233.0
 21
193.75
  0
LINE
  8
1
  6
CONTINUOUS
 62
     7
 10
113.8
 20
201.4
 11
113.8
 21
202.1
  0
LINE
  8
1
  6
CONTINUOUS
 62
     7
 10
97.8
 20
180.25
 11
97.69999999999999
 21
180.25
  0
LINE
  8
1
  6
CONTINUOUS
 62
     7
 10
97.7
 20
199.75
 11
97.80000000000001
 21
199.75
  0
LINE
  8
1
  6
CONTINUOUS
 62
     7
 10
101.5
 20
201.9999999999992
 11
101.5
 21
202.1
  0
LINE
  8
1
  6
CONTINUOUS
 62
     7
 10
121.9
 20
175.0
 11
119.1
 21
175.0
  0
LINE
  8
1
  6
CONTINUOUS
 62
     7
 10
101.5
 20
176.0
 11
101.5
 21
178.0
  0
LINE
  8
1
  6
CONTINUOUS
 62
     7
 10
97.7
 20
175.0
 11
100.5
 21
175.0
  0
LINE
  8
1
  6
CONTINUOUS
 62
     7
 10
118.1
 20
202.0
 11
118.1
 21
202.1
  0
LINE
  8
1
  6
CONTINUOUS
 62
     7
 10
105.8
 20
202.1
 11
105.8
 21
201.4
  0
ARC
  8
1
  6
CONTINUOUS
 62
     7
 10
98.10000000000002
 20
191.4387494569938
 40
0.2999999999999947
 50
180.0
 51
244.0555202276295
  0
ARC
  8
1
  6
CONTINUOUS
 62
     7
 10
120.2928932188134
 20
201.5
 40
0.500000000000008
 50
45.00000000000113
 51
90.0
  0
ARC
  8
1
  6
CONTINUOUS
 62
     7
 10
121.0
 20
191.6686291501015
 40
0.7999999999999952
 50
0.0000000000019878
 51
44.99999999999649
  0
ARC
  8
1
  6
CONTINUOUS
 62
     7
 10
121.3
 20
200.4928932188134
 40
0.5000000000000004
 50
0.0
 51
45.00000000000113
  0
ARC
  8
1
  6
CONTINUOUS
 62
     7
 10
121.5
 20
191.4387494569938
 40
0.2999999999999928
 50
295.9444797723705
 51
0.0
  0
ARC
  8
1
  6
CONTINUOUS
 62
     7
 10
97.40000000000003
 20
190.0
 40
1.299999999999996
 50
287.9202131393922
 51
64.05552022763048
  0
ARC
  8
1
  6
CONTINUOUS
 62
     7
 10
122.2
 20
190.0
 40
1.299999999999989
 50
115.9444797723706
 51
244.0555202276306
  0
ARC
  8
1
  6
CONTINUOUS
 62
     7
 10
121.5
 20
188.5612505430062
 40
0.2999999999999947
 50
0.0
 51
64.05552022762946
  0
ARC
  8
1
  6
CONTINUOUS
 62
     7
 10
121.0
 20
188.3313708498985
 40
0.8000000000000108
 50
314.9999999999993
 51
0.0
  0
ARC
  8
1
  6
CONTINUOUS
 62
     7
 10
98.3
 20
200.4928932188134
 40
0.500000000000008
 50
134.9999999999989
 51
180.0
  0
ARC
  8
1
  6
CONTINUOUS
 62
     7
 10
108.3612505430062
 20
201.7
 40
0.2999999999999928
 50
25.94447977237056
 51
90.00000000000266
  0
ARC
  8
1
  6
CONTINUOUS
 62
     7
 10
111.2387494569938
 20
201.7
 40
0.2999999999999947
 50
90.0
 51
154.0555202276306
  0
ARC
  8
1
  6
CONTINUOUS
 62
     7
 10
121.0
 20
196.8313708498985
 40
0.7999999999999913
 50
315.0000000000007
 51
0.0
  0
ARC
  8
1
  6
CONTINUOUS
 62
     7
 10
98.60000000000002
 20
183.1686291501015
 40
0.7999999999999913
 50
135.0000000000007
 51
180.0
  0
ARC
  8
1
  6
CONTINUOUS
 62
     7
 10
98.60000000000002
 20
188.3313708498985
 40
0.7999999999999952
 50
180.0
 51
224.9999999999986
  0
ARC
  8
1
  6
CONTINUOUS
 62
     7
 10
98.60000000000002
 20
196.8313708498985
 40
0.7999999999999952
 50
180.0
 51
224.9999999999986
  0
ARC
  8
1
  6
CONTINUOUS
 62
     7
 10
98.60000000000002
 20
191.6686291501015
 40
0.7999999999999913
 50
135.0000000000007
 51
180.0
  0
ARC
  8
1
  6
CONTINUOUS
 62
     7
 10
99.30710678118481
 20
201.4999999999983
 40
0.5000000000000004
 50
90.00000000002544
 51
134.9999999999989
  0
ARC
  8
1
  6
CONTINUOUS
 62
     7
 10
109.8
 20
202.4
 40
1.300000000000002
 50
205.9444797723703
 51
334.0555202276296
  0
ARC
  8
1
  6
CONTINUOUS
 62
     7
 10
98.3
 20
179.5071067811866
 40
0.5000000000000004
 50
180.0
 51
224.9999999999989
  0
LINE
  8
1
  6
CONTINUOUS
 62
     7
 10
219.6
 20
218.0
 11
219.6
 21
219.0
  0
LINE
  8
1
  6
CONTINUOUS
 62
     7
 10
235.4
 20
186.2583426132259
 11
235.4
 21
186.2499999999999
  0
LINE
  8
1
  6
CONTINUOUS
 62
     7
 10
221.4
 20
197.550510246588
 11
221.4
 21
182.449489753412
  0
LINE
  8
1
  6
CONTINUOUS
 62
     7
 10
221.5
 20
216.0
 11
220.3
 21
216.0
  0
LINE
  8
1
  6
CONTINUOUS
 62
     7
 10
224.1
 20
204.3
 11
228.9
 21
204.3
  0
LINE
  8
1
  6
CONTINUOUS
 62
     7
 10
229.4
 20
203.8
 11
229.4
 21
200.25
  0
LINE
  8
1
  6
CONTINUOUS
 62
     7
 10
219.6
 20
161.0
 11
219.6
 21
162.0
  0
LINE
  8
1
  6
CONTINUOUS
 62
     7
 10
219.6
 20
222.0
 11
223.6
 21
222.0
  0
LINE
  8
1
  6
CONTINUOUS
 62
     7
 10
229.4
 20
199.25
 11
229.4
 21
180.75
  0
LINE
  8
1
  6
CONTINUOUS
 62
     7
 10
219.6
 20
162.0
 11
219.6
 21
218.0
  0
LINE
  8
1
  6
CONTINUOUS
 62
     7
 10
224.1
 20
160.5
 11
224.1
 21
158.5
  0
LINE
  8
1
  6
CONTINUOUS
 62
     7
 10
116.6313708498985
 20
113.2
 11
116.0656854249492
 21
113.2
  0
LINE
  8
1
  6
CONTINUOUS
 62
     7
 10
112.0343145750508
 20
113.2
 11
111.4686291501015
 21
113.2
  0
LINE
  8
1
  6
CONTINUOUS
 62
     7
 10
108.1313708498985
 20
113.2
 11
107.5656854249493
 21
113.2
  0
LINE
  8
1
  6
CONTINUOUS
 62
     7
 10
111.4686291501015
 20
113.2
 11
111.2387494569938
 21
113.2
  0
LINE
  8
1
  6
CONTINUOUS
 62
     7
 10
219.6
 20
160.5
 11
219.6
 21
161.0
  0
LINE
  8
1
  6
CONTINUOUS
 62
     7
 10
219.6
 20
219.5
 11
219.6
 21
222.0
  0
LINE
  8
1
  6
CONTINUOUS
 62
     7
 10
219.6
 20
219.0
 11
219.6
 21
219.5
  0
LINE
  8
1
  6
CONTINUOUS
 62
     7
 10
99.30710678118655
 20
113.2
 11
98.95355339059327
 21
113.2
  0
LINE
  8
1
  6
CONTINUOUS
 62
     7
 10
224.1
 20
219.5
 11
224.1
 21
160.5
  0
LINE
  8
1
  6
CONTINUOUS
 62
     7
 10
121.6535533905933
 20
113.2
 11
120.6464466094067
 21
113.2
  0
LINE
  8
1
  6
CONTINUOUS
 62
     7
 10
220.3
 20
164.0000000520703
 11
220.3
 21
162.0
  0
LINE
  8
1
  6
CONTINUOUS
 62
     7
 10
235.4
 20
193.7499999999999
 11
235.4
 21
186.2583426132259
  0
LINE
  8
1
  6
CONTINUOUS
 62
     7
 10
98.95355339059327
 20
113.2
 11
97.94644660940673
 21
113.2
  0
LINE
  8
1
  6
CONTINUOUS
 62
     7
 10
224.1
 20
221.5
 11
224.1
 21
219.5
  0
LINE
  8
1
  6
CONTINUOUS
 62
     7
 10
221.5
 20
164.0000000520703
 11
221.5
 21
162.0
  0
LINE
  8
1
  6
CONTINUOUS
 62
     7
 10
102.9686291501015
 20
113.2
 11
99.30710678118655
 21
113.2
  0
LINE
  8
1
  6
CONTINUOUS
 62
     7
 10
233.4
 20
189.9999999999999
 11
233.4
 21
193.7499999999999
  0
LINE
  8
1
  6
CONTINUOUS
 62
     7
 10
231.2
 20
193.7499999999999
 11
229.4
 21
193.7499999999999
  0
LINE
  8
1
  6
CONTINUOUS
 62
     7
 10
221.9
 20
218.0
 11
219.6
 21
218.0
  0
LINE
  8
1
  6
CONTINUOUS
 62
     7
 10
221.9
 20
161.0
 11
221.9
 21
219.0
  0
LINE
  8
1
  6
CONTINUOUS
 62
     7
 10
219.6
 20
158.0
 11
219.6
 21
160.5
  0
LINE
  8
1
  6
CONTINUOUS
 62
     7
 10
233.4
 20
193.7499999999999
 11
233.0
 21
193.75
  0
LINE
  8
1
  6
CONTINUOUS
 62
     7
 10
221.4
 20
182.449489753412
 11
221.4
 21
180.0
  0
LINE
  8
1
  6
CONTINUOUS
 62
     7
 10
221.5
 20
164.0
 11
220.3
 21
164.0
  0
LINE
  8
1
  6
CONTINUOUS
 62
     7
 10
220.3
 20
215.9999999479297
 11
220.3
 21
218.0
  0
LINE
  8
1
  6
CONTINUOUS
 62
     7
 10
228.9
 20
199.75
 11
227.45
 21
199.75
  0
LINE
  8
1
  6
CONTINUOUS
 62
     7
 10
220.3
 20
180.0
 11
220.3
 21
182.449489753412
  0
LINE
  8
1
  6
CONTINUOUS
 62
     7
 10
221.4
 20
200.0
 11
220.3
 21
200.0
  0
LINE
  8
1
  6
CONTINUOUS
 62
     7
 10
220.3
 20
197.550510246588
 11
220.3
 21
200.0
  0
LINE
  8
1
  6
CONTINUOUS
 62
     7
 10
221.5
 20
215.9999999479297
 11
221.5
 21
218.0
  0
LINE
  8
1
  6
CONTINUOUS
 62
     7
 10
221.9
 20
200.0
 11
221.4
 21
200.0
  0
LINE
  8
1
  6
CONTINUOUS
 62
     7
 10
226.95
 20
199.25
 11
226.95
 21
180.75
  0
LINE
  8
1
  6
CONTINUOUS
 62
     7
 10
231.2
 20
190.0000000000005
 11
231.2
 21
192.75
  0
LINE
  8
1
  6
CONTINUOUS
 62
     7
 10
229.4
 20
200.25
 11
229.4
 21
199.25
  0
LINE
  8
1
  6
CONTINUOUS
 62
     7
 10
220.3
 20
182.449489753412
 11
220.3
 21
197.550510246588
  0
LINE
  8
1
  6
CONTINUOUS
 62
     7
 10
223.6
 20
158.0
 11
219.6
 21
158.0
  0
LINE
  8
1
  6
CONTINUOUS
 62
     7
 10
221.9
 20
180.0
 11
221.4
 21
180.0
  0
LINE
  8
1
  6
CONTINUOUS
 62
     7
 10
229.4
 20
179.75
 11
229.4
 21
175.5
  0
LINE
  8
1
  6
CONTINUOUS
 62
     7
 10
221.4
 20
200.0
 11
221.4
 21
197.550510246588
  0
LINE
  8
1
  6
CONTINUOUS
 62
     7
 10
228.9
 20
175.0
 11
224.1
 21
175.0
  0
LINE
  8
1
  6
CONTINUOUS
 62
     7
 10
229.4
 20
180.75
 11
229.4
 21
179.75
  0
LINE
  8
1
  6
CONTINUOUS
 62
     7
 10
221.4
 20
180.0
 11
220.3
 21
180.0
  0
LINE
  8
1
  6
CONTINUOUS
 62
     7
 10
108.6310160661925
 20
113.2
 11
108.3612505430062
 21
113.2
  0
LINE
  8
1
  6
CONTINUOUS
 62
     7
 10
111.2387494569938
 20
113.2
 11
110.9689839338075
 21
113.2
  0
LINE
  8
1
  6
CONTINUOUS
 62
     7
 10
103.5343145750508
 20
113.2
 11
102.9686291501015
 21
113.2
  0
LINE
  8
1
  6
CONTINUOUS
 62
     7
 10
120.6464466094067
 20
113.2
 11
120.2928932188135
 21
113.2
  0
LINE
  8
1
  6
CONTINUOUS
 62
     7
 10
120.2928932188135
 20
113.2
 11
116.6313708498985
 21
113.2
  0
LINE
  8
1
  6
CONTINUOUS
 62
     7
 10
108.3612505430062
 20
113.2
 11
108.1313708498985
 21
113.2
  0
LINE
  8
1
  6
CONTINUOUS
 62
     7
 10
227.45
 20
180.25
 11
228.9
 21
180.25
  0
LINE
  8
1
  6
CONTINUOUS
 62
     7
 10
219.6
 20
162.0
 11
221.9
 21
162.0
  0
LINE
  8
1
  6
CONTINUOUS
 62
     7
 10
235.4
 20
186.2499999999999
 11
231.7
 21
186.2500000000004
  0
LINE
  8
1
  6
CONTINUOUS
 62
     7
 10
233.4
 20
193.7499999999999
 11
235.4
 21
193.7499999999999
  0
LINE
  8
1
  6
CONTINUOUS
 62
     7
 10
231.7
 20
186.2500000000005
 11
229.4
 21
186.2500000000003
  0
LINE
  8
1
  6
CONTINUOUS
 62
     7
 10
182.5
 20
120.4
 11
185.0
 21
120.4
  0
LINE
  8
1
  6
CONTINUOUS
 62
     7
 10
121.8
 20
115.9
 11
121.8
 21
113.2
  0
LINE
  8
1
  6
CONTINUOUS
 62
     7
 10
101.75
 20
106.6
 11
101.75
 21
107.0
  0
LINE
  8
1
  6
CONTINUOUS
 62
     7
 10
115.7
 20
115.9
 11
115.7
 21
113.2
  0
LINE
  8
1
  6
CONTINUOUS
 62
     7
 10
117.85
 20
107.0
 11
118.05
 21
107.0
  0
LINE
  8
1
  6
CONTINUOUS
 62
     7
 10
182.5
 20
115.9
 11
87.49999999999999
 21
115.9
  0
LINE
  8
1
  6
CONTINUOUS
 62
     7
 10
87.49999999999999
 20
115.9
 11
85.49999999999999
 21
115.9
  0
LINE
  8
1
  6
CONTINUOUS
 62
     7
 10
185.0
 20
120.4
 11
185.0
 21
116.4
  0
LINE
  8
1
  6
CONTINUOUS
 62
     7
 10
84.99999999999999
 20
116.4
 11
84.99999999999999
 21
120.4
  0
LINE
  8
1
  6
CONTINUOUS
 62
     7
 10
97.80000000000001
 20
113.2
 11
97.80000000000001
 21
115.9
  0
LINE
  8
1
  6
CONTINUOUS
 62
     7
 10
100.5
 20
110.6
 11
95.50000000000001
 21
110.6
  0
LINE
  8
1
  6
CONTINUOUS
 62
     7
 10
184.5
 20
115.9
 11
182.5
 21
115.9
  0
LINE
  8
1
  6
CONTINUOUS
 62
     7
 10
118.05
 20
107.0
 11
118.05
 21
108.8
  0
LINE
  8
1
  6
CONTINUOUS
 62
     7
 10
87.49999999999999
 20
120.4
 11
182.5
 21
120.4
  0
LINE
  8
1
  6
CONTINUOUS
 62
     7
 10
114.1
 20
108.3
 11
110.0
 21
108.3
  0
LINE
  8
1
  6
CONTINUOUS
 62
     7
 10
118.1
 20
111.1
 11
118.1
 21
113.05
  0
LINE
  8
1
  6
CONTINUOUS
 62
     7
 10
117.85
 20
106.6
 11
114.35
 21
104.6
  0
LINE
  8
1
  6
CONTINUOUS
 62
     7
 10
118.1
 20
113.05
 11
119.1
 21
113.05
  0
LINE
  8
1
  6
CONTINUOUS
 62
     7
 10
97.94644660940673
 20
113.2
 11
97.80000000000001
 21
113.2
  0
LINE
  8
1
  6
CONTINUOUS
 62
     7
 10
95.0
 20
111.1
 11
95.00000000000001
 21
115.9
  0
LINE
  8
1
  6
CONTINUOUS
 62
     7
 10
101.55
 20
107.0
 11
101.75
 21
107.0
  0
LINE
  8
1
  6
CONTINUOUS
 62
     7
 10
121.9
 20
115.9
 11
121.9
 21
113.05
  0
LINE
  8
1
  6
CONTINUOUS
 62
     7
 10
97.7
 20
113.05
 11
100.5
 21
113.05
  0
LINE
  8
1
  6
CONTINUOUS
 62
     7
 10
101.5
 20
113.05
 11
101.5
 21
111.1
  0
LINE
  8
1
  6
CONTINUOUS
 62
     7
 10
119.1
 20
110.6
 11
118.6
 21
110.6
  0
LINE
  8
1
  6
CONTINUOUS
 62
     7
 10
113.75
 20
108.6947236318099
 11
113.2467375879228
 21
108.5636634858666
  0
LINE
  8
1
  6
CONTINUOUS
 62
     7
 10
100.5
 20
113.05
 11
101.5
 21
113.05
  0
LINE
  8
1
  6
CONTINUOUS
 62
     7
 10
107.5656854249493
 20
113.2
 11
107.2
 21
113.2
  0
LINE
  8
1
  6
CONTINUOUS
 62
     7
 10
151.3410403409091
 20
115.9
 11
151.3410403409091
 21
115.7
  0
LINE
  8
1
  6
CONTINUOUS
 62
     7
 10
101.0
 20
110.6
 11
100.5
 21
110.6
  0
LINE
  8
1
  6
CONTINUOUS
 62
     7
 10
108.6310160661925
 20
113.2
 11
110.9689839338075
 21
113.2
  0
LINE
  8
1
  6
CONTINUOUS
 62
     7
 10
103.9
 20
113.2
 11
103.5343145750508
 21
113.2
  0
LINE
  8
1
  6
CONTINUOUS
 62
     7
 10
107.2
 20
113.2
 11
103.9
 21
113.2
  0
LINE
  8
1
  6
CONTINUOUS
 62
     7
 10
105.85
 20
108.8
 11
105.85
 21
113.2
  0
LINE
  8
1
  6
CONTINUOUS
 62
     7
 10
101.55
 20
107.0
 11
101.55
 21
108.8
  0
LINE
  8
1
  6
CONTINUOUS
 62
     7
 10
113.75
 20
108.6947236318099
 11
113.75
 21
113.2
  0
LINE
  8
1
  6
CONTINUOUS
 62
     7
 10
121.9
 20
113.05
 11
119.1
 21
113.05
  0
LINE
  8
1
  6
CONTINUOUS
 62
     7
 10
112.4
 20
113.2
 11
112.0343145750508
 21
113.2
  0
LINE
  8
1
  6
CONTINUOUS
 62
     7
 10
150.9178948863637
 20
115.9
 11
150.9178948863637
 21
115.7
  0
LINE
  8
1
  6
CONTINUOUS
 62
     7
 10
149.5684039772727
 20
115.9
 11
149.5684039772727
 21
115.7
  0
LINE
  8
1
  6
CONTINUOUS
 62
     7
 10
107.2
 20
115.9
 11
107.2
 21
113.2
  0
LINE
  8
1
  6
CONTINUOUS
 62
     7
 10
117.85
 20
108.8
 11
117.85
 21
106.6
  0
LINE
  8
1
  6
CONTINUOUS
 62
     7
 10
124.1
 20
110.6
 11
119.1
 21
110.6
  0
LINE
  8
1
  6
CONTINUOUS
 62
     7
 10
115.7
 20
113.2
 11
112.4
 21
113.2
  0
LINE
  8
1
  6
CONTINUOUS
 62
     7
 10
103.9
 20
115.9
 11
103.9
 21
113.2
  0
LINE
  8
1
  6
CONTINUOUS
 62
     7
 10
149.1452585227273
 20
115.9
 11
149.1452585227273
 21
115.7
  0
LINE
  8
1
  6
CONTINUOUS
 62
     7
 10
149.1452585227273
 20
115.7
 11
149.5684039772727
 21
115.7
  0
LINE
  8
1
  6
CONTINUOUS
 62
     7
 10
145.0281676136364
 20
115.7
 11
145.2568948863637
 21
115.7
  0
LINE
  8
1
  6
CONTINUOUS
 62
     7
 10
145.0281676136364
 20
115.9
 11
145.0281676136364
 21
115.7
  0
LINE
  8
1
  6
CONTINUOUS
 62
     7
 10
117.77212557978
 20
108.7567184078825
 11
117.85
 21
108.8
  0
LINE
  8
1
  6
CONTINUOUS
 62
     7
 10
112.4
 20
115.9
 11
112.4
 21
113.2
  0
LINE
  8
1
  6
CONTINUOUS
 62
     7
 10
101.55
 20
108.8
 11
105.85
 21
108.8
  0
LINE
  8
1
  6
CONTINUOUS
 62
     7
 10
147.8643857954546
 20
115.7
 11
148.0931130681818
 21
115.7
  0
LINE
  8
1
  6
CONTINUOUS
 62
     7
 10
84.99999999999999
 20
120.4
 11
87.49999999999999
 21
120.4
  0
LINE
  8
1
  6
CONTINUOUS
 62
     7
 10
116.0656854249492
 20
113.2
 11
115.7
 21
113.2
  0
LINE
  8
1
  6
CONTINUOUS
 62
     7
 10
117.85
 20
108.8
 11
118.05
 21
108.8
  0
LINE
  8
1
  6
CONTINUOUS
 62
     7
 10
97.7
 20
115.9
 11
97.7
 21
113.05
  0
LINE
  8
1
  6
CONTINUOUS
 62
     7
 10
105.25
 20
104.6
 11
114.1
 21
104.6
  0
LINE
  8
1
  6
CONTINUOUS
 62
     7
 10
117.85
 20
108.8
 11
113.75
 21
108.8000000000001
  0
LINE
  8
1
  6
CONTINUOUS
 62
     7
 10
101.75
 20
106.6
 11
105.25
 21
104.6
  0
LINE
  8
1
  6
CONTINUOUS
 62
     7
 10
124.6
 20
115.9
 11
124.6
 21
111.1
  0
LINE
  8
1
  6
CONTINUOUS
 62
     7
 10
121.8
 20
113.2
 11
121.6535533905933
 21
113.2
  0
LINE
  8
1
  6
CONTINUOUS
 62
     7
 10
114.35
 20
104.6
 11
114.1
 21
104.6
  0
LINE
  8
1
  6
CONTINUOUS
 62
     7
 10
150.9178948863637
 20
115.7
 11
151.3410403409091
 21
115.7
  0
LINE
  8
1
  6
CONTINUOUS
 62
     7
 10
143.4385130681818
 20
115.9
 11
143.4385130681818
 21
115.7
  0
LINE
  8
1
  6
CONTINUOUS
 62
     7
 10
143.375
 20
115.7
 11
142.625
 21
115.7
  0
LINE
  8
1
  6
CONTINUOUS
 62
     7
 10
114.3
 20
113.05
 11
114.3
 21
113.2
  0
LINE
  8
1
  6
CONTINUOUS
 62
     7
 10
143.4340762130978
 20
115.7
 11
143.375
 21
115.7
  0
LINE
  8
1
  6
CONTINUOUS
 62
     7
 10
121.9
 20
113.1
 11
121.3
 21
113.1
  0
LINE
  8
1
  6
CONTINUOUS
 62
     7
 10
105.8
 20
113.05
 11
105.85
 21
113.05
  0
LINE
  8
1
  6
CONTINUOUS
 62
     7
 10
104.4699240762155
 20
113.05
 11
103.8191327027595
 21
113.05
  0
LINE
  8
1
  6
CONTINUOUS
 62
     7
 10
137.4715903440471
 20
115.7
 11
139.60733125
 21
115.7
  0
LINE
  8
1
  6
CONTINUOUS
 62
     7
 10
145.2568948863637
 20
115.7
 11
145.2568948863637
 21
115.9
  0
LINE
  8
1
  6
CONTINUOUS
 62
     7
 10
134.5982039772727
 20
115.9
 11
134.5982039772727
 21
115.7
  0
LINE
  8
1
  6
CONTINUOUS
 62
     7
 10
116.2
 20
113.05
 11
115.7808672972405
 21
113.05
  0
LINE
  8
1
  6
CONTINUOUS
 62
     7
 10
105.8
 20
111.1
 11
105.8
 21
113.05
  0
LINE
  8
1
  6
CONTINUOUS
 62
     7
 10
134.5982039772727
 20
115.7
 11
134.82693125
 21
115.7
  0
LINE
  8
1
  6
CONTINUOUS
 62
     7
 10
137.4715903409091
 20
115.9
 11
137.4715903409091
 21
115.7
  0
LINE
  8
1
  6
CONTINUOUS
 62
     7
 10
121.9
 20
115.6
 11
121.8
 21
115.6
  0
LINE
  8
1
  6
CONTINUOUS
 62
     7
 10
104.4699240762155
 20
113.05
 11
105.3
 21
113.05
  0
LINE
  8
1
  6
CONTINUOUS
 62
     7
 10
113.75
 20
113.05
 11
113.8
 21
113.05
  0
LINE
  8
1
  6
CONTINUOUS
 62
     7
 10
139.60733125
 20
115.7
 11
139.60733125
 21
115.9
  0
LINE
  8
1
  6
CONTINUOUS
 62
     7
 10
137.375
 20
115.9
 11
137.375
 21
115.7
  0
LINE
  8
1
  6
CONTINUOUS
 62
     7
 10
103.4
 20
113.05
 11
103.4
 21
113.2
  0
LINE
  8
1
  6
CONTINUOUS
 62
     7
 10
105.3
 20
113.05
 11
105.8
 21
113.05
  0
LINE
  8
1
  6
CONTINUOUS
 62
     7
 10
101.5
 20
113.05
 11
103.4
 21
113.05
  0
LINE
  8
1
  6
CONTINUOUS
 62
     7
 10
149.0872357131953
 20
115.9
 11
149.0872357131953
 21
115.7
  0
LINE
  8
1
  6
CONTINUOUS
 62
     7
 10
142.6379676136364
 20
115.7
 11
142.6379676136364
 21
115.9
  0
LINE
  8
1
  6
CONTINUOUS
 62
     7
 10
134.82693125
 20
115.9
 11
134.82693125
 21
115.7
  0
LINE
  8
1
  6
CONTINUOUS
 62
     7
 10
140.2820767045455
 20
115.9
 11
140.2820767045455
 21
115.7
  0
LINE
  8
1
  6
CONTINUOUS
 62
     7
 10
121.3
 20
113.2
 11
121.3
 21
113.1
  0
LINE
  8
1
  6
CONTINUOUS
 62
     7
 10
149.0872357150725
 20
115.7
 11
149.1160064168319
 21
115.7
  0
LINE
  8
1
  6
CONTINUOUS
 62
     7
 10
151.3410403409091
 20
115.7
 11
151.3676312736646
 21
115.7
  0
LINE
  8
1
  6
CONTINUOUS
 62
     7
 10
146.5835130681818
 20
115.7
 11
147.8643857954546
 21
115.7
  0
LINE
  8
1
  6
CONTINUOUS
 62
     7
 10
143.4385131848577
 20
115.7
 11
145.0281676136364
 21
115.7
  0
LINE
  8
1
  6
CONTINUOUS
 62
     7
 10
146.4113144204646
 20
115.7
 11
145.2645388519657
 21
115.7
  0
LINE
  8
1
  6
CONTINUOUS
 62
     7
 10
134.82693125
 20
115.7
 11
136.3822767045454
 21
115.7
  0
LINE
  8
1
  6
CONTINUOUS
 62
     7
 10
148.625
 20
115.9
 11
148.625
 21
115.7
  0
LINE
  8
1
  6
CONTINUOUS
 62
     7
 10
116.2
 20
113.05
 11
116.2
 21
113.2
  0
LINE
  8
1
  6
CONTINUOUS
 62
     7
 10
148.0931130681818
 20
115.7
 11
148.0931130681818
 21
115.9
  0
LINE
  8
1
  6
CONTINUOUS
 62
     7
 10
151.399063150441
 20
115.7
 11
151.399063150441
 21
115.9
  0
LINE
  8
1
  6
CONTINUOUS
 62
     7
 10
98.3
 20
113.1
 11
98.3
 21
113.2
  0
LINE
  8
1
  6
CONTINUOUS
 62
     7
 10
97.7
 20
113.1
 11
98.3
 21
113.1
  0
LINE
  8
1
  6
CONTINUOUS
 62
     7
 10
113.8
 20
113.05
 11
113.8
 21
111.1
  0
LINE
  8
1
  6
CONTINUOUS
 62
     7
 10
140.2820767045455
 20
115.7
 11
142.6379676136364
 21
115.7
  0
LINE
  8
1
  6
CONTINUOUS
 62
     7
 10
148.625
 20
115.7
 11
148.3033008588991
 21
115.7
  0
LINE
  8
1
  6
CONTINUOUS
 62
     7
 10
148.3033008588991
 20
115.7
 11
148.1007570337839
 21
115.7
  0
LINE
  8
1
  6
CONTINUOUS
 62
     7
 10
146.4119678279317
 20
115.7
 11
146.5822166818384
 21
115.7
  0
LINE
  8
1
  6
CONTINUOUS
 62
     7
 10
149.5684039772727
 20
115.7
 11
150.9178948863637
 21
115.7
  0
LINE
  8
1
  6
CONTINUOUS
 62
     7
 10
147.8643857954546
 20
115.9
 11
147.8643857954546
 21
115.7
  0
LINE
  8
1
  6
CONTINUOUS
 62
     7
 10
115.1300759237845
 20
113.05
 11
114.3
 21
113.05
  0
LINE
  8
1
  6
CONTINUOUS
 62
     7
 10
105.3
 20
113.05
 11
105.3
 21
113.2
  0
LINE
  8
1
  6
CONTINUOUS
 62
     7
 10
148.3033008588991
 20
115.9
 11
148.3033008588991
 21
115.7
  0
LINE
  8
1
  6
CONTINUOUS
 62
     7
 10
97.7
 20
115.6
 11
97.80000000000001
 21
115.6
  0
LINE
  8
1
  6
CONTINUOUS
 62
     7
 10
115.7808672972405
 20
113.05
 11
115.1300759237845
 21
113.05
  0
LINE
  8
1
  6
CONTINUOUS
 62
     7
 10
116.2
 20
113.05
 11
118.1
 21
113.05
  0
LINE
  8
1
  6
CONTINUOUS
 62
     7
 10
149.1160064168319
 20
115.7
 11
149.1452585227273
 21
115.7
  0
LINE
  8
1
  6
CONTINUOUS
 62
     7
 10
136.6110039772727
 20
115.7
 11
136.6110039772727
 21
115.9
  0
LINE
  8
1
  6
CONTINUOUS
 62
     7
 10
140.268049839659
 20
115.7
 11
139.6139659068512
 21
115.7
  0
LINE
  8
1
  6
CONTINUOUS
 62
     7
 10
151.3676312736646
 20
115.7
 11
151.399063149855
 21
115.7
  0
LINE
  8
1
  6
CONTINUOUS
 62
     7
 10
136.3822767045454
 20
115.9
 11
136.3822767045454
 21
115.7
  0
LINE
  8
1
  6
CONTINUOUS
 62
     7
 10
146.5835130681818
 20
115.9
 11
146.5835130681818
 21
115.7
  0
LINE
  8
1
  6
CONTINUOUS
 62
     7
 10
146.4119677849798
 20
115.9
 11
146.4119677849798
 21
115.7
  0
LINE
  8
1
  6
CONTINUOUS
 62
     7
 10
136.3822767045454
 20
115.7
 11
136.6110039772727
 21
115.7
  0
LINE
  8
1
  6
CONTINUOUS
 62
     7
 10
113.8
 20
113.05
 11
114.3
 21
113.05
  0
LINE
  8
1
  6
CONTINUOUS
 62
     7
 10
143.375
 20
115.9
 11
143.375
 21
115.7
  0
LINE
  8
1
  6
CONTINUOUS
 62
     7
 10
137.4541870242676
 20
115.7
 11
137.375
 21
115.7
  0
LINE
  8
1
  6
CONTINUOUS
 62
     7
 10
103.4
 20
113.05
 11
103.8191327027595
 21
113.05
  0
LINE
  8
1
  6
CENTER
 62
     1
 10
135.0
 20
155.0
 11
135.0
 21
225.0
  0
LINE
  8
1
  6
CENTER
 62
     1
 10
81.99999999999999
 20
190.0
 11
188.0
 21
190.0
  0
LINE
  8
1
  6
CENTER
 62
     1
 10
216.6
 20
190.0
 11
238.4
 21
190.0
  0
LINE
  8
1
  6
CENTER
 62
     1
 10
135.0
 20
101.6
 11
135.0
 21
123.4
  0
ENDSEC
  0
EOF
