  0
SECTION
  2
HEADER
  9
$ACADVER
  1
AC1004
  9
$INSBASE
 10
0.0
 20
0.0
  9
$EXTMIN
 10
-298.0
 20
91.17045454545452
  9
$EXTMAX
 10
-142.325
 20
227.5
  9
$LIMMIN
 10
0.0
 20
0.0
  9
$LIMMAX
 10
12.0
 20
9.0
  9
$ORTHOMODE
 70
     0
  9
$REGENMODE
 70
     1
  9
$FILLMODE
 70
     1
  9
$QTEXTMODE
 70
     0
  9
$DRAGMODE
 70
     2
  9
$LTSCALE
 40
1.0
  9
$OSMODE
 70
    37
  9
$ATTMODE
 70
     1
  9
$TEXTSIZE
 40
0.2
  9
$TRACEWID
 40
0.05
  9
$TEXTSTYLE
  7
STANDARD
  9
$CLAYER
  8
0
  9
$CELTYPE
  6
BYLAYER
  9
$CECOLOR
 62
   256
  9
$DIMSCALE
 40
1.0
  9
$DIMASZ
 40
3.0
  9
$DIMEXO
 40
0.0625
  9
$DIMDLI
 40
0.38
  9
$DIMRND
 40
0.0
  9
$DIMDLE
 40
0.0
  9
$DIMEXE
 40
1.5
  9
$DIMTP
 40
0.0
  9
$DIMTM
 40
0.0
  9
$DIMTXT
 40
3.0
  9
$DIMCEN
 40
0.09
  9
$DIMTSZ
 40
0.0
  9
$DIMTOL
 70
     0
  9
$DIMLIM
 70
     0
  9
$DIMTIH
 70
     1
  9
$DIMTOH
 70
     1
  9
$DIMSE1
 70
     0
  9
$DIMSE2
 70
     0
  9
$DIMTAD
 70
     1
  9
$DIMZIN
 70
     0
  9
$DIMBLK
  1

  9
$DIMASO
 70
     1
  9
$DIMSHO
 70
     1
  9
$DIMPOST
  1

  9
$DIMAPOST
  1

  9
$DIMALT
 70
     0
  9
$DIMALTD
 70
     2
  9
$DIMALTF
 40
25.4
  9
$DIMLFAC
 40
1.0
  9
$DIMTOFL
 70
     0
  9
$DIMTVP
 40
0.0
  9
$DIMTIX
 70
     0
  9
$DIMSOXD
 70
     0
  9
$DIMSAH
 70
     0
  9
$DIMBLK1
  1

  9
$DIMBLK2
  1

  9
$LUNITS
 70
     2
  9
$LUPREC
 70
     4
  9
$SKETCHINC
 40
0.1
  9
$FILLETRAD
 40
0.5
  9
$AUNITS
 70
     0
  9
$AUPREC
 70
     0
  9
$MENU
  1
.
  9
$ELEVATION
 40
0.0
  9
$THICKNESS
 40
0.0
  9
$LIMCHECK
 70
     0
  9
$CHAMFERA
 40
0.0
  9
$CHAMFERB
 40
0.0
  9
$SKPOLY
 70
     0
  9
$TDCREATE
 40
2459695.734935683
  9
$TDUPDATE
 40
2459695.734936331
  9
$TDINDWG
 40
0.0000000116
  9
$TDUSRTIMER
 40
0.0000000116
  9
$USRTIMER
 70
     1
  9
$ANGBASE
 50
0.0
  9
$ANGDIR
 70
     0
  9
$PDMODE
 70
     0
  9
$PDSIZE
 40
0.0
  9
$PLINEWID
 40
0.0
  9
$COORDS
 70
     1
  9
$SPLFRAME
 70
     0
  9
$SPLINETYPE
 70
     6
  9
$SPLINESEGS
 70
     8
  9
$ATTDIA
 70
     0
  9
$ATTREQ
 70
     1
  9
$SURFTAB1
 70
     6
  9
$SURFTAB2
 70
     6
  9
$SURFTYPE
 70
     6
  9
$SURFU
 70
     6
  9
$SURFV
 70
     6
  9
$UCSNAME
  2

  9
$UCSORG
 10
0.0
 20
0.0
 30
0.0
  9
$UCSXDIR
 10
1.0
 20
0.0
 30
0.0
  9
$UCSYDIR
 10
0.0
 20
1.0
 30
0.0
  9
$USERI1
 70
     0
  9
$USERI2
 70
     0
  9
$USERI3
 70
     0
  9
$USERI4
 70
     0
  9
$USERI5
 70
     0
  9
$USERR1
 40
0.0
  9
$USERR2
 40
0.0
  9
$USERR3
 40
0.0
  9
$USERR4
 40
0.0
  9
$USERR5
 40
0.0
  9
$WORLDVIEW
 70
     1
  0
ENDSEC
  0
SECTION
  2
TABLES
  0
TABLE
  2
LTYPE
 70
     2
  0
LTYPE
  2
CONTINUOUS
 70
     0
  3
Solid line
 72
    65
 73
     0
 40
0.0
  0
LTYPE
  2
CENTER
 70
     0
  3

 72
    65
 73
     0
 40
0.0
  0
ENDTAB
  0
TABLE
  2
LAYER
 70
     2
  0
LAYER
  2
0
 70
     0
 62
     7
  6
CONTINUOUS
  0
LAYER
  2
1
 70
     0
 62
     7
  6
CONTINUOUS
  0
ENDTAB
  0
TABLE
  2
STYLE
 70
     2
  0
STYLE
  2
STANDARD
 70
     0
 40
0.0
 41
1.0
 50
0.0
 71
     0
 42
0.2
  3
txt
  4

  0
STYLE
  2
ＭＳ_ゴシック
 70
     0
 40
0.0
 41
1.0
 50
0.0
 71
     0
 42
0.2
  3
ＭＳ ゴシック.shx
  4

  0
ENDTAB
  0
TABLE
  2
VIEW
 70
     0
  0
ENDTAB
  0
ENDSEC
  0
SECTION
  2
BLOCKS
  0
ENDSEC
  0
SECTION
  2
ENTITIES
  0
TEXT
  8
1
  6
CONTINUOUS
 62
     7
 10
-204.4427316493685
 20
90.82842003251217
 40
3.0
  1
AFP-CH40MSY
  0
ARC
  8
1
  6
CONTINUOUS
 62
     7
 10
-233.449489753412
 20
164.0000000520703
 40
2.500000000000011
 50
11.53695781484359
 51
90.00000000000001
  0
ARC
  8
1
  6
CONTINUOUS
 62
     7
 10
-240.5358942822461
 20
164.0000284245831
 40
3.500000000000003
 50
90.0
 51
171.7872594368027
  0
ARC
  8
1
  6
CONTINUOUS
 62
     7
 10
-272.5358942822461
 20
164.0000284245831
 40
3.500000000000003
 50
90.0
 51
171.7872594368026
  0
ARC
  8
1
  6
CONTINUOUS
 62
     7
 10
-265.0581985230259
 20
127.5179374467653
 40
16.19319766649035
 50
269.6751805624281
 51
286.4990756774045
  0
ARC
  8
1
  6
CONTINUOUS
 62
     7
 10
-282.6
 20
192.5
 40
0.9000000000000151
 50
289.4712206344918
 51
70.52877936550817
  0
ARC
  8
1
  6
CONTINUOUS
 62
     7
 10
-195.5
 20
123.175
 40
0.5000000000000004
 50
270.0
 51
0.0
  0
ARC
  8
1
  6
CONTINUOUS
 62
     7
 10
-156.825
 20
183.25
 40
0.5000000000000004
 50
180.0
 51
270.0
  0
ARC
  8
1
  6
CONTINUOUS
 62
     7
 10
-273.2
 20
202.6
 40
1.500000000000001
 50
180.0
 51
270.0
  0
ARC
  8
1
  6
CONTINUOUS
 62
     7
 10
-207.0
 20
192.5
 40
13.00000000000001
 50
90.0
 51
270.0
  0
ARC
  8
1
  6
CONTINUOUS
 62
     7
 10
-233.4641057177539
 20
164.0000284245831
 40
3.500000000000004
 50
8.212740563197357
 51
90.00000000000001
  0
ARC
  8
1
  6
CONTINUOUS
 62
     7
 10
-201.4641057177539
 20
220.9999715754169
 40
3.500000000000004
 50
314.7512489465532
 51
351.7872594368027
  0
ARC
  8
1
  6
CONTINUOUS
 62
     7
 10
-208.5358942822461
 20
164.0000284245831
 40
3.500000000000003
 50
90.0
 51
171.7872594368027
  0
ARC
  8
1
  6
CONTINUOUS
 62
     7
 10
-257.8
 20
192.5
 40
0.9000000000000151
 50
109.4712206344919
 51
250.5287793655081
  0
ARC
  8
1
  6
CONTINUOUS
 62
     7
 10
-155.375
 20
202.75
 40
0.5000000000000004
 50
270.0
 51
0.0
  0
ARC
  8
1
  6
CONTINUOUS
 62
     7
 10
-260.9
 20
178.5
 40
1.000000000000001
 50
180.0
 51
270.0
  0
ARC
  8
1
  6
CONTINUOUS
 62
     7
 10
-201.4641057177539
 20
164.0000284245831
 40
3.500000000000004
 50
45.24875105344685
 51
90.0
  0
ARC
  8
1
  6
CONTINUOUS
 62
     7
 10
-269.988429642563
 20
128.5643179147943
 40
17.23932179758005
 50
269.9615453144763
 51
283.2358274785584
  0
ARC
  8
1
  6
CONTINUOUS
 62
     7
 10
-199.4999999479297
 20
200.050510246588
 40
2.500000000000002
 50
0.0
 51
78.46304218515643
  0
ARC
  8
1
  6
CONTINUOUS
 62
     7
 10
-240.550510246588
 20
164.0000000520703
 40
2.500000000000002
 50
90.0
 51
168.4630421851564
  0
ARC
  8
1
  6
CONTINUOUS
 62
     7
 10
-199.4999999479297
 20
184.949489753412
 40
2.500000000000011
 50
281.5369578148436
 51
0.0
  0
ARC
  8
1
  6
CONTINUOUS
 62
     7
 10
-279.4999999999999
 20
178.5
 40
1.499999999999946
 50
270.0
 51
0.0
  0
ARC
  8
1
  6
CONTINUOUS
 62
     7
 10
-272.5358942822461
 20
220.9999715754169
 40
3.499999999999976
 50
188.2127405631975
 51
270.0000000000001
  0
ARC
  8
1
  6
CONTINUOUS
 62
     7
 10
-129.5317336498643
 20
193.0197971463359
 40
20.00002221050782
 50
181.4892751732185
 51
195.2772217886425
  0
ARC
  8
1
  6
CONTINUOUS
 62
     7
 10
-265.4641057177539
 20
220.9999715754169
 40
3.499999999999975
 50
270.0
 51
351.7872594368026
  0
ARC
  8
1
  6
CONTINUOUS
 62
     7
 10
-284.4999999999999
 20
117.875
 40
0.5000000000000004
 50
180.0
 51
270.0
  0
ARC
  8
1
  6
CONTINUOUS
 62
     7
 10
-203.0
 20
180.5
 40
1.000000000000001
 50
270.0
 51
0.0
  0
ARC
  8
1
  6
CONTINUOUS
 62
     7
 10
-291.5
 20
200.0358983848622
 40
3.500000000000003
 50
0.0
 51
81.78678929826187
  0
ARC
  8
1
  6
CONTINUOUS
 62
     7
 10
-265.4641057177539
 20
164.0000284245831
 40
3.499999999999976
 50
8.212740563197446
 51
90.00000000000004
  0
ARC
  8
1
  6
CONTINUOUS
 62
     7
 10
-260.9
 20
178.5
 40
1.500000000000001
 50
180.0
 51
270.0
  0
ARC
  8
1
  6
CONTINUOUS
 62
     7
 10
-160.675
 20
161.0
 40
0.5000000000000004
 50
270.0
 51
0.0
  0
ARC
  8
1
  6
CONTINUOUS
 62
     7
 10
-155.375
 20
206.3
 40
0.5000000000000004
 50
0.0
 51
90.0
  0
ARC
  8
1
  6
CONTINUOUS
 62
     7
 10
-208.5358942822461
 20
220.9999715754169
 40
3.500000000000004
 50
188.2127405631974
 51
270.0
  0
ARC
  8
1
  6
CONTINUOUS
 62
     7
 10
-203.0
 20
204.5
 40
1.000000000000001
 50
0.0
 51
90.0
  0
ARC
  8
1
  6
CONTINUOUS
 62
     7
 10
-294.5
 20
123.175
 40
0.5000000000000004
 50
180.0
 51
270.0
  0
ARC
  8
1
  6
CONTINUOUS
 62
     7
 10
-291.5
 20
184.9641016151378
 40
3.499999999999989
 50
278.2132107017382
 51
0.0
  0
ARC
  8
1
  6
CONTINUOUS
 62
     7
 10
-279.4999999999999
 20
178.5
 40
1.000000000000001
 50
270.0
 51
0.0
  0
ARC
  8
1
  6
CONTINUOUS
 62
     7
 10
-155.375
 20
178.0
 40
0.5000000000000004
 50
270.0
 51
0.0
  0
ARC
  8
1
  6
CONTINUOUS
 62
     7
 10
-267.2
 20
202.6
 40
1.500000000000001
 50
270.0
 51
0.0
  0
ARC
  8
1
  6
CONTINUOUS
 62
     7
 10
-208.550510246588
 20
220.9999999479297
 40
2.500000000000011
 50
191.5369578148436
 51
269.9999999999994
  0
ARC
  8
1
  6
CONTINUOUS
 62
     7
 10
-233.4641057177539
 20
220.9999715754169
 40
3.500000000000003
 50
270.0
 51
351.7872594368026
  0
ARC
  8
1
  6
CONTINUOUS
 62
     7
 10
-201.4641057177539
 20
164.0000284245831
 40
3.500000000000004
 50
8.212740563197357
 51
45.24875105344686
  0
ARC
  8
1
  6
CONTINUOUS
 62
     7
 10
-240.5358942822461
 20
220.9999715754169
 40
3.500000000000004
 50
188.2127405631974
 51
270.0
  0
ARC
  8
1
  6
CONTINUOUS
 62
     7
 10
-201.4641057177539
 20
220.9999715754169
 40
3.500000000000003
 50
270.0
 51
314.7512489465531
  0
ARC
  8
1
  6
CONTINUOUS
 62
     7
 10
-160.675
 20
224.0
 40
0.5000000000000004
 50
0.0
 51
90.0
  0
ARC
  8
1
  6
CONTINUOUS
 62
     7
 10
-155.375
 20
182.25
 40
0.5000000000000004
 50
0.0
 51
90.0
  0
ARC
  8
1
  6
CONTINUOUS
 62
     7
 10
-255.9
 20
117.875
 40
0.5000000000000004
 50
270.0
 51
0.0
  0
ARC
  8
1
  6
CONTINUOUS
 62
     7
 10
-261.4
 20
117.875
 40
0.5000000000000004
 50
180.0
 51
270.0
  0
ARC
  8
1
  6
CONTINUOUS
 62
     7
 10
-156.825
 20
201.75
 40
0.5000000000000004
 50
90.0
 51
180.0
  0
ARC
  8
1
  6
CONTINUOUS
 62
     7
 10
-279.0
 20
117.875
 40
0.5000000000000004
 50
270.0
 51
0.0
  0
LINE
  8
1
  6
CONTINUOUS
 62
     7
 10
-292.5
 20
160.5
 11
-197.5
 21
160.5
  0
LINE
  8
1
  6
CONTINUOUS
 62
     7
 10
-258.2
 20
194.1686291501015
 11
-258.2
 21
193.9387494569938
  0
LINE
  8
1
  6
CONTINUOUS
 62
     7
 10
-258.8
 20
195.1
 11
-258.4343145750507
 21
194.7343145750507
  0
LINE
  8
1
  6
CONTINUOUS
 62
     7
 10
-199.0
 20
182.5
 11
-199.0
 21
202.5
  0
LINE
  8
1
  6
CONTINUOUS
 62
     7
 10
-258.1
 20
202.25
 11
-258.1
 21
204.6
  0
LINE
  8
1
  6
CONTINUOUS
 62
     7
 10
-282.3
 20
202.25
 11
-282.3
 21
204.6
  0
LINE
  8
1
  6
CONTINUOUS
 62
     7
 10
-258.1
 20
177.0
 11
-258.1
 21
182.75
  0
LINE
  8
1
  6
CONTINUOUS
 62
     7
 10
-203.0
 20
205.5
 11
-207.0
 21
205.5
  0
LINE
  8
1
  6
CONTINUOUS
 62
     7
 10
-199.0
 20
218.5143764732869
 11
-199.0
 21
202.5
  0
LINE
  8
1
  6
CONTINUOUS
 62
     7
 10
-265.4641057177539
 20
217.4999715754169
 11
-272.5358942822461
 21
217.4999715754169
  0
LINE
  8
1
  6
CONTINUOUS
 62
     7
 10
-208.5358942822461
 20
217.4999715754169
 11
-201.4641057177539
 21
217.4999715754169
  0
LINE
  8
1
  6
CONTINUOUS
 62
     7
 10
-195.0
 20
163.5
 11
-195.0
 21
221.5
  0
LINE
  8
1
  6
CONTINUOUS
 62
     7
 10
-260.9
 20
177.0
 11
-258.1
 21
177.0
  0
LINE
  8
1
  6
CONTINUOUS
 62
     7
 10
-233.4641057177539
 20
217.4999715754169
 11
-240.5358942822461
 21
217.4999715754169
  0
LINE
  8
1
  6
CONTINUOUS
 62
     7
 10
-208.5358942822461
 20
167.5000284245831
 11
-201.4641057177539
 21
167.5000284245831
  0
LINE
  8
1
  6
CONTINUOUS
 62
     7
 10
-199.0
 20
182.5
 11
-199.0
 21
166.4856235267131
  0
LINE
  8
1
  6
CONTINUOUS
 62
     7
 10
-233.449489753412
 20
218.4999999479297
 11
-240.550510246588
 21
218.5
  0
LINE
  8
1
  6
CONTINUOUS
 62
     7
 10
-274.7
 20
204.6
 11
-274.7
 21
202.6
  0
LINE
  8
1
  6
CONTINUOUS
 62
     7
 10
-279.4999999999999
 20
177.0
 11
-282.3
 21
177.0
  0
LINE
  8
1
  6
CONTINUOUS
 62
     7
 10
-207.0
 20
179.5
 11
-203.0
 21
179.5
  0
LINE
  8
1
  6
CONTINUOUS
 62
     7
 10
-202.0
 20
180.5
 11
-202.0
 21
204.5
  0
LINE
  8
1
  6
CONTINUOUS
 62
     7
 10
-258.3464466094067
 20
181.6535533905933
 11
-259.3535533905915
 21
180.6464466094085
  0
LINE
  8
1
  6
CONTINUOUS
 62
     7
 10
-262.2479015206033
 20
187.4732922218959
 11
-262.2479015206033
 21
187.0587467673505
  0
LINE
  8
1
  6
CONTINUOUS
 62
     7
 10
-258.1
 20
182.75
 11
-255.1
 21
182.75
  0
LINE
  8
1
  6
CONTINUOUS
 62
     7
 10
-285.3
 20
202.25
 11
-282.3
 21
202.25
  0
LINE
  8
1
  6
CONTINUOUS
 62
     7
 10
-291.0000000000001
 20
164.5
 11
-291.0000000000001
 21
220.5
  0
LINE
  8
1
  6
CONTINUOUS
 62
     7
 10
-288.9999999479297
 20
184.949489753412
 11
-289.0
 21
200.050510246588
  0
LINE
  8
1
  6
CONTINUOUS
 62
     7
 10
-265.7
 20
204.6
 11
-274.7
 21
204.6
  0
LINE
  8
1
  6
CONTINUOUS
 62
     7
 10
-258.2
 20
191.0612505430062
 11
-258.2
 21
190.8313708498985
  0
LINE
  8
1
  6
CONTINUOUS
 62
     7
 10
-258.2
 20
202.9928932188134
 11
-258.2
 21
199.3313708498985
  0
LINE
  8
1
  6
CONTINUOUS
 62
     7
 10
-258.8
 20
186.6
 11
-258.4343145750507
 21
186.2343145750508
  0
LINE
  8
1
  6
CONTINUOUS
 62
     7
 10
-258.4343145750508
 20
198.7656854249492
 11
-258.8
 21
198.4
  0
LINE
  8
1
  6
CONTINUOUS
 62
     7
 10
-258.8
 20
198.4
 11
-258.8
 21
195.1
  0
LINE
  8
1
  6
CONTINUOUS
 62
     7
 10
-197.5
 20
224.5
 11
-203.1521352941496
 21
224.5
  0
LINE
  8
1
  6
CONTINUOUS
 62
     7
 10
-208.550510246588
 20
166.5000000520703
 11
-201.4494897534119
 21
166.5
  0
LINE
  8
1
  6
CONTINUOUS
 62
     7
 10
-278.1489924296942
 20
185.7496558582596
 11
-278.0
 21
185.7496558582596
  0
LINE
  8
1
  6
CONTINUOUS
 62
     7
 10
-258.2
 20
185.6686291501015
 11
-258.2
 21
182.0071067811866
  0
LINE
  8
1
  6
CONTINUOUS
 62
     7
 10
-291.0000000000001
 20
220.5
 11
-196.0
 21
220.5
  0
LINE
  8
1
  6
CONTINUOUS
 62
     7
 10
-233.449489753412
 20
166.5000000520703
 11
-240.550510246588
 21
166.5
  0
LINE
  8
1
  6
CONTINUOUS
 62
     7
 10
-196.9999999479297
 20
200.050510246588
 11
-197.0
 21
184.949489753412
  0
LINE
  8
1
  6
CONTINUOUS
 62
     7
 10
-196.0
 20
164.5
 11
-291.0000000000001
 21
164.5
  0
LINE
  8
1
  6
CONTINUOUS
 62
     7
 10
-295.0
 20
222.0
 11
-295.0
 21
163.0
  0
LINE
  8
1
  6
CONTINUOUS
 62
     7
 10
-273.2
 20
201.1
 11
-267.2
 21
201.1
  0
LINE
  8
1
  6
CONTINUOUS
 62
     7
 10
-258.4343145750508
 20
190.2656854249492
 11
-258.8
 21
189.9
  0
LINE
  8
1
  6
CONTINUOUS
 62
     7
 10
-195.0
 20
163.0
 11
-195.0
 21
163.5
  0
LINE
  8
1
  6
CONTINUOUS
 62
     7
 10
-262.4
 20
204.6
 11
-258.1
 21
204.6
  0
LINE
  8
1
  6
CONTINUOUS
 62
     7
 10
-258.8
 20
189.9
 11
-258.8
 21
186.6
  0
LINE
  8
1
  6
CONTINUOUS
 62
     7
 10
-262.4
 20
187.4732922218959
 11
-262.2479015206033
 21
187.4732922218959
  0
LINE
  8
1
  6
CONTINUOUS
 62
     7
 10
-262.4
 20
204.6
 11
-262.4
 21
178.5
  0
LINE
  8
1
  6
CONTINUOUS
 62
     7
 10
-259.3535533905933
 20
204.3535533905933
 11
-258.3464466094068
 21
203.3464466094067
  0
LINE
  8
1
  6
CONTINUOUS
 62
     7
 10
-195.0
 20
221.5
 11
-195.0
 21
222.0
  0
LINE
  8
1
  6
CONTINUOUS
 62
     7
 10
-282.3
 20
182.75
 11
-285.3
 21
182.75
  0
LINE
  8
1
  6
CONTINUOUS
 62
     7
 10
-203.1521352941496
 20
224.5
 11
-292.5
 21
224.5
  0
LINE
  8
1
  6
CONTINUOUS
 62
     7
 10
-255.1
 20
182.75
 11
-255.1
 21
202.25
  0
LINE
  8
1
  6
CONTINUOUS
 62
     7
 10
-278.0
 20
204.6
 11
-278.0
 21
178.5
  0
LINE
  8
1
  6
CONTINUOUS
 62
     7
 10
-282.3
 20
204.6
 11
-278.0
 21
204.6
  0
LINE
  8
1
  6
CONTINUOUS
 62
     7
 10
-262.2479015206033
 20
187.0587467673505
 11
-262.4
 21
186.7940184013119
  0
LINE
  8
1
  6
CONTINUOUS
 62
     7
 10
-285.3
 20
182.75
 11
-285.3
 21
202.25
  0
LINE
  8
1
  6
CONTINUOUS
 62
     7
 10
-265.7
 20
202.6
 11
-265.7
 21
204.6
  0
LINE
  8
1
  6
CONTINUOUS
 62
     7
 10
-259.7071067811846
 20
180.5000000000017
 11
-262.4
 21
180.5000000000005
  0
LINE
  8
1
  6
CONTINUOUS
 62
     7
 10
-282.3
 20
177.0
 11
-282.3
 21
182.75
  0
LINE
  8
1
  6
CONTINUOUS
 62
     7
 10
-265.449489753412
 20
218.4999999479297
 11
-272.550510246588
 21
218.5
  0
LINE
  8
1
  6
CONTINUOUS
 62
     7
 10
-265.449489753412
 20
166.5000000520703
 11
-272.550510246588
 21
166.5
  0
LINE
  8
1
  6
CONTINUOUS
 62
     7
 10
-208.550510246588
 20
218.4999999479297
 11
-201.4494897534119
 21
218.5
  0
LINE
  8
1
  6
CONTINUOUS
 62
     7
 10
-281.9656854249492
 20
194.7343145750508
 11
-281.6
 21
195.1
  0
LINE
  8
1
  6
CONTINUOUS
 62
     7
 10
-278.0
 20
183.5
 11
-279.2
 21
183.5
  0
LINE
  8
1
  6
CONTINUOUS
 62
     7
 10
-279.2
 20
189.5
 11
-278.0
 21
189.5
  0
LINE
  8
1
  6
CONTINUOUS
 62
     7
 10
-262.4
 20
189.5
 11
-261.2
 21
189.5
  0
LINE
  8
1
  6
CONTINUOUS
 62
     7
 10
-278.0
 20
180.5
 11
-280.6928932188134
 21
180.5
  0
LINE
  8
1
  6
CONTINUOUS
 62
     7
 10
-282.2
 20
182.0071067811866
 11
-282.2
 21
185.6686291501015
  0
LINE
  8
1
  6
CONTINUOUS
 62
     7
 10
-281.9656854249492
 20
186.2343145750508
 11
-281.6
 21
186.6
  0
LINE
  8
1
  6
CONTINUOUS
 62
     7
 10
-261.2
 20
189.5
 11
-261.2
 21
183.5
  0
LINE
  8
1
  6
CONTINUOUS
 62
     7
 10
-281.6
 20
186.6
 11
-281.6
 21
189.9
  0
LINE
  8
1
  6
CONTINUOUS
 62
     7
 10
-281.0464466094067
 20
180.6464466094067
 11
-282.0535533905932
 21
181.6535533905933
  0
LINE
  8
1
  6
CONTINUOUS
 62
     7
 10
-281.6
 20
189.9
 11
-281.9656854249492
 21
190.2656854249493
  0
LINE
  8
1
  6
CONTINUOUS
 62
     7
 10
-282.2
 20
193.9387494569938
 11
-282.2
 21
194.1686291501015
  0
LINE
  8
1
  6
CONTINUOUS
 62
     7
 10
-281.6
 20
195.1
 11
-281.6
 21
198.4
  0
LINE
  8
1
  6
CONTINUOUS
 62
     7
 10
-279.2
 20
183.5
 11
-279.2
 21
189.5
  0
LINE
  8
1
  6
CONTINUOUS
 62
     7
 10
-261.2
 20
183.5
 11
-262.4
 21
183.5
  0
LINE
  8
1
  6
CONTINUOUS
 62
     7
 10
-282.2
 20
190.8313708498984
 11
-282.2
 21
191.0612505430062
  0
LINE
  8
1
  6
CONTINUOUS
 62
     7
 10
-282.0535533905933
 20
203.3464466094067
 11
-281.0464466094067
 21
204.3535533905933
  0
LINE
  8
1
  6
CONTINUOUS
 62
     7
 10
-281.6
 20
198.4
 11
-281.9656854249492
 21
198.7656854249492
  0
LINE
  8
1
  6
CONTINUOUS
 62
     7
 10
-271.8686291501015
 20
204.5
 11
-271.6387494569938
 21
204.5
  0
LINE
  8
1
  6
CONTINUOUS
 62
     7
 10
-268.7612505430062
 20
204.5
 11
-268.5313708498985
 21
204.5
  0
LINE
  8
1
  6
CONTINUOUS
 62
     7
 10
-282.2
 20
199.3313708498985
 11
-282.2
 21
202.9928932188134
  0
LINE
  8
1
  6
CONTINUOUS
 62
     7
 10
-267.9656854249492
 20
204.2656854249493
 11
-267.6
 21
203.9
  0
LINE
  8
1
  6
CONTINUOUS
 62
     7
 10
-267.6
 20
203.9
 11
-265.7
 21
203.9
  0
LINE
  8
1
  6
CONTINUOUS
 62
     7
 10
-262.4
 20
204.5
 11
-259.7071067811865
 21
204.5
  0
LINE
  8
1
  6
CONTINUOUS
 62
     7
 10
-280.6928932188135
 20
204.5
 11
-278.0
 21
204.5
  0
LINE
  8
1
  6
CONTINUOUS
 62
     7
 10
-274.7
 20
203.9
 11
-272.8
 21
203.9
  0
LINE
  8
1
  6
CONTINUOUS
 62
     7
 10
-272.8
 20
203.9
 11
-272.4343145750507
 21
204.2656854249493
  0
LINE
  8
1
  6
CONTINUOUS
 62
     7
 10
-162.375
 20
220.5
 11
-164.675
 21
220.5
  0
LINE
  8
1
  6
CONTINUOUS
 62
     7
 10
-164.675
 20
164.5
 11
-162.375
 21
164.5
  0
LINE
  8
1
  6
CONTINUOUS
 62
     7
 10
-164.675
 20
163.5
 11
-164.675
 21
164.5
  0
LINE
  8
1
  6
CONTINUOUS
 62
     7
 10
-258.1
 20
202.25
 11
-258.2
 21
202.25
  0
LINE
  8
1
  6
CONTINUOUS
 62
     7
 10
-258.1
 20
177.5
 11
-260.9
 21
177.5
  0
LINE
  8
1
  6
CONTINUOUS
 62
     7
 10
-261.9
 20
204.5
 11
-261.9
 21
204.6
  0
LINE
  8
1
  6
CONTINUOUS
 62
     7
 10
-145.325
 20
197.25
 11
-145.325
 21
187.9174243050444
  0
LINE
  8
1
  6
CONTINUOUS
 62
     7
 10
-149.3024625204329
 20
190.0
 11
-154.875
 21
190.0
  0
LINE
  8
1
  6
CONTINUOUS
 62
     7
 10
-162.875
 20
200.050510246588
 11
-162.875
 21
184.949489753412
  0
LINE
  8
1
  6
CONTINUOUS
 62
     7
 10
-147.4392857142857
 20
197.2500000000001
 11
-145.325
 21
197.25
  0
LINE
  8
1
  6
CONTINUOUS
 62
     7
 10
-147.325
 20
192.5000000000002
 11
-147.325
 21
196.25
  0
LINE
  8
1
  6
CONTINUOUS
 62
     7
 10
-160.175
 20
163.0
 11
-160.175
 21
161.0
  0
LINE
  8
1
  6
CONTINUOUS
 62
     7
 10
-162.375
 20
202.5
 11
-162.875
 21
202.5
  0
LINE
  8
1
  6
CONTINUOUS
 62
     7
 10
-147.325
 20
196.25
 11
-147.4392857142857
 21
197.2500000000001
  0
LINE
  8
1
  6
CONTINUOUS
 62
     7
 10
-162.375
 20
182.5
 11
-162.875
 21
182.5
  0
LINE
  8
1
  6
CONTINUOUS
 62
     7
 10
-162.875
 20
184.949489753412
 11
-162.875
 21
182.5
  0
LINE
  8
1
  6
CONTINUOUS
 62
     7
 10
-145.325
 20
187.9174243050444
 11
-145.325
 21
187.7500000000002
  0
LINE
  8
1
  6
CONTINUOUS
 62
     7
 10
-162.775
 20
166.5
 11
-163.975
 21
166.5
  0
LINE
  8
1
  6
CONTINUOUS
 62
     7
 10
-261.9
 20
178.5
 11
-261.9
 21
180.5000000000008
  0
LINE
  8
1
  6
CONTINUOUS
 62
     7
 10
-162.875
 20
202.5
 11
-162.875
 21
200.050510246588
  0
LINE
  8
1
  6
CONTINUOUS
 62
     7
 10
-162.775
 20
166.5000000520703
 11
-162.775
 21
164.5
  0
LINE
  8
1
  6
CONTINUOUS
 62
     7
 10
-163.975
 20
166.5000000520703
 11
-163.975
 21
164.5
  0
LINE
  8
1
  6
CONTINUOUS
 62
     7
 10
-164.675
 20
220.5
 11
-164.675
 21
221.5
  0
LINE
  8
1
  6
CONTINUOUS
 62
     7
 10
-149.525
 20
196.25
 11
-149.525
 21
197.25
  0
LINE
  8
1
  6
CONTINUOUS
 62
     7
 10
-274.2
 20
204.6
 11
-274.2
 21
203.9
  0
LINE
  8
1
  6
CONTINUOUS
 62
     7
 10
-149.4373399866518
 20
191.0787329596448
 11
-154.875
 21
191.0787329596448
  0
LINE
  8
1
  6
CONTINUOUS
 62
     7
 10
-164.675
 20
224.5
 11
-160.675
 21
224.5
  0
LINE
  8
1
  6
CONTINUOUS
 62
     7
 10
-258.2
 20
182.75
 11
-258.1
 21
182.75
  0
LINE
  8
1
  6
CONTINUOUS
 62
     7
 10
-147.325
 20
196.25
 11
-149.525
 21
196.25
  0
LINE
  8
1
  6
CONTINUOUS
 62
     7
 10
-149.525
 20
192.4999999999995
 11
-149.525
 21
196.25
  0
LINE
  8
1
  6
CONTINUOUS
 62
     7
 10
-282.3
 20
177.5
 11
-279.4999999999999
 21
177.5
  0
LINE
  8
1
  6
CONTINUOUS
 62
     7
 10
-149.2829427881864
 20
189.8748595626791
 11
-154.875
 21
189.8748595626791
  0
LINE
  8
1
  6
CONTINUOUS
 62
     7
 10
-278.4999999999999
 20
204.5
 11
-278.4999999999999
 21
204.6
  0
LINE
  8
1
  6
CONTINUOUS
 62
     7
 10
-147.4392857142857
 20
197.2500000000001
 11
-149.525
 21
197.25
  0
LINE
  8
1
  6
CONTINUOUS
 62
     7
 10
-145.325
 20
187.75
 11
-148.825
 21
187.75
  0
LINE
  8
1
  6
CONTINUOUS
 62
     7
 10
-160.175
 20
222.0
 11
-160.175
 21
163.0
  0
LINE
  8
1
  6
CONTINUOUS
 62
     7
 10
-148.825
 20
187.75
 11
-154.875
 21
187.7500000000002
  0
LINE
  8
1
  6
CONTINUOUS
 62
     7
 10
-149.525
 20
197.2500000000002
 11
-154.875
 21
197.2500000000002
  0
LINE
  8
1
  6
CONTINUOUS
 62
     7
 10
-160.175
 20
224.0
 11
-160.175
 21
222.0
  0
LINE
  8
1
  6
CONTINUOUS
 62
     7
 10
-266.2
 20
203.9
 11
-266.2
 21
204.6
  0
LINE
  8
1
  6
CONTINUOUS
 62
     7
 10
-164.675
 20
221.5
 11
-164.675
 21
222.0
  0
LINE
  8
1
  6
CONTINUOUS
 62
     7
 10
-162.375
 20
163.5
 11
-162.375
 21
221.5
  0
LINE
  8
1
  6
CONTINUOUS
 62
     7
 10
-164.675
 20
163.0
 11
-164.675
 21
163.5
  0
LINE
  8
1
  6
CONTINUOUS
 62
     7
 10
-164.675
 20
222.0
 11
-164.675
 21
224.5
  0
LINE
  8
1
  6
CONTINUOUS
 62
     7
 10
-160.675
 20
160.5
 11
-164.675
 21
160.5
  0
LINE
  8
1
  6
CONTINUOUS
 62
     7
 10
-164.675
 20
160.5
 11
-164.675
 21
163.0
  0
LINE
  8
1
  6
CONTINUOUS
 62
     7
 10
-163.975
 20
218.4999999479297
 11
-163.975
 21
220.5
  0
LINE
  8
1
  6
CONTINUOUS
 62
     7
 10
-163.975
 20
182.5
 11
-163.975
 21
184.949489753412
  0
LINE
  8
1
  6
CONTINUOUS
 62
     7
 10
-268.5313708498984
 20
119.975
 11
-268.7612505430062
 21
119.975
  0
LINE
  8
1
  6
CONTINUOUS
 62
     7
 10
-272.4343145750507
 20
119.975
 11
-272.8
 21
119.975
  0
LINE
  8
1
  6
CONTINUOUS
 62
     7
 10
-271.8686291501015
 20
119.975
 11
-272.4343145750507
 21
119.975
  0
LINE
  8
1
  6
CONTINUOUS
 62
     7
 10
-162.875
 20
202.5
 11
-163.975
 21
202.5
  0
LINE
  8
1
  6
CONTINUOUS
 62
     7
 10
-259.3535533905915
 20
119.975
 11
-259.7071067811846
 21
119.975
  0
LINE
  8
1
  6
CONTINUOUS
 62
     7
 10
-162.775
 20
218.4999999479297
 11
-162.775
 21
220.5
  0
LINE
  8
1
  6
CONTINUOUS
 62
     7
 10
-272.8
 20
119.975
 11
-276.1
 21
119.975
  0
LINE
  8
1
  6
CONTINUOUS
 62
     7
 10
-282.2
 20
119.975
 11
-282.2
 21
122.675
  0
LINE
  8
1
  6
CONTINUOUS
 62
     7
 10
-154.875
 20
182.25
 11
-154.875
 21
178.0
  0
LINE
  8
1
  6
CONTINUOUS
 62
     7
 10
-275.15
 20
112.025
 11
-275.15
 21
119.975
  0
LINE
  8
1
  6
CONTINUOUS
 62
     7
 10
-162.775
 20
218.5
 11
-163.975
 21
218.5
  0
LINE
  8
1
  6
CONTINUOUS
 62
     7
 10
-276.1
 20
119.975
 11
-276.4656854249492
 21
119.975
  0
LINE
  8
1
  6
CONTINUOUS
 62
     7
 10
-267.9656854249492
 20
119.975
 11
-268.5313708498984
 21
119.975
  0
LINE
  8
1
  6
CONTINUOUS
 62
     7
 10
-265.6975006940589
 20
111.8024625204329
 11
-265.25
 21
111.9373399866518
  0
LINE
  8
1
  6
CONTINUOUS
 62
     7
 10
-260.4
 20
112.025
 11
-265.25
 21
112.025
  0
LINE
  8
1
  6
CONTINUOUS
 62
     7
 10
-260.4
 20
109.825
 11
-263.9
 21
107.825
  0
LINE
  8
1
  6
CONTINUOUS
 62
     7
 10
-162.875
 20
182.5
 11
-163.975
 21
182.5
  0
LINE
  8
1
  6
CONTINUOUS
 62
     7
 10
-260.4
 20
112.025
 11
-260.4
 21
109.825
  0
LINE
  8
1
  6
CONTINUOUS
 62
     7
 10
-271.6387494569938
 20
119.975
 11
-271.8686291501015
 21
119.975
  0
LINE
  8
1
  6
CONTINUOUS
 62
     7
 10
-163.975
 20
184.949489753412
 11
-163.975
 21
200.050510246588
  0
LINE
  8
1
  6
CONTINUOUS
 62
     7
 10
-164.675
 20
164.5
 11
-164.675
 21
220.5
  0
LINE
  8
1
  6
CONTINUOUS
 62
     7
 10
-263.3686291501013
 20
119.975
 11
-263.9343145750509
 21
119.975
  0
LINE
  8
1
  6
CONTINUOUS
 62
     7
 10
-259.7071067811846
 20
119.975
 11
-263.3686291501013
 21
119.975
  0
LINE
  8
1
  6
CONTINUOUS
 62
     7
 10
-258.3464466094067
 20
119.975
 11
-259.3535533905915
 21
119.975
  0
LINE
  8
1
  6
CONTINUOUS
 62
     7
 10
-160.175
 20
206.8
 11
-155.375
 21
206.8
  0
LINE
  8
1
  6
CONTINUOUS
 62
     7
 10
-265.15
 20
111.325
 11
-270.0
 21
111.325
  0
LINE
  8
1
  6
CONTINUOUS
 62
     7
 10
-156.825
 20
182.75
 11
-155.375
 21
182.75
  0
LINE
  8
1
  6
CONTINUOUS
 62
     7
 10
-267.6
 20
119.975
 11
-267.9656854249492
 21
119.975
  0
LINE
  8
1
  6
CONTINUOUS
 62
     7
 10
-154.875
 20
201.75
 11
-154.875
 21
183.25
  0
LINE
  8
1
  6
CONTINUOUS
 62
     7
 10
-264.3
 20
119.975
 11
-267.6
 21
119.975
  0
LINE
  8
1
  6
CONTINUOUS
 62
     7
 10
-282.0535533905932
 20
119.975
 11
-282.2
 21
119.975
  0
LINE
  8
1
  6
CONTINUOUS
 62
     7
 10
-258.2
 20
119.975
 11
-258.3464466094067
 21
119.975
  0
LINE
  8
1
  6
CONTINUOUS
 62
     7
 10
-280.2
 20
112.025
 11
-275.15
 21
112.025
  0
LINE
  8
1
  6
CONTINUOUS
 62
     7
 10
-280.2
 20
109.9392857142857
 11
-276.4999999999999
 21
107.825
  0
LINE
  8
1
  6
CONTINUOUS
 62
     7
 10
-263.9
 20
107.825
 11
-265.15
 21
107.825
  0
LINE
  8
1
  6
CONTINUOUS
 62
     7
 10
-265.25
 20
111.9373399866518
 11
-265.25
 21
119.975
  0
LINE
  8
1
  6
CONTINUOUS
 62
     7
 10
-260.2
 20
109.9392857142857
 11
-260.2
 21
112.025
  0
LINE
  8
1
  6
CONTINUOUS
 62
     7
 10
-155.375
 20
177.5
 11
-160.175
 21
177.5
  0
LINE
  8
1
  6
CONTINUOUS
 62
     7
 10
-157.325
 20
201.75
 11
-157.325
 21
183.25
  0
LINE
  8
1
  6
CONTINUOUS
 62
     7
 10
-271.3689839338075
 20
119.975
 11
-271.6387494569938
 21
119.975
  0
LINE
  8
1
  6
CONTINUOUS
 62
     7
 10
-281.0464466094067
 20
119.975
 11
-282.0535533905932
 21
119.975
  0
LINE
  8
1
  6
CONTINUOUS
 62
     7
 10
-267.6
 20
122.675
 11
-267.6
 21
119.975
  0
LINE
  8
1
  6
CONTINUOUS
 62
     7
 10
-264.3
 20
122.675
 11
-264.3
 21
119.975
  0
LINE
  8
1
  6
CONTINUOUS
 62
     7
 10
-280.2
 20
109.9392857142857
 11
-280.2
 21
112.025
  0
LINE
  8
1
  6
CONTINUOUS
 62
     7
 10
-154.875
 20
183.25
 11
-154.875
 21
182.25
  0
LINE
  8
1
  6
CONTINUOUS
 62
     7
 10
-155.375
 20
202.25
 11
-156.825
 21
202.25
  0
LINE
  8
1
  6
CONTINUOUS
 62
     7
 10
-268.7612505430062
 20
119.975
 11
-269.0310160661925
 21
119.975
  0
LINE
  8
1
  6
CONTINUOUS
 62
     7
 10
-271.3689839338075
 20
119.975
 11
-269.0310160661925
 21
119.975
  0
LINE
  8
1
  6
CONTINUOUS
 62
     7
 10
-154.875
 20
206.3
 11
-154.875
 21
202.75
  0
LINE
  8
1
  6
CONTINUOUS
 62
     7
 10
-280.6928932188134
 20
119.975
 11
-281.0464466094067
 21
119.975
  0
LINE
  8
1
  6
CONTINUOUS
 62
     7
 10
-258.2
 20
122.675
 11
-258.2
 21
119.975
  0
LINE
  8
1
  6
CONTINUOUS
 62
     7
 10
-260.4593323850548
 20
111.9915057604102
 11
-260.4
 21
112.025
  0
LINE
  8
1
  6
CONTINUOUS
 62
     7
 10
-260.4
 20
112.025
 11
-260.2
 21
112.025
  0
LINE
  8
1
  6
CONTINUOUS
 62
     7
 10
-260.4
 20
109.825
 11
-260.2
 21
109.9392857142857
  0
LINE
  8
1
  6
CONTINUOUS
 62
     7
 10
-276.4656854249492
 20
119.975
 11
-277.0313708498985
 21
119.975
  0
LINE
  8
1
  6
CONTINUOUS
 62
     7
 10
-272.8
 20
122.675
 11
-272.8
 21
119.975
  0
LINE
  8
1
  6
CONTINUOUS
 62
     7
 10
-163.975
 20
200.050510246588
 11
-163.975
 21
202.5
  0
LINE
  8
1
  6
CONTINUOUS
 62
     7
 10
-277.0313708498985
 20
119.975
 11
-280.6928932188134
 21
119.975
  0
LINE
  8
1
  6
CONTINUOUS
 62
     7
 10
-154.875
 20
202.75
 11
-154.875
 21
201.75
  0
LINE
  8
1
  6
CONTINUOUS
 62
     7
 10
-276.1
 20
122.675
 11
-276.1
 21
119.975
  0
LINE
  8
1
  6
CONTINUOUS
 62
     7
 10
-263.9343145750509
 20
119.975
 11
-264.3
 21
119.975
  0
LINE
  8
1
  6
CONTINUOUS
 62
     7
 10
-276.4999999999999
 20
107.825
 11
-265.15
 21
107.825
  0
LINE
  8
1
  6
CONTINUOUS
 62
     7
 10
-288.0
 20
200.0358983848622
 11
-288.0
 21
184.9641016151378
  0
LINE
  8
1
  6
CONTINUOUS
 62
     7
 10
-255.4
 20
202.25
 11
-255.4
 21
182.75
  0
LINE
  8
1
  6
CONTINUOUS
 62
     7
 10
-258.1
 20
202.25
 11
-258.1
 21
193.3485281374238
  0
LINE
  8
1
  6
CONTINUOUS
 62
     7
 10
-258.1
 20
191.6514718625761
 11
-258.1
 21
182.75
  0
LINE
  8
1
  6
CONTINUOUS
 62
     7
 10
-284.9999999999999
 20
202.25
 11
-284.9999999999999
 21
182.75
  0
LINE
  8
1
  6
CONTINUOUS
 62
     7
 10
-282.3
 20
191.6514718625761
 11
-282.3
 21
182.75
  0
LINE
  8
1
  6
CONTINUOUS
 62
     7
 10
-255.1
 20
202.25
 11
-258.1
 21
202.25
  0
LINE
  8
1
  6
CONTINUOUS
 62
     7
 10
-233.4641057177539
 20
167.5000284245831
 11
-240.5358942822461
 21
167.5000284245831
  0
LINE
  8
1
  6
CONTINUOUS
 62
     7
 10
-265.4641057177539
 20
167.5000284245831
 11
-272.5358942822461
 21
167.5000284245831
  0
LINE
  8
1
  6
CONTINUOUS
 62
     7
 10
-282.2
 20
182.75
 11
-282.3
 21
182.75
  0
LINE
  8
1
  6
CONTINUOUS
 62
     7
 10
-282.3
 20
202.25
 11
-282.3
 21
193.3485281374239
  0
LINE
  8
1
  6
CONTINUOUS
 62
     7
 10
-282.3
 20
202.25
 11
-282.2
 21
202.25
  0
LINE
  8
1
  6
CONTINUOUS
 62
     7
 10
-278.4999999999999
 20
178.5
 11
-278.4999999999999
 21
180.5
  0
POLYLINE
  8
1
  6
CONTINUOUS
 62
     7
 66
     1
  0
VERTEX
  8
1
  6
CONTINUOUS
 62
     7
 10
-147.325
 20
192.5000000000002
  0
VERTEX
  8
1
  6
CONTINUOUS
 62
     7
 10
-147.278003887179
 20
191.6199168038616
  0
VERTEX
  8
1
  6
CONTINUOUS
 62
     7
 10
-147.1386429636991
 20
190.7703097576434
  0
VERTEX
  8
1
  6
CONTINUOUS
 62
     7
 10
-146.9117431192215
 20
189.9805996613648
  0
VERTEX
  8
1
  6
CONTINUOUS
 62
     7
 10
-146.6051616037283
 20
189.2781331606538
  0
VERTEX
  8
1
  6
CONTINUOUS
 62
     7
 10
-146.2295149410549
 20
188.687235767557
  0
VERTEX
  8
1
  6
CONTINUOUS
 62
     7
 10
-145.7978112923149
 20
188.2283694993229
  0
VERTEX
  8
1
  6
CONTINUOUS
 62
     7
 10
-145.325
 20
187.9174243050444
  0
SEQEND
  8
1
  6
CONTINUOUS
 62
     7
  0
LINE
  8
1
  6
CONTINUOUS
 62
     7
 10
-265.6975006940589
 20
111.8024625204329
 11
-266.0413212198586
 21
111.7829427881864
  0
LINE
  8
1
  6
CONTINUOUS
 62
     7
 10
-292.5
 20
122.675
 11
-294.5
 21
122.675
  0
LINE
  8
1
  6
CONTINUOUS
 62
     7
 10
-260.9
 20
117.375
 11
-261.4
 21
117.375
  0
LINE
  8
1
  6
CONTINUOUS
 62
     7
 10
-197.5
 20
127.175
 11
-195.0
 21
127.175
  0
LINE
  8
1
  6
CONTINUOUS
 62
     7
 10
-255.9
 20
117.375
 11
-260.9
 21
117.375
  0
LINE
  8
1
  6
CONTINUOUS
 62
     7
 10
-279.0
 20
117.375
 11
-279.4999999999999
 21
117.375
  0
LINE
  8
1
  6
CONTINUOUS
 62
     7
 10
-258.1
 20
119.825
 11
-260.9
 21
119.825
  0
LINE
  8
1
  6
CONTINUOUS
 62
     7
 10
-261.9
 20
119.825
 11
-260.9
 21
119.825
  0
LINE
  8
1
  6
CONTINUOUS
 62
     7
 10
-282.3
 20
122.675
 11
-282.3
 21
119.825
  0
LINE
  8
1
  6
CONTINUOUS
 62
     7
 10
-195.5
 20
122.675
 11
-197.5
 21
122.675
  0
LINE
  8
1
  6
CONTINUOUS
 62
     7
 10
-278.4999999999999
 20
119.825
 11
-278.4999999999999
 21
117.875
  0
LINE
  8
1
  6
CONTINUOUS
 62
     7
 10
-295.0
 20
123.175
 11
-295.0
 21
127.175
  0
LINE
  8
1
  6
CONTINUOUS
 62
     7
 10
-282.3
 20
119.825
 11
-279.4999999999999
 21
119.825
  0
LINE
  8
1
  6
CONTINUOUS
 62
     7
 10
-261.9
 20
117.875
 11
-261.9
 21
119.825
  0
LINE
  8
1
  6
CONTINUOUS
 62
     7
 10
-258.1
 20
122.675
 11
-258.1
 21
119.825
  0
LINE
  8
1
  6
CONTINUOUS
 62
     7
 10
-284.9999999999999
 20
117.875
 11
-284.9999999999999
 21
122.675
  0
LINE
  8
1
  6
CONTINUOUS
 62
     7
 10
-258.1
 20
122.375
 11
-258.2
 21
122.375
  0
LINE
  8
1
  6
CONTINUOUS
 62
     7
 10
-282.3
 20
119.875
 11
-281.7
 21
119.875
  0
LINE
  8
1
  6
CONTINUOUS
 62
     7
 10
-195.0
 20
127.175
 11
-195.0
 21
123.175
  0
LINE
  8
1
  6
CONTINUOUS
 62
     7
 10
-279.4999999999999
 20
119.825
 11
-278.4999999999999
 21
119.825
  0
LINE
  8
1
  6
CONTINUOUS
 62
     7
 10
-264.8699240762155
 20
119.825
 11
-265.25
 21
119.825
  0
LINE
  8
1
  6
CONTINUOUS
 62
     7
 10
-275.5300759237845
 20
119.825
 11
-276.1808672972405
 21
119.825
  0
LINE
  8
1
  6
CONTINUOUS
 62
     7
 10
-275.5300759237845
 20
119.825
 11
-275.15
 21
119.825
  0
LINE
  8
1
  6
CONTINUOUS
 62
     7
 10
-255.4
 20
122.675
 11
-255.4
 21
117.875
  0
LINE
  8
1
  6
CONTINUOUS
 62
     7
 10
-276.6
 20
119.825
 11
-276.6
 21
119.975
  0
LINE
  8
1
  6
CONTINUOUS
 62
     7
 10
-276.6
 20
119.825
 11
-276.1808672972405
 21
119.825
  0
LINE
  8
1
  6
CONTINUOUS
 62
     7
 10
-292.5
 20
127.175
 11
-197.5
 21
127.175
  0
LINE
  8
1
  6
CONTINUOUS
 62
     7
 10
-263.8
 20
119.825
 11
-263.8
 21
119.975
  0
LINE
  8
1
  6
CONTINUOUS
 62
     7
 10
-258.1
 20
119.875
 11
-258.7
 21
119.875
  0
LINE
  8
1
  6
CONTINUOUS
 62
     7
 10
-263.8
 20
119.825
 11
-264.2191327027595
 21
119.825
  0
LINE
  8
1
  6
CONTINUOUS
 62
     7
 10
-278.4999999999999
 20
119.825
 11
-276.6
 21
119.825
  0
LINE
  8
1
  6
CONTINUOUS
 62
     7
 10
-295.0
 20
127.175
 11
-292.5
 21
127.175
  0
LINE
  8
1
  6
CONTINUOUS
 62
     7
 10
-258.7
 20
119.975
 11
-258.7
 21
119.875
  0
LINE
  8
1
  6
CONTINUOUS
 62
     7
 10
-281.7
 20
119.875
 11
-281.7
 21
119.975
  0
LINE
  8
1
  6
CONTINUOUS
 62
     7
 10
-264.2191327027595
 20
119.825
 11
-264.8699240762155
 21
119.825
  0
LINE
  8
1
  6
CENTER
 62
     1
 10
-298.0
 20
192.5
 11
-192.0
 21
192.5
  0
LINE
  8
1
  6
CONTINUOUS
 62
     7
 10
-197.5
 20
122.675
 11
-292.5
 21
122.675
  0
LINE
  8
1
  6
CONTINUOUS
 62
     7
 10
-282.3
 20
122.375
 11
-282.2
 21
122.375
  0
LINE
  8
1
  6
CONTINUOUS
 62
     7
 10
-279.4999999999999
 20
117.375
 11
-284.4999999999999
 21
117.375
  0
LINE
  8
1
  6
CENTER
 62
     1
 10
-245.0
 20
157.5
 11
-245.0
 21
227.5
  0
LINE
  8
1
  6
CENTER
 62
     1
 10
-167.675
 20
192.5
 11
-142.325
 21
192.5
  0
LINE
  8
1
  6
CENTER
 62
     1
 10
-245.0
 20
104.825
 11
-245.0
 21
130.175
  0
LINE
  8
1
  6
CONTINUOUS
 62
     7
 10
-263.8
 20
119.825
 11
-261.9
 21
119.825
  0
ARC
  8
1
  6
CONTINUOUS
 62
     7
 10
-258.5
 20
193.9387494569938
 40
0.3000000000000049
 50
295.9444797723753
 51
0.0
  0
ARC
  8
1
  6
CONTINUOUS
 62
     7
 10
-257.8
 20
192.5
 40
1.299999999999989
 50
115.9444797723706
 51
244.0555202276295
  0
ARC
  8
1
  6
CONTINUOUS
 62
     7
 10
-259.0
 20
190.8313708498985
 40
0.800000000000001
 50
314.9999999999986
 51
0.0
  0
ARC
  8
1
  6
CONTINUOUS
 62
     7
 10
-258.5
 20
191.0612505430062
 40
0.3000000000000225
 50
0.0
 51
64.055520227627
  0
ARC
  8
1
  6
CONTINUOUS
 62
     7
 10
-259.0
 20
185.6686291501015
 40
0.8000000000000229
 50
0.0
 51
45.00000000000141
  0
ARC
  8
1
  6
CONTINUOUS
 62
     7
 10
-281.4
 20
185.6686291501015
 40
0.800000000000001
 50
134.9999999999986
 51
180.0
  0
ARC
  8
1
  6
CONTINUOUS
 62
     7
 10
-271.8686291501015
 20
203.7
 40
0.7999999999999952
 50
90.0
 51
134.9999999999986
  0
ARC
  8
1
  6
CONTINUOUS
 62
     7
 10
-280.6928932188134
 20
181.0
 40
0.4999999999999983
 50
224.9999999999978
 51
270.0
  0
ARC
  8
1
  6
CONTINUOUS
 62
     7
 10
-281.9
 20
191.0612505430062
 40
0.3000000000000049
 50
115.9444797723753
 51
180.0
  0
ARC
  8
1
  6
CONTINUOUS
 62
     7
 10
-281.7
 20
202.9928932188134
 40
0.5000000000000178
 50
135.0
 51
180.0
  0
ARC
  8
1
  6
CONTINUOUS
 62
     7
 10
-271.6387494569938
 20
204.2
 40
0.3000000000000178
 50
25.94447977236824
 51
90.00000000000001
  0
ARC
  8
1
  6
CONTINUOUS
 62
     7
 10
-282.6
 20
192.5
 40
1.299999999999989
 50
295.9444797723706
 51
64.05552022762947
  0
ARC
  8
1
  6
CONTINUOUS
 62
     7
 10
-281.4
 20
199.3313708498985
 40
0.8000000000000229
 50
180.0
 51
224.9999999999986
  0
ARC
  8
1
  6
CONTINUOUS
 62
     7
 10
-268.7612505430062
 20
204.2
 40
0.2999999999999947
 50
90.0
 51
154.0555202276318
  0
ARC
  8
1
  6
CONTINUOUS
 62
     7
 10
-268.5313708498985
 20
203.7
 40
0.800000000000001
 50
45.00000000000141
 51
90.0
  0
ARC
  8
1
  6
CONTINUOUS
 62
     7
 10
-281.9
 20
193.9387494569938
 40
0.3000000000000225
 50
180.0
 51
244.055520227627
  0
ARC
  8
1
  6
CONTINUOUS
 62
     7
 10
-281.4
 20
194.1686291501015
 40
0.800000000000001
 50
134.9999999999986
 51
180.0
  0
ARC
  8
1
  6
CONTINUOUS
 62
     7
 10
-259.7071067811865
 20
204.0
 40
0.4999999999999983
 50
44.99999999999775
 51
90.00000000000001
  0
ARC
  8
1
  6
CONTINUOUS
 62
     7
 10
-258.7
 20
202.9928932188134
 40
0.5000000000000004
 50
0.0
 51
45.0
  0
ARC
  8
1
  6
CONTINUOUS
 62
     7
 10
-270.2
 20
204.9
 40
1.300000000000014
 50
205.94447977237
 51
334.05552022763
  0
ARC
  8
1
  6
CONTINUOUS
 62
     7
 10
-259.0
 20
199.3313708498985
 40
0.800000000000001
 50
314.9999999999986
 51
0.0
  0
ARC
  8
1
  6
CONTINUOUS
 62
     7
 10
-281.4
 20
190.8313708498985
 40
0.8000000000000229
 50
180.000000000004
 51
224.9999999999972
  0
ARC
  8
1
  6
CONTINUOUS
 62
     7
 10
-280.6928932188135
 20
204.0
 40
0.5000000000000004
 50
90.0
 51
135.0000000000022
  0
ARC
  8
1
  6
CONTINUOUS
 62
     7
 10
-259.0
 20
194.1686291501015
 40
0.8000000000000229
 50
0.0000000000019878
 51
44.99999999999859
  0
ARC
  8
1
  6
CONTINUOUS
 62
     7
 10
-281.7
 20
182.0071067811866
 40
0.5000000000000004
 50
180.0
 51
225.0
  0
ARC
  8
1
  6
CONTINUOUS
 62
     7
 10
-208.550510246588
 20
164.0000000520703
 40
2.500000000000002
 50
90.0
 51
168.4630421851564
  0
ARC
  8
1
  6
CONTINUOUS
 62
     7
 10
-201.449489753412
 20
164.0000000520703
 40
2.500000000000011
 50
11.53695781484359
 51
89.99999999999936
  0
ARC
  8
1
  6
CONTINUOUS
 62
     7
 10
-291.4999999479297
 20
200.050510246588
 40
2.500000000000002
 50
0.0
 51
78.46304218515705
  0
ARC
  8
1
  6
CONTINUOUS
 62
     7
 10
-201.449489753412
 20
220.9999999479297
 40
2.500000000000002
 50
270.0000000000007
 51
348.4630421851564
  0
ARC
  8
1
  6
CONTINUOUS
 62
     7
 10
-272.550510246588
 20
164.0000000520703
 40
2.500000000000002
 50
90.0
 51
168.4630421851563
  0
ARC
  8
1
  6
CONTINUOUS
 62
     7
 10
-197.5
 20
163.0
 40
2.500000000000002
 50
270.0
 51
0.0
  0
ARC
  8
1
  6
CONTINUOUS
 62
     7
 10
-292.5
 20
163.0
 40
2.500000000000002
 50
180.0
 51
270.0
  0
ARC
  8
1
  6
CONTINUOUS
 62
     7
 10
-258.7
 20
182.0071067811866
 40
0.5000000000000178
 50
315.0
 51
0.0
  0
ARC
  8
1
  6
CONTINUOUS
 62
     7
 10
-197.5
 20
222.0
 40
2.500000000000002
 50
0.0
 51
90.0
  0
ARC
  8
1
  6
CONTINUOUS
 62
     7
 10
-265.449489753412
 20
164.0000000520703
 40
2.499999999999984
 50
11.53695781484371
 51
90.00000000000001
  0
ARC
  8
1
  6
CONTINUOUS
 62
     7
 10
-233.449489753412
 20
220.9999999479297
 40
2.500000000000002
 50
270.0
 51
348.4630421851564
  0
ARC
  8
1
  6
CONTINUOUS
 62
     7
 10
-240.550510246588
 20
220.9999999479297
 40
2.500000000000011
 50
191.5369578148436
 51
270.0
  0
ARC
  8
1
  6
CONTINUOUS
 62
     7
 10
-272.550510246588
 20
220.9999999479297
 40
2.499999999999984
 50
191.5369578148437
 51
270.0
  0
ARC
  8
1
  6
CONTINUOUS
 62
     7
 10
-259.7071067811848
 20
181.0000000000017
 40
0.5000000000000004
 50
270.0000000000255
 51
315.0000000000022
  0
ARC
  8
1
  6
CONTINUOUS
 62
     7
 10
-196.0
 20
163.5
 40
1.000000000000001
 50
0.0
 51
90.0
  0
ARC
  8
1
  6
CONTINUOUS
 62
     7
 10
-291.4999999479297
 20
184.949489753412
 40
2.500000000000017
 50
281.5369578148442
 51
0.0
  0
ARC
  8
1
  6
CONTINUOUS
 62
     7
 10
-265.449489753412
 20
220.9999999479297
 40
2.499999999999974
 50
270.0
 51
348.4630421851563
  0
ARC
  8
1
  6
CONTINUOUS
 62
     7
 10
-276.9089541077677
 20
185.7997342800718
 40
1.241049107883163
 50
182.3126090844154
 51
208.4438981689463
  0
ARC
  8
1
  6
CONTINUOUS
 62
     7
 10
-196.0
 20
221.5
 40
1.000000000000001
 50
270.0
 51
0.0
  0
ARC
  8
1
  6
CONTINUOUS
 62
     7
 10
-277.0136706548016
 20
187.3715586229052
 40
1.170253993493148
 50
147.4603041024116
 51
212.5535429757151
  0
ARC
  8
1
  6
CONTINUOUS
 62
     7
 10
-292.5
 20
222.0
 40
2.500000000000002
 50
90.0
 51
180.0
  0
ENDSEC
  0
EOF
