  0
SECTION
  2
HEADER
  9
$ACADVER
  1
AC1004
  9
$INSBASE
 10
0.0
 20
0.0
  9
$EXTMIN
 10
1031.5
 20
-412.9295454545455
  9
$EXTMAX
 10
2129.25
 20
-354.3999999999998
  9
$LIMMIN
 10
0.0
 20
0.0
  9
$LIMMAX
 10
12.0
 20
9.0
  9
$ORTHOMODE
 70
     0
  9
$REGENMODE
 70
     1
  9
$FILLMODE
 70
     1
  9
$QTEXTMODE
 70
     0
  9
$DRAGMODE
 70
     2
  9
$LTSCALE
 40
1.0
  9
$OSMODE
 70
    37
  9
$ATTMODE
 70
     1
  9
$TEXTSIZE
 40
0.2
  9
$TRACEWID
 40
0.05
  9
$TEXTSTYLE
  7
STANDARD
  9
$CLAYER
  8
0
  9
$CELTYPE
  6
BYLAYER
  9
$CECOLOR
 62
   256
  9
$DIMSCALE
 40
1.0
  9
$DIMASZ
 40
3.0
  9
$DIMEXO
 40
0.0625
  9
$DIMDLI
 40
0.38
  9
$DIMRND
 40
0.0
  9
$DIMDLE
 40
0.0
  9
$DIMEXE
 40
1.5
  9
$DIMTP
 40
0.0
  9
$DIMTM
 40
0.0
  9
$DIMTXT
 40
3.0
  9
$DIMCEN
 40
0.09
  9
$DIMTSZ
 40
0.0
  9
$DIMTOL
 70
     0
  9
$DIMLIM
 70
     0
  9
$DIMTIH
 70
     1
  9
$DIMTOH
 70
     1
  9
$DIMSE1
 70
     0
  9
$DIMSE2
 70
     0
  9
$DIMTAD
 70
     1
  9
$DIMZIN
 70
     0
  9
$DIMBLK
  1

  9
$DIMASO
 70
     1
  9
$DIMSHO
 70
     1
  9
$DIMPOST
  1

  9
$DIMAPOST
  1

  9
$DIMALT
 70
     0
  9
$DIMALTD
 70
     2
  9
$DIMALTF
 40
25.4
  9
$DIMLFAC
 40
1.0
  9
$DIMTOFL
 70
     0
  9
$DIMTVP
 40
0.0
  9
$DIMTIX
 70
     0
  9
$DIMSOXD
 70
     0
  9
$DIMSAH
 70
     0
  9
$DIMBLK1
  1

  9
$DIMBLK2
  1

  9
$LUNITS
 70
     2
  9
$LUPREC
 70
     4
  9
$SKETCHINC
 40
0.1
  9
$FILLETRAD
 40
0.5
  9
$AUNITS
 70
     0
  9
$AUPREC
 70
     0
  9
$MENU
  1
.
  9
$ELEVATION
 40
0.0
  9
$THICKNESS
 40
0.0
  9
$LIMCHECK
 70
     0
  9
$CHAMFERA
 40
0.0
  9
$CHAMFERB
 40
0.0
  9
$SKPOLY
 70
     0
  9
$TDCREATE
 40
2460294.490183785
  9
$TDUPDATE
 40
2460294.490183901
  9
$TDINDWG
 40
0.0000000116
  9
$TDUSRTIMER
 40
0.0000000116
  9
$USRTIMER
 70
     1
  9
$ANGBASE
 50
0.0
  9
$ANGDIR
 70
     0
  9
$PDMODE
 70
     0
  9
$PDSIZE
 40
0.0
  9
$PLINEWID
 40
0.0
  9
$COORDS
 70
     1
  9
$SPLFRAME
 70
     0
  9
$SPLINETYPE
 70
     6
  9
$SPLINESEGS
 70
     8
  9
$ATTDIA
 70
     0
  9
$ATTREQ
 70
     1
  9
$SURFTAB1
 70
     6
  9
$SURFTAB2
 70
     6
  9
$SURFTYPE
 70
     6
  9
$SURFU
 70
     6
  9
$SURFV
 70
     6
  9
$UCSNAME
  2

  9
$UCSORG
 10
0.0
 20
0.0
 30
0.0
  9
$UCSXDIR
 10
1.0
 20
0.0
 30
0.0
  9
$UCSYDIR
 10
0.0
 20
1.0
 30
0.0
  9
$USERI1
 70
     0
  9
$USERI2
 70
     0
  9
$USERI3
 70
     0
  9
$USERI4
 70
     0
  9
$USERI5
 70
     0
  9
$USERR1
 40
0.0
  9
$USERR2
 40
0.0
  9
$USERR3
 40
0.0
  9
$USERR4
 40
0.0
  9
$USERR5
 40
0.0
  9
$WORLDVIEW
 70
     1
  0
ENDSEC
  0
SECTION
  2
TABLES
  0
TABLE
  2
LTYPE
 70
     1
  0
LTYPE
  2
CONTINUOUS
 70
     0
  3
Solid line
 72
    65
 73
     0
 40
0.0
  0
ENDTAB
  0
TABLE
  2
LAYER
 70
     2
  0
LAYER
  2
0
 70
     0
 62
     7
  6
CONTINUOUS
  0
LAYER
  2
1
 70
     0
 62
     7
  6
CONTINUOUS
  0
ENDTAB
  0
TABLE
  2
STYLE
 70
     2
  0
STYLE
  2
STANDARD
 70
     0
 40
0.0
 41
1.0
 50
0.0
 71
     0
 42
0.2
  3
txt
  4

  0
STYLE
  2
ＭＳ_ゴシック
 70
     0
 40
0.0
 41
1.0
 50
0.0
 71
     0
 42
0.2
  3
ＭＳ ゴシック.shx
  4

  0
ENDTAB
  0
TABLE
  2
VIEW
 70
     0
  0
ENDTAB
  0
ENDSEC
  0
SECTION
  2
BLOCKS
  0
ENDSEC
  0
SECTION
  2
ENTITIES
  0
LINE
  8
1
  6
CONTINUOUS
 62
     7
 10
1663.75
 20
-376.6
 11
1663.75
 21
-368.6
  0
TEXT
  8
1
  6
CONTINUOUS
 62
     7
 10
1039.529995623359
 20
-413.2715799674879
 40
3.0
  1
AFP-D3030
  0
LINE
  8
1
  6
CONTINUOUS
 62
     7
 10
1614.75
 20
-368.6
 11
1614.75
 21
-376.6
  0
LINE
  8
1
  6
CONTINUOUS
 62
     7
 10
1656.75
 20
-378.6
 11
1661.75
 21
-378.6
  0
LINE
  8
1
  6
CONTINUOUS
 62
     7
 10
1620.25
 20
-366.6
 11
1620.25
 21
-363.4
  0
LINE
  8
1
  6
CONTINUOUS
 62
     7
 10
1620.25
 20
-363.4
 11
1618.25
 21
-363.4
  0
LINE
  8
1
  6
CONTINUOUS
 62
     7
 10
1621.75
 20
-366.6
 11
1620.25
 21
-366.6
  0
LINE
  8
1
  6
CONTINUOUS
 62
     7
 10
1618.25
 20
-363.4
 11
1618.25
 21
-366.6
  0
LINE
  8
1
  6
CONTINUOUS
 62
     7
 10
1618.25
 20
-366.6
 11
1616.75
 21
-366.6
  0
LINE
  8
1
  6
CONTINUOUS
 62
     7
 10
1454.75
 20
-368.6
 11
1454.75
 21
-376.6
  0
LINE
  8
1
  6
CONTINUOUS
 62
     7
 10
1500.25
 20
-366.6
 11
1500.25
 21
-363.4
  0
LINE
  8
1
  6
CONTINUOUS
 62
     7
 10
1458.25
 20
-363.4
 11
1458.25
 21
-366.6
  0
LINE
  8
1
  6
CONTINUOUS
 62
     7
 10
1463.75
 20
-376.6
 11
1463.75
 21
-368.6
  0
LINE
  8
1
  6
CONTINUOUS
 62
     7
 10
1461.75
 20
-366.6
 11
1460.25
 21
-366.6
  0
LINE
  8
1
  6
CONTINUOUS
 62
     7
 10
1460.25
 20
-363.4
 11
1458.25
 21
-363.4
  0
LINE
  8
1
  6
CONTINUOUS
 62
     7
 10
1501.75
 20
-366.6
 11
1500.25
 21
-366.6
  0
LINE
  8
1
  6
CONTINUOUS
 62
     7
 10
1500.25
 20
-363.4
 11
1498.25
 21
-363.4
  0
LINE
  8
1
  6
CONTINUOUS
 62
     7
 10
1498.25
 20
-366.6
 11
1496.75
 21
-366.6
  0
LINE
  8
1
  6
CONTINUOUS
 62
     7
 10
1543.75
 20
-376.6
 11
1543.75
 21
-368.6
  0
LINE
  8
1
  6
CONTINUOUS
 62
     7
 10
1456.75
 20
-378.6
 11
1461.75
 21
-378.6
  0
LINE
  8
1
  6
CONTINUOUS
 62
     7
 10
1498.25
 20
-363.4
 11
1498.25
 21
-366.6
  0
LINE
  8
1
  6
CONTINUOUS
 62
     7
 10
1460.25
 20
-366.6
 11
1460.25
 21
-363.4
  0
LINE
  8
1
  6
CONTINUOUS
 62
     7
 10
1541.75
 20
-366.6
 11
1540.25
 21
-366.6
  0
LINE
  8
1
  6
CONTINUOUS
 62
     7
 10
1540.25
 20
-366.6
 11
1540.25
 21
-363.4
  0
LINE
  8
1
  6
CONTINUOUS
 62
     7
 10
1496.75
 20
-378.6
 11
1501.75
 21
-378.6
  0
LINE
  8
1
  6
CONTINUOUS
 62
     7
 10
1540.25
 20
-363.4
 11
1538.25
 21
-363.4
  0
LINE
  8
1
  6
CONTINUOUS
 62
     7
 10
1538.25
 20
-363.4
 11
1538.25
 21
-366.6
  0
LINE
  8
1
  6
CONTINUOUS
 62
     7
 10
1503.75
 20
-376.6
 11
1503.75
 21
-368.6
  0
LINE
  8
1
  6
CONTINUOUS
 62
     7
 10
1538.25
 20
-366.6
 11
1536.75
 21
-366.6
  0
LINE
  8
1
  6
CONTINUOUS
 62
     7
 10
1534.75
 20
-368.6
 11
1534.75
 21
-376.6
  0
LINE
  8
1
  6
CONTINUOUS
 62
     7
 10
1576.75
 20
-378.6
 11
1581.75
 21
-378.6
  0
LINE
  8
1
  6
CONTINUOUS
 62
     7
 10
1583.75
 20
-376.6
 11
1583.75
 21
-368.6
  0
LINE
  8
1
  6
CONTINUOUS
 62
     7
 10
1580.25
 20
-366.6
 11
1580.25
 21
-363.4
  0
LINE
  8
1
  6
CONTINUOUS
 62
     7
 10
1458.25
 20
-366.6
 11
1456.75
 21
-366.6
  0
LINE
  8
1
  6
CONTINUOUS
 62
     7
 10
1580.25
 20
-363.4
 11
1578.25
 21
-363.4
  0
LINE
  8
1
  6
CONTINUOUS
 62
     7
 10
1578.25
 20
-363.4
 11
1578.25
 21
-366.6
  0
LINE
  8
1
  6
CONTINUOUS
 62
     7
 10
1574.75
 20
-368.6
 11
1574.75
 21
-376.6
  0
LINE
  8
1
  6
CONTINUOUS
 62
     7
 10
1494.75
 20
-368.6
 11
1494.75
 21
-376.6
  0
LINE
  8
1
  6
CONTINUOUS
 62
     7
 10
1578.25
 20
-366.6
 11
1576.75
 21
-366.6
  0
LINE
  8
1
  6
CONTINUOUS
 62
     7
 10
1616.75
 20
-378.6
 11
1621.75
 21
-378.6
  0
LINE
  8
1
  6
CONTINUOUS
 62
     7
 10
1536.75
 20
-378.6
 11
1541.75
 21
-378.6
  0
LINE
  8
1
  6
CONTINUOUS
 62
     7
 10
1581.75
 20
-366.6
 11
1580.25
 21
-366.6
  0
LINE
  8
1
  6
CONTINUOUS
 62
     7
 10
1623.75
 20
-376.6
 11
1623.75
 21
-368.6
  0
ARC
  8
1
  6
CONTINUOUS
 62
     7
 10
1256.75
 20
-376.6
 40
2.000000000000002
 50
180.0
 51
270.0
  0
ARC
  8
1
  6
CONTINUOUS
 62
     7
 10
1057.5
 20
-354.6
 40
0.2000000000002
 50
0.0
 51
180.0
  0
ARC
  8
1
  6
CONTINUOUS
 62
     7
 10
1058.15
 20
-357.7
 40
1.199999999999868
 50
180.0
 51
295.9444797319866
  0
ARC
  8
1
  6
CONTINUOUS
 62
     7
 10
1296.75
 20
-368.6
 40
2.000000000000002
 50
90.0
 51
180.0
  0
ARC
  8
1
  6
CONTINUOUS
 62
     7
 10
1057.95
 20
-357.7
 40
1.30000000000008
 50
303.89635516265
 51
0.0
  0
ARC
  8
1
  6
CONTINUOUS
 62
     7
 10
1058.0
 20
-358.2
 40
2.999999999999892
 50
180.0
 51
270.0
  0
ARC
  8
1
  6
CONTINUOUS
 62
     7
 10
1035.0
 20
-358.2
 40
4.699999999999982
 50
270.0
 51
0.0
  0
ARC
  8
1
  6
CONTINUOUS
 62
     7
 10
1136.75
 20
-376.6
 40
2.000000000000002
 50
180.0
 51
270.0
  0
ARC
  8
1
  6
CONTINUOUS
 62
     7
 10
1033.557106781187
 20
-355.1
 40
0.4999999999999449
 50
90.0
 51
134.9999999999955
  0
ARC
  8
1
  6
CONTINUOUS
 62
     7
 10
1035.5
 20
-354.6
 40
0.2000000000002
 50
0.0
 51
180.0
  0
ARC
  8
1
  6
CONTINUOUS
 62
     7
 10
1034.85
 20
-357.7
 40
1.200000000000112
 50
156.4435356908986
 51
244.0555202680074
  0
ARC
  8
1
  6
CONTINUOUS
 62
     7
 10
1141.75
 20
-376.6
 40
2.000000000000002
 50
270.0
 51
0.0
  0
ARC
  8
1
  6
CONTINUOUS
 62
     7
 10
1035.05
 20
-357.7
 40
1.30000000000008
 50
236.1036448373499
 51
243.6122000387573
  0
ARC
  8
1
  6
CONTINUOUS
 62
     7
 10
1181.75
 20
-376.6
 40
2.000000000000002
 50
270.0
 51
0.0
  0
ARC
  8
1
  6
CONTINUOUS
 62
     7
 10
1035.05
 20
-357.7
 40
1.300000000000079
 50
180.0
 51
236.1036448373499
  0
ARC
  8
1
  6
CONTINUOUS
 62
     7
 10
1034.25
 20
-359.7493901531919
 40
0.4999999999999094
 50
248.6763137365129
 51
0.0
  0
ARC
  8
1
  6
CONTINUOUS
 62
     7
 10
1032.35
 20
-356.3
 40
0.4000000000000115
 50
90.0
 51
270.0
  0
ARC
  8
1
  6
CONTINUOUS
 62
     7
 10
1032.85
 20
-355.8071067811865
 40
0.5000000000001356
 50
135.0000000000045
 51
180.0
  0
ARC
  8
1
  6
CONTINUOUS
 62
     7
 10
1060.7
 20
-361.2
 40
0.9000000000000119
 50
90.0
 51
159.0751675723625
  0
ARC
  8
1
  6
CONTINUOUS
 62
     7
 10
1044.142623153841
 20
-392.7
 40
0.5000000000000004
 50
270.0
 51
7.815293546766498
  0
ARC
  8
1
  6
CONTINUOUS
 62
     7
 10
1055.0
 20
-357.7
 40
1.700000000000035
 50
90.0
 51
180.0
  0
ARC
  8
1
  6
CONTINUOUS
 62
     7
 10
1058.15
 20
-357.7
 40
1.200000000000134
 50
23.55646430910383
 51
44.99999999999811
  0
ARC
  8
1
  6
CONTINUOUS
 62
     7
 10
1057.95
 20
-357.7
 40
2.69999999999998
 50
291.3236862634984
 51
0.0
  0
ARC
  8
1
  6
CONTINUOUS
 62
     7
 10
1141.75
 20
-368.6
 40
2.000000000000002
 50
0.0
 51
90.0
  0
ARC
  8
1
  6
CONTINUOUS
 62
     7
 10
1176.75
 20
-376.6
 40
2.000000000000002
 50
180.0
 51
270.0
  0
ARC
  8
1
  6
CONTINUOUS
 62
     7
 10
1035.0
 20
-358.2
 40
3.000000000000114
 50
270.0
 51
0.0
  0
ARC
  8
1
  6
CONTINUOUS
 62
     7
 10
1032.3
 20
-361.2
 40
0.9000000000000687
 50
20.92483242763746
 51
90.0
  0
ARC
  8
1
  6
CONTINUOUS
 62
     7
 10
1221.75
 20
-376.6
 40
2.000000000000002
 50
270.0
 51
0.0
  0
ARC
  8
1
  6
CONTINUOUS
 62
     7
 10
1216.75
 20
-368.6
 40
2.000000000000002
 50
90.0
 51
180.0
  0
ARC
  8
1
  6
CONTINUOUS
 62
     7
 10
1059.442893218813
 20
-355.1
 40
0.4999999999999
 50
45.0000000000045
 51
90.0
  0
ARC
  8
1
  6
CONTINUOUS
 62
     7
 10
1301.75
 20
-376.6
 40
2.000000000000002
 50
270.0
 51
0.0
  0
ARC
  8
1
  6
CONTINUOUS
 62
     7
 10
1301.75
 20
-368.6
 40
2.000000000000002
 50
0.0
 51
90.0
  0
ARC
  8
1
  6
CONTINUOUS
 62
     7
 10
1055.5
 20
-354.6
 40
0.2000000000002
 50
0.0
 51
180.0
  0
ARC
  8
1
  6
CONTINUOUS
 62
     7
 10
1034.85
 20
-357.7
 40
1.199999999999847
 50
244.0555202680134
 51
0.0
  0
ARC
  8
1
  6
CONTINUOUS
 62
     7
 10
1043.436060301029
 20
-392.7
 40
0.500000000000221
 50
187.8152935467693
 51
270.0
  0
ARC
  8
1
  6
CONTINUOUS
 62
     7
 10
1032.0
 20
-360.8
 40
0.5000000000000004
 50
90.0
 51
180.0
  0
ARC
  8
1
  6
CONTINUOUS
 62
     7
 10
1181.75
 20
-368.6
 40
2.000000000000002
 50
0.0
 51
90.0
  0
ARC
  8
1
  6
CONTINUOUS
 62
     7
 10
1216.75
 20
-376.6
 40
2.000000000000002
 50
180.0
 51
270.0
  0
ARC
  8
1
  6
CONTINUOUS
 62
     7
 10
1058.15
 20
-357.7
 40
1.200000000000094
 50
295.9444797319926
 51
23.55646430910139
  0
ARC
  8
1
  6
CONTINUOUS
 62
     7
 10
1038.0
 20
-357.7
 40
1.700000000000035
 50
0.0
 51
90.0
  0
ARC
  8
1
  6
CONTINUOUS
 62
     7
 10
1296.75
 20
-376.6
 40
2.000000000000002
 50
180.0
 51
270.0
  0
ARC
  8
1
  6
CONTINUOUS
 62
     7
 10
1049.563939698971
 20
-392.7
 40
0.5000000000000004
 50
270.0
 51
352.1847064532336
  0
ARC
  8
1
  6
CONTINUOUS
 62
     7
 10
1341.75
 20
-376.6
 40
2.000000000000002
 50
270.0
 51
0.0
  0
ARC
  8
1
  6
CONTINUOUS
 62
     7
 10
1048.857376846158
 20
-392.7
 40
0.4999999999999935
 50
172.1847064532335
 51
270.0
  0
ARC
  8
1
  6
CONTINUOUS
 62
     7
 10
1059.392330316938
 20
-360.7
 40
0.5000000000000004
 50
270.0
 51
339.0751675723635
  0
ARC
  8
1
  6
CONTINUOUS
 62
     7
 10
1061.0
 20
-360.8
 40
0.4999999999999449
 50
0.0
 51
90.0
  0
ARC
  8
1
  6
CONTINUOUS
 62
     7
 10
1037.5
 20
-354.6
 40
0.2000000000002
 50
0.0
 51
180.0
  0
ARC
  8
1
  6
CONTINUOUS
 62
     7
 10
1033.7
 20
-363.4
 40
0.500000000000167
 50
90.0
 51
180.0
  0
ARC
  8
1
  6
CONTINUOUS
 62
     7
 10
1035.05
 20
-357.7
 40
2.699999999999925
 50
180.0
 51
248.6763137365016
  0
ARC
  8
1
  6
CONTINUOUS
 62
     7
 10
1033.041421356237
 20
-378.7414213562373
 40
0.1414213562372924
 50
90.0
 51
225.0
  0
ARC
  8
1
  6
CONTINUOUS
 62
     7
 10
1034.85
 20
-357.7
 40
1.200000000000129
 50
135.0000000000019
 51
156.4435356908962
  0
ARC
  8
1
  6
CONTINUOUS
 62
     7
 10
1060.65
 20
-356.3
 40
0.4000000000000115
 50
270.0
 51
90.0
  0
ARC
  8
1
  6
CONTINUOUS
 62
     7
 10
1059.3
 20
-363.4
 40
0.4999999999999449
 50
0.0
 51
90.0
  0
ARC
  8
1
  6
CONTINUOUS
 62
     7
 10
1033.607669683062
 20
-360.7
 40
0.5000000000000085
 50
200.9248324276365
 51
270.0
  0
ARC
  8
1
  6
CONTINUOUS
 62
     7
 10
1059.958578643763
 20
-378.7414213562373
 40
0.1414213562372939
 50
315.0
 51
90.0
  0
ARC
  8
1
  6
CONTINUOUS
 62
     7
 10
1058.0
 20
-358.2
 40
4.700000000000149
 50
180.0
 51
270.0
  0
ARC
  8
1
  6
CONTINUOUS
 62
     7
 10
1136.75
 20
-368.6
 40
2.000000000000002
 50
90.0
 51
180.0
  0
ARC
  8
1
  6
CONTINUOUS
 62
     7
 10
1221.75
 20
-368.6
 40
2.000000000000002
 50
0.0
 51
90.0
  0
ARC
  8
1
  6
CONTINUOUS
 62
     7
 10
1057.95
 20
-357.7
 40
1.300000000000034
 50
296.3877999612428
 51
303.89635516265
  0
ARC
  8
1
  6
CONTINUOUS
 62
     7
 10
1034.25
 20
-359.3124515496597
 40
0.500000000000167
 50
0.0
 51
63.61220003875171
  0
ARC
  8
1
  6
CONTINUOUS
 62
     7
 10
1261.75
 20
-376.6
 40
2.000000000000002
 50
270.0
 51
0.0
  0
ARC
  8
1
  6
CONTINUOUS
 62
     7
 10
1176.75
 20
-368.6
 40
2.000000000000002
 50
90.0
 51
180.0
  0
ARC
  8
1
  6
CONTINUOUS
 62
     7
 10
1261.75
 20
-368.6
 40
2.000000000000002
 50
0.0
 51
90.0
  0
ARC
  8
1
  6
CONTINUOUS
 62
     7
 10
1256.75
 20
-368.6
 40
2.000000000000002
 50
90.0
 51
180.0
  0
ARC
  8
1
  6
CONTINUOUS
 62
     7
 10
1058.75
 20
-359.3124515496597
 40
0.5000000000001849
 50
116.3877999612483
 51
180.0
  0
ARC
  8
1
  6
CONTINUOUS
 62
     7
 10
1058.25
 20
-357.0
 40
1.000000000000112
 50
0.0
 51
90.0
  0
ARC
  8
1
  6
CONTINUOUS
 62
     7
 10
1060.15
 20
-355.8071067811865
 40
0.500000000000167
 50
0.0
 51
44.99999999999548
  0
ARC
  8
1
  6
CONTINUOUS
 62
     7
 10
1058.75
 20
-359.7493901531919
 40
0.4999999999999449
 50
180.0
 51
291.3236862634871
  0
ARC
  8
1
  6
CONTINUOUS
 62
     7
 10
1034.75
 20
-357.0
 40
1.000000000000112
 50
90.0
 51
180.0
  0
LINE
  8
1
  6
CONTINUOUS
 62
     7
 10
1160.25
 20
-366.6
 11
1160.25
 21
-363.4
  0
LINE
  8
1
  6
CONTINUOUS
 62
     7
 10
1158.25
 20
-363.4
 11
1158.25
 21
-366.6
  0
LINE
  8
1
  6
CONTINUOUS
 62
     7
 10
1129.25
 20
-384.6
 11
1129.25
 21
-360.8
  0
LINE
  8
1
  6
CONTINUOUS
 62
     7
 10
2129.25
 20
-354.4
 11
1129.25
 21
-354.4
  0
LINE
  8
1
  6
CONTINUOUS
 62
     7
 10
1129.25
 20
-392.767990010365
 11
1129.25
 21
-388.1
  0
LINE
  8
1
  6
CONTINUOUS
 62
     7
 10
2129.25
 20
-388.1
 11
1129.25
 21
-388.1
  0
LINE
  8
1
  6
CONTINUOUS
 62
     7
 10
1129.25
 20
-393.2
 11
1129.25
 21
-392.767990010365
  0
LINE
  8
1
  6
CONTINUOUS
 62
     7
 10
1129.25
 20
-360.8
 11
1129.25
 21
-360.3
  0
LINE
  8
1
  6
CONTINUOUS
 62
     7
 10
1129.25
 20
-360.2493901531919
 11
1129.25
 21
-360.3
  0
LINE
  8
1
  6
CONTINUOUS
 62
     7
 10
2129.25
 20
-385.6
 11
2129.25
 21
-384.6
  0
LINE
  8
1
  6
CONTINUOUS
 62
     7
 10
2129.25
 20
-392.7
 11
2129.25
 21
-388.1
  0
LINE
  8
1
  6
CONTINUOUS
 62
     7
 10
1154.75
 20
-368.6
 11
1154.75
 21
-376.6
  0
LINE
  8
1
  6
CONTINUOUS
 62
     7
 10
1129.25
 20
-385.6
 11
1129.25
 21
-384.6
  0
LINE
  8
1
  6
CONTINUOUS
 62
     7
 10
2129.25
 20
-392.7
 11
2129.25
 21
-393.2
  0
LINE
  8
1
  6
CONTINUOUS
 62
     7
 10
1129.25
 20
-388.1
 11
1129.25
 21
-385.6
  0
LINE
  8
1
  6
CONTINUOUS
 62
     7
 10
1129.25
 20
-360.2493901531919
 11
2129.25
 21
-360.2493901531919
  0
LINE
  8
1
  6
CONTINUOUS
 62
     7
 10
2129.25
 20
-360.3
 11
2129.25
 21
-360.8
  0
LINE
  8
1
  6
CONTINUOUS
 62
     7
 10
2129.25
 20
-385.6
 11
1129.25
 21
-385.6
  0
LINE
  8
1
  6
CONTINUOUS
 62
     7
 10
2129.25
 20
-388.1
 11
2129.25
 21
-385.6
  0
LINE
  8
1
  6
CONTINUOUS
 62
     7
 10
2129.245355789802
 20
-392.767990010365
 11
2129.25
 21
-392.7
  0
LINE
  8
1
  6
CONTINUOUS
 62
     7
 10
1129.25
 20
-360.3
 11
2129.25
 21
-360.3
  0
LINE
  8
1
  6
CONTINUOUS
 62
     7
 10
2128.75
 20
-393.2
 11
1129.25
 21
-393.2
  0
LINE
  8
1
  6
CONTINUOUS
 62
     7
 10
1160.25
 20
-363.4
 11
1158.25
 21
-363.4
  0
LINE
  8
1
  6
CONTINUOUS
 62
     7
 10
1158.25
 20
-366.6
 11
1156.75
 21
-366.6
  0
LINE
  8
1
  6
CONTINUOUS
 62
     7
 10
2129.25
 20
-393.2
 11
2128.75
 21
-393.2
  0
LINE
  8
1
  6
CONTINUOUS
 62
     7
 10
2129.25
 20
-360.3
 11
2129.25
 21
-360.2493901531919
  0
ARC
  8
1
  6
CONTINUOUS
 62
     7
 10
1281.75
 20
-368.6
 40
2.000000000000002
 50
0.0
 51
90.0
  0
ARC
  8
1
  6
CONTINUOUS
 62
     7
 10
1276.75
 20
-376.6
 40
2.000000000000002
 50
180.0
 51
270.0
  0
ARC
  8
1
  6
CONTINUOUS
 62
     7
 10
1241.75
 20
-376.6
 40
2.000000000000002
 50
270.0
 51
0.0
  0
ARC
  8
1
  6
CONTINUOUS
 62
     7
 10
1836.75
 20
-368.6
 40
2.000000000000002
 50
90.0
 51
180.0
  0
ARC
  8
1
  6
CONTINUOUS
 62
     7
 10
1836.75
 20
-376.6
 40
2.000000000000002
 50
180.0
 51
270.0
  0
ARC
  8
1
  6
CONTINUOUS
 62
     7
 10
1601.75
 20
-368.6
 40
2.000000000000224
 50
0.0
 51
90.0
  0
ARC
  8
1
  6
CONTINUOUS
 62
     7
 10
1361.75
 20
-368.6
 40
2.000000000000002
 50
0.0
 51
90.0
  0
ARC
  8
1
  6
CONTINUOUS
 62
     7
 10
1276.75
 20
-368.6
 40
2.000000000000002
 50
90.0
 51
180.0
  0
ARC
  8
1
  6
CONTINUOUS
 62
     7
 10
1481.75
 20
-376.6
 40
2.000000000000002
 50
270.0
 51
0.0
  0
ARC
  8
1
  6
CONTINUOUS
 62
     7
 10
1676.75
 20
-376.6
 40
2.000000000000002
 50
180.0
 51
270.0
  0
ARC
  8
1
  6
CONTINUOUS
 62
     7
 10
1801.75
 20
-368.6
 40
2.000000000000002
 50
0.0
 51
90.0
  0
ARC
  8
1
  6
CONTINUOUS
 62
     7
 10
1241.75
 20
-368.6
 40
2.000000000000002
 50
0.0
 51
90.0
  0
ARC
  8
1
  6
CONTINUOUS
 62
     7
 10
1596.75
 20
-368.6
 40
2.000000000000002
 50
90.0
 51
180.0
  0
ARC
  8
1
  6
CONTINUOUS
 62
     7
 10
1236.75
 20
-368.6
 40
2.000000000000002
 50
90.0
 51
180.0
  0
ARC
  8
1
  6
CONTINUOUS
 62
     7
 10
1716.75
 20
-376.6
 40
2.000000000000002
 50
180.0
 51
270.0
  0
ARC
  8
1
  6
CONTINUOUS
 62
     7
 10
1841.75
 20
-368.6
 40
2.000000000000002
 50
0.0
 51
90.0
  0
ARC
  8
1
  6
CONTINUOUS
 62
     7
 10
1676.75
 20
-368.6
 40
2.000000000000002
 50
90.0
 51
180.0
  0
ARC
  8
1
  6
CONTINUOUS
 62
     7
 10
1596.75
 20
-376.6
 40
2.000000000000002
 50
180.0
 51
270.0
  0
ARC
  8
1
  6
CONTINUOUS
 62
     7
 10
1561.75
 20
-376.6
 40
2.000000000000002
 50
270.0
 51
0.0
  0
ARC
  8
1
  6
CONTINUOUS
 62
     7
 10
1601.75
 20
-376.6
 40
2.000000000000002
 50
270.0
 51
0.0
  0
ARC
  8
1
  6
CONTINUOUS
 62
     7
 10
1561.75
 20
-368.6
 40
2.000000000000224
 50
0.0
 51
90.0
  0
ARC
  8
1
  6
CONTINUOUS
 62
     7
 10
1876.75
 20
-376.6
 40
2.000000000000002
 50
180.0
 51
270.0
  0
ARC
  8
1
  6
CONTINUOUS
 62
     7
 10
1841.75
 20
-376.6
 40
2.000000000000002
 50
269.9999999999936
 51
0.0
  0
ARC
  8
1
  6
CONTINUOUS
 62
     7
 10
1796.75
 20
-376.6
 40
2.000000000000002
 50
180.0
 51
270.0
  0
ARC
  8
1
  6
CONTINUOUS
 62
     7
 10
1761.75
 20
-376.6
 40
2.000000000000002
 50
269.9999999999936
 51
0.0
  0
ARC
  8
1
  6
CONTINUOUS
 62
     7
 10
1556.75
 20
-368.6
 40
2.000000000000002
 50
90.0
 51
180.0
  0
ARC
  8
1
  6
CONTINUOUS
 62
     7
 10
1516.75
 20
-368.6
 40
2.000000000000002
 50
90.0
 51
180.0
  0
ARC
  8
1
  6
CONTINUOUS
 62
     7
 10
1401.75
 20
-376.6
 40
2.000000000000002
 50
270.0
 51
0.0
  0
ARC
  8
1
  6
CONTINUOUS
 62
     7
 10
1436.75
 20
-376.6
 40
1.99999999999978
 50
180.0
 51
270.0
  0
ARC
  8
1
  6
CONTINUOUS
 62
     7
 10
1521.75
 20
-368.6
 40
2.000000000000002
 50
0.0
 51
90.0
  0
ARC
  8
1
  6
CONTINUOUS
 62
     7
 10
1476.75
 20
-376.6
 40
1.99999999999978
 50
180.0
 51
270.0
  0
ARC
  8
1
  6
CONTINUOUS
 62
     7
 10
1641.75
 20
-368.6
 40
2.000000000000002
 50
0.0
 51
90.0
  0
ARC
  8
1
  6
CONTINUOUS
 62
     7
 10
1476.75
 20
-368.6
 40
2.000000000000002
 50
90.0
 51
180.0
  0
ARC
  8
1
  6
CONTINUOUS
 62
     7
 10
1721.75
 20
-376.6
 40
2.000000000000002
 50
269.9999999999936
 51
0.0
  0
ARC
  8
1
  6
CONTINUOUS
 62
     7
 10
1756.75
 20
-376.6
 40
2.000000000000002
 50
180.0
 51
270.0
  0
ARC
  8
1
  6
CONTINUOUS
 62
     7
 10
1481.75
 20
-368.6
 40
2.000000000000002
 50
0.0
 51
90.0
  0
ARC
  8
1
  6
CONTINUOUS
 62
     7
 10
1441.75
 20
-368.6
 40
2.000000000000002
 50
0.0
 51
90.0
  0
ARC
  8
1
  6
CONTINUOUS
 62
     7
 10
1401.75
 20
-368.6
 40
2.000000000000002
 50
0.0
 51
90.0
  0
ARC
  8
1
  6
CONTINUOUS
 62
     7
 10
1636.75
 20
-368.6
 40
2.000000000000002
 50
89.99999999999363
 51
180.0
  0
ARC
  8
1
  6
CONTINUOUS
 62
     7
 10
1636.75
 20
-376.6
 40
2.000000000000224
 50
180.0
 51
270.0000000000064
  0
ARC
  8
1
  6
CONTINUOUS
 62
     7
 10
1436.75
 20
-368.6
 40
2.000000000000002
 50
90.0
 51
180.0
  0
ARC
  8
1
  6
CONTINUOUS
 62
     7
 10
1396.75
 20
-368.6
 40
2.000000000000002
 50
90.0
 51
180.0
  0
ARC
  8
1
  6
CONTINUOUS
 62
     7
 10
1796.75
 20
-368.6
 40
2.000000000000002
 50
90.0
 51
180.0
  0
ARC
  8
1
  6
CONTINUOUS
 62
     7
 10
1716.75
 20
-368.6
 40
2.000000000000002
 50
90.0
 51
180.0
  0
ARC
  8
1
  6
CONTINUOUS
 62
     7
 10
1521.75
 20
-376.6
 40
2.000000000000002
 50
270.0
 51
0.0
  0
ARC
  8
1
  6
CONTINUOUS
 62
     7
 10
1361.75
 20
-376.6
 40
2.000000000000002
 50
270.0
 51
0.0
  0
ARC
  8
1
  6
CONTINUOUS
 62
     7
 10
1516.75
 20
-376.6
 40
2.000000000000002
 50
180.0
 51
270.0
  0
ARC
  8
1
  6
CONTINUOUS
 62
     7
 10
1721.75
 20
-368.6
 40
2.000000000000002
 50
0.0
 51
90.0
  0
ARC
  8
1
  6
CONTINUOUS
 62
     7
 10
1641.75
 20
-376.6
 40
2.000000000000002
 50
270.0
 51
0.0
  0
ARC
  8
1
  6
CONTINUOUS
 62
     7
 10
1356.75
 20
-368.6
 40
2.000000000000002
 50
90.0
 51
180.0
  0
ARC
  8
1
  6
CONTINUOUS
 62
     7
 10
1356.75
 20
-376.6
 40
2.000000000000002
 50
180.0
 51
270.0
  0
ARC
  8
1
  6
CONTINUOUS
 62
     7
 10
1761.75
 20
-368.6
 40
2.000000000000002
 50
0.0
 51
90.0
  0
ARC
  8
1
  6
CONTINUOUS
 62
     7
 10
1321.75
 20
-376.6
 40
2.000000000000002
 50
270.0
 51
0.0
  0
ARC
  8
1
  6
CONTINUOUS
 62
     7
 10
1316.75
 20
-376.6
 40
2.000000000000002
 50
180.0
 51
270.0
  0
ARC
  8
1
  6
CONTINUOUS
 62
     7
 10
1396.75
 20
-376.6
 40
2.000000000000002
 50
180.0
 51
270.0
  0
ARC
  8
1
  6
CONTINUOUS
 62
     7
 10
1281.75
 20
-376.6
 40
2.000000000000002
 50
270.0
 51
0.0
  0
ARC
  8
1
  6
CONTINUOUS
 62
     7
 10
1801.75
 20
-376.6
 40
2.000000000000002
 50
269.9999999999936
 51
0.0
  0
ARC
  8
1
  6
CONTINUOUS
 62
     7
 10
1556.75
 20
-376.6
 40
2.000000000000002
 50
180.0
 51
270.0
  0
ARC
  8
1
  6
CONTINUOUS
 62
     7
 10
1441.75
 20
-376.6
 40
2.000000000000002
 50
270.0
 51
0.0
  0
ARC
  8
1
  6
CONTINUOUS
 62
     7
 10
1756.75
 20
-368.6
 40
2.000000000000002
 50
90.0
 51
180.0
  0
ARC
  8
1
  6
CONTINUOUS
 62
     7
 10
1321.75
 20
-368.6
 40
1.99999999999978
 50
0.0
 51
90.0
  0
ARC
  8
1
  6
CONTINUOUS
 62
     7
 10
1681.75
 20
-376.6
 40
2.000000000000002
 50
270.0
 51
0.0
  0
ARC
  8
1
  6
CONTINUOUS
 62
     7
 10
1316.75
 20
-368.6
 40
2.000000000000002
 50
90.0
 51
180.0
  0
ARC
  8
1
  6
CONTINUOUS
 62
     7
 10
1681.75
 20
-368.6
 40
2.000000000000002
 50
0.0
 51
90.0
  0
ARC
  8
1
  6
CONTINUOUS
 62
     7
 10
1621.75
 20
-368.6
 40
2.000000000000002
 50
0.0
 51
90.0
  0
ARC
  8
1
  6
CONTINUOUS
 62
     7
 10
1616.75
 20
-376.6
 40
2.000000000000002
 50
180.0
 51
270.0
  0
ARC
  8
1
  6
CONTINUOUS
 62
     7
 10
1776.75
 20
-376.6
 40
2.000000000000002
 50
180.0
 51
270.0
  0
ARC
  8
1
  6
CONTINUOUS
 62
     7
 10
1821.75
 20
-376.6
 40
2.000000000000002
 50
269.9999999999936
 51
0.0
  0
ARC
  8
1
  6
CONTINUOUS
 62
     7
 10
1781.75
 20
-376.6
 40
2.000000000000002
 50
269.9999999999936
 51
0.0
  0
ARC
  8
1
  6
CONTINUOUS
 62
     7
 10
1821.75
 20
-368.6
 40
2.000000000000002
 50
0.0
 51
90.0
  0
ARC
  8
1
  6
CONTINUOUS
 62
     7
 10
1456.75
 20
-376.6
 40
1.99999999999978
 50
180.0
 51
270.0
  0
ARC
  8
1
  6
CONTINUOUS
 62
     7
 10
1621.75
 20
-376.6
 40
2.000000000000002
 50
270.0
 51
0.0
  0
ARC
  8
1
  6
CONTINUOUS
 62
     7
 10
1816.75
 20
-376.6
 40
2.000000000000002
 50
180.0
 51
270.0
  0
ARC
  8
1
  6
CONTINUOUS
 62
     7
 10
1861.75
 20
-376.6
 40
2.000000000000002
 50
270.0
 51
0.0
  0
ARC
  8
1
  6
CONTINUOUS
 62
     7
 10
1901.75
 20
-376.6
 40
2.000000000000002
 50
270.0
 51
0.0
  0
ARC
  8
1
  6
CONTINUOUS
 62
     7
 10
1901.75
 20
-368.6
 40
2.000000000000002
 50
0.0
 51
90.0
  0
ARC
  8
1
  6
CONTINUOUS
 62
     7
 10
1576.75
 20
-376.6
 40
2.000000000000002
 50
180.0
 51
270.0
  0
ARC
  8
1
  6
CONTINUOUS
 62
     7
 10
1341.75
 20
-368.6
 40
1.99999999999978
 50
0.0
 51
90.0
  0
ARC
  8
1
  6
CONTINUOUS
 62
     7
 10
1381.75
 20
-368.6
 40
2.000000000000002
 50
0.0
 51
90.0
  0
ARC
  8
1
  6
CONTINUOUS
 62
     7
 10
1501.75
 20
-376.6
 40
2.000000000000002
 50
270.0
 51
0.0
  0
ARC
  8
1
  6
CONTINUOUS
 62
     7
 10
1661.75
 20
-376.6
 40
2.000000000000002
 50
270.0
 51
0.0
  0
ARC
  8
1
  6
CONTINUOUS
 62
     7
 10
1656.75
 20
-368.6
 40
2.000000000000002
 50
90.0
 51
180.0
  0
ARC
  8
1
  6
CONTINUOUS
 62
     7
 10
1736.75
 20
-376.6
 40
2.000000000000002
 50
180.0
 51
270.0
  0
ARC
  8
1
  6
CONTINUOUS
 62
     7
 10
1536.75
 20
-368.6
 40
2.000000000000002
 50
90.0
 51
180.0
  0
ARC
  8
1
  6
CONTINUOUS
 62
     7
 10
1696.75
 20
-376.6
 40
2.000000000000002
 50
180.0
 51
270.0
  0
ARC
  8
1
  6
CONTINUOUS
 62
     7
 10
1701.75
 20
-368.6
 40
2.000000000000002
 50
0.0
 51
90.0
  0
ARC
  8
1
  6
CONTINUOUS
 62
     7
 10
1856.75
 20
-376.6
 40
2.000000000000002
 50
180.0
 51
270.0
  0
ARC
  8
1
  6
CONTINUOUS
 62
     7
 10
1941.75
 20
-376.6
 40
2.000000000000002
 50
270.0
 51
0.0
  0
ARC
  8
1
  6
CONTINUOUS
 62
     7
 10
1496.75
 20
-376.6
 40
2.000000000000002
 50
180.0
 51
270.0
  0
ARC
  8
1
  6
CONTINUOUS
 62
     7
 10
1461.75
 20
-368.6
 40
2.000000000000002
 50
0.0
 51
90.0
  0
ARC
  8
1
  6
CONTINUOUS
 62
     7
 10
1581.75
 20
-376.6
 40
2.000000000000002
 50
270.0
 51
0.0
  0
ARC
  8
1
  6
CONTINUOUS
 62
     7
 10
1541.75
 20
-368.6
 40
2.000000000000002
 50
0.0
 51
90.0
  0
ARC
  8
1
  6
CONTINUOUS
 62
     7
 10
1741.75
 20
-368.6
 40
2.000000000000002
 50
0.0
 51
90.0
  0
ARC
  8
1
  6
CONTINUOUS
 62
     7
 10
1461.75
 20
-376.6
 40
2.000000000000002
 50
270.0
 51
0.0
  0
ARC
  8
1
  6
CONTINUOUS
 62
     7
 10
1336.75
 20
-376.6
 40
2.000000000000002
 50
180.0
 51
270.0
  0
ARC
  8
1
  6
CONTINUOUS
 62
     7
 10
1376.75
 20
-376.6
 40
2.000000000000002
 50
180.0
 51
270.0
  0
ARC
  8
1
  6
CONTINUOUS
 62
     7
 10
1416.75
 20
-376.6
 40
2.000000000000002
 50
180.0
 51
270.0
  0
ARC
  8
1
  6
CONTINUOUS
 62
     7
 10
1541.75
 20
-376.6
 40
2.000000000000002
 50
270.0
 51
0.0
  0
ARC
  8
1
  6
CONTINUOUS
 62
     7
 10
1336.75
 20
-368.6
 40
2.000000000000002
 50
90.0
 51
180.0
  0
ARC
  8
1
  6
CONTINUOUS
 62
     7
 10
1381.75
 20
-376.6
 40
2.000000000000002
 50
270.0
 51
0.0
  0
ARC
  8
1
  6
CONTINUOUS
 62
     7
 10
1501.75
 20
-368.6
 40
2.000000000000002
 50
0.0
 51
90.0
  0
ARC
  8
1
  6
CONTINUOUS
 62
     7
 10
1661.75
 20
-368.6
 40
2.000000000000002
 50
0.0
 51
90.0
  0
ARC
  8
1
  6
CONTINUOUS
 62
     7
 10
1736.75
 20
-368.6
 40
2.000000000000002
 50
90.0
 51
180.0
  0
ARC
  8
1
  6
CONTINUOUS
 62
     7
 10
1701.75
 20
-376.6
 40
2.000000000000002
 50
270.0
 51
0.0
  0
ARC
  8
1
  6
CONTINUOUS
 62
     7
 10
1776.75
 20
-368.6
 40
2.000000000000002
 50
90.0
 51
180.0
  0
ARC
  8
1
  6
CONTINUOUS
 62
     7
 10
1896.75
 20
-376.6
 40
2.000000000000002
 50
180.0
 51
270.0
  0
ARC
  8
1
  6
CONTINUOUS
 62
     7
 10
1936.75
 20
-368.6
 40
2.000000000000002
 50
90.0
 51
180.0
  0
ARC
  8
1
  6
CONTINUOUS
 62
     7
 10
1616.75
 20
-368.6
 40
2.000000000000002
 50
90.0
 51
180.0
  0
ARC
  8
1
  6
CONTINUOUS
 62
     7
 10
1861.75
 20
-368.6
 40
2.000000000000002
 50
0.0
 51
90.0
  0
ARC
  8
1
  6
CONTINUOUS
 62
     7
 10
1896.75
 20
-368.6
 40
2.000000000000002
 50
90.0
 51
180.0
  0
ARC
  8
1
  6
CONTINUOUS
 62
     7
 10
1576.75
 20
-368.6
 40
2.000000000000002
 50
90.0
 51
180.0
  0
ARC
  8
1
  6
CONTINUOUS
 62
     7
 10
1816.75
 20
-368.6
 40
2.000000000000002
 50
90.0
 51
180.0
  0
ARC
  8
1
  6
CONTINUOUS
 62
     7
 10
1856.75
 20
-368.6
 40
2.000000000000002
 50
90.0
 51
180.0
  0
ARC
  8
1
  6
CONTINUOUS
 62
     7
 10
1941.75
 20
-368.6
 40
2.000000000000002
 50
0.0
 51
90.0
  0
ARC
  8
1
  6
CONTINUOUS
 62
     7
 10
1421.75
 20
-368.6
 40
2.000000000000002
 50
0.0
 51
90.0
  0
ARC
  8
1
  6
CONTINUOUS
 62
     7
 10
1981.75
 20
-376.6
 40
2.000000000000002
 50
269.9999999999936
 51
0.0
  0
ARC
  8
1
  6
CONTINUOUS
 62
     7
 10
1496.75
 20
-368.6
 40
2.000000000000002
 50
90.0
 51
180.0
  0
ARC
  8
1
  6
CONTINUOUS
 62
     7
 10
1456.75
 20
-368.6
 40
2.000000000000002
 50
90.0
 51
180.0
  0
ARC
  8
1
  6
CONTINUOUS
 62
     7
 10
1536.75
 20
-376.6
 40
2.000000000000002
 50
180.0
 51
270.0
  0
ARC
  8
1
  6
CONTINUOUS
 62
     7
 10
1581.75
 20
-368.6
 40
2.000000000000224
 50
0.0
 51
90.0
  0
ARC
  8
1
  6
CONTINUOUS
 62
     7
 10
1696.75
 20
-368.6
 40
2.000000000000002
 50
90.0
 51
180.0
  0
ARC
  8
1
  6
CONTINUOUS
 62
     7
 10
1741.75
 20
-376.6
 40
2.000000000000002
 50
269.9999999999936
 51
0.0
  0
ARC
  8
1
  6
CONTINUOUS
 62
     7
 10
1936.75
 20
-376.6
 40
2.000000000000002
 50
180.0
 51
270.0
  0
ARC
  8
1
  6
CONTINUOUS
 62
     7
 10
1656.75
 20
-376.6
 40
2.000000000000002
 50
180.0
 51
270.0
  0
ARC
  8
1
  6
CONTINUOUS
 62
     7
 10
1781.75
 20
-368.6
 40
2.000000000000002
 50
0.0
 51
90.0
  0
ARC
  8
1
  6
CONTINUOUS
 62
     7
 10
1376.75
 20
-368.6
 40
2.000000000000002
 50
90.0
 51
180.0
  0
ARC
  8
1
  6
CONTINUOUS
 62
     7
 10
1421.75
 20
-376.6
 40
2.000000000000002
 50
270.0
 51
0.0
  0
ARC
  8
1
  6
CONTINUOUS
 62
     7
 10
1416.75
 20
-368.6
 40
2.000000000000002
 50
90.0
 51
180.0
  0
ARC
  8
1
  6
CONTINUOUS
 62
     7
 10
2101.75
 20
-376.6
 40
2.000000000000002
 50
270.0
 51
0.0
  0
ARC
  8
1
  6
CONTINUOUS
 62
     7
 10
2121.75
 20
-376.6
 40
2.000000000000002
 50
270.0
 51
0.0
  0
ARC
  8
1
  6
CONTINUOUS
 62
     7
 10
2056.75
 20
-376.6
 40
1.99999999999978
 50
180.0
 51
270.0
  0
ARC
  8
1
  6
CONTINUOUS
 62
     7
 10
2121.75
 20
-368.6
 40
2.000000000000224
 50
0.0
 51
90.0
  0
ARC
  8
1
  6
CONTINUOUS
 62
     7
 10
2081.75
 20
-376.6
 40
2.000000000000002
 50
269.9999999999872
 51
0.0
  0
ARC
  8
1
  6
CONTINUOUS
 62
     7
 10
2076.75
 20
-376.6
 40
2.000000000000224
 50
180.0
 51
270.0
  0
ARC
  8
1
  6
CONTINUOUS
 62
     7
 10
2041.75
 20
-376.6
 40
2.000000000000002
 50
269.9999999999872
 51
0.0
  0
ARC
  8
1
  6
CONTINUOUS
 62
     7
 10
1921.75
 20
-376.6
 40
2.000000000000002
 50
270.0
 51
0.0
  0
ARC
  8
1
  6
CONTINUOUS
 62
     7
 10
2021.75
 20
-376.6
 40
2.000000000000002
 50
269.9999999999872
 51
0.0
  0
ARC
  8
1
  6
CONTINUOUS
 62
     7
 10
2001.75
 20
-368.6
 40
1.99999999999978
 50
0.0
 51
90.0
  0
ARC
  8
1
  6
CONTINUOUS
 62
     7
 10
1921.75
 20
-368.6
 40
2.000000000000002
 50
0.0
 51
90.0
  0
ARC
  8
1
  6
CONTINUOUS
 62
     7
 10
1996.75
 20
-376.6
 40
2.000000000000002
 50
180.0
 51
270.0
  0
ARC
  8
1
  6
CONTINUOUS
 62
     7
 10
2096.75
 20
-376.6
 40
1.99999999999978
 50
180.0
 51
270.0
  0
ARC
  8
1
  6
CONTINUOUS
 62
     7
 10
1956.75
 20
-376.6
 40
2.000000000000002
 50
180.0
 51
270.0
  0
ARC
  8
1
  6
CONTINUOUS
 62
     7
 10
2061.75
 20
-376.6
 40
2.000000000000002
 50
269.9999999999872
 51
0.0
  0
ARC
  8
1
  6
CONTINUOUS
 62
     7
 10
1961.75
 20
-376.6
 40
2.000000000000002
 50
270.0
 51
0.0
  0
ARC
  8
1
  6
CONTINUOUS
 62
     7
 10
2021.75
 20
-368.6
 40
2.000000000000224
 50
0.0
 51
90.0
  0
ARC
  8
1
  6
CONTINUOUS
 62
     7
 10
2116.75
 20
-368.6
 40
2.000000000000002
 50
90.0
 51
180.0
  0
ARC
  8
1
  6
CONTINUOUS
 62
     7
 10
2116.75
 20
-376.6
 40
2.000000000000224
 50
180.0
 51
270.0
  0
ARC
  8
1
  6
CONTINUOUS
 62
     7
 10
1976.75
 20
-368.6
 40
2.000000000000002
 50
90.0
 51
180.0
  0
ARC
  8
1
  6
CONTINUOUS
 62
     7
 10
2056.75
 20
-368.6
 40
2.000000000000002
 50
90.0
 51
180.0
  0
ARC
  8
1
  6
CONTINUOUS
 62
     7
 10
1976.75
 20
-376.6
 40
2.000000000000002
 50
180.0
 51
270.0
  0
ARC
  8
1
  6
CONTINUOUS
 62
     7
 10
2076.75
 20
-368.6
 40
2.000000000000002
 50
90.0
 51
180.0
  0
ARC
  8
1
  6
CONTINUOUS
 62
     7
 10
2041.75
 20
-368.6
 40
1.99999999999978
 50
0.0
 51
90.0
  0
ARC
  8
1
  6
CONTINUOUS
 62
     7
 10
2036.75
 20
-368.6
 40
2.000000000000002
 50
90.0
 51
180.0
  0
ARC
  8
1
  6
CONTINUOUS
 62
     7
 10
2081.75
 20
-368.6
 40
1.99999999999978
 50
0.0
 51
90.0
  0
ARC
  8
1
  6
CONTINUOUS
 62
     7
 10
2001.75
 20
-376.6
 40
2.000000000000002
 50
269.9999999999872
 51
0.0
  0
ARC
  8
1
  6
CONTINUOUS
 62
     7
 10
1996.75
 20
-368.6
 40
2.000000000000002
 50
90.0
 51
180.0
  0
ARC
  8
1
  6
CONTINUOUS
 62
     7
 10
2016.75
 20
-368.6
 40
2.000000000000002
 50
90.0
 51
180.0
  0
ARC
  8
1
  6
CONTINUOUS
 62
     7
 10
2101.75
 20
-368.6
 40
1.99999999999978
 50
0.0
 51
90.0
  0
ARC
  8
1
  6
CONTINUOUS
 62
     7
 10
1961.75
 20
-368.6
 40
2.000000000000002
 50
0.0
 51
90.0
  0
ARC
  8
1
  6
CONTINUOUS
 62
     7
 10
1956.75
 20
-368.6
 40
2.000000000000002
 50
90.0
 51
180.0
  0
ARC
  8
1
  6
CONTINUOUS
 62
     7
 10
1916.75
 20
-368.6
 40
2.000000000000002
 50
90.0
 51
180.0
  0
ARC
  8
1
  6
CONTINUOUS
 62
     7
 10
1881.75
 20
-376.6
 40
2.000000000000002
 50
270.0
 51
0.0
  0
ARC
  8
1
  6
CONTINUOUS
 62
     7
 10
2096.75
 20
-368.6
 40
2.000000000000002
 50
90.0
 51
180.0
  0
ARC
  8
1
  6
CONTINUOUS
 62
     7
 10
1881.75
 20
-368.6
 40
2.000000000000002
 50
0.0
 51
90.0
  0
ARC
  8
1
  6
CONTINUOUS
 62
     7
 10
1916.75
 20
-376.6
 40
2.000000000000002
 50
180.0
 51
270.0
  0
ARC
  8
1
  6
CONTINUOUS
 62
     7
 10
2036.75
 20
-376.6
 40
2.000000000000224
 50
180.0
 51
270.0
  0
ARC
  8
1
  6
CONTINUOUS
 62
     7
 10
1876.75
 20
-368.6
 40
2.000000000000002
 50
90.0
 51
180.0
  0
ARC
  8
1
  6
CONTINUOUS
 62
     7
 10
1981.75
 20
-368.6
 40
2.000000000000002
 50
0.0
 51
90.0
  0
ARC
  8
1
  6
CONTINUOUS
 62
     7
 10
2016.75
 20
-376.6
 40
1.99999999999978
 50
180.0
 51
270.0
  0
ARC
  8
1
  6
CONTINUOUS
 62
     7
 10
2061.75
 20
-368.6
 40
2.000000000000224
 50
0.0
 51
90.0
  0
LINE
  8
1
  6
CONTINUOUS
 62
     7
 10
2129.245355789802
 20
-392.767990010365
 11
2129.241811604689
 21
-392.7901185080536
  0
LINE
  8
1
  6
CONTINUOUS
 62
     7
 10
2129.241811604689
 20
-392.7901185080536
 11
2129.237279406144
 21
-392.8120659642713
  0
LINE
  8
1
  6
CONTINUOUS
 62
     7
 10
2129.237279406144
 20
-392.8120659642713
 11
2129.231768299023
 21
-392.8337882881888
  0
LINE
  8
1
  6
CONTINUOUS
 62
     7
 10
2129.231768299023
 20
-392.8337882881888
 11
2129.225289354736
 21
-392.8552418412511
  0
LINE
  8
1
  6
CONTINUOUS
 62
     7
 10
2129.225289354736
 20
-392.8552418412511
 11
2129.217855589005
 21
-392.8763835248441
  0
LINE
  8
1
  6
CONTINUOUS
 62
     7
 10
2129.217855589005
 20
-392.8763835248441
 11
2129.209481935723
 21
-392.8971708668764
  0
LINE
  8
1
  6
CONTINUOUS
 62
     7
 10
2129.209481935723
 20
-392.8971708668764
 11
2129.200185216942
 21
-392.9175621071033
  0
LINE
  8
1
  6
CONTINUOUS
 62
     7
 10
2129.200185216942
 20
-392.9175621071033
 11
2129.189984109089
 21
-392.9375162810189
  0
LINE
  8
1
  6
CONTINUOUS
 62
     7
 10
2129.189984109089
 20
-392.9375162810189
 11
2129.178899105442
 21
-392.956993302152
  0
LINE
  8
1
  6
CONTINUOUS
 62
     7
 10
2129.178899105442
 20
-392.956993302152
 11
2129.16695247496
 21
-392.9759540425961
  0
LINE
  8
1
  6
CONTINUOUS
 62
     7
 10
2129.16695247496
 20
-392.9759540425961
 11
2129.154168217546
 21
-392.9943604116148
  0
LINE
  8
1
  6
CONTINUOUS
 62
     7
 10
2129.154168217546
 20
-392.9943604116148
 11
2129.140572015835
 21
-393.012175432163
  0
LINE
  8
1
  6
CONTINUOUS
 62
     7
 10
2129.140572015835
 20
-393.012175432163
 11
2129.126191183601
 21
-393.0293633151716
  0
LINE
  8
1
  6
CONTINUOUS
 62
     7
 10
2129.126191183601
 20
-393.0293633151716
 11
2129.111054610879
 21
-393.0458895314447
  0
LINE
  8
1
  6
CONTINUOUS
 62
     7
 10
2129.111054610879
 20
-393.0458895314447
 11
2129.095192705933
 21
-393.0617208810262
  0
LINE
  8
1
  6
CONTINUOUS
 62
     7
 10
2129.095192705933
 20
-393.0617208810262
 11
2129.078637334168
 21
-393.0768255598964
  0
LINE
  8
1
  6
CONTINUOUS
 62
     7
 10
2129.078637334168
 20
-393.0768255598964
 11
2129.061421754109
 21
-393.0911732238636
  0
LINE
  8
1
  6
CONTINUOUS
 62
     7
 10
2129.061421754109
 20
-393.0911732238636
 11
2129.043580550594
 21
-393.1047350495235
  0
LINE
  8
1
  6
CONTINUOUS
 62
     7
 10
2129.043580550594
 20
-393.1047350495235
 11
2129.025149565293
 21
-393.1174837921634
  0
LINE
  8
1
  6
CONTINUOUS
 62
     7
 10
2129.025149565293
 20
-393.1174837921634
 11
2129.006165824702
 21
-393.1293938404946
  0
LINE
  8
1
  6
CONTINUOUS
 62
     7
 10
2129.006165824702
 20
-393.1293938404946
 11
2128.986667465764
 21
-393.140441268104
  0
LINE
  8
1
  6
CONTINUOUS
 62
     7
 10
2128.986667465764
 20
-393.140441268104
 11
2128.96669365925
 21
-393.1506038815198
  0
LINE
  8
1
  6
CONTINUOUS
 62
     7
 10
2128.96669365925
 20
-393.1506038815198
 11
2128.946284531074
 21
-393.1598612647975
  0
LINE
  8
1
  6
CONTINUOUS
 62
     7
 10
2128.946284531074
 20
-393.1598612647975
 11
2128.925481081676
 21
-393.1681948205332
  0
LINE
  8
1
  6
CONTINUOUS
 62
     7
 10
2128.925481081676
 20
-393.1681948205332
 11
2128.904325103658
 21
-393.1755878072248
  0
LINE
  8
1
  6
CONTINUOUS
 62
     7
 10
2128.904325103658
 20
-393.1755878072248
 11
2128.882859097831
 21
-393.1820253729044
  0
LINE
  8
1
  6
CONTINUOUS
 62
     7
 10
2128.882859097831
 20
-393.1820253729044
 11
2128.861126187823
 21
-393.187494584975
  0
LINE
  8
1
  6
CONTINUOUS
 62
     7
 10
2128.861126187823
 20
-393.187494584975
 11
2128.839170033457
 21
-393.1919844561907
  0
LINE
  8
1
  6
CONTINUOUS
 62
     7
 10
2128.839170033457
 20
-393.1919844561907
 11
2128.817034743036
 21
-393.1954859667297
  0
LINE
  8
1
  6
CONTINUOUS
 62
     7
 10
2128.817034743036
 20
-393.1954859667297
 11
2128.794764784734
 21
-393.1979920823143
  0
LINE
  8
1
  6
CONTINUOUS
 62
     7
 10
2128.794764784734
 20
-393.1979920823143
 11
2128.772404897265
 21
-393.1994977683419
  0
LINE
  8
1
  6
CONTINUOUS
 62
     7
 10
2128.772404897265
 20
-393.1994977683419
 11
2128.75
 21
-393.2
  0
LINE
  8
1
  6
CONTINUOUS
 62
     7
 10
1052.5
 20
-356.0
 11
1052.2
 21
-356.3
  0
LINE
  8
1
  6
CONTINUOUS
 62
     7
 10
1034.852943725152
 20
-356.0
 11
1034.75
 21
-356.0
  0
LINE
  8
1
  6
CONTINUOUS
 62
     7
 10
1033.75
 20
-357.0
 11
1033.75
 21
-357.2204168476687
  0
LINE
  8
1
  6
CONTINUOUS
 62
     7
 10
1033.75
 20
-357.2204168476687
 11
1033.75
 21
-357.7
  0
LINE
  8
1
  6
CONTINUOUS
 62
     7
 10
1040.5
 20
-356.0
 11
1040.8
 21
-356.3
  0
LINE
  8
1
  6
CONTINUOUS
 62
     7
 10
1040.5
 20
-356.0
 11
1038.0
 21
-356.0
  0
LINE
  8
1
  6
CONTINUOUS
 62
     7
 10
1038.0
 20
-356.0
 11
1034.852943725152
 21
-356.0
  0
LINE
  8
1
  6
CONTINUOUS
 62
     7
 10
1034.75
 20
-359.3124515496597
 11
1034.75
 21
-359.7493901531919
  0
LINE
  8
1
  6
CONTINUOUS
 62
     7
 10
1053.3
 20
-357.7
 11
1053.3
 21
-358.2
  0
LINE
  8
1
  6
CONTINUOUS
 62
     7
 10
1033.607669683062
 20
-361.2
 11
1035.0
 21
-361.2
  0
LINE
  8
1
  6
CONTINUOUS
 62
     7
 10
1058.25
 20
-359.3124515496597
 11
1058.25
 21
-359.7493901531919
  0
LINE
  8
1
  6
CONTINUOUS
 62
     7
 10
1059.796446609407
 20
-354.7464466094067
 11
1060.503553390593
 21
-355.4535533905932
  0
LINE
  8
1
  6
CONTINUOUS
 62
     7
 10
1058.998528137424
 20
-356.8514718625761
 11
1058.147056274848
 21
-356.0000000000001
  0
LINE
  8
1
  6
CONTINUOUS
 62
     7
 10
1044.0
 20
-387.2016354202827
 11
1044.0
 21
-387.9838776859443
  0
LINE
  8
1
  6
CONTINUOUS
 62
     7
 10
1055.3
 20
-354.6
 11
1037.7
 21
-354.6
  0
LINE
  8
1
  6
CONTINUOUS
 62
     7
 10
1037.5
 20
-357.7
 11
1036.05
 21
-357.7
  0
LINE
  8
1
  6
CONTINUOUS
 62
     7
 10
1033.2
 20
-379.1
 11
1033.2
 21
-382.9
  0
LINE
  8
1
  6
CONTINUOUS
 62
     7
 10
1055.5
 20
-357.7
 11
1056.95
 21
-357.7
  0
LINE
  8
1
  6
CONTINUOUS
 62
     7
 10
1057.3
 20
-354.6
 11
1055.7
 21
-354.6
  0
LINE
  8
1
  6
CONTINUOUS
 62
     7
 10
1059.25
 20
-357.2204168476687
 11
1059.25
 21
-357.7
  0
LINE
  8
1
  6
CONTINUOUS
 62
     7
 10
1050.4
 20
-384.6
 11
1061.5
 21
-384.6
  0
LINE
  8
1
  6
CONTINUOUS
 62
     7
 10
1033.203553390593
 20
-354.7464466094067
 11
1032.496446609407
 21
-355.4535533905932
  0
LINE
  8
1
  6
CONTINUOUS
 62
     7
 10
1059.25
 20
-357.0
 11
1059.25
 21
-357.2204168476687
  0
LINE
  8
1
  6
CONTINUOUS
 62
     7
 10
1059.442893218813
 20
-354.6
 11
1057.7
 21
-354.6
  0
LINE
  8
1
  6
CONTINUOUS
 62
     7
 10
1055.0
 20
-358.2
 11
1055.5
 21
-357.7
  0
LINE
  8
1
  6
CONTINUOUS
 62
     7
 10
1032.0
 20
-360.3
 11
1032.3
 21
-360.3
  0
LINE
  8
1
  6
CONTINUOUS
 62
     7
 10
1033.2
 20
-379.1
 11
1032.941421356237
 21
-378.8414213562373
  0
LINE
  8
1
  6
CONTINUOUS
 62
     7
 10
1031.5
 20
-384.6
 11
1031.5
 21
-360.8
  0
LINE
  8
1
  6
CONTINUOUS
 62
     7
 10
1061.5
 20
-384.6
 11
1061.5
 21
-360.8
  0
LINE
  8
1
  6
CONTINUOUS
 62
     7
 10
1031.5
 20
-384.6
 11
1042.6
 21
-384.6
  0
LINE
  8
1
  6
CONTINUOUS
 62
     7
 10
1048.687803749566
 20
-384.6
 11
1049.0
 21
-387.2016354202827
  0
LINE
  8
1
  6
CONTINUOUS
 62
     7
 10
1049.0
 20
-387.2016354202827
 11
1049.0
 21
-387.9838776859443
  0
LINE
  8
1
  6
CONTINUOUS
 62
     7
 10
1050.7
 20
-385.6
 11
1050.4
 21
-384.6
  0
LINE
  8
1
  6
CONTINUOUS
 62
     7
 10
1044.0
 20
-387.9838776859443
 11
1044.637978943644
 21
-392.632009989635
  0
LINE
  8
1
  6
CONTINUOUS
 62
     7
 10
1049.0
 20
-387.9838776859443
 11
1048.362021056356
 21
-392.632009989635
  0
LINE
  8
1
  6
CONTINUOUS
 62
     7
 10
1048.857376846158
 20
-393.2
 11
1049.563939698971
 21
-393.2
  0
LINE
  8
1
  6
CONTINUOUS
 62
     7
 10
1059.8
 20
-363.4
 11
1059.8
 21
-378.6
  0
LINE
  8
1
  6
CONTINUOUS
 62
     7
 10
1050.7
 20
-388.1
 11
1050.7
 21
-385.6
  0
LINE
  8
1
  6
CONTINUOUS
 62
     7
 10
1042.940704511226
 20
-392.767990010365
 11
1042.3
 21
-388.1
  0
LINE
  8
1
  6
CONTINUOUS
 62
     7
 10
1035.0
 20
-362.9
 11
1033.7
 21
-362.9
  0
LINE
  8
1
  6
CONTINUOUS
 62
     7
 10
1058.147056274848
 20
-356.0000000000001
 11
1055.0
 21
-356.0
  0
LINE
  8
1
  6
CONTINUOUS
 62
     7
 10
1039.7
 20
-357.7
 11
1039.7
 21
-358.2
  0
LINE
  8
1
  6
CONTINUOUS
 62
     7
 10
1033.2
 20
-363.4
 11
1033.2
 21
-378.6
  0
LINE
  8
1
  6
CONTINUOUS
 62
     7
 10
1050.059295488774
 20
-392.767990010365
 11
1050.7
 21
-388.1
  0
LINE
  8
1
  6
CONTINUOUS
 62
     7
 10
1042.3
 20
-388.1
 11
1042.3
 21
-385.6
  0
LINE
  8
1
  6
CONTINUOUS
 62
     7
 10
1035.7
 20
-354.6
 11
1037.3
 21
-354.6
  0
LINE
  8
1
  6
CONTINUOUS
 62
     7
 10
1040.8
 20
-356.3
 11
1052.2
 21
-356.3
  0
LINE
  8
1
  6
CONTINUOUS
 62
     7
 10
1032.35
 20
-357.7
 11
1032.35
 21
-356.7
  0
LINE
  8
1
  6
CONTINUOUS
 62
     7
 10
1052.5
 20
-356.0
 11
1055.0
 21
-356.0
  0
LINE
  8
1
  6
CONTINUOUS
 62
     7
 10
1058.0
 20
-362.9
 11
1059.3
 21
-362.9
  0
LINE
  8
1
  6
CONTINUOUS
 62
     7
 10
1042.3
 20
-385.6
 11
1042.6
 21
-384.6
  0
LINE
  8
1
  6
CONTINUOUS
 62
     7
 10
1059.8
 20
-382.9
 11
1033.2
 21
-382.9
  0
LINE
  8
1
  6
CONTINUOUS
 62
     7
 10
1033.557106781187
 20
-354.6
 11
1035.3
 21
-354.6
  0
LINE
  8
1
  6
CONTINUOUS
 62
     7
 10
1032.35
 20
-355.9
 11
1032.35
 21
-355.8071067811865
  0
LINE
  8
1
  6
CONTINUOUS
 62
     7
 10
1055.0
 20
-356.0
 11
1058.147056274848
 21
-356.0
  0
LINE
  8
1
  6
CONTINUOUS
 62
     7
 10
1061.0
 20
-360.3
 11
1060.7
 21
-360.3
  0
LINE
  8
1
  6
CONTINUOUS
 62
     7
 10
1034.001471862576
 20
-356.8514718625761
 11
1034.852943725152
 21
-356.0000000000001
  0
LINE
  8
1
  6
CONTINUOUS
 62
     7
 10
1059.392330316938
 20
-361.2
 11
1058.0
 21
-361.2
  0
LINE
  8
1
  6
CONTINUOUS
 62
     7
 10
1058.147056274848
 20
-356.0
 11
1058.25
 21
-356.0
  0
LINE
  8
1
  6
CONTINUOUS
 62
     7
 10
1034.852943725152
 20
-356.0000000000001
 11
1038.0
 21
-356.0
  0
LINE
  8
1
  6
CONTINUOUS
 62
     7
 10
1059.8
 20
-379.1
 11
1059.8
 21
-382.9
  0
LINE
  8
1
  6
CONTINUOUS
 62
     7
 10
1037.5
 20
-357.7
 11
1038.0
 21
-358.2
  0
LINE
  8
1
  6
CONTINUOUS
 62
     7
 10
1044.312196250434
 20
-384.6
 11
1048.687803749566
 21
-384.6
  0
LINE
  8
1
  6
CONTINUOUS
 62
     7
 10
1060.65
 20
-355.9
 11
1060.65
 21
-355.8071067811865
  0
LINE
  8
1
  6
CONTINUOUS
 62
     7
 10
1060.65
 20
-357.7
 11
1060.65
 21
-356.7
  0
LINE
  8
1
  6
CONTINUOUS
 62
     7
 10
1216.75
 20
-378.6
 11
1221.75
 21
-378.6
  0
LINE
  8
1
  6
CONTINUOUS
 62
     7
 10
1059.958578643763
 20
-378.6
 11
1059.8
 21
-378.6
  0
LINE
  8
1
  6
CONTINUOUS
 62
     7
 10
1218.25
 20
-363.4
 11
1218.25
 21
-366.6
  0
LINE
  8
1
  6
CONTINUOUS
 62
     7
 10
1033.041421356237
 20
-378.6
 11
1033.2
 21
-378.6
  0
LINE
  8
1
  6
CONTINUOUS
 62
     7
 10
2129.25
 20
-355.9
 11
2129.25
 21
-355.8071067811865
  0
LINE
  8
1
  6
CONTINUOUS
 62
     7
 10
2129.25
 20
-356.7
 11
2129.25
 21
-355.9
  0
LINE
  8
1
  6
CONTINUOUS
 62
     7
 10
1129.25
 20
-356.7
 11
1129.25
 21
-355.9
  0
LINE
  8
1
  6
CONTINUOUS
 62
     7
 10
2129.25
 20
-355.9
 11
1129.25
 21
-355.9
  0
LINE
  8
1
  6
CONTINUOUS
 62
     7
 10
2129.25
 20
-355.8071067811865
 11
2129.25
 21
-355.4535533905932
  0
LINE
  8
1
  6
CONTINUOUS
 62
     7
 10
1129.25
 20
-360.2151606425537
 11
1129.25
 21
-360.2493901531919
  0
LINE
  8
1
  6
CONTINUOUS
 62
     7
 10
1140.25
 20
-366.6
 11
1140.25
 21
-363.4
  0
LINE
  8
1
  6
CONTINUOUS
 62
     7
 10
1178.25
 20
-366.6
 11
1176.75
 21
-366.6
  0
LINE
  8
1
  6
CONTINUOUS
 62
     7
 10
1261.75
 20
-366.6
 11
1260.25
 21
-366.6
  0
LINE
  8
1
  6
CONTINUOUS
 62
     7
 10
1260.25
 20
-363.4
 11
1258.25
 21
-363.4
  0
LINE
  8
1
  6
CONTINUOUS
 62
     7
 10
1300.25
 20
-366.6
 11
1300.25
 21
-363.4
  0
LINE
  8
1
  6
CONTINUOUS
 62
     7
 10
1044.142623153841
 20
-393.2
 11
1043.436060301029
 21
-393.2
  0
LINE
  8
1
  6
CONTINUOUS
 62
     7
 10
1129.25
 20
-355.9
 11
1129.25
 21
-355.8071067811865
  0
LINE
  8
1
  6
CONTINUOUS
 62
     7
 10
1044.312196250434
 20
-384.6
 11
1044.0
 21
-387.2016354202827
  0
LINE
  8
1
  6
CONTINUOUS
 62
     7
 10
1059.8
 20
-379.1
 11
1060.058578643763
 21
-378.8414213562373
  0
LINE
  8
1
  6
CONTINUOUS
 62
     7
 10
1129.25
 20
-354.7464466094067
 11
1129.25
 21
-355.4535533905932
  0
LINE
  8
1
  6
CONTINUOUS
 62
     7
 10
1129.25
 20
-354.6
 11
1129.25
 21
-354.7464466094067
  0
LINE
  8
1
  6
CONTINUOUS
 62
     7
 10
1141.75
 20
-366.6
 11
1140.25
 21
-366.6
  0
LINE
  8
1
  6
CONTINUOUS
 62
     7
 10
1138.25
 20
-363.4
 11
1138.25
 21
-366.6
  0
LINE
  8
1
  6
CONTINUOUS
 62
     7
 10
1134.75
 20
-368.6
 11
1134.75
 21
-376.6
  0
LINE
  8
1
  6
CONTINUOUS
 62
     7
 10
1223.75
 20
-376.6
 11
1223.75
 21
-368.6
  0
LINE
  8
1
  6
CONTINUOUS
 62
     7
 10
1220.25
 20
-366.6
 11
1220.25
 21
-363.4
  0
LINE
  8
1
  6
CONTINUOUS
 62
     7
 10
1260.25
 20
-366.6
 11
1260.25
 21
-363.4
  0
LINE
  8
1
  6
CONTINUOUS
 62
     7
 10
1258.25
 20
-363.4
 11
1258.25
 21
-366.6
  0
LINE
  8
1
  6
CONTINUOUS
 62
     7
 10
1180.25
 20
-366.6
 11
1180.25
 21
-363.4
  0
LINE
  8
1
  6
CONTINUOUS
 62
     7
 10
1181.75
 20
-366.6
 11
1180.25
 21
-366.6
  0
LINE
  8
1
  6
CONTINUOUS
 62
     7
 10
1174.75
 20
-368.6
 11
1174.75
 21
-376.6
  0
LINE
  8
1
  6
CONTINUOUS
 62
     7
 10
1136.75
 20
-378.6
 11
1141.75
 21
-378.6
  0
LINE
  8
1
  6
CONTINUOUS
 62
     7
 10
1183.75
 20
-376.6
 11
1183.75
 21
-368.6
  0
LINE
  8
1
  6
CONTINUOUS
 62
     7
 10
1258.25
 20
-366.6
 11
1256.75
 21
-366.6
  0
LINE
  8
1
  6
CONTINUOUS
 62
     7
 10
2129.25
 20
-354.6
 11
1129.25
 21
-354.6
  0
LINE
  8
1
  6
CONTINUOUS
 62
     7
 10
2129.25
 20
-354.7464466094067
 11
2129.25
 21
-354.6
  0
LINE
  8
1
  6
CONTINUOUS
 62
     7
 10
1129.25
 20
-355.4535533905932
 11
1129.25
 21
-355.8071067811865
  0
LINE
  8
1
  6
CONTINUOUS
 62
     7
 10
1140.25
 20
-363.4
 11
1138.25
 21
-363.4
  0
LINE
  8
1
  6
CONTINUOUS
 62
     7
 10
1263.75
 20
-376.6
 11
1263.75
 21
-368.6
  0
LINE
  8
1
  6
CONTINUOUS
 62
     7
 10
1178.25
 20
-363.4
 11
1178.25
 21
-366.6
  0
LINE
  8
1
  6
CONTINUOUS
 62
     7
 10
1256.75
 20
-378.6
 11
1261.75
 21
-378.6
  0
LINE
  8
1
  6
CONTINUOUS
 62
     7
 10
1254.75
 20
-368.6
 11
1254.75
 21
-376.6
  0
LINE
  8
1
  6
CONTINUOUS
 62
     7
 10
1303.75
 20
-376.6
 11
1303.75
 21
-368.6
  0
LINE
  8
1
  6
CONTINUOUS
 62
     7
 10
1296.75
 20
-378.6
 11
1301.75
 21
-378.6
  0
LINE
  8
1
  6
CONTINUOUS
 62
     7
 10
1300.25
 20
-363.4
 11
1298.25
 21
-363.4
  0
LINE
  8
1
  6
CONTINUOUS
 62
     7
 10
1180.25
 20
-363.4
 11
1178.25
 21
-363.4
  0
LINE
  8
1
  6
CONTINUOUS
 62
     7
 10
2129.25
 20
-357.7
 11
2129.25
 21
-356.7
  0
LINE
  8
1
  6
CONTINUOUS
 62
     7
 10
1129.25
 20
-360.2151606425537
 11
1129.25
 21
-357.7
  0
LINE
  8
1
  6
CONTINUOUS
 62
     7
 10
1129.25
 20
-357.7
 11
1129.25
 21
-356.7
  0
LINE
  8
1
  6
CONTINUOUS
 62
     7
 10
2129.25
 20
-360.2151606425537
 11
2129.25
 21
-357.7
  0
LINE
  8
1
  6
CONTINUOUS
 62
     7
 10
2129.25
 20
-360.2493901531919
 11
2129.25
 21
-360.2151606425537
  0
LINE
  8
1
  6
CONTINUOUS
 62
     7
 10
2129.25
 20
-356.7
 11
1129.25
 21
-356.7
  0
LINE
  8
1
  6
CONTINUOUS
 62
     7
 10
1221.75
 20
-366.6
 11
1220.25
 21
-366.6
  0
LINE
  8
1
  6
CONTINUOUS
 62
     7
 10
2129.25
 20
-355.4535533905932
 11
2129.25
 21
-354.7464466094067
  0
LINE
  8
1
  6
CONTINUOUS
 62
     7
 10
1220.25
 20
-363.4
 11
1218.25
 21
-363.4
  0
LINE
  8
1
  6
CONTINUOUS
 62
     7
 10
1218.25
 20
-366.6
 11
1216.75
 21
-366.6
  0
LINE
  8
1
  6
CONTINUOUS
 62
     7
 10
1176.75
 20
-378.6
 11
1181.75
 21
-378.6
  0
LINE
  8
1
  6
CONTINUOUS
 62
     7
 10
1214.75
 20
-368.6
 11
1214.75
 21
-376.6
  0
LINE
  8
1
  6
CONTINUOUS
 62
     7
 10
1143.75
 20
-376.6
 11
1143.75
 21
-368.6
  0
LINE
  8
1
  6
CONTINUOUS
 62
     7
 10
1301.75
 20
-366.6
 11
1300.25
 21
-366.6
  0
LINE
  8
1
  6
CONTINUOUS
 62
     7
 10
1298.25
 20
-363.4
 11
1298.25
 21
-366.6
  0
LINE
  8
1
  6
CONTINUOUS
 62
     7
 10
2129.25
 20
-354.6
 11
2129.25
 21
-354.4
  0
LINE
  8
1
  6
CONTINUOUS
 62
     7
 10
1129.25
 20
-354.6
 11
1129.25
 21
-354.4
  0
LINE
  8
1
  6
CONTINUOUS
 62
     7
 10
1138.25
 20
-366.6
 11
1136.75
 21
-366.6
  0
LINE
  8
1
  6
CONTINUOUS
 62
     7
 10
1420.25
 20
-366.6
 11
1420.25
 21
-363.4
  0
LINE
  8
1
  6
CONTINUOUS
 62
     7
 10
1420.25
 20
-363.4
 11
1418.25
 21
-363.4
  0
LINE
  8
1
  6
CONTINUOUS
 62
     7
 10
1340.25
 20
-363.4
 11
1338.25
 21
-363.4
  0
LINE
  8
1
  6
CONTINUOUS
 62
     7
 10
1294.75
 20
-368.6
 11
1294.75
 21
-376.6
  0
LINE
  8
1
  6
CONTINUOUS
 62
     7
 10
1418.25
 20
-366.6
 11
1416.75
 21
-366.6
  0
LINE
  8
1
  6
CONTINUOUS
 62
     7
 10
1414.75
 20
-368.6
 11
1414.75
 21
-376.6
  0
LINE
  8
1
  6
CONTINUOUS
 62
     7
 10
1418.25
 20
-363.4
 11
1418.25
 21
-366.6
  0
LINE
  8
1
  6
CONTINUOUS
 62
     7
 10
1343.75
 20
-376.6
 11
1343.75
 21
-368.6
  0
LINE
  8
1
  6
CONTINUOUS
 62
     7
 10
1340.25
 20
-366.6
 11
1340.25
 21
-363.4
  0
LINE
  8
1
  6
CONTINUOUS
 62
     7
 10
1376.75
 20
-378.6
 11
1381.75
 21
-378.6
  0
LINE
  8
1
  6
CONTINUOUS
 62
     7
 10
1383.75
 20
-376.6
 11
1383.75
 21
-368.6
  0
LINE
  8
1
  6
CONTINUOUS
 62
     7
 10
1381.75
 20
-366.6
 11
1380.25
 21
-366.6
  0
LINE
  8
1
  6
CONTINUOUS
 62
     7
 10
1380.25
 20
-363.4
 11
1378.25
 21
-363.4
  0
LINE
  8
1
  6
CONTINUOUS
 62
     7
 10
1378.25
 20
-366.6
 11
1376.75
 21
-366.6
  0
LINE
  8
1
  6
CONTINUOUS
 62
     7
 10
1338.25
 20
-366.6
 11
1336.75
 21
-366.6
  0
LINE
  8
1
  6
CONTINUOUS
 62
     7
 10
1334.75
 20
-368.6
 11
1334.75
 21
-376.6
  0
LINE
  8
1
  6
CONTINUOUS
 62
     7
 10
1374.75
 20
-368.6
 11
1374.75
 21
-376.6
  0
LINE
  8
1
  6
CONTINUOUS
 62
     7
 10
1338.25
 20
-363.4
 11
1338.25
 21
-366.6
  0
LINE
  8
1
  6
CONTINUOUS
 62
     7
 10
1336.75
 20
-378.6
 11
1341.75
 21
-378.6
  0
LINE
  8
1
  6
CONTINUOUS
 62
     7
 10
1380.25
 20
-366.6
 11
1380.25
 21
-363.4
  0
LINE
  8
1
  6
CONTINUOUS
 62
     7
 10
1416.75
 20
-378.6
 11
1421.75
 21
-378.6
  0
LINE
  8
1
  6
CONTINUOUS
 62
     7
 10
1341.75
 20
-366.6
 11
1340.25
 21
-366.6
  0
LINE
  8
1
  6
CONTINUOUS
 62
     7
 10
1378.25
 20
-363.4
 11
1378.25
 21
-366.6
  0
LINE
  8
1
  6
CONTINUOUS
 62
     7
 10
1298.25
 20
-366.6
 11
1296.75
 21
-366.6
  0
LINE
  8
1
  6
CONTINUOUS
 62
     7
 10
1423.75
 20
-376.6
 11
1423.75
 21
-368.6
  0
LINE
  8
1
  6
CONTINUOUS
 62
     7
 10
1421.75
 20
-366.6
 11
1420.25
 21
-366.6
  0
ARC
  8
1
  6
CONTINUOUS
 62
     7
 10
1236.75
 20
-376.6
 40
2.000000000000002
 50
180.0
 51
270.0
  0
ARC
  8
1
  6
CONTINUOUS
 62
     7
 10
1196.75
 20
-376.6
 40
2.000000000000224
 50
180.0
 51
270.0
  0
ARC
  8
1
  6
CONTINUOUS
 62
     7
 10
1201.75
 20
-376.6
 40
2.000000000000002
 50
270.0
 51
0.0
  0
ARC
  8
1
  6
CONTINUOUS
 62
     7
 10
1156.75
 20
-376.6
 40
2.000000000000002
 50
180.0
 51
270.0
  0
ARC
  8
1
  6
CONTINUOUS
 62
     7
 10
1201.75
 20
-368.6
 40
2.000000000000002
 50
0.0
 51
90.0
  0
ARC
  8
1
  6
CONTINUOUS
 62
     7
 10
1161.75
 20
-376.6
 40
2.000000000000002
 50
270.0
 51
0.0
  0
ARC
  8
1
  6
CONTINUOUS
 62
     7
 10
1156.75
 20
-368.6
 40
2.000000000000002
 50
90.0
 51
180.0
  0
ARC
  8
1
  6
CONTINUOUS
 62
     7
 10
1196.75
 20
-368.6
 40
2.000000000000002
 50
90.0
 51
180.0
  0
ARC
  8
1
  6
CONTINUOUS
 62
     7
 10
1161.75
 20
-368.6
 40
2.000000000000002
 50
0.0
 51
90.0
  0
LINE
  8
1
  6
CONTINUOUS
 62
     7
 10
1236.75
 20
-378.6
 11
1241.75
 21
-378.6
  0
LINE
  8
1
  6
CONTINUOUS
 62
     7
 10
1281.75
 20
-366.6
 11
1280.25
 21
-366.6
  0
LINE
  8
1
  6
CONTINUOUS
 62
     7
 10
1274.75
 20
-368.6
 11
1274.75
 21
-376.6
  0
LINE
  8
1
  6
CONTINUOUS
 62
     7
 10
1361.75
 20
-366.6
 11
1360.25
 21
-366.6
  0
LINE
  8
1
  6
CONTINUOUS
 62
     7
 10
1240.25
 20
-363.4
 11
1238.25
 21
-363.4
  0
LINE
  8
1
  6
CONTINUOUS
 62
     7
 10
1440.25
 20
-366.6
 11
1440.25
 21
-363.4
  0
LINE
  8
1
  6
CONTINUOUS
 62
     7
 10
1440.25
 20
-363.4
 11
1438.25
 21
-363.4
  0
LINE
  8
1
  6
CONTINUOUS
 62
     7
 10
1318.25
 20
-366.6
 11
1316.75
 21
-366.6
  0
LINE
  8
1
  6
CONTINUOUS
 62
     7
 10
1438.25
 20
-363.4
 11
1438.25
 21
-366.6
  0
LINE
  8
1
  6
CONTINUOUS
 62
     7
 10
1356.75
 20
-378.6
 11
1361.75
 21
-378.6
  0
LINE
  8
1
  6
CONTINUOUS
 62
     7
 10
1398.25
 20
-363.4
 11
1398.25
 21
-366.6
  0
LINE
  8
1
  6
CONTINUOUS
 62
     7
 10
1480.25
 20
-363.4
 11
1478.25
 21
-363.4
  0
LINE
  8
1
  6
CONTINUOUS
 62
     7
 10
1434.75
 20
-368.6
 11
1434.75
 21
-376.6
  0
LINE
  8
1
  6
CONTINUOUS
 62
     7
 10
1394.75
 20
-368.6
 11
1394.75
 21
-376.6
  0
LINE
  8
1
  6
CONTINUOUS
 62
     7
 10
1358.25
 20
-366.6
 11
1356.75
 21
-366.6
  0
LINE
  8
1
  6
CONTINUOUS
 62
     7
 10
1360.25
 20
-363.4
 11
1358.25
 21
-363.4
  0
LINE
  8
1
  6
CONTINUOUS
 62
     7
 10
1238.25
 20
-363.4
 11
1238.25
 21
-366.6
  0
LINE
  8
1
  6
CONTINUOUS
 62
     7
 10
1280.25
 20
-363.4
 11
1278.25
 21
-363.4
  0
LINE
  8
1
  6
CONTINUOUS
 62
     7
 10
1234.75
 20
-368.6
 11
1234.75
 21
-376.6
  0
LINE
  8
1
  6
CONTINUOUS
 62
     7
 10
1354.75
 20
-368.6
 11
1354.75
 21
-376.6
  0
LINE
  8
1
  6
CONTINUOUS
 62
     7
 10
1320.25
 20
-366.6
 11
1320.25
 21
-363.4
  0
LINE
  8
1
  6
CONTINUOUS
 62
     7
 10
1280.25
 20
-366.6
 11
1280.25
 21
-363.4
  0
LINE
  8
1
  6
CONTINUOUS
 62
     7
 10
1403.75
 20
-376.6
 11
1403.75
 21
-368.6
  0
LINE
  8
1
  6
CONTINUOUS
 62
     7
 10
1203.75
 20
-376.6
 11
1203.75
 21
-368.6
  0
LINE
  8
1
  6
CONTINUOUS
 62
     7
 10
1198.25
 20
-366.6
 11
1196.75
 21
-366.6
  0
LINE
  8
1
  6
CONTINUOUS
 62
     7
 10
1161.75
 20
-366.6
 11
1160.25
 21
-366.6
  0
LINE
  8
1
  6
CONTINUOUS
 62
     7
 10
1401.75
 20
-366.6
 11
1400.25
 21
-366.6
  0
LINE
  8
1
  6
CONTINUOUS
 62
     7
 10
1201.75
 20
-366.6
 11
1200.25
 21
-366.6
  0
LINE
  8
1
  6
CONTINUOUS
 62
     7
 10
1443.75
 20
-376.6
 11
1443.75
 21
-368.6
  0
LINE
  8
1
  6
CONTINUOUS
 62
     7
 10
1478.25
 20
-363.4
 11
1478.25
 21
-366.6
  0
LINE
  8
1
  6
CONTINUOUS
 62
     7
 10
1400.25
 20
-366.6
 11
1400.25
 21
-363.4
  0
LINE
  8
1
  6
CONTINUOUS
 62
     7
 10
1396.75
 20
-378.6
 11
1401.75
 21
-378.6
  0
LINE
  8
1
  6
CONTINUOUS
 62
     7
 10
1400.25
 20
-363.4
 11
1398.25
 21
-363.4
  0
LINE
  8
1
  6
CONTINUOUS
 62
     7
 10
1438.25
 20
-366.6
 11
1436.75
 21
-366.6
  0
LINE
  8
1
  6
CONTINUOUS
 62
     7
 10
1398.25
 20
-366.6
 11
1396.75
 21
-366.6
  0
LINE
  8
1
  6
CONTINUOUS
 62
     7
 10
1360.25
 20
-366.6
 11
1360.25
 21
-363.4
  0
LINE
  8
1
  6
CONTINUOUS
 62
     7
 10
1320.25
 20
-363.4
 11
1318.25
 21
-363.4
  0
LINE
  8
1
  6
CONTINUOUS
 62
     7
 10
1200.25
 20
-366.6
 11
1200.25
 21
-363.4
  0
LINE
  8
1
  6
CONTINUOUS
 62
     7
 10
1436.75
 20
-378.6
 11
1441.75
 21
-378.6
  0
LINE
  8
1
  6
CONTINUOUS
 62
     7
 10
1196.75
 20
-378.6
 11
1201.75
 21
-378.6
  0
LINE
  8
1
  6
CONTINUOUS
 62
     7
 10
1243.75
 20
-376.6
 11
1243.75
 21
-368.6
  0
LINE
  8
1
  6
CONTINUOUS
 62
     7
 10
1241.75
 20
-366.6
 11
1240.25
 21
-366.6
  0
LINE
  8
1
  6
CONTINUOUS
 62
     7
 10
1198.25
 20
-363.4
 11
1198.25
 21
-366.6
  0
LINE
  8
1
  6
CONTINUOUS
 62
     7
 10
1478.25
 20
-366.6
 11
1476.75
 21
-366.6
  0
LINE
  8
1
  6
CONTINUOUS
 62
     7
 10
1474.75
 20
-368.6
 11
1474.75
 21
-376.6
  0
LINE
  8
1
  6
CONTINUOUS
 62
     7
 10
1314.75
 20
-368.6
 11
1314.75
 21
-376.6
  0
LINE
  8
1
  6
CONTINUOUS
 62
     7
 10
1278.25
 20
-366.6
 11
1276.75
 21
-366.6
  0
LINE
  8
1
  6
CONTINUOUS
 62
     7
 10
1480.25
 20
-366.6
 11
1480.25
 21
-363.4
  0
LINE
  8
1
  6
CONTINUOUS
 62
     7
 10
1276.75
 20
-378.6
 11
1281.75
 21
-378.6
  0
LINE
  8
1
  6
CONTINUOUS
 62
     7
 10
1278.25
 20
-363.4
 11
1278.25
 21
-366.6
  0
LINE
  8
1
  6
CONTINUOUS
 62
     7
 10
1318.25
 20
-363.4
 11
1318.25
 21
-366.6
  0
LINE
  8
1
  6
CONTINUOUS
 62
     7
 10
1441.75
 20
-366.6
 11
1440.25
 21
-366.6
  0
LINE
  8
1
  6
CONTINUOUS
 62
     7
 10
1283.75
 20
-376.6
 11
1283.75
 21
-368.6
  0
LINE
  8
1
  6
CONTINUOUS
 62
     7
 10
1240.25
 20
-366.6
 11
1240.25
 21
-363.4
  0
LINE
  8
1
  6
CONTINUOUS
 62
     7
 10
1323.75
 20
-376.6
 11
1323.75
 21
-368.6
  0
LINE
  8
1
  6
CONTINUOUS
 62
     7
 10
1194.75
 20
-368.6
 11
1194.75
 21
-376.6
  0
LINE
  8
1
  6
CONTINUOUS
 62
     7
 10
1238.25
 20
-366.6
 11
1236.75
 21
-366.6
  0
LINE
  8
1
  6
CONTINUOUS
 62
     7
 10
1156.75
 20
-378.6
 11
1161.75
 21
-378.6
  0
LINE
  8
1
  6
CONTINUOUS
 62
     7
 10
1358.25
 20
-363.4
 11
1358.25
 21
-366.6
  0
LINE
  8
1
  6
CONTINUOUS
 62
     7
 10
1321.75
 20
-366.6
 11
1320.25
 21
-366.6
  0
LINE
  8
1
  6
CONTINUOUS
 62
     7
 10
1163.75
 20
-376.6
 11
1163.75
 21
-368.6
  0
LINE
  8
1
  6
CONTINUOUS
 62
     7
 10
1316.75
 20
-378.6
 11
1321.75
 21
-378.6
  0
LINE
  8
1
  6
CONTINUOUS
 62
     7
 10
1363.75
 20
-376.6
 11
1363.75
 21
-368.6
  0
LINE
  8
1
  6
CONTINUOUS
 62
     7
 10
1200.25
 20
-363.4
 11
1198.25
 21
-363.4
  0
LINE
  8
1
  6
CONTINUOUS
 62
     7
 10
1740.25
 20
-366.6
 11
1740.25
 21
-363.4
  0
LINE
  8
1
  6
CONTINUOUS
 62
     7
 10
1860.25
 20
-363.4
 11
1858.25
 21
-363.4
  0
LINE
  8
1
  6
CONTINUOUS
 62
     7
 10
1896.75
 20
-378.6
 11
1901.75
 21
-378.6
  0
LINE
  8
1
  6
CONTINUOUS
 62
     7
 10
1660.25
 20
-363.4
 11
1658.25
 21
-363.4
  0
LINE
  8
1
  6
CONTINUOUS
 62
     7
 10
1741.75
 20
-366.6
 11
1740.25
 21
-366.6
  0
LINE
  8
1
  6
CONTINUOUS
 62
     7
 10
1821.75
 20
-366.6
 11
1820.25
 21
-366.6
  0
LINE
  8
1
  6
CONTINUOUS
 62
     7
 10
1820.25
 20
-363.4
 11
1818.25
 21
-363.4
  0
LINE
  8
1
  6
CONTINUOUS
 62
     7
 10
1900.25
 20
-363.4
 11
1898.25
 21
-363.4
  0
LINE
  8
1
  6
CONTINUOUS
 62
     7
 10
1701.75
 20
-366.6
 11
1700.25
 21
-366.6
  0
LINE
  8
1
  6
CONTINUOUS
 62
     7
 10
1816.75
 20
-378.6
 11
1821.75
 21
-378.6
  0
LINE
  8
1
  6
CONTINUOUS
 62
     7
 10
1738.25
 20
-363.4
 11
1738.25
 21
-366.6
  0
LINE
  8
1
  6
CONTINUOUS
 62
     7
 10
1934.75
 20
-368.6
 11
1934.75
 21
-376.6
  0
LINE
  8
1
  6
CONTINUOUS
 62
     7
 10
1976.75
 20
-378.6
 11
1981.75
 21
-378.6
  0
LINE
  8
1
  6
CONTINUOUS
 62
     7
 10
1983.75
 20
-376.6
 11
1983.75
 21
-368.6
  0
LINE
  8
1
  6
CONTINUOUS
 62
     7
 10
1818.25
 20
-363.4
 11
1818.25
 21
-366.6
  0
LINE
  8
1
  6
CONTINUOUS
 62
     7
 10
1783.75
 20
-376.6
 11
1783.75
 21
-368.6
  0
LINE
  8
1
  6
CONTINUOUS
 62
     7
 10
1700.25
 20
-363.4
 11
1698.25
 21
-363.4
  0
LINE
  8
1
  6
CONTINUOUS
 62
     7
 10
1738.25
 20
-366.6
 11
1736.75
 21
-366.6
  0
LINE
  8
1
  6
CONTINUOUS
 62
     7
 10
1734.75
 20
-368.6
 11
1734.75
 21
-376.6
  0
LINE
  8
1
  6
CONTINUOUS
 62
     7
 10
1776.75
 20
-378.6
 11
1781.75
 21
-378.6
  0
LINE
  8
1
  6
CONTINUOUS
 62
     7
 10
1820.25
 20
-366.6
 11
1820.25
 21
-363.4
  0
LINE
  8
1
  6
CONTINUOUS
 62
     7
 10
1698.25
 20
-366.6
 11
1696.75
 21
-366.6
  0
LINE
  8
1
  6
CONTINUOUS
 62
     7
 10
1856.75
 20
-378.6
 11
1861.75
 21
-378.6
  0
LINE
  8
1
  6
CONTINUOUS
 62
     7
 10
1658.25
 20
-363.4
 11
1658.25
 21
-366.6
  0
LINE
  8
1
  6
CONTINUOUS
 62
     7
 10
1703.75
 20
-376.6
 11
1703.75
 21
-368.6
  0
LINE
  8
1
  6
CONTINUOUS
 62
     7
 10
1780.25
 20
-363.4
 11
1778.25
 21
-363.4
  0
LINE
  8
1
  6
CONTINUOUS
 62
     7
 10
1823.75
 20
-376.6
 11
1823.75
 21
-368.6
  0
LINE
  8
1
  6
CONTINUOUS
 62
     7
 10
1863.75
 20
-376.6
 11
1863.75
 21
-368.6
  0
LINE
  8
1
  6
CONTINUOUS
 62
     7
 10
1861.75
 20
-366.6
 11
1860.25
 21
-366.6
  0
LINE
  8
1
  6
CONTINUOUS
 62
     7
 10
1858.25
 20
-366.6
 11
1856.75
 21
-366.6
  0
LINE
  8
1
  6
CONTINUOUS
 62
     7
 10
1661.75
 20
-366.6
 11
1660.25
 21
-366.6
  0
LINE
  8
1
  6
CONTINUOUS
 62
     7
 10
1818.25
 20
-366.6
 11
1816.75
 21
-366.6
  0
LINE
  8
1
  6
CONTINUOUS
 62
     7
 10
1900.25
 20
-366.6
 11
1900.25
 21
-363.4
  0
LINE
  8
1
  6
CONTINUOUS
 62
     7
 10
1936.75
 20
-378.6
 11
1941.75
 21
-378.6
  0
LINE
  8
1
  6
CONTINUOUS
 62
     7
 10
1698.25
 20
-363.4
 11
1698.25
 21
-366.6
  0
LINE
  8
1
  6
CONTINUOUS
 62
     7
 10
1780.25
 20
-366.6
 11
1780.25
 21
-363.4
  0
LINE
  8
1
  6
CONTINUOUS
 62
     7
 10
1858.25
 20
-363.4
 11
1858.25
 21
-366.6
  0
LINE
  8
1
  6
CONTINUOUS
 62
     7
 10
1903.75
 20
-376.6
 11
1903.75
 21
-368.6
  0
LINE
  8
1
  6
CONTINUOUS
 62
     7
 10
1943.75
 20
-376.6
 11
1943.75
 21
-368.6
  0
LINE
  8
1
  6
CONTINUOUS
 62
     7
 10
1778.25
 20
-366.6
 11
1776.75
 21
-366.6
  0
LINE
  8
1
  6
CONTINUOUS
 62
     7
 10
1854.75
 20
-368.6
 11
1854.75
 21
-376.6
  0
LINE
  8
1
  6
CONTINUOUS
 62
     7
 10
1778.25
 20
-363.4
 11
1778.25
 21
-366.6
  0
LINE
  8
1
  6
CONTINUOUS
 62
     7
 10
1898.25
 20
-363.4
 11
1898.25
 21
-366.6
  0
LINE
  8
1
  6
CONTINUOUS
 62
     7
 10
1941.75
 20
-366.6
 11
1940.25
 21
-366.6
  0
LINE
  8
1
  6
CONTINUOUS
 62
     7
 10
1940.25
 20
-366.6
 11
1940.25
 21
-363.4
  0
LINE
  8
1
  6
CONTINUOUS
 62
     7
 10
1700.25
 20
-366.6
 11
1700.25
 21
-363.4
  0
LINE
  8
1
  6
CONTINUOUS
 62
     7
 10
1901.75
 20
-366.6
 11
1900.25
 21
-366.6
  0
LINE
  8
1
  6
CONTINUOUS
 62
     7
 10
1658.25
 20
-366.6
 11
1656.75
 21
-366.6
  0
LINE
  8
1
  6
CONTINUOUS
 62
     7
 10
1814.75
 20
-368.6
 11
1814.75
 21
-376.6
  0
LINE
  8
1
  6
CONTINUOUS
 62
     7
 10
1898.25
 20
-366.6
 11
1896.75
 21
-366.6
  0
LINE
  8
1
  6
CONTINUOUS
 62
     7
 10
1938.25
 20
-363.4
 11
1938.25
 21
-366.6
  0
LINE
  8
1
  6
CONTINUOUS
 62
     7
 10
1938.25
 20
-366.6
 11
1936.75
 21
-366.6
  0
LINE
  8
1
  6
CONTINUOUS
 62
     7
 10
1940.25
 20
-363.4
 11
1938.25
 21
-363.4
  0
LINE
  8
1
  6
CONTINUOUS
 62
     7
 10
1736.75
 20
-378.6
 11
1741.75
 21
-378.6
  0
LINE
  8
1
  6
CONTINUOUS
 62
     7
 10
1660.25
 20
-366.6
 11
1660.25
 21
-363.4
  0
LINE
  8
1
  6
CONTINUOUS
 62
     7
 10
1743.75
 20
-376.6
 11
1743.75
 21
-368.6
  0
LINE
  8
1
  6
CONTINUOUS
 62
     7
 10
1740.25
 20
-363.4
 11
1738.25
 21
-363.4
  0
LINE
  8
1
  6
CONTINUOUS
 62
     7
 10
1781.75
 20
-366.6
 11
1780.25
 21
-366.6
  0
LINE
  8
1
  6
CONTINUOUS
 62
     7
 10
1774.75
 20
-368.6
 11
1774.75
 21
-376.6
  0
LINE
  8
1
  6
CONTINUOUS
 62
     7
 10
1860.25
 20
-366.6
 11
1860.25
 21
-363.4
  0
LINE
  8
1
  6
CONTINUOUS
 62
     7
 10
1894.75
 20
-368.6
 11
1894.75
 21
-376.6
  0
LINE
  8
1
  6
CONTINUOUS
 62
     7
 10
1654.75
 20
-368.6
 11
1654.75
 21
-376.6
  0
LINE
  8
1
  6
CONTINUOUS
 62
     7
 10
1696.75
 20
-378.6
 11
1701.75
 21
-378.6
  0
LINE
  8
1
  6
CONTINUOUS
 62
     7
 10
1694.75
 20
-368.6
 11
1694.75
 21
-376.6
  0
LINE
  8
1
  6
CONTINUOUS
 62
     7
 10
2061.75
 20
-366.6
 11
2060.25
 21
-366.6
  0
LINE
  8
1
  6
CONTINUOUS
 62
     7
 10
2100.25
 20
-366.6
 11
2100.25
 21
-363.4
  0
LINE
  8
1
  6
CONTINUOUS
 62
     7
 10
2076.75
 20
-378.6
 11
2081.75
 21
-378.6
  0
LINE
  8
1
  6
CONTINUOUS
 62
     7
 10
2078.25
 20
-366.6
 11
2076.75
 21
-366.6
  0
LINE
  8
1
  6
CONTINUOUS
 62
     7
 10
2043.75
 20
-376.6
 11
2043.75
 21
-368.6
  0
LINE
  8
1
  6
CONTINUOUS
 62
     7
 10
2041.75
 20
-366.6
 11
2040.25
 21
-366.6
  0
LINE
  8
1
  6
CONTINUOUS
 62
     7
 10
2040.25
 20
-366.6
 11
2040.25
 21
-363.4
  0
LINE
  8
1
  6
CONTINUOUS
 62
     7
 10
2034.75
 20
-368.6
 11
2034.75
 21
-376.6
  0
LINE
  8
1
  6
CONTINUOUS
 62
     7
 10
2103.75
 20
-376.6
 11
2103.75
 21
-368.6
  0
LINE
  8
1
  6
CONTINUOUS
 62
     7
 10
2018.25
 20
-363.4
 11
2018.25
 21
-366.6
  0
LINE
  8
1
  6
CONTINUOUS
 62
     7
 10
2116.75
 20
-378.6
 11
2121.75
 21
-378.6
  0
LINE
  8
1
  6
CONTINUOUS
 62
     7
 10
2000.25
 20
-366.6
 11
2000.25
 21
-363.4
  0
LINE
  8
1
  6
CONTINUOUS
 62
     7
 10
1980.25
 20
-363.4
 11
1978.25
 21
-363.4
  0
LINE
  8
1
  6
CONTINUOUS
 62
     7
 10
2118.25
 20
-366.6
 11
2116.75
 21
-366.6
  0
LINE
  8
1
  6
CONTINUOUS
 62
     7
 10
1998.25
 20
-363.4
 11
1998.25
 21
-366.6
  0
LINE
  8
1
  6
CONTINUOUS
 62
     7
 10
2078.25
 20
-363.4
 11
2078.25
 21
-366.6
  0
LINE
  8
1
  6
CONTINUOUS
 62
     7
 10
1998.25
 20
-366.6
 11
1996.75
 21
-366.6
  0
LINE
  8
1
  6
CONTINUOUS
 62
     7
 10
2000.25
 20
-363.4
 11
1998.25
 21
-363.4
  0
LINE
  8
1
  6
CONTINUOUS
 62
     7
 10
2074.75
 20
-368.6
 11
2074.75
 21
-376.6
  0
LINE
  8
1
  6
CONTINUOUS
 62
     7
 10
2058.25
 20
-366.6
 11
2056.75
 21
-366.6
  0
LINE
  8
1
  6
CONTINUOUS
 62
     7
 10
2036.75
 20
-378.6
 11
2041.75
 21
-378.6
  0
LINE
  8
1
  6
CONTINUOUS
 62
     7
 10
2014.75
 20
-368.6
 11
2014.75
 21
-376.6
  0
LINE
  8
1
  6
CONTINUOUS
 62
     7
 10
2100.25
 20
-363.4
 11
2098.25
 21
-363.4
  0
LINE
  8
1
  6
CONTINUOUS
 62
     7
 10
2121.75
 20
-366.6
 11
2120.25
 21
-366.6
  0
LINE
  8
1
  6
CONTINUOUS
 62
     7
 10
2083.75
 20
-376.6
 11
2083.75
 21
-368.6
  0
LINE
  8
1
  6
CONTINUOUS
 62
     7
 10
2040.25
 20
-363.4
 11
2038.25
 21
-363.4
  0
LINE
  8
1
  6
CONTINUOUS
 62
     7
 10
2038.25
 20
-363.4
 11
2038.25
 21
-366.6
  0
LINE
  8
1
  6
CONTINUOUS
 62
     7
 10
2038.25
 20
-366.6
 11
2036.75
 21
-366.6
  0
LINE
  8
1
  6
CONTINUOUS
 62
     7
 10
1994.75
 20
-368.6
 11
1994.75
 21
-376.6
  0
LINE
  8
1
  6
CONTINUOUS
 62
     7
 10
2060.25
 20
-363.4
 11
2058.25
 21
-363.4
  0
LINE
  8
1
  6
CONTINUOUS
 62
     7
 10
2054.75
 20
-368.6
 11
2054.75
 21
-376.6
  0
LINE
  8
1
  6
CONTINUOUS
 62
     7
 10
2060.25
 20
-366.6
 11
2060.25
 21
-363.4
  0
LINE
  8
1
  6
CONTINUOUS
 62
     7
 10
2129.25
 20
-384.6
 11
1129.25
 21
-384.6
  0
LINE
  8
1
  6
CONTINUOUS
 62
     7
 10
2120.25
 20
-363.4
 11
2118.25
 21
-363.4
  0
LINE
  8
1
  6
CONTINUOUS
 62
     7
 10
2098.25
 20
-363.4
 11
2098.25
 21
-366.6
  0
LINE
  8
1
  6
CONTINUOUS
 62
     7
 10
2120.25
 20
-366.6
 11
2120.25
 21
-363.4
  0
LINE
  8
1
  6
CONTINUOUS
 62
     7
 10
2081.75
 20
-366.6
 11
2080.25
 21
-366.6
  0
LINE
  8
1
  6
CONTINUOUS
 62
     7
 10
1974.75
 20
-368.6
 11
1974.75
 21
-376.6
  0
LINE
  8
1
  6
CONTINUOUS
 62
     7
 10
2096.75
 20
-378.6
 11
2101.75
 21
-378.6
  0
LINE
  8
1
  6
CONTINUOUS
 62
     7
 10
2058.25
 20
-363.4
 11
2058.25
 21
-366.6
  0
LINE
  8
1
  6
CONTINUOUS
 62
     7
 10
1981.75
 20
-366.6
 11
1980.25
 21
-366.6
  0
LINE
  8
1
  6
CONTINUOUS
 62
     7
 10
2016.75
 20
-378.6
 11
2021.75
 21
-378.6
  0
LINE
  8
1
  6
CONTINUOUS
 62
     7
 10
2101.75
 20
-366.6
 11
2100.25
 21
-366.6
  0
LINE
  8
1
  6
CONTINUOUS
 62
     7
 10
2094.75
 20
-368.6
 11
2094.75
 21
-376.6
  0
LINE
  8
1
  6
CONTINUOUS
 62
     7
 10
2118.25
 20
-363.4
 11
2118.25
 21
-366.6
  0
LINE
  8
1
  6
CONTINUOUS
 62
     7
 10
2080.25
 20
-366.6
 11
2080.25
 21
-363.4
  0
LINE
  8
1
  6
CONTINUOUS
 62
     7
 10
2063.75
 20
-376.6
 11
2063.75
 21
-368.6
  0
LINE
  8
1
  6
CONTINUOUS
 62
     7
 10
2114.75
 20
-368.6
 11
2114.75
 21
-376.6
  0
LINE
  8
1
  6
CONTINUOUS
 62
     7
 10
2080.25
 20
-363.4
 11
2078.25
 21
-363.4
  0
LINE
  8
1
  6
CONTINUOUS
 62
     7
 10
2123.75
 20
-376.6
 11
2123.75
 21
-368.6
  0
LINE
  8
1
  6
CONTINUOUS
 62
     7
 10
2020.25
 20
-363.4
 11
2018.25
 21
-363.4
  0
LINE
  8
1
  6
CONTINUOUS
 62
     7
 10
2056.75
 20
-378.6
 11
2061.75
 21
-378.6
  0
LINE
  8
1
  6
CONTINUOUS
 62
     7
 10
1996.75
 20
-378.6
 11
2001.75
 21
-378.6
  0
LINE
  8
1
  6
CONTINUOUS
 62
     7
 10
2129.25
 20
-384.6
 11
2129.25
 21
-360.8
  0
LINE
  8
1
  6
CONTINUOUS
 62
     7
 10
2021.75
 20
-366.6
 11
2020.25
 21
-366.6
  0
LINE
  8
1
  6
CONTINUOUS
 62
     7
 10
2003.75
 20
-376.6
 11
2003.75
 21
-368.6
  0
LINE
  8
1
  6
CONTINUOUS
 62
     7
 10
1978.25
 20
-363.4
 11
1978.25
 21
-366.6
  0
LINE
  8
1
  6
CONTINUOUS
 62
     7
 10
2098.25
 20
-366.6
 11
2096.75
 21
-366.6
  0
LINE
  8
1
  6
CONTINUOUS
 62
     7
 10
1980.25
 20
-366.6
 11
1980.25
 21
-363.4
  0
LINE
  8
1
  6
CONTINUOUS
 62
     7
 10
2023.75
 20
-376.6
 11
2023.75
 21
-368.6
  0
LINE
  8
1
  6
CONTINUOUS
 62
     7
 10
2001.75
 20
-366.6
 11
2000.25
 21
-366.6
  0
LINE
  8
1
  6
CONTINUOUS
 62
     7
 10
1978.25
 20
-366.6
 11
1976.75
 21
-366.6
  0
LINE
  8
1
  6
CONTINUOUS
 62
     7
 10
2020.25
 20
-366.6
 11
2020.25
 21
-363.4
  0
LINE
  8
1
  6
CONTINUOUS
 62
     7
 10
2018.25
 20
-366.6
 11
2016.75
 21
-366.6
  0
LINE
  8
1
  6
CONTINUOUS
 62
     7
 10
1958.25
 20
-366.6
 11
1956.75
 21
-366.6
  0
LINE
  8
1
  6
CONTINUOUS
 62
     7
 10
1843.75
 20
-376.6
 11
1843.75
 21
-368.6
  0
LINE
  8
1
  6
CONTINUOUS
 62
     7
 10
1803.75
 20
-376.6
 11
1803.75
 21
-368.6
  0
LINE
  8
1
  6
CONTINUOUS
 62
     7
 10
1761.75
 20
-366.6
 11
1760.25
 21
-366.6
  0
LINE
  8
1
  6
CONTINUOUS
 62
     7
 10
1881.75
 20
-366.6
 11
1880.25
 21
-366.6
  0
LINE
  8
1
  6
CONTINUOUS
 62
     7
 10
1963.75
 20
-376.6
 11
1963.75
 21
-368.6
  0
LINE
  8
1
  6
CONTINUOUS
 62
     7
 10
1960.25
 20
-363.4
 11
1958.25
 21
-363.4
  0
LINE
  8
1
  6
CONTINUOUS
 62
     7
 10
1923.75
 20
-376.6
 11
1923.75
 21
-368.6
  0
LINE
  8
1
  6
CONTINUOUS
 62
     7
 10
1914.75
 20
-368.6
 11
1914.75
 21
-376.6
  0
LINE
  8
1
  6
CONTINUOUS
 62
     7
 10
1880.25
 20
-363.4
 11
1878.25
 21
-363.4
  0
LINE
  8
1
  6
CONTINUOUS
 62
     7
 10
1920.25
 20
-366.6
 11
1920.25
 21
-363.4
  0
LINE
  8
1
  6
CONTINUOUS
 62
     7
 10
1918.25
 20
-363.4
 11
1918.25
 21
-366.6
  0
LINE
  8
1
  6
CONTINUOUS
 62
     7
 10
1874.75
 20
-368.6
 11
1874.75
 21
-376.6
  0
LINE
  8
1
  6
CONTINUOUS
 62
     7
 10
1838.25
 20
-363.4
 11
1838.25
 21
-366.6
  0
LINE
  8
1
  6
CONTINUOUS
 62
     7
 10
1838.25
 20
-366.6
 11
1836.75
 21
-366.6
  0
LINE
  8
1
  6
CONTINUOUS
 62
     7
 10
1801.75
 20
-366.6
 11
1800.25
 21
-366.6
  0
LINE
  8
1
  6
CONTINUOUS
 62
     7
 10
1800.25
 20
-363.4
 11
1798.25
 21
-363.4
  0
LINE
  8
1
  6
CONTINUOUS
 62
     7
 10
1723.75
 20
-376.6
 11
1723.75
 21
-368.6
  0
LINE
  8
1
  6
CONTINUOUS
 62
     7
 10
1918.25
 20
-366.6
 11
1916.75
 21
-366.6
  0
LINE
  8
1
  6
CONTINUOUS
 62
     7
 10
1954.75
 20
-368.6
 11
1954.75
 21
-376.6
  0
LINE
  8
1
  6
CONTINUOUS
 62
     7
 10
1840.25
 20
-366.6
 11
1840.25
 21
-363.4
  0
LINE
  8
1
  6
CONTINUOUS
 62
     7
 10
1760.25
 20
-366.6
 11
1760.25
 21
-363.4
  0
LINE
  8
1
  6
CONTINUOUS
 62
     7
 10
1760.25
 20
-363.4
 11
1758.25
 21
-363.4
  0
LINE
  8
1
  6
CONTINUOUS
 62
     7
 10
1796.75
 20
-378.6
 11
1801.75
 21
-378.6
  0
LINE
  8
1
  6
CONTINUOUS
 62
     7
 10
1720.25
 20
-366.6
 11
1720.25
 21
-363.4
  0
LINE
  8
1
  6
CONTINUOUS
 62
     7
 10
1794.75
 20
-368.6
 11
1794.75
 21
-376.6
  0
LINE
  8
1
  6
CONTINUOUS
 62
     7
 10
1718.25
 20
-363.4
 11
1718.25
 21
-366.6
  0
LINE
  8
1
  6
CONTINUOUS
 62
     7
 10
1718.25
 20
-366.6
 11
1716.75
 21
-366.6
  0
LINE
  8
1
  6
CONTINUOUS
 62
     7
 10
1714.75
 20
-368.6
 11
1714.75
 21
-376.6
  0
LINE
  8
1
  6
CONTINUOUS
 62
     7
 10
1676.75
 20
-378.6
 11
1681.75
 21
-378.6
  0
LINE
  8
1
  6
CONTINUOUS
 62
     7
 10
1836.75
 20
-378.6
 11
1841.75
 21
-378.6
  0
LINE
  8
1
  6
CONTINUOUS
 62
     7
 10
1798.25
 20
-363.4
 11
1798.25
 21
-366.6
  0
LINE
  8
1
  6
CONTINUOUS
 62
     7
 10
1683.75
 20
-376.6
 11
1683.75
 21
-368.6
  0
LINE
  8
1
  6
CONTINUOUS
 62
     7
 10
1758.25
 20
-366.6
 11
1756.75
 21
-366.6
  0
LINE
  8
1
  6
CONTINUOUS
 62
     7
 10
1681.75
 20
-366.6
 11
1680.25
 21
-366.6
  0
LINE
  8
1
  6
CONTINUOUS
 62
     7
 10
1680.25
 20
-366.6
 11
1680.25
 21
-363.4
  0
LINE
  8
1
  6
CONTINUOUS
 62
     7
 10
1956.75
 20
-378.6
 11
1961.75
 21
-378.6
  0
LINE
  8
1
  6
CONTINUOUS
 62
     7
 10
1680.25
 20
-363.4
 11
1678.25
 21
-363.4
  0
LINE
  8
1
  6
CONTINUOUS
 62
     7
 10
1678.25
 20
-363.4
 11
1678.25
 21
-366.6
  0
LINE
  8
1
  6
CONTINUOUS
 62
     7
 10
1678.25
 20
-366.6
 11
1676.75
 21
-366.6
  0
LINE
  8
1
  6
CONTINUOUS
 62
     7
 10
1958.25
 20
-363.4
 11
1958.25
 21
-366.6
  0
LINE
  8
1
  6
CONTINUOUS
 62
     7
 10
1674.75
 20
-368.6
 11
1674.75
 21
-376.6
  0
LINE
  8
1
  6
CONTINUOUS
 62
     7
 10
1961.75
 20
-366.6
 11
1960.25
 21
-366.6
  0
LINE
  8
1
  6
CONTINUOUS
 62
     7
 10
1920.25
 20
-363.4
 11
1918.25
 21
-363.4
  0
LINE
  8
1
  6
CONTINUOUS
 62
     7
 10
1880.25
 20
-366.6
 11
1880.25
 21
-363.4
  0
LINE
  8
1
  6
CONTINUOUS
 62
     7
 10
1876.75
 20
-378.6
 11
1881.75
 21
-378.6
  0
LINE
  8
1
  6
CONTINUOUS
 62
     7
 10
1800.25
 20
-366.6
 11
1800.25
 21
-363.4
  0
LINE
  8
1
  6
CONTINUOUS
 62
     7
 10
1916.75
 20
-378.6
 11
1921.75
 21
-378.6
  0
LINE
  8
1
  6
CONTINUOUS
 62
     7
 10
1798.25
 20
-366.6
 11
1796.75
 21
-366.6
  0
LINE
  8
1
  6
CONTINUOUS
 62
     7
 10
1763.75
 20
-376.6
 11
1763.75
 21
-368.6
  0
LINE
  8
1
  6
CONTINUOUS
 62
     7
 10
1758.25
 20
-363.4
 11
1758.25
 21
-366.6
  0
LINE
  8
1
  6
CONTINUOUS
 62
     7
 10
1883.75
 20
-376.6
 11
1883.75
 21
-368.6
  0
LINE
  8
1
  6
CONTINUOUS
 62
     7
 10
1840.25
 20
-363.4
 11
1838.25
 21
-363.4
  0
LINE
  8
1
  6
CONTINUOUS
 62
     7
 10
1756.75
 20
-378.6
 11
1761.75
 21
-378.6
  0
LINE
  8
1
  6
CONTINUOUS
 62
     7
 10
1716.75
 20
-378.6
 11
1721.75
 21
-378.6
  0
LINE
  8
1
  6
CONTINUOUS
 62
     7
 10
1721.75
 20
-366.6
 11
1720.25
 21
-366.6
  0
LINE
  8
1
  6
CONTINUOUS
 62
     7
 10
1754.75
 20
-368.6
 11
1754.75
 21
-376.6
  0
LINE
  8
1
  6
CONTINUOUS
 62
     7
 10
1841.75
 20
-366.6
 11
1840.25
 21
-366.6
  0
LINE
  8
1
  6
CONTINUOUS
 62
     7
 10
1720.25
 20
-363.4
 11
1718.25
 21
-363.4
  0
LINE
  8
1
  6
CONTINUOUS
 62
     7
 10
1834.75
 20
-368.6
 11
1834.75
 21
-376.6
  0
LINE
  8
1
  6
CONTINUOUS
 62
     7
 10
1921.75
 20
-366.6
 11
1920.25
 21
-366.6
  0
LINE
  8
1
  6
CONTINUOUS
 62
     7
 10
1960.25
 20
-366.6
 11
1960.25
 21
-363.4
  0
LINE
  8
1
  6
CONTINUOUS
 62
     7
 10
1878.25
 20
-366.6
 11
1876.75
 21
-366.6
  0
LINE
  8
1
  6
CONTINUOUS
 62
     7
 10
1878.25
 20
-363.4
 11
1878.25
 21
-366.6
  0
LINE
  8
1
  6
CONTINUOUS
 62
     7
 10
1636.75
 20
-378.6
 11
1641.75
 21
-378.6
  0
LINE
  8
1
  6
CONTINUOUS
 62
     7
 10
1601.75
 20
-366.6
 11
1600.25
 21
-366.6
  0
LINE
  8
1
  6
CONTINUOUS
 62
     7
 10
1520.25
 20
-363.4
 11
1518.25
 21
-363.4
  0
LINE
  8
1
  6
CONTINUOUS
 62
     7
 10
1641.75
 20
-366.6
 11
1640.25
 21
-366.6
  0
LINE
  8
1
  6
CONTINUOUS
 62
     7
 10
1600.25
 20
-363.4
 11
1598.25
 21
-363.4
  0
LINE
  8
1
  6
CONTINUOUS
 62
     7
 10
1520.25
 20
-366.6
 11
1520.25
 21
-363.4
  0
LINE
  8
1
  6
CONTINUOUS
 62
     7
 10
1640.25
 20
-363.4
 11
1638.25
 21
-363.4
  0
LINE
  8
1
  6
CONTINUOUS
 62
     7
 10
1638.25
 20
-363.4
 11
1638.25
 21
-366.6
  0
LINE
  8
1
  6
CONTINUOUS
 62
     7
 10
1638.25
 20
-366.6
 11
1636.75
 21
-366.6
  0
LINE
  8
1
  6
CONTINUOUS
 62
     7
 10
1600.25
 20
-366.6
 11
1600.25
 21
-363.4
  0
LINE
  8
1
  6
CONTINUOUS
 62
     7
 10
1598.25
 20
-363.4
 11
1598.25
 21
-366.6
  0
LINE
  8
1
  6
CONTINUOUS
 62
     7
 10
1563.75
 20
-376.6
 11
1563.75
 21
-368.6
  0
LINE
  8
1
  6
CONTINUOUS
 62
     7
 10
1596.75
 20
-378.6
 11
1601.75
 21
-378.6
  0
LINE
  8
1
  6
CONTINUOUS
 62
     7
 10
1556.75
 20
-378.6
 11
1561.75
 21
-378.6
  0
LINE
  8
1
  6
CONTINUOUS
 62
     7
 10
1598.25
 20
-366.6
 11
1596.75
 21
-366.6
  0
LINE
  8
1
  6
CONTINUOUS
 62
     7
 10
1561.75
 20
-366.6
 11
1560.25
 21
-366.6
  0
LINE
  8
1
  6
CONTINUOUS
 62
     7
 10
1560.25
 20
-363.4
 11
1558.25
 21
-363.4
  0
LINE
  8
1
  6
CONTINUOUS
 62
     7
 10
1558.25
 20
-366.6
 11
1556.75
 21
-366.6
  0
LINE
  8
1
  6
CONTINUOUS
 62
     7
 10
1523.75
 20
-376.6
 11
1523.75
 21
-368.6
  0
LINE
  8
1
  6
CONTINUOUS
 62
     7
 10
1560.25
 20
-366.6
 11
1560.25
 21
-363.4
  0
LINE
  8
1
  6
CONTINUOUS
 62
     7
 10
1521.75
 20
-366.6
 11
1520.25
 21
-366.6
  0
LINE
  8
1
  6
CONTINUOUS
 62
     7
 10
1554.75
 20
-368.6
 11
1554.75
 21
-376.6
  0
LINE
  8
1
  6
CONTINUOUS
 62
     7
 10
1594.75
 20
-368.6
 11
1594.75
 21
-376.6
  0
LINE
  8
1
  6
CONTINUOUS
 62
     7
 10
1640.25
 20
-366.6
 11
1640.25
 21
-363.4
  0
LINE
  8
1
  6
CONTINUOUS
 62
     7
 10
1518.25
 20
-366.6
 11
1516.75
 21
-366.6
  0
LINE
  8
1
  6
CONTINUOUS
 62
     7
 10
1514.75
 20
-368.6
 11
1514.75
 21
-376.6
  0
LINE
  8
1
  6
CONTINUOUS
 62
     7
 10
1634.75
 20
-368.6
 11
1634.75
 21
-376.6
  0
LINE
  8
1
  6
CONTINUOUS
 62
     7
 10
1558.25
 20
-363.4
 11
1558.25
 21
-366.6
  0
LINE
  8
1
  6
CONTINUOUS
 62
     7
 10
1643.75
 20
-376.6
 11
1643.75
 21
-368.6
  0
LINE
  8
1
  6
CONTINUOUS
 62
     7
 10
1476.75
 20
-378.6
 11
1481.75
 21
-378.6
  0
LINE
  8
1
  6
CONTINUOUS
 62
     7
 10
1483.75
 20
-376.6
 11
1483.75
 21
-368.6
  0
LINE
  8
1
  6
CONTINUOUS
 62
     7
 10
1518.25
 20
-363.4
 11
1518.25
 21
-366.6
  0
LINE
  8
1
  6
CONTINUOUS
 62
     7
 10
1481.75
 20
-366.6
 11
1480.25
 21
-366.6
  0
LINE
  8
1
  6
CONTINUOUS
 62
     7
 10
1603.75
 20
-376.6
 11
1603.75
 21
-368.6
  0
LINE
  8
1
  6
CONTINUOUS
 62
     7
 10
1516.75
 20
-378.6
 11
1521.75
 21
-378.6
  0
ENDSEC
  0
EOF
