  0
SECTION
  2
HEADER
  9
$ACADVER
  1
AC1004
  9
$INSBASE
 10
0.0
 20
0.0
  9
$EXTMIN
 10
-637.3411197756841
 20
-73.82954545454545
  9
$EXTMAX
 10
-472.8487900929566
 20
143.8513166408114
  9
$LIMMIN
 10
0.0
 20
0.0
  9
$LIMMAX
 10
12.0
 20
9.0
  9
$ORTHOMODE
 70
     0
  9
$REGENMODE
 70
     1
  9
$FILLMODE
 70
     1
  9
$QTEXTMODE
 70
     0
  9
$DRAGMODE
 70
     2
  9
$LTSCALE
 40
1.0
  9
$OSMODE
 70
    37
  9
$ATTMODE
 70
     1
  9
$TEXTSIZE
 40
0.2
  9
$TRACEWID
 40
0.05
  9
$TEXTSTYLE
  7
STANDARD
  9
$CLAYER
  8
0
  9
$CELTYPE
  6
BYLAYER
  9
$CECOLOR
 62
   256
  9
$DIMSCALE
 40
1.0
  9
$DIMASZ
 40
3.0
  9
$DIMEXO
 40
0.0625
  9
$DIMDLI
 40
0.38
  9
$DIMRND
 40
0.0
  9
$DIMDLE
 40
0.0
  9
$DIMEXE
 40
1.5
  9
$DIMTP
 40
0.0
  9
$DIMTM
 40
0.0
  9
$DIMTXT
 40
3.0
  9
$DIMCEN
 40
0.09
  9
$DIMTSZ
 40
0.0
  9
$DIMTOL
 70
     0
  9
$DIMLIM
 70
     0
  9
$DIMTIH
 70
     1
  9
$DIMTOH
 70
     1
  9
$DIMSE1
 70
     0
  9
$DIMSE2
 70
     0
  9
$DIMTAD
 70
     1
  9
$DIMZIN
 70
     0
  9
$DIMBLK
  1

  9
$DIMASO
 70
     1
  9
$DIMSHO
 70
     1
  9
$DIMPOST
  1

  9
$DIMAPOST
  1

  9
$DIMALT
 70
     0
  9
$DIMALTD
 70
     2
  9
$DIMALTF
 40
25.4
  9
$DIMLFAC
 40
1.0
  9
$DIMTOFL
 70
     0
  9
$DIMTVP
 40
0.0
  9
$DIMTIX
 70
     0
  9
$DIMSOXD
 70
     0
  9
$DIMSAH
 70
     0
  9
$DIMBLK1
  1

  9
$DIMBLK2
  1

  9
$LUNITS
 70
     2
  9
$LUPREC
 70
     4
  9
$SKETCHINC
 40
0.1
  9
$FILLETRAD
 40
0.5
  9
$AUNITS
 70
     0
  9
$AUPREC
 70
     0
  9
$MENU
  1
.
  9
$ELEVATION
 40
0.0
  9
$THICKNESS
 40
0.0
  9
$LIMCHECK
 70
     0
  9
$CHAMFERA
 40
0.0
  9
$CHAMFERB
 40
0.0
  9
$SKPOLY
 70
     0
  9
$TDCREATE
 40
2459695.731087211
  9
$TDUPDATE
 40
2459695.731087928
  9
$TDINDWG
 40
0.0000000116
  9
$TDUSRTIMER
 40
0.0000000116
  9
$USRTIMER
 70
     1
  9
$ANGBASE
 50
0.0
  9
$ANGDIR
 70
     0
  9
$PDMODE
 70
     0
  9
$PDSIZE
 40
0.0
  9
$PLINEWID
 40
0.0
  9
$COORDS
 70
     1
  9
$SPLFRAME
 70
     0
  9
$SPLINETYPE
 70
     6
  9
$SPLINESEGS
 70
     8
  9
$ATTDIA
 70
     0
  9
$ATTREQ
 70
     1
  9
$SURFTAB1
 70
     6
  9
$SURFTAB2
 70
     6
  9
$SURFTYPE
 70
     6
  9
$SURFU
 70
     6
  9
$SURFV
 70
     6
  9
$UCSNAME
  2

  9
$UCSORG
 10
0.0
 20
0.0
 30
0.0
  9
$UCSXDIR
 10
1.0
 20
0.0
 30
0.0
  9
$UCSYDIR
 10
0.0
 20
1.0
 30
0.0
  9
$USERI1
 70
     0
  9
$USERI2
 70
     0
  9
$USERI3
 70
     0
  9
$USERI4
 70
     0
  9
$USERI5
 70
     0
  9
$USERR1
 40
0.0
  9
$USERR2
 40
0.0
  9
$USERR3
 40
0.0
  9
$USERR4
 40
0.0
  9
$USERR5
 40
0.0
  9
$WORLDVIEW
 70
     1
  0
ENDSEC
  0
SECTION
  2
TABLES
  0
TABLE
  2
LTYPE
 70
     2
  0
LTYPE
  2
CONTINUOUS
 70
     0
  3
Solid line
 72
    65
 73
     0
 40
0.0
  0
LTYPE
  2
CENTER
 70
     0
  3

 72
    65
 73
     0
 40
0.0
  0
ENDTAB
  0
TABLE
  2
LAYER
 70
     2
  0
LAYER
  2
0
 70
     0
 62
     7
  6
CONTINUOUS
  0
LAYER
  2
1
 70
     0
 62
     7
  6
CONTINUOUS
  0
ENDTAB
  0
TABLE
  2
STYLE
 70
     2
  0
STYLE
  2
STANDARD
 70
     0
 40
0.0
 41
1.0
 50
0.0
 71
     0
 42
0.2
  3
txt
  4

  0
STYLE
  2
ＭＳ_ゴシック
 70
     0
 40
0.0
 41
1.0
 50
0.0
 71
     0
 42
0.2
  3
ＭＳ ゴシック.shx
  4

  0
ENDTAB
  0
TABLE
  2
VIEW
 70
     0
  0
ENDTAB
  0
ENDSEC
  0
SECTION
  2
BLOCKS
  0
ENDSEC
  0
SECTION
  2
ENTITIES
  0
ARC
  8
1
  6
CONTINUOUS
 62
     7
 10
-584.4944356451321
 20
-48.4011015303133
 40
0.500000000000049
 50
270.0
 51
358.9999999999999
  0
ARC
  8
1
  6
CONTINUOUS
 62
     7
 10
-600.0030870135741
 20
92.51509377429007
 40
1.030668528585367
 50
240.0214543835118
 51
299.9785456164882
  0
ARC
  8
1
  6
CONTINUOUS
 62
     7
 10
-600.0030870135741
 20
92.51509377429007
 40
2.250000000000027
 50
166.7683351757005
 51
193.2316648242995
  0
ARC
  8
1
  6
CONTINUOUS
 62
     7
 10
-600.0030870135741
 20
92.51509377429007
 40
2.250000000000006
 50
256.7683351756996
 51
283.2316648243004
  0
ARC
  8
1
  6
CONTINUOUS
 62
     7
 10
-458.8643189796061
 20
93.30385091992791
 40
19.99999995612863
 50
182.2602089368313
 51
185.8218585945235
  0
ARC
  8
1
  6
CONTINUOUS
 62
     7
 10
-481.2988984696866
 20
106.3150937742901
 40
0.5000000000000004
 50
0.0
 51
90.0
  0
ARC
  8
1
  6
CONTINUOUS
 62
     7
 10
-481.2988984696866
 20
82.26509377429007
 40
0.5000000000000004
 50
0.0
 51
90.0
  0
ARC
  8
1
  6
CONTINUOUS
 62
     7
 10
-499.9988984696867
 20
35.03652672068236
 40
0.7999999999999694
 50
222.4852072623037
 51
0.0
  0
ARC
  8
1
  6
CONTINUOUS
 62
     7
 10
-600.0030870135743
 20
2.698898469686836
 40
38.50000000000018
 50
270.0000000000002
 51
332.6847573101027
  0
ARC
  8
1
  6
CONTINUOUS
 62
     7
 10
-600.0030870135741
 20
2.698898469686746
 40
38.50000000000002
 50
207.3152426901196
 51
269.9999999999999
  0
ARC
  8
1
  6
CONTINUOUS
 62
     7
 10
-600.0030870135749
 20
2.698898469687613
 40
35.00000000000119
 50
298.0674339339277
 51
329.9999999999063
  0
ARC
  8
1
  6
CONTINUOUS
 62
     7
 10
-498.6988984696866
 20
113.9851037564076
 40
0.5000000000000004
 50
180.0
 51
269.0000000000022
  0
ARC
  8
1
  6
CONTINUOUS
 62
     7
 10
-486.5988984696867
 20
72.25644240584792
 40
0.5000000000000054
 50
270.9999999999978
 51
0.0
  0
ARC
  8
1
  6
CONTINUOUS
 62
     7
 10
-486.5988984696867
 20
81.2564424058479
 40
0.5000000000000054
 50
270.9999999999978
 51
0.0
  0
ARC
  8
1
  6
CONTINUOUS
 62
     7
 10
-482.7488984696866
 20
83.26509377429007
 40
0.5000000000000004
 50
180.0
 51
270.0
  0
ARC
  8
1
  6
CONTINUOUS
 62
     7
 10
-511.1988984696867
 20
44.53239651117438
 40
0.999999999999997
 50
90.99999999999785
 51
180.0
  0
ARC
  8
1
  6
CONTINUOUS
 62
     7
 10
-600.0030870135737
 20
2.69889846968703
 40
35.00000000000057
 50
210.0000000001116
 51
241.9325660660723
  0
ARC
  8
1
  6
CONTINUOUS
 62
     7
 10
-616.7893815362191
 20
-32.50366274677905
 40
0.5000000000000475
 50
1.000000000000147
 51
64.50592177571198
  0
ARC
  8
1
  6
CONTINUOUS
 62
     7
 10
-614.3030870135741
 20
-53.70110153031334
 40
0.4999999999999449
 50
180.0
 51
270.0
  0
ARC
  8
1
  6
CONTINUOUS
 62
     7
 10
-486.5988984696867
 20
103.7737451427322
 40
0.5000000000000004
 50
0.0
 51
89.00000000000212
  0
ARC
  8
1
  6
CONTINUOUS
 62
     7
 10
-486.5988984696867
 20
112.7737451427322
 40
0.5000000000000004
 50
0.0
 51
89.00000000000212
  0
ARC
  8
1
  6
CONTINUOUS
 62
     7
 10
-600.0030870135741
 20
92.51509377429007
 40
1.030668528585367
 50
60.02145438351182
 51
119.9785456164882
  0
ARC
  8
1
  6
CONTINUOUS
 62
     7
 10
-482.7488984696866
 20
101.7650937742901
 40
0.5000000000000004
 50
90.0
 51
180.0
  0
ARC
  8
1
  6
CONTINUOUS
 62
     7
 10
-481.2988984696866
 20
102.7650937742901
 40
0.5000000000000004
 50
270.0
 51
0.0
  0
ARC
  8
1
  6
CONTINUOUS
 62
     7
 10
-499.9988984696867
 20
139.9936608278978
 40
0.8000000000000229
 50
0.0
 51
137.5147927376941
  0
ARC
  8
1
  6
CONTINUOUS
 62
     7
 10
-583.2167924909292
 20
-32.50366274677905
 40
0.5000000000000525
 50
115.494078224288
 51
178.9999999999999
  0
ARC
  8
1
  6
CONTINUOUS
 62
     7
 10
-442.6988984696867
 20
87.51509377429005
 40
78.49999999999999
 50
137.5147927377397
 51
222.4852072623038
  0
ARC
  8
1
  6
CONTINUOUS
 62
     7
 10
-600.0030870135741
 20
92.51509377429007
 40
2.250000000000006
 50
76.76833517569968
 51
103.2316648243003
  0
ARC
  8
1
  6
CONTINUOUS
 62
     7
 10
-600.0030870135741
 20
92.51509377429007
 40
2.250000000000027
 50
346.7683351757005
 51
13.23166482429951
  0
ARC
  8
1
  6
CONTINUOUS
 62
     7
 10
-481.2988984696866
 20
78.01509377429011
 40
0.5000000000000004
 50
270.0
 51
0.0
  0
ARC
  8
1
  6
CONTINUOUS
 62
     7
 10
-600.0030870135741
 20
92.51509377429007
 40
1.030668528585354
 50
330.0214543835131
 51
29.97854561648689
  0
ARC
  8
1
  6
CONTINUOUS
 62
     7
 10
-498.6988984696866
 20
71.04508379217258
 40
0.500000000000061
 50
90.99999999999774
 51
180.0
  0
ARC
  8
1
  6
CONTINUOUS
 62
     7
 10
-600.0030870135741
 20
2.698898469686586
 40
34.99999999999989
 50
243.8417870135052
 51
296.1582129865369
  0
ARC
  8
1
  6
CONTINUOUS
 62
     7
 10
-600.0030870135741
 20
-50.8011015303133
 40
28.00000000000002
 50
53.91663176072854
 51
126.0833682392715
  0
ARC
  8
1
  6
CONTINUOUS
 62
     7
 10
-600.0030870135741
 20
92.51509377429007
 40
1.030668528585354
 50
150.0214543835131
 51
209.9785456164869
  0
ARC
  8
1
  6
CONTINUOUS
 62
     7
 10
-511.1988984696867
 20
43.49779103740575
 40
1.000000000000001
 50
180.0
 51
269.0000000000022
  0
ARC
  8
1
  6
CONTINUOUS
 62
     7
 10
-615.5117383820163
 20
-48.4011015303133
 40
0.5000000000000475
 50
181.0000000000002
 51
270.0
  0
ARC
  8
1
  6
CONTINUOUS
 62
     7
 10
-591.2030870135742
 20
-53.70110153031334
 40
0.500000000000056
 50
180.0
 51
270.0
  0
ARC
  8
1
  6
CONTINUOUS
 62
     7
 10
-608.8030870135742
 20
-53.70110153031334
 40
0.500000000000056
 50
270.0
 51
0.0
  0
ARC
  8
1
  6
CONTINUOUS
 62
     7
 10
-585.7030870135742
 20
-53.70110153031334
 40
0.500000000000056
 50
270.0
 51
0.0
  0
ARC
  8
1
  6
CONTINUOUS
 62
     7
 10
-596.5030870135743
 20
-53.70110153031334
 40
0.500000000000056
 50
270.0
 51
0.0
  0
ARC
  8
1
  6
CONTINUOUS
 62
     7
 10
-566.5068185646858
 20
-14.60110153031331
 40
0.799999999999985
 50
332.6847573103377
 51
90.0
  0
ARC
  8
1
  6
CONTINUOUS
 62
     7
 10
-617.0117383820163
 20
-48.4011015303133
 40
0.4999999999999364
 50
181.0000000000004
 51
270.0
  0
ARC
  8
1
  6
CONTINUOUS
 62
     7
 10
-618.3026893154849
 20
-31.74126058325473
 40
0.5000000000000473
 50
0.9999999999993521
 51
62.01628594420443
  0
ARC
  8
1
  6
CONTINUOUS
 62
     7
 10
-633.4993554624626
 20
-14.60110153031331
 40
0.7999999999999986
 50
90.0
 51
207.3152426896625
  0
ARC
  8
1
  6
CONTINUOUS
 62
     7
 10
-603.5030870135743
 20
-53.70110153031334
 40
0.4999999999999449
 50
180.0
 51
270.0
  0
ARC
  8
1
  6
CONTINUOUS
 62
     7
 10
-581.7034847116635
 20
-31.74126058325474
 40
0.5000000000000597
 50
117.9837140557945
 51
178.9999999999991
  0
ARC
  8
1
  6
CONTINUOUS
 62
     7
 10
-567.96014707355
 20
-15.80110153031332
 40
2.000000000000002
 50
90.0
 51
150.0000000000001
  0
ARC
  8
1
  6
CONTINUOUS
 62
     7
 10
-632.0460269535985
 20
-15.80110153031332
 40
2.000000000000009
 50
29.99999999999999
 51
90.0
  0
ARC
  8
1
  6
CONTINUOUS
 62
     7
 10
-582.994435645132
 20
-48.4011015303133
 40
0.5000000000000004
 50
270.0
 51
358.9999999999999
  0
LINE
  8
1
  6
CONTINUOUS
 62
     7
 10
-615.5084723768915
 20
42.41248184741672
 11
-615.5562412561309
 21
42.41394141087621
  0
LINE
  8
1
  6
CONTINUOUS
 62
     7
 10
-615.5562412561309
 20
42.41394141087621
 11
-615.604011156528
 21
42.41751592718359
  0
LINE
  8
1
  6
CONTINUOUS
 62
     7
 10
-615.604011156528
 20
42.41751592718359
 11
-615.6520274480459
 21
42.4232515692988
  0
LINE
  8
1
  6
CONTINUOUS
 62
     7
 10
-615.6520274480459
 20
42.4232515692988
 11
-615.6998282917814
 21
42.43113123888506
  0
LINE
  8
1
  6
CONTINUOUS
 62
     7
 10
-615.6998282917814
 20
42.43113123888506
 11
-615.747742544649
 21
42.44126521443999
  0
LINE
  8
1
  6
CONTINUOUS
 62
     7
 10
-615.747742544649
 20
42.44126521443999
 11
-615.795212335343
 21
42.45360149380295
  0
LINE
  8
1
  6
CONTINUOUS
 62
     7
 10
-615.795212335343
 20
42.45360149380295
 11
-615.8424845158236
 21
42.46827822583628
  0
LINE
  8
1
  6
CONTINUOUS
 62
     7
 10
-615.8424845158236
 20
42.46827822583628
 11
-615.8890626485099
 21
42.48522388041479
  0
LINE
  8
1
  6
CONTINUOUS
 62
     7
 10
-615.8890626485099
 20
42.48522388041479
 11
-615.9176533780741
 21
42.49692797521715
  0
LINE
  8
1
  6
CONTINUOUS
 62
     7
 10
-615.9176533780741
 20
42.49692797521715
 11
-615.9458936724399
 21
42.50952247862083
  0
LINE
  8
1
  6
CONTINUOUS
 62
     7
 10
-615.9458936724399
 20
42.50952247862083
 11
-615.9816427256287
 21
42.52703495461849
  0
LINE
  8
1
  6
CONTINUOUS
 62
     7
 10
-615.9816427256287
 20
42.52703495461849
 11
-616.0167004873426
 21
42.54603817510816
  0
LINE
  8
1
  6
CONTINUOUS
 62
     7
 10
-616.0167004873426
 20
42.54603817510816
 11
-616.0509690315558
 21
42.56652144896911
  0
LINE
  8
1
  6
CONTINUOUS
 62
     7
 10
-616.0509690315558
 20
42.56652144896911
 11
-616.0818399067958
 21
42.58674634599645
  0
LINE
  8
1
  6
CONTINUOUS
 62
     7
 10
-616.0818399067958
 20
42.58674634599645
 11
-616.1119404966432
 21
42.60824186088806
  0
LINE
  8
1
  6
CONTINUOUS
 62
     7
 10
-616.1119404966432
 20
42.60824186088806
 11
-616.1411919970935
 21
42.63098583809052
  0
LINE
  8
1
  6
CONTINUOUS
 62
     7
 10
-616.1411919970935
 20
42.63098583809052
 11
-616.168008528007
 21
42.65362414451149
  0
LINE
  8
1
  6
CONTINUOUS
 62
     7
 10
-616.168008528007
 20
42.65362414451149
 11
-616.1939885389304
 21
42.67736935096298
  0
LINE
  8
1
  6
CONTINUOUS
 62
     7
 10
-616.1939885389304
 20
42.67736935096298
 11
-616.2190690781188
 21
42.70218790404895
  0
LINE
  8
1
  6
CONTINUOUS
 62
     7
 10
-616.2190690781188
 20
42.70218790404895
 11
-616.2384877172183
 21
42.7228369258434
  0
LINE
  8
1
  6
CONTINUOUS
 62
     7
 10
-616.2384877172183
 20
42.7228369258434
 11
-616.2572868410127
 21
42.74415419548026
  0
LINE
  8
1
  6
CONTINUOUS
 62
     7
 10
-616.2572868410127
 20
42.74415419548026
 11
-616.2814888695646
 21
42.77376648057088
  0
LINE
  8
1
  6
CONTINUOUS
 62
     7
 10
-616.2814888695646
 20
42.77376648057088
 11
-616.304511523806
 21
42.80452700887194
  0
LINE
  8
1
  6
CONTINUOUS
 62
     7
 10
-616.304511523806
 20
42.80452700887194
 11
-616.3262979270088
 21
42.83636325463408
  0
LINE
  8
1
  6
CONTINUOUS
 62
     7
 10
-616.3262979270088
 20
42.83636325463408
 11
-616.3471059084632
 21
42.86971828001085
  0
LINE
  8
1
  6
CONTINUOUS
 62
     7
 10
-616.3471059084632
 20
42.86971828001085
 11
-616.3666053575316
 21
42.90410083180448
  0
LINE
  8
1
  6
CONTINUOUS
 62
     7
 10
-616.3666053575316
 20
42.90410083180448
 11
-616.3847599015985
 21
42.93941724076597
  0
LINE
  8
1
  6
CONTINUOUS
 62
     7
 10
-616.3847599015985
 20
42.93941724076597
 11
-616.3976434759445
 21
42.96683130785746
  0
LINE
  8
1
  6
CONTINUOUS
 62
     7
 10
-616.3976434759445
 20
42.96683130785746
 11
-616.409747168336
 21
42.99472596190923
  0
LINE
  8
1
  6
CONTINUOUS
 62
     7
 10
-616.409747168336
 20
42.99472596190923
 11
-616.4223101945761
 21
43.02632581490199
  0
LINE
  8
1
  6
CONTINUOUS
 62
     7
 10
-616.4223101945761
 20
43.02632581490199
 11
-616.4339084523184
 21
43.0584403769135
  0
LINE
  8
1
  6
CONTINUOUS
 62
     7
 10
-616.4339084523184
 20
43.0584403769135
 11
-616.4479414146513
 21
43.10219355955147
  0
LINE
  8
1
  6
CONTINUOUS
 62
     7
 10
-616.4479414146513
 20
43.10219355955147
 11
-616.4602840180984
 21
43.14670829283438
  0
LINE
  8
1
  6
CONTINUOUS
 62
     7
 10
-616.4602840180984
 20
43.14670829283438
 11
-616.4709516231508
 21
43.19182445595343
  0
LINE
  8
1
  6
CONTINUOUS
 62
     7
 10
-502.5050634564395
 20
71.97864694680145
 11
-502.5050891697802
 21
71.96245396268336
  0
LINE
  8
1
  6
CONTINUOUS
 62
     7
 10
-502.5050891697802
 20
71.96245396268336
 11
-502.5045965184861
 21
71.94618596723942
  0
LINE
  8
1
  6
CONTINUOUS
 62
     7
 10
-502.5045965184861
 20
71.94618596723942
 11
-502.5035862819427
 21
71.92997728314451
  0
LINE
  8
1
  6
CONTINUOUS
 62
     7
 10
-502.5035862819427
 20
71.92997728314451
 11
-502.5020417819015
 21
71.91367631943278
  0
LINE
  8
1
  6
CONTINUOUS
 62
     7
 10
-502.5020417819015
 20
71.91367631943278
 11
-502.4999801585693
 21
71.89750411767916
  0
LINE
  8
1
  6
CONTINUOUS
 62
     7
 10
-502.4999801585693
 20
71.89750411767916
 11
-502.4973785845272
 21
71.88131069318368
  0
LINE
  8
1
  6
CONTINUOUS
 62
     7
 10
-502.4973785845272
 20
71.88131069318368
 11
-502.4942714951533
 21
71.86531277229598
  0
LINE
  8
1
  6
CONTINUOUS
 62
     7
 10
-502.4942714951533
 20
71.86531277229598
 11
-502.4906504161696
 21
71.8494451141963
  0
LINE
  8
1
  6
CONTINUOUS
 62
     7
 10
-502.4906504161696
 20
71.8494451141963
 11
-502.4877088931383
 21
71.83804133586385
  0
LINE
  8
1
  6
CONTINUOUS
 62
     7
 10
-502.4877088931383
 20
71.83804133586385
 11
-502.4845200234975
 21
71.82678137596226
  0
LINE
  8
1
  6
CONTINUOUS
 62
     7
 10
-502.4845200234975
 20
71.82678137596226
 11
-502.4787497761324
 21
71.80857586522238
  0
LINE
  8
1
  6
CONTINUOUS
 62
     7
 10
-502.4787497761324
 20
71.80857586522238
 11
-502.4723182765375
 21
71.79069774311128
  0
LINE
  8
1
  6
CONTINUOUS
 62
     7
 10
-502.4723182765375
 20
71.79069774311128
 11
-502.4652990291898
 21
71.77329826648383
  0
LINE
  8
1
  6
CONTINUOUS
 62
     7
 10
-502.4652990291898
 20
71.77329826648383
 11
-502.4576345968604
 21
71.75620224013224
  0
LINE
  8
1
  6
CONTINUOUS
 62
     7
 10
-502.4576345968604
 20
71.75620224013224
 11
-502.4494429112478
 21
71.73963659442515
  0
LINE
  8
1
  6
CONTINUOUS
 62
     7
 10
-502.4494429112478
 20
71.73963659442515
 11
-502.4406592852101
 21
71.72343706479234
  0
LINE
  8
1
  6
CONTINUOUS
 62
     7
 10
-502.4406592852101
 20
71.72343706479234
 11
-502.4314098694902
 21
71.70780234435308
  0
LINE
  8
1
  6
CONTINUOUS
 62
     7
 10
-502.4314098694902
 20
71.70780234435308
 11
-502.4216734878577
 21
71.69265518551049
  0
LINE
  8
1
  6
CONTINUOUS
 62
     7
 10
-502.4216734878577
 20
71.69265518551049
 11
-502.4118981723604
 21
71.67859125573986
  0
LINE
  8
1
  6
CONTINUOUS
 62
     7
 10
-502.4118981723604
 20
71.67859125573986
 11
-502.4017761630034
 21
71.66506662418075
  0
LINE
  8
1
  6
CONTINUOUS
 62
     7
 10
-502.4017761630034
 20
71.66506662418075
 11
-502.3886769459174
 21
71.64891800696216
  0
LINE
  8
1
  6
CONTINUOUS
 62
     7
 10
-502.3886769459174
 20
71.64891800696216
 11
-502.375118889144
 21
71.63359599857858
  0
LINE
  8
1
  6
CONTINUOUS
 62
     7
 10
-502.375118889144
 20
71.63359599857858
 11
-502.3611576553899
 21
71.61910525878956
  0
LINE
  8
1
  6
CONTINUOUS
 62
     7
 10
-502.3611576553899
 20
71.61910525878956
 11
-502.3420574981542
 21
71.60112314896196
  0
LINE
  8
1
  6
CONTINUOUS
 62
     7
 10
-502.3420574981542
 20
71.60112314896196
 11
-502.3223914652834
 21
71.58455035340177
  0
LINE
  8
1
  6
CONTINUOUS
 62
     7
 10
-502.3223914652834
 20
71.58455035340177
 11
-502.3013059879989
 21
71.56870006668974
  0
LINE
  8
1
  6
CONTINUOUS
 62
     7
 10
-502.3013059879989
 20
71.56870006668974
 11
-502.2797599602615
 21
71.5543289923595
  0
LINE
  8
1
  6
CONTINUOUS
 62
     7
 10
-502.2797599602615
 20
71.5543289923595
 11
-502.2574135641377
 21
71.54118273139657
  0
LINE
  8
1
  6
CONTINUOUS
 62
     7
 10
-502.2574135641377
 20
71.54118273139657
 11
-502.2347231428774
 21
71.52951052827535
  0
LINE
  8
1
  6
CONTINUOUS
 62
     7
 10
-502.2347231428774
 20
71.52951052827535
 11
-502.2118758598901
 21
71.51933966400279
  0
LINE
  8
1
  6
CONTINUOUS
 62
     7
 10
-502.2118758598901
 20
71.51933966400279
 11
-502.1887956277855
 21
71.5105776565011
  0
LINE
  8
1
  6
CONTINUOUS
 62
     7
 10
-502.1887956277855
 20
71.5105776565011
 11
-502.1647764623959
 21
71.5029905352418
  0
LINE
  8
1
  6
CONTINUOUS
 62
     7
 10
-502.1647764623959
 20
71.5029905352418
 11
-502.1406055084183
 21
71.49686647791997
  0
LINE
  8
1
  6
CONTINUOUS
 62
     7
 10
-502.1406055084183
 20
71.49686647791997
 11
-502.1159114265644
 21
71.4921246697901
  0
LINE
  8
1
  6
CONTINUOUS
 62
     7
 10
-502.1159114265644
 20
71.4921246697901
 11
-502.0911491564513
 21
71.48887199531669
  0
LINE
  8
1
  6
CONTINUOUS
 62
     7
 10
-502.0911491564513
 20
71.48887199531669
 11
-502.0665223836508
 21
71.4871090996066
  0
LINE
  8
1
  6
CONTINUOUS
 62
     7
 10
-502.0665223836508
 20
71.4871090996066
 11
-502.0419089383203
 21
71.48680749140881
  0
ARC
  8
1
  6
CONTINUOUS
 62
     7
 10
-596.8321431012267
 20
-44.30024982585829
 40
12.15159952117781
 50
269.4286858318433
 51
282.368713436475
  0
LINE
  8
1
  6
CONTINUOUS
 62
     7
 10
-594.22924642582
 20
-56.16980330609689
 11
-594.2032943651292
 21
-56.15137484398862
  0
LINE
  8
1
  6
CONTINUOUS
 62
     7
 10
-616.4940171349673
 20
44.62280774659572
 11
-616.4932959494761
 21
44.66107820302141
  0
LINE
  8
1
  6
CONTINUOUS
 62
     7
 10
-616.4932959494761
 20
44.66107820302141
 11
-616.4911386486044
 21
44.69931386158191
  0
LINE
  8
1
  6
CONTINUOUS
 62
     7
 10
-616.4911386486044
 20
44.69931386158191
 11
-616.4875546157552
 21
44.73741178958751
  0
LINE
  8
1
  6
CONTINUOUS
 62
     7
 10
-616.4875546157552
 20
44.73741178958751
 11
-616.4825532343314
 21
44.77526905434863
  0
LINE
  8
1
  6
CONTINUOUS
 62
     7
 10
-616.4825532343314
 20
44.77526905434863
 11
-616.4759217319613
 21
44.8139789065424
  0
LINE
  8
1
  6
CONTINUOUS
 62
     7
 10
-616.4759217319613
 20
44.8139789065424
 11
-616.4678057960608
 21
44.85236208739055
  0
LINE
  8
1
  6
CONTINUOUS
 62
     7
 10
-616.4678057960608
 20
44.85236208739055
 11
-616.4582367657492
 21
44.89031407865593
  0
LINE
  8
1
  6
CONTINUOUS
 62
     7
 10
-616.4582367657492
 20
44.89031407865593
 11
-616.4472459801459
 21
44.92773036210154
  0
LINE
  8
1
  6
CONTINUOUS
 62
     7
 10
-616.4472459801459
 20
44.92773036210154
 11
-616.4352332549502
 21
44.96349694530463
  0
LINE
  8
1
  6
CONTINUOUS
 62
     7
 10
-616.4352332549502
 20
44.96349694530463
 11
-616.4219175100192
 21
44.99870296793093
  0
LINE
  8
1
  6
CONTINUOUS
 62
     7
 10
-616.4219175100192
 20
44.99870296793093
 11
-616.4073426737789
 21
45.03326640507127
  0
LINE
  8
1
  6
CONTINUOUS
 62
     7
 10
-616.4073426737789
 20
45.03326640507127
 11
-616.3915526746556
 21
45.06710523181648
  0
LINE
  8
1
  6
CONTINUOUS
 62
     7
 10
-616.3915526746556
 20
45.06710523181648
 11
-616.3740875407616
 21
45.10108580160463
  0
LINE
  8
1
  6
CONTINUOUS
 62
     7
 10
-616.3740875407616
 20
45.10108580160463
 11
-616.355389961034
 21
45.13425861667734
  0
LINE
  8
1
  6
CONTINUOUS
 62
     7
 10
-616.355389961034
 20
45.13425861667734
 11
-616.3355182934939
 21
45.16655286944622
  0
LINE
  8
1
  6
CONTINUOUS
 62
     7
 10
-616.3355182934939
 20
45.16655286944622
 11
-616.3145308961626
 21
45.19789775232285
  0
LINE
  8
1
  6
CONTINUOUS
 62
     7
 10
-616.3145308961626
 20
45.19789775232285
 11
-616.284268924663
 21
45.23891305614386
  0
LINE
  8
1
  6
CONTINUOUS
 62
     7
 10
-616.284268924663
 20
45.23891305614386
 11
-616.2520219911049
 21
45.27815345817912
  0
LINE
  8
1
  6
CONTINUOUS
 62
     7
 10
-616.2520219911049
 20
45.27815345817912
 11
-616.2179510994453
 21
45.31550996430701
  0
LINE
  8
1
  6
CONTINUOUS
 62
     7
 10
-616.2179510994453
 20
45.31550996430701
 11
-616.1822172536405
 21
45.3508735804059
  0
LINE
  8
1
  6
CONTINUOUS
 62
     7
 10
-616.1822172536405
 20
45.3508735804059
 11
-616.1449814576478
 21
45.38413531235413
  0
LINE
  8
1
  6
CONTINUOUS
 62
     7
 10
-616.1449814576478
 20
45.38413531235413
 11
-616.1064047154237
 21
45.41518616603013
  0
LINE
  8
1
  6
CONTINUOUS
 62
     7
 10
-616.1064047154237
 20
45.41518616603013
 11
-616.0627208937788
 21
45.44662503001138
  0
LINE
  8
1
  6
CONTINUOUS
 62
     7
 10
-616.0627208937788
 20
45.44662503001138
 11
-616.0174897579474
 21
45.47551709675665
  0
LINE
  8
1
  6
CONTINUOUS
 62
     7
 10
-616.0174897579474
 20
45.47551709675665
 11
-615.9709067612871
 21
45.50181226542318
  0
LINE
  8
1
  6
CONTINUOUS
 62
     7
 10
-615.9709067612871
 20
45.50181226542318
 11
-615.923167357156
 21
45.52546043516831
  0
LINE
  8
1
  6
CONTINUOUS
 62
     7
 10
-615.923167357156
 20
45.52546043516831
 11
-615.8744669989119
 21
45.54641150514928
  0
LINE
  8
1
  6
CONTINUOUS
 62
     7
 10
-615.8744669989119
 20
45.54641150514928
 11
-615.8250011399124
 21
45.56461537452341
  0
LINE
  8
1
  6
CONTINUOUS
 62
     7
 10
-615.8250011399124
 20
45.56461537452341
 11
-615.7735258392562
 21
45.58044997171896
  0
LINE
  8
1
  6
CONTINUOUS
 62
     7
 10
-615.7735258392562
 20
45.58044997171896
 11
-615.721264952948
 21
45.59348993300976
  0
LINE
  8
1
  6
CONTINUOUS
 62
     7
 10
-615.721264952948
 20
45.59348993300976
 11
-615.6684000947469
 21
45.60373508197684
  0
LINE
  8
1
  6
CONTINUOUS
 62
     7
 10
-615.6684000947469
 20
45.60373508197684
 11
-615.6151128784115
 21
45.61118524220112
  0
LINE
  8
1
  6
CONTINUOUS
 62
     7
 10
-615.6151128784115
 20
45.61118524220112
 11
-615.561584917701
 21
45.61584023726364
  0
LINE
  8
1
  6
CONTINUOUS
 62
     7
 10
-615.561584917701
 20
45.61584023726364
 11
-615.507997826374
 21
45.61769989074535
  0
LINE
  8
1
  6
CONTINUOUS
 62
     7
 10
-584.4981762007744
 20
45.61769989074535
 11
-584.451996564376
 21
45.61627289959929
  0
LINE
  8
1
  6
CONTINUOUS
 62
     7
 10
-584.451996564376
 20
45.61627289959929
 11
-584.4059012154423
 21
45.61278565347729
  0
LINE
  8
1
  6
CONTINUOUS
 62
     7
 10
-584.4059012154423
 20
45.61278565347729
 11
-584.3600029008363
 21
45.60723372112604
  0
LINE
  8
1
  6
CONTINUOUS
 62
     7
 10
-584.3600029008363
 20
45.60723372112604
 11
-584.3144143674208
 21
45.59961267129234
  0
LINE
  8
1
  6
CONTINUOUS
 62
     7
 10
-584.3144143674208
 20
45.59961267129234
 11
-584.2679139576715
 21
45.58960287327274
  0
LINE
  8
1
  6
CONTINUOUS
 62
     7
 10
-584.2679139576715
 20
45.58960287327274
 11
-584.2218278004102
 21
45.57737778923822
  0
LINE
  8
1
  6
CONTINUOUS
 62
     7
 10
-584.2218278004102
 20
45.57737778923822
 11
-584.1762884608511
 21
45.56294760755581
  0
LINE
  8
1
  6
CONTINUOUS
 62
     7
 10
-584.1762884608511
 20
45.56294760755581
 11
-584.1314285042081
 21
45.54632251659252
  0
LINE
  8
1
  6
CONTINUOUS
 62
     7
 10
-584.1314285042081
 20
45.54632251659252
 11
-584.0884585244819
 21
45.52800993962769
  0
LINE
  8
1
  6
CONTINUOUS
 62
     7
 10
-584.0884585244819
 20
45.52800993962769
 11
-584.0462293319591
 21
45.50759145059003
  0
LINE
  8
1
  6
CONTINUOUS
 62
     7
 10
-584.0462293319591
 20
45.50759145059003
 11
-584.0048747469511
 21
45.48509916108431
  0
LINE
  8
1
  6
CONTINUOUS
 62
     7
 10
-584.0048747469511
 20
45.48509916108431
 11
-583.9645285897689
 21
45.46056518271529
  0
LINE
  8
1
  6
CONTINUOUS
 62
     7
 10
-583.9645285897689
 20
45.46056518271529
 11
-583.9238958736066
 21
45.43300785887126
  0
LINE
  8
1
  6
CONTINUOUS
 62
     7
 10
-583.9238958736066
 20
45.43300785887126
 11
-583.8844659119638
 21
45.403250103575
  0
LINE
  8
1
  6
CONTINUOUS
 62
     7
 10
-583.8844659119638
 20
45.403250103575
 11
-583.8463975631074
 21
45.37136627956134
  0
LINE
  8
1
  6
CONTINUOUS
 62
     7
 10
-583.8463975631074
 20
45.37136627956134
 11
-583.8098496853033
 21
45.3374307495651
  0
LINE
  8
1
  6
CONTINUOUS
 62
     7
 10
-583.8098496853033
 20
45.3374307495651
 11
-583.7790772502963
 21
45.30594723523959
  0
LINE
  8
1
  6
CONTINUOUS
 62
     7
 10
-583.7790772502963
 20
45.30594723523959
 11
-583.7495775544293
 21
45.27289719425632
  0
LINE
  8
1
  6
CONTINUOUS
 62
     7
 10
-583.7495775544293
 20
45.27289719425632
 11
-583.7214586642452
 21
45.23836505988202
  0
LINE
  8
1
  6
CONTINUOUS
 62
     7
 10
-583.7214586642452
 20
45.23836505988202
 11
-583.6948286462879
 21
45.20243526538336
  0
LINE
  8
1
  6
CONTINUOUS
 62
     7
 10
-583.6948286462879
 20
45.20243526538336
 11
-583.6688395615862
 21
45.16370701991536
  0
LINE
  8
1
  6
CONTINUOUS
 62
     7
 10
-583.6688395615862
 20
45.16370701991536
 11
-583.644556931149
 21
45.12352287288449
  0
LINE
  8
1
  6
CONTINUOUS
 62
     7
 10
-583.644556931149
 20
45.12352287288449
 11
-583.6220897260995
 21
45.08201963691729
  0
LINE
  8
1
  6
CONTINUOUS
 62
     7
 10
-583.6220897260995
 20
45.08201963691729
 11
-583.6015469175614
 21
45.03933412464037
  0
LINE
  8
1
  6
CONTINUOUS
 62
     7
 10
-583.6015469175614
 20
45.03933412464037
 11
-583.5855972489398
 21
45.00204186552835
  0
LINE
  8
1
  6
CONTINUOUS
 62
     7
 10
-583.5855972489398
 20
45.00204186552835
 11
-583.5711075697008
 21
44.96395077924974
  0
LINE
  8
1
  6
CONTINUOUS
 62
     7
 10
-583.5711075697008
 20
44.96395077924974
 11
-583.5581294897407
 21
44.92516965972293
  0
LINE
  8
1
  6
CONTINUOUS
 62
     7
 10
-583.5581294897407
 20
44.92516965972293
 11
-583.5467146189567
 21
44.88580730086628
  0
LINE
  8
1
  6
CONTINUOUS
 62
     7
 10
-583.5467146189567
 20
44.88580730086628
 11
-583.5365823838881
 21
44.84451867055389
  0
LINE
  8
1
  6
CONTINUOUS
 62
     7
 10
-583.5365823838881
 20
44.84451867055389
 11
-583.5281654620885
 21
44.80268961027031
  0
LINE
  8
1
  6
CONTINUOUS
 62
     7
 10
-583.5281654620885
 20
44.80268961027031
 11
-583.5214956461967
 21
44.76045873689352
  0
LINE
  8
1
  6
CONTINUOUS
 62
     7
 10
-583.5214956461967
 20
44.76045873689352
 11
-583.5166047288518
 21
44.71796466730149
  0
LINE
  8
1
  6
CONTINUOUS
 62
     7
 10
-583.5166047288518
 20
44.71796466730149
 11
-583.5141358306398
 21
44.6863148258069
  0
LINE
  8
1
  6
CONTINUOUS
 62
     7
 10
-583.5141358306398
 20
44.6863148258069
 11
-583.5126521573359
 21
44.65457612051829
  0
LINE
  8
1
  6
CONTINUOUS
 62
     7
 10
-583.5126521573359
 20
44.65457612051829
 11
-583.5121568921811
 21
44.62280774659572
  0
LINE
  8
1
  6
CONTINUOUS
 62
     7
 10
-502.7500663286365
 20
104.5557409903987
 11
-502.7716438759228
 21
104.5556668819956
  0
LINE
  8
1
  6
CONTINUOUS
 62
     7
 10
-502.7716438759228
 20
104.5556668819956
 11
-502.7932350989326
 21
104.554692069468
  0
LINE
  8
1
  6
CONTINUOUS
 62
     7
 10
-502.7932350989326
 20
104.554692069468
 11
-502.8148970256005
 21
104.5528075922965
  0
LINE
  8
1
  6
CONTINUOUS
 62
     7
 10
-502.8148970256005
 20
104.5528075922965
 11
-502.8365338736097
 21
104.5500126364937
  0
LINE
  8
1
  6
CONTINUOUS
 62
     7
 10
-502.8365338736097
 20
104.5500126364937
 11
-502.8688936191208
 21
104.5441036665923
  0
LINE
  8
1
  6
CONTINUOUS
 62
     7
 10
-502.8688936191208
 20
104.5441036665923
 11
-502.8942351809616
 21
104.5379928344146
  0
LINE
  8
1
  6
CONTINUOUS
 62
     7
 10
-502.8942351809616
 20
104.5379928344146
 11
-502.9194313551449
 21
104.5305777377305
  0
LINE
  8
1
  6
CONTINUOUS
 62
     7
 10
-502.9194313551449
 20
104.5305777377305
 11
-502.9376314223953
 21
104.5243583802168
  0
LINE
  8
1
  6
CONTINUOUS
 62
     7
 10
-502.9376314223953
 20
104.5243583802168
 11
-502.9594820671999
 21
104.5158916603159
  0
LINE
  8
1
  6
CONTINUOUS
 62
     7
 10
-502.9594820671999
 20
104.5158916603159
 11
-502.981132257582
 21
104.5063712333857
  0
LINE
  8
1
  6
CONTINUOUS
 62
     7
 10
-502.981132257582
 20
104.5063712333857
 11
-503.002676632824
 21
104.4957086406618
  0
LINE
  8
1
  6
CONTINUOUS
 62
     7
 10
-503.002676632824
 20
104.4957086406618
 11
-503.0239423607973
 21
104.4839350226979
  0
LINE
  8
1
  6
CONTINUOUS
 62
     7
 10
-503.0239423607973
 20
104.4839350226979
 11
-503.0502974553555
 21
104.4674606509661
  0
LINE
  8
1
  6
CONTINUOUS
 62
     7
 10
-503.0502974553555
 20
104.4674606509661
 11
-503.0760357128927
 21
104.449119898379
  0
LINE
  8
1
  6
CONTINUOUS
 62
     7
 10
-503.0760357128927
 20
104.449119898379
 11
-503.0912414820577
 21
104.4371058784692
  0
LINE
  8
1
  6
CONTINUOUS
 62
     7
 10
-503.0912414820577
 20
104.4371058784692
 11
-503.1061495519035
 21
104.4243731483837
  0
LINE
  8
1
  6
CONTINUOUS
 62
     7
 10
-503.1061495519035
 20
104.4243731483837
 11
-503.1217700531936
 21
104.409902226296
  0
LINE
  8
1
  6
CONTINUOUS
 62
     7
 10
-503.1217700531936
 20
104.409902226296
 11
-503.1371090673479
 21
104.3944189955015
  0
LINE
  8
1
  6
CONTINUOUS
 62
     7
 10
-503.1371090673479
 20
104.3944189955015
 11
-503.1519634213277
 21
104.3780410928012
  0
LINE
  8
1
  6
CONTINUOUS
 62
     7
 10
-503.1519634213277
 20
104.3780410928012
 11
-503.1663654417503
 21
104.3606396036776
  0
LINE
  8
1
  6
CONTINUOUS
 62
     7
 10
-503.1663654417503
 20
104.3606396036776
 11
-503.1801541234825
 21
104.3423040084193
  0
LINE
  8
1
  6
CONTINUOUS
 62
     7
 10
-503.1801541234825
 20
104.3423040084193
 11
-503.1932446458357
 21
104.3230466634807
  0
LINE
  8
1
  6
CONTINUOUS
 62
     7
 10
-503.1932446458357
 20
104.3230466634807
 11
-503.2004725695504
 21
104.3114802611865
  0
LINE
  8
1
  6
CONTINUOUS
 62
     7
 10
-503.2004725695504
 20
104.3114802611865
 11
-503.2074299371006
 21
104.2995997218449
  0
LINE
  8
1
  6
CONTINUOUS
 62
     7
 10
-503.2074299371006
 20
104.2995997218449
 11
-503.2141147870016
 21
104.2873786672213
  0
LINE
  8
1
  6
CONTINUOUS
 62
     7
 10
-503.2141147870016
 20
104.2873786672213
 11
-503.2204932507049
 21
104.2748477810914
  0
LINE
  8
1
  6
CONTINUOUS
 62
     7
 10
-503.2204932507049
 20
104.2748477810914
 11
-503.22650141055
 21
104.2621124259183
  0
LINE
  8
1
  6
CONTINUOUS
 62
     7
 10
-503.22650141055
 20
104.2621124259183
 11
-503.2321717204244
 21
104.2490837623128
  0
LINE
  8
1
  6
CONTINUOUS
 62
     7
 10
-503.2321717204244
 20
104.2490837623128
 11
-503.2375185339654
 21
104.2356832185547
  0
LINE
  8
1
  6
CONTINUOUS
 62
     7
 10
-503.2375185339654
 20
104.2356832185547
 11
-503.2424853323142
 21
104.2220051894628
  0
LINE
  8
1
  6
CONTINUOUS
 62
     7
 10
-503.2424853323142
 20
104.2220051894628
 11
-503.247089536514
 21
104.2079442394229
  0
LINE
  8
1
  6
CONTINUOUS
 62
     7
 10
-503.247089536514
 20
104.2079442394229
 11
-503.2512691524358
 21
104.1936305570658
  0
LINE
  8
1
  6
CONTINUOUS
 62
     7
 10
-503.2512691524358
 20
104.1936305570658
 11
-503.2550309727562
 21
104.1789756983801
  0
LINE
  8
1
  6
CONTINUOUS
 62
     7
 10
-503.2550309727562
 20
104.1789756983801
 11
-503.2583259780008
 21
104.1641049752362
  0
LINE
  8
1
  6
CONTINUOUS
 62
     7
 10
-503.2583259780008
 20
104.1641049752362
 11
-503.2607094644966
 21
104.1515288013124
  0
LINE
  8
1
  6
CONTINUOUS
 62
     7
 10
-503.2607094644966
 20
104.1515288013124
 11
-503.2627472015199
 21
104.1388342453894
  0
LINE
  8
1
  6
CONTINUOUS
 62
     7
 10
-503.2627472015199
 20
104.1388342453894
 11
-503.2644360728052
 21
104.1259985068744
  0
LINE
  8
1
  6
CONTINUOUS
 62
     7
 10
-503.2644360728052
 20
104.1259985068744
 11
-503.2657634920448
 21
104.1130781544887
  0
LINE
  8
1
  6
CONTINUOUS
 62
     7
 10
-503.2657634920448
 20
104.1130781544887
 11
-503.2664676376256
 21
104.1040972581438
  0
LINE
  8
1
  6
CONTINUOUS
 62
     7
 10
-503.2664676376256
 20
104.1040972581438
 11
-503.2669950604329
 21
104.0950910647408
  0
LINE
  8
1
  6
CONTINUOUS
 62
     7
 10
-503.2669950604329
 20
104.0950910647408
 11
-503.2674797643689
 21
104.079980725851
  0
LINE
  8
1
  6
CONTINUOUS
 62
     7
 10
-503.2674797643689
 20
104.079980725851
 11
-503.2674656199638
 21
104.0648483810444
  0
LINE
  8
1
  6
CONTINUOUS
 62
     7
 10
-503.2674656199638
 20
80.96533916753572
 11
-503.2674714627272
 21
80.94967983022997
  0
LINE
  8
1
  6
CONTINUOUS
 62
     7
 10
-503.2674714627272
 20
80.94967983022997
 11
-503.2669373249798
 21
80.93394460760308
  0
LINE
  8
1
  6
CONTINUOUS
 62
     7
 10
-503.2669373249798
 20
80.93394460760308
 11
-503.2658644567032
 21
80.91826902298449
  0
LINE
  8
1
  6
CONTINUOUS
 62
     7
 10
-503.2658644567032
 20
80.91826902298449
 11
-503.2642349190082
 21
80.9025004028964
  0
LINE
  8
1
  6
CONTINUOUS
 62
     7
 10
-503.2642349190082
 20
80.9025004028964
 11
-503.2620681619493
 21
80.88686128167483
  0
LINE
  8
1
  6
CONTINUOUS
 62
     7
 10
-503.2620681619493
 20
80.88686128167483
 11
-503.2593399879318
 21
80.87120074356753
  0
LINE
  8
1
  6
CONTINUOUS
 62
     7
 10
-503.2593399879318
 20
80.87120074356753
 11
-503.2560887360435
 21
80.85573604820328
  0
LINE
  8
1
  6
CONTINUOUS
 62
     7
 10
-503.2560887360435
 20
80.85573604820328
 11
-503.252306122699
 21
80.84040131362826
  0
LINE
  8
1
  6
CONTINUOUS
 62
     7
 10
-503.252306122699
 20
80.84040131362826
 11
-503.2488590574858
 21
80.82809397077985
  0
LINE
  8
1
  6
CONTINUOUS
 62
     7
 10
-503.2488590574858
 20
80.82809397077985
 11
-503.2450960400315
 21
80.81596610359706
  0
LINE
  8
1
  6
CONTINUOUS
 62
     7
 10
-503.2450960400315
 20
80.81596610359706
 11
-503.2388346686241
 21
80.79800038280447
  0
LINE
  8
1
  6
CONTINUOUS
 62
     7
 10
-503.2388346686241
 20
80.79800038280447
 11
-503.2318690813534
 21
80.78038064863726
  0
LINE
  8
1
  6
CONTINUOUS
 62
     7
 10
-503.2318690813534
 20
80.78038064863726
 11
-503.2242838411595
 21
80.76325779478444
  0
LINE
  8
1
  6
CONTINUOUS
 62
     7
 10
-503.2242838411595
 20
80.76325779478444
 11
-503.2160185965322
 21
80.74645339578682
  0
LINE
  8
1
  6
CONTINUOUS
 62
     7
 10
-503.2160185965322
 20
80.74645339578682
 11
-503.2072050790807
 21
80.73019120097014
  0
LINE
  8
1
  6
CONTINUOUS
 62
     7
 10
-503.2072050790807
 20
80.73019120097014
 11
-503.1977753237863
 21
80.71430475031521
  0
LINE
  8
1
  6
CONTINUOUS
 62
     7
 10
-503.1977753237863
 20
80.71430475031521
 11
-503.1878675583283
 21
80.69898672288821
  0
LINE
  8
1
  6
CONTINUOUS
 62
     7
 10
-503.1878675583283
 20
80.69898672288821
 11
-503.1774606661979
 21
80.6841574488975
  0
LINE
  8
1
  6
CONTINUOUS
 62
     7
 10
-503.1774606661979
 20
80.6841574488975
 11
-503.1668613801268
 21
80.67017703242595
  0
LINE
  8
1
  6
CONTINUOUS
 62
     7
 10
-503.1668613801268
 20
80.67017703242595
 11
-503.1559013218846
 21
80.65674475079027
  0
LINE
  8
1
  6
CONTINUOUS
 62
     7
 10
-503.1559013218846
 20
80.65674475079027
 11
-503.1417433386999
 21
80.64072225764532
  0
LINE
  8
1
  6
CONTINUOUS
 62
     7
 10
-503.1417433386999
 20
80.64072225764532
 11
-503.1271138708185
 21
80.62552749624024
  0
LINE
  8
1
  6
CONTINUOUS
 62
     7
 10
-503.1271138708185
 20
80.62552749624024
 11
-503.1120725304434
 21
80.61115810317838
  0
LINE
  8
1
  6
CONTINUOUS
 62
     7
 10
-503.1120725304434
 20
80.61115810317838
 11
-503.0915395197329
 21
80.59332660029578
  0
LINE
  8
1
  6
CONTINUOUS
 62
     7
 10
-503.0915395197329
 20
80.59332660029578
 11
-503.0704345763376
 21
80.57687143302313
  0
LINE
  8
1
  6
CONTINUOUS
 62
     7
 10
-503.0704345763376
 20
80.57687143302313
 11
-503.0472656397325
 21
80.56071863929537
  0
LINE
  8
1
  6
CONTINUOUS
 62
     7
 10
-503.0472656397325
 20
80.56071863929537
 11
-503.0236117650205
 21
80.54605949378218
  0
LINE
  8
1
  6
CONTINUOUS
 62
     7
 10
-503.0236117650205
 20
80.54605949378218
 11
-502.9991102019363
 21
80.53262840022816
  0
LINE
  8
1
  6
CONTINUOUS
 62
     7
 10
-502.9991102019363
 20
80.53262840022816
 11
-502.974248554958
 21
80.5206631525614
  0
LINE
  8
1
  6
CONTINUOUS
 62
     7
 10
-502.974248554958
 20
80.5206631525614
 11
-502.9492412254747
 21
80.51018875607154
  0
LINE
  8
1
  6
CONTINUOUS
 62
     7
 10
-502.9492412254747
 20
80.51018875607154
 11
-502.9239888067996
 21
80.50109795695481
  0
LINE
  8
1
  6
CONTINUOUS
 62
     7
 10
-502.9239888067996
 20
80.50109795695481
 11
-502.8955672575069
 21
80.49255281883391
  0
LINE
  8
1
  6
CONTINUOUS
 62
     7
 10
-502.8955672575069
 20
80.49255281883391
 11
-502.8669576256672
 21
80.48567121786373
  0
LINE
  8
1
  6
CONTINUOUS
 62
     7
 10
-502.8669576256672
 20
80.48567121786373
 11
-502.8377187308799
 21
80.48035445763867
  0
LINE
  8
1
  6
CONTINUOUS
 62
     7
 10
-502.8377187308799
 20
80.48035445763867
 11
-502.8083943407738
 21
80.47671862232782
  0
LINE
  8
1
  6
CONTINUOUS
 62
     7
 10
-502.8083943407738
 20
80.47671862232782
 11
-502.7792239668067
 21
80.47476029515835
  0
LINE
  8
1
  6
CONTINUOUS
 62
     7
 10
-502.7792239668067
 20
80.47476029515835
 11
-502.7500663286365
 21
80.47444655818146
  0
ARC
  8
1
  6
CONTINUOUS
 62
     7
 10
-600.5154790539129
 20
64.19748395521368
 40
27.87357579882664
 50
203.4835424427389
 51
271.0533113974599
  0
ARC
  8
1
  6
CONTINUOUS
 62
     7
 10
-572.3096322942613
 20
77.4914156162409
 40
59.04839669187393
 50
186.1099329802528
 51
204.4085210002768
  0
ARC
  8
1
  6
CONTINUOUS
 62
     7
 10
-511.1363361902594
 20
87.15674307460944
 40
120.9426610299986
 50
167.9245055354885
 51
187.5783925482434
  0
ARC
  8
1
  6
CONTINUOUS
 62
     7
 10
-592.566449005395
 20
105.0014505749721
 40
37.58353692854244
 50
135.901256405013
 51
168.5566434453526
  0
ARC
  8
1
  6
CONTINUOUS
 62
     7
 10
-599.8815433945023
 20
109.3583915686837
 40
29.36387856907035
 50
65.31622504462989
 51
132.0707623781293
  0
ARC
  8
1
  6
CONTINUOUS
 62
     7
 10
-599.6960109501696
 20
110.5452325515923
 40
28.20989922883144
 50
21.94401973164656
 51
64.65194087807521
  0
ARC
  8
1
  6
CONTINUOUS
 62
     7
 10
-634.462404714023
 20
95.55275092905921
 40
66.0664690399389
 50
3.959780351020981
 51
22.73674826599603
  0
ARC
  8
1
  6
CONTINUOUS
 62
     7
 10
-683.7189752452912
 20
87.63136515060233
 40
115.8399507864681
 50
347.1951367912023
 51
6.186589531503046
  0
ARC
  8
1
  6
CONTINUOUS
 62
     7
 10
-606.2324285490647
 20
69.42411905036786
 40
36.24981352989599
 50
313.0479596238607
 51
348.1134944310751
  0
ARC
  8
1
  6
CONTINUOUS
 62
     7
 10
-599.6440756966023
 20
64.57636115456478
 40
28.25002433505796
 50
269.2718453359433
 51
309.9930576809487
  0
LINE
  8
1
  6
CONTINUOUS
 62
     7
 10
-583.5352224039976
 20
43.19182445595347
 11
-583.5443169036664
 21
43.15290143169479
  0
LINE
  8
1
  6
CONTINUOUS
 62
     7
 10
-583.5443169036664
 20
43.15290143169479
 11
-583.5546480199528
 21
43.1144331328728
  0
LINE
  8
1
  6
CONTINUOUS
 62
     7
 10
-583.5546480199528
 20
43.1144331328728
 11
-583.5663321861086
 21
43.07619703681286
  0
LINE
  8
1
  6
CONTINUOUS
 62
     7
 10
-583.5663321861086
 20
43.07619703681286
 11
-583.5793086229936
 21
43.03856485197407
  0
LINE
  8
1
  6
CONTINUOUS
 62
     7
 10
-583.5793086229936
 20
43.03856485197407
 11
-583.5937353034545
 21
43.00125229105697
  0
LINE
  8
1
  6
CONTINUOUS
 62
     7
 10
-583.5937353034545
 20
43.00125229105697
 11
-583.609497047209
 21
42.96469778121698
  0
LINE
  8
1
  6
CONTINUOUS
 62
     7
 10
-583.609497047209
 20
42.96469778121698
 11
-583.6267382585783
 21
42.9286882716906
  0
LINE
  8
1
  6
CONTINUOUS
 62
     7
 10
-583.6267382585783
 20
42.9286882716906
 11
-583.6453294967165
 21
42.89358695792745
  0
LINE
  8
1
  6
CONTINUOUS
 62
     7
 10
-583.6453294967165
 20
42.89358695792745
 11
-583.6647457540203
 21
42.860299140278
  0
LINE
  8
1
  6
CONTINUOUS
 62
     7
 10
-583.6647457540203
 20
42.860299140278
 11
-583.6854139141781
 21
42.8279926750299
  0
LINE
  8
1
  6
CONTINUOUS
 62
     7
 10
-583.6854139141781
 20
42.8279926750299
 11
-583.7074881143483
 21
42.79647879865014
  0
LINE
  8
1
  6
CONTINUOUS
 62
     7
 10
-583.7074881143483
 20
42.79647879865014
 11
-583.7307765616381
 21
42.76606378036327
  0
LINE
  8
1
  6
CONTINUOUS
 62
     7
 10
-583.7307765616381
 20
42.76606378036327
 11
-583.7554848670474
 21
42.7365160324343
  0
LINE
  8
1
  6
CONTINUOUS
 62
     7
 10
-583.7554848670474
 20
42.7365160324343
 11
-583.781348049068
 21
42.70817242037246
  0
LINE
  8
1
  6
CONTINUOUS
 62
     7
 10
-583.781348049068
 20
42.70817242037246
 11
-583.8085318491998
 21
42.68086264736348
  0
LINE
  8
1
  6
CONTINUOUS
 62
     7
 10
-583.8085318491998
 20
42.68086264736348
 11
-583.8367839144966
 21
42.65483833554428
  0
LINE
  8
1
  6
CONTINUOUS
 62
     7
 10
-583.8367839144966
 20
42.65483833554428
 11
-583.8699152976073
 21
42.62701643395705
  0
LINE
  8
1
  6
CONTINUOUS
 62
     7
 10
-583.8699152976073
 20
42.62701643395705
 11
-583.9042652526141
 21
42.6008738731293
  0
LINE
  8
1
  6
CONTINUOUS
 62
     7
 10
-583.9042652526141
 20
42.6008738731293
 11
-583.9397099375582
 21
42.57645230287234
  0
LINE
  8
1
  6
CONTINUOUS
 62
     7
 10
-583.9397099375582
 20
42.57645230287234
 11
-583.9729810940912
 21
42.55565051945226
  0
LINE
  8
1
  6
CONTINUOUS
 62
     7
 10
-583.9729810940912
 20
42.55565051945226
 11
-584.0070469135269
 21
42.53627628429135
  0
LINE
  8
1
  6
CONTINUOUS
 62
     7
 10
-584.0070469135269
 20
42.53627628429135
 11
-584.0418138749369
 21
42.51834200064752
  0
LINE
  8
1
  6
CONTINUOUS
 62
     7
 10
-584.0418138749369
 20
42.51834200064752
 11
-584.0919264625791
 21
42.49547952037197
  0
LINE
  8
1
  6
CONTINUOUS
 62
     7
 10
-584.0919264625791
 20
42.49547952037197
 11
-584.1435483509063
 21
42.47529273975798
  0
LINE
  8
1
  6
CONTINUOUS
 62
     7
 10
-584.1435483509063
 20
42.47529273975798
 11
-584.1966887173277
 21
42.45777536020059
  0
LINE
  8
1
  6
CONTINUOUS
 62
     7
 10
-584.1966887173277
 20
42.45777536020059
 11
-584.2506042496831
 21
42.44313897378436
  0
LINE
  8
1
  6
CONTINUOUS
 62
     7
 10
-584.2506042496831
 20
42.44313897378436
 11
-584.3055291907325
 21
42.43128518090133
  0
LINE
  8
1
  6
CONTINUOUS
 62
     7
 10
-584.3055291907325
 20
42.43128518090133
 11
-584.3608916691455
 21
42.42231501227447
  0
LINE
  8
1
  6
CONTINUOUS
 62
     7
 10
-584.3608916691455
 20
42.42231501227447
 11
-584.4164597275917
 21
42.4162241636167
  0
LINE
  8
1
  6
CONTINUOUS
 62
     7
 10
-584.4164597275917
 20
42.4162241636167
 11
-584.4570630206978
 21
42.41358917967947
  0
LINE
  8
1
  6
CONTINUOUS
 62
     7
 10
-584.4570630206978
 20
42.41358917967947
 11
-584.4977016502554
 21
42.41248184741674
  0
LINE
  8
1
  6
CONTINUOUS
 62
     7
 10
-502.0419089383212
 20
113.5433800571713
 11
-502.0692613658551
 21
113.5429545981755
  0
LINE
  8
1
  6
CONTINUOUS
 62
     7
 10
-502.0692613658551
 20
113.5429545981755
 11
-502.0966248334155
 21
113.5407245839336
  0
LINE
  8
1
  6
CONTINUOUS
 62
     7
 10
-502.0966248334155
 20
113.5407245839336
 11
-502.1244441762101
 21
113.5365950027968
  0
LINE
  8
1
  6
CONTINUOUS
 62
     7
 10
-502.1244441762101
 20
113.5365950027968
 11
-502.1521585780044
 21
113.5305795755989
  0
LINE
  8
1
  6
CONTINUOUS
 62
     7
 10
-502.1521585780044
 20
113.5305795755989
 11
-502.1795684183616
 21
113.5227053966169
  0
LINE
  8
1
  6
CONTINUOUS
 62
     7
 10
-502.1795684183616
 20
113.5227053966169
 11
-502.2067447079659
 21
113.5129242225055
  0
LINE
  8
1
  6
CONTINUOUS
 62
     7
 10
-502.2067447079659
 20
113.5129242225055
 11
-502.2259709908429
 21
113.5047549226055
  0
LINE
  8
1
  6
CONTINUOUS
 62
     7
 10
-502.2259709908429
 20
113.5047549226055
 11
-502.2450878567672
 21
113.4955463134718
  0
LINE
  8
1
  6
CONTINUOUS
 62
     7
 10
-502.2450878567672
 20
113.4955463134718
 11
-502.2639860303456
 21
113.4853145397113
  0
LINE
  8
1
  6
CONTINUOUS
 62
     7
 10
-502.2639860303456
 20
113.4853145397113
 11
-502.2827778026946
 21
113.4739496564683
  0
LINE
  8
1
  6
CONTINUOUS
 62
     7
 10
-502.2827778026946
 20
113.4739496564683
 11
-502.3012728446316
 21
113.4615109724472
  0
LINE
  8
1
  6
CONTINUOUS
 62
     7
 10
-502.3012728446316
 20
113.4615109724472
 11
-502.3195801323831
 21
113.4478600276056
  0
LINE
  8
1
  6
CONTINUOUS
 62
     7
 10
-502.3195801323831
 20
113.4478600276056
 11
-502.3374925702128
 21
113.4330772419376
  0
LINE
  8
1
  6
CONTINUOUS
 62
     7
 10
-502.3374925702128
 20
113.4330772419376
 11
-502.3550417933834
 21
113.4170591126979
  0
LINE
  8
1
  6
CONTINUOUS
 62
     7
 10
-502.3550417933834
 20
113.4170591126979
 11
-502.3696031607617
 21
113.4024634507743
  0
LINE
  8
1
  6
CONTINUOUS
 62
     7
 10
-502.3696031607617
 20
113.4024634507743
 11
-502.383827789776
 21
113.3869020904551
  0
LINE
  8
1
  6
CONTINUOUS
 62
     7
 10
-502.383827789776
 20
113.3869020904551
 11
-502.3975828070519
 21
113.3704469659936
  0
LINE
  8
1
  6
CONTINUOUS
 62
     7
 10
-502.3975828070519
 20
113.3704469659936
 11
-502.4109700902072
 21
113.3528779390576
  0
LINE
  8
1
  6
CONTINUOUS
 62
     7
 10
-502.4109700902072
 20
113.3528779390576
 11
-502.4237646611369
 21
113.3343812016216
  0
LINE
  8
1
  6
CONTINUOUS
 62
     7
 10
-502.4237646611369
 20
113.3343812016216
 11
-502.43203680671
 21
113.3213658477928
  0
LINE
  8
1
  6
CONTINUOUS
 62
     7
 10
-502.43203680671
 20
113.3213658477928
 11
-502.4399912704231
 21
113.3079250589826
  0
LINE
  8
1
  6
CONTINUOUS
 62
     7
 10
-502.4399912704231
 20
113.3079250589826
 11
-502.4476009547609
 21
113.2940709614027
  0
LINE
  8
1
  6
CONTINUOUS
 62
     7
 10
-502.4476009547609
 20
113.2940709614027
 11
-502.4531127220585
 21
113.2833227667843
  0
LINE
  8
1
  6
CONTINUOUS
 62
     7
 10
-502.4531127220585
 20
113.2833227667843
 11
-502.4584056618801
 21
113.2723419505962
  0
LINE
  8
1
  6
CONTINUOUS
 62
     7
 10
-502.4584056618801
 20
113.2723419505962
 11
-502.4643723314152
 21
113.2590519333119
  0
LINE
  8
1
  6
CONTINUOUS
 62
     7
 10
-502.4643723314152
 20
113.2590519333119
 11
-502.4700232172915
 21
113.2453918229282
  0
LINE
  8
1
  6
CONTINUOUS
 62
     7
 10
-502.4700232172915
 20
113.2453918229282
 11
-502.4753146410047
 21
113.2314275244403
  0
LINE
  8
1
  6
CONTINUOUS
 62
     7
 10
-502.4753146410047
 20
113.2314275244403
 11
-502.4802676163711
 21
113.2170511933055
  0
LINE
  8
1
  6
CONTINUOUS
 62
     7
 10
-502.4802676163711
 20
113.2170511933055
 11
-502.4848186316937
 21
113.2023932190591
  0
LINE
  8
1
  6
CONTINUOUS
 62
     7
 10
-502.4848186316937
 20
113.2023932190591
 11
-502.4889836991598
 21
113.1873392678867
  0
LINE
  8
1
  6
CONTINUOUS
 62
     7
 10
-502.4889836991598
 20
113.1873392678867
 11
-502.4927042889032
 21
113.1720369545668
  0
LINE
  8
1
  6
CONTINUOUS
 62
     7
 10
-502.4927042889032
 20
113.1720369545668
 11
-502.4959787046669
 21
113.1564312717825
  0
LINE
  8
1
  6
CONTINUOUS
 62
     7
 10
-502.4959787046669
 20
113.1564312717825
 11
-502.4986255841134
 21
113.1415298758547
  0
LINE
  8
1
  6
CONTINUOUS
 62
     7
 10
-502.4986255841134
 20
113.1415298758547
 11
-502.5008351155905
 21
113.1264661415045
  0
LINE
  8
1
  6
CONTINUOUS
 62
     7
 10
-502.5008351155905
 20
113.1264661415045
 11
-502.5025957490348
 21
113.1112789709578
  0
LINE
  8
1
  6
CONTINUOUS
 62
     7
 10
-502.5025957490348
 20
113.1112789709578
 11
-502.5038670215006
 21
113.0964325906693
  0
LINE
  8
1
  6
CONTINUOUS
 62
     7
 10
-502.5038670215006
 20
113.0964325906693
 11
-502.5047039217114
 21
113.08150085463
  0
LINE
  8
1
  6
CONTINUOUS
 62
     7
 10
-502.5047039217114
 20
113.08150085463
 11
-502.505103662435
 21
113.0665235844598
  0
LINE
  8
1
  6
CONTINUOUS
 62
     7
 10
-502.505103662435
 20
113.0665235844598
 11
-502.5050634564395
 21
113.0515406017787
  0
ARC
  8
1
  6
CONTINUOUS
 62
     7
 10
-598.9994340529942
 20
64.18409883914555
 40
29.92466193446063
 50
270.4982749771278
 51
338.6976807976027
  0
ARC
  8
1
  6
CONTINUOUS
 62
     7
 10
-638.5599520370898
 20
79.98603804226353
 40
72.52378404910601
 50
338.4208564613333
 51
357.2860963588029
  0
ARC
  8
1
  6
CONTINUOUS
 62
     7
 10
-684.2533267559313
 20
87.59269314988627
 40
118.6506027476792
 50
354.6608392160841
 51
13.5917814939454
  0
ARC
  8
1
  6
CONTINUOUS
 62
     7
 10
-603.5063351907742
 20
107.3852380602951
 40
35.51462203519168
 50
13.16830432802183
 51
47.47170840776534
  0
ARC
  8
1
  6
CONTINUOUS
 62
     7
 10
-600.1320158543866
 20
108.0248347272467
 40
32.82673510216303
 50
51.05970686986757
 51
113.0367220027651
  0
ARC
  8
1
  6
CONTINUOUS
 62
     7
 10
-600.9179047114732
 20
110.611254523288
 40
30.14042113050474
 50
113.5859236530749
 51
160.810785556087
  0
ARC
  8
1
  6
CONTINUOUS
 62
     7
 10
-550.620023242195
 20
92.56866193142363
 40
83.57560660877381
 50
160.4626846681462
 51
179.6063853326957
  0
ARC
  8
1
  6
CONTINUOUS
 62
     7
 10
-513.0753169905879
 20
87.15337769246317
 40
121.2663422538904
 50
177.1689676763285
 51
192.2038979480519
  0
ARC
  8
1
  6
CONTINUOUS
 62
     7
 10
-594.7296124576998
 20
68.81678136818894
 40
37.5869296491727
 50
191.1959278936965
 51
226.3667794906319
  0
ARC
  8
1
  6
CONTINUOUS
 62
     7
 10
-600.4077728176457
 20
65.65839550857706
 40
31.44213237975407
 50
229.8864717382755
 51
273.0420112257663
  0
CIRCLE
  8
1
  6
CONTINUOUS
 62
     7
 10
-600.0030870135741
 20
92.51509377429007
 40
4.2
  0
CIRCLE
  8
1
  6
CONTINUOUS
 62
     7
 10
-600.0030870135741
 20
92.51509377429007
 40
5.5
  0
LINE
  8
1
  6
CONTINUOUS
 62
     7
 10
-613.1030870135742
 20
74.51509377429007
 11
-610.5030870135741
 21
74.51509377429007
  0
LINE
  8
1
  6
CONTINUOUS
 62
     7
 10
-613.1030870135742
 20
110.5150937742901
 11
-613.1030870135742
 21
74.51509377429007
  0
LINE
  8
1
  6
CONTINUOUS
 62
     7
 10
-610.5030870135743
 20
110.5150937742901
 11
-610.5030870135743
 21
74.51509377429007
  0
LINE
  8
1
  6
CONTINUOUS
 62
     7
 10
-589.5030870135743
 20
74.51509377429007
 11
-589.5030870135743
 21
110.5150937742901
  0
LINE
  8
1
  6
CONTINUOUS
 62
     7
 10
-610.0030870135741
 20
109.7650937742901
 11
-590.0030870135741
 21
109.7650937742901
  0
LINE
  8
1
  6
CONTINUOUS
 62
     7
 10
-590.0030870135741
 20
109.7650937742901
 11
-590.0030870135741
 21
75.26509377429007
  0
LINE
  8
1
  6
CONTINUOUS
 62
     7
 10
-610.5030870135743
 20
110.5150937742901
 11
-613.1030870135743
 21
110.5150937742901
  0
LINE
  8
1
  6
CONTINUOUS
 62
     7
 10
-589.5030870135743
 20
74.51509377429007
 11
-586.9030870135741
 21
74.51509377429007
  0
LINE
  8
1
  6
CONTINUOUS
 62
     7
 10
-586.9030870135741
 20
110.5150937742901
 11
-589.5030870135743
 21
110.5150937742901
  0
LINE
  8
1
  6
CONTINUOUS
 62
     7
 10
-586.9030870135741
 20
74.51509377429007
 11
-586.9030870135741
 21
110.5150937742901
  0
LINE
  8
1
  6
CONTINUOUS
 62
     7
 10
-610.5030870135743
 20
74.51509377429007
 11
-589.5030870135743
 21
74.51509377429007
  0
LINE
  8
1
  6
CONTINUOUS
 62
     7
 10
-610.0030870135741
 20
75.26509377429007
 11
-610.0030870135741
 21
109.7650937742901
  0
LINE
  8
1
  6
CONTINUOUS
 62
     7
 10
-590.0030870135741
 20
75.26509377429007
 11
-610.0030870135741
 21
75.26509377429007
  0
TEXT
  8
1
  6
CONTINUOUS
 62
     1
 10
-569.4427316493685
 20
-74.1715799674878
 40
3.0
  1
AFP-SH20MSY
  0
POLYLINE
  8
1
  6
CONTINUOUS
 62
     7
 66
     1
  0
VERTEX
  8
1
  6
CONTINUOUS
 62
     7
 10
-615.5079978263741
 20
45.61769989074536
  0
VERTEX
  8
1
  6
CONTINUOUS
 62
     7
 10
-610.7109535971109
 20
45.57089119994474
  0
VERTEX
  8
1
  6
CONTINUOUS
 62
     7
 10
-605.470275006262
 20
45.54200707534802
  0
VERTEX
  8
1
  6
CONTINUOUS
 62
     7
 10
-600.0030870135744
 20
45.53224420633077
  0
VERTEX
  8
1
  6
CONTINUOUS
 62
     7
 10
-594.5358990208867
 20
45.54200707534802
  0
VERTEX
  8
1
  6
CONTINUOUS
 62
     7
 10
-589.2952204300378
 20
45.57089119994473
  0
VERTEX
  8
1
  6
CONTINUOUS
 62
     7
 10
-584.4981762007745
 20
45.61769989074536
  0
SEQEND
  8
1
  6
CONTINUOUS
 62
     7
  0
POLYLINE
  8
1
  6
CONTINUOUS
 62
     7
 66
     1
  0
VERTEX
  8
1
  6
CONTINUOUS
 62
     7
 10
-615.4328841265334
 20
42.41184174899859
  0
VERTEX
  8
1
  6
CONTINUOUS
 62
     7
 10
-609.4711197472267
 20
42.37204865438281
  0
VERTEX
  8
1
  6
CONTINUOUS
 62
     7
 10
-603.1944766465415
 20
42.35181566238633
  0
VERTEX
  8
1
  6
CONTINUOUS
 62
     7
 10
-596.8116973805813
 20
42.35181566238637
  0
VERTEX
  8
1
  6
CONTINUOUS
 62
     7
 10
-590.535054279897
 20
42.37204865438293
  0
VERTEX
  8
1
  6
CONTINUOUS
 62
     7
 10
-584.5732899005919
 20
42.41184174899879
  0
SEQEND
  8
1
  6
CONTINUOUS
 62
     7
  0
POLYLINE
  8
1
  6
CONTINUOUS
 62
     7
 66
     1
  0
VERTEX
  8
1
  6
CONTINUOUS
 62
     7
 10
-584.4981762007743
 20
45.61769989074536
  0
VERTEX
  8
1
  6
CONTINUOUS
 62
     7
 10
-590.4866968589791
 20
45.65790106031609
  0
VERTEX
  8
1
  6
CONTINUOUS
 62
     7
 10
-596.795020720775
 20
45.6783451624035
  0
VERTEX
  8
1
  6
CONTINUOUS
 62
     7
 10
-603.211153306373
 20
45.6783451624035
  0
VERTEX
  8
1
  6
CONTINUOUS
 62
     7
 10
-609.5194771681689
 20
45.6579010603161
  0
VERTEX
  8
1
  6
CONTINUOUS
 62
     7
 10
-615.5079978263739
 20
45.61769989074536
  0
SEQEND
  8
1
  6
CONTINUOUS
 62
     7
  0
POLYLINE
  8
1
  6
CONTINUOUS
 62
     7
 66
     1
  0
VERTEX
  8
1
  6
CONTINUOUS
 62
     7
 10
-586.3394060195645
 20
74.1514127802807
  0
VERTEX
  8
1
  6
CONTINUOUS
 62
     7
 10
-593.0315475377174
 20
74.1876482984492
  0
VERTEX
  8
1
  6
CONTINUOUS
 62
     7
 10
-600.0030870135739
 20
74.19989034576383
  0
VERTEX
  8
1
  6
CONTINUOUS
 62
     7
 10
-606.9746264894304
 20
74.1876482984492
  0
VERTEX
  8
1
  6
CONTINUOUS
 62
     7
 10
-613.6667680075834
 20
74.1514127802807
  0
SEQEND
  8
1
  6
CONTINUOUS
 62
     7
  0
POLYLINE
  8
1
  6
CONTINUOUS
 62
     7
 66
     1
  0
VERTEX
  8
1
  6
CONTINUOUS
 62
     7
 10
-613.6667680075835
 20
110.8787747682995
  0
VERTEX
  8
1
  6
CONTINUOUS
 62
     7
 10
-606.9746264894306
 20
110.8425392501309
  0
VERTEX
  8
1
  6
CONTINUOUS
 62
     7
 10
-600.0030870135741
 20
110.8302972028163
  0
VERTEX
  8
1
  6
CONTINUOUS
 62
     7
 10
-593.0315475377176
 20
110.8425392501309
  0
VERTEX
  8
1
  6
CONTINUOUS
 62
     7
 10
-586.3394060195648
 20
110.8787747682995
  0
SEQEND
  8
1
  6
CONTINUOUS
 62
     7
  0
POLYLINE
  8
1
  6
CONTINUOUS
 62
     7
 66
     1
  0
VERTEX
  8
1
  6
CONTINUOUS
 62
     7
 10
-584.4977016502562
 20
42.41248184741671
  0
VERTEX
  8
1
  6
CONTINUOUS
 62
     7
 10
-589.2948656800793
 20
42.45929367347178
  0
VERTEX
  8
1
  6
CONTINUOUS
 62
     7
 10
-594.5357098034599
 20
42.48817979029341
  0
VERTEX
  8
1
  6
CONTINUOUS
 62
     7
 10
-600.0030870135735
 20
42.49794334224936
  0
VERTEX
  8
1
  6
CONTINUOUS
 62
     7
 10
-605.4704642236873
 20
42.48817979029342
  0
VERTEX
  8
1
  6
CONTINUOUS
 62
     7
 10
-610.7113083470679
 20
42.4592936734718
  0
VERTEX
  8
1
  6
CONTINUOUS
 62
     7
 10
-615.5084723768911
 20
42.41248184741672
  0
SEQEND
  8
1
  6
CONTINUOUS
 62
     7
  0
LINE
  8
1
  6
CONTINUOUS
 62
     7
 10
-478.6960840104472
 20
90.71509377429003
 11
-478.6682404209539
 21
90.50987258432956
  0
POLYLINE
  8
1
  6
CONTINUOUS
 62
     7
 66
     1
  0
VERTEX
  8
1
  6
CONTINUOUS
 62
     7
 10
-478.0486251568996
 20
92.51509377429007
  0
VERTEX
  8
1
  6
CONTINUOUS
 62
     7
 10
-478.0154136316823
 20
91.97859538874572
  0
VERTEX
  8
1
  6
CONTINUOUS
 62
     7
 10
-477.9170553563196
 20
91.46271433528607
  0
VERTEX
  8
1
  6
CONTINUOUS
 62
     7
 10
-477.7573301841736
 20
90.98727563348616
  0
VERTEX
  8
1
  6
CONTINUOUS
 62
     7
 10
-477.5423762640348
 20
90.57055012602706
  0
VERTEX
  8
1
  6
CONTINUOUS
 62
     7
 10
-477.2804541545068
 20
90.22855234045807
  0
VERTEX
  8
1
  6
CONTINUOUS
 62
     7
 10
-476.9816293753711
 20
89.97442505988403
  0
VERTEX
  8
1
  6
CONTINUOUS
 62
     7
 10
-476.657385595307
 20
89.81793425318118
  0
VERTEX
  8
1
  6
CONTINUOUS
 62
     7
 10
-476.3201833209444
 20
89.76509377429007
  0
SEQEND
  8
1
  6
CONTINUOUS
 62
     7
  0
POLYLINE
  8
1
  6
CONTINUOUS
 62
     7
 66
     1
  0
VERTEX
  8
1
  6
CONTINUOUS
 62
     7
 10
-502.5050634564396
 20
105.0513882969352
  0
VERTEX
  8
1
  6
CONTINUOUS
 62
     7
 10
-502.5065974032951
 20
104.9538766561033
  0
VERTEX
  8
1
  6
CONTINUOUS
 62
     7
 10
-502.5077372107421
 20
104.8601108845009
  0
VERTEX
  8
1
  6
CONTINUOUS
 62
     7
 10
-502.5084390935501
 20
104.773692955345
  0
VERTEX
  8
1
  6
CONTINUOUS
 62
     7
 10
-502.5086760891825
 20
104.6979425775332
  0
VERTEX
  8
1
  6
CONTINUOUS
 62
     7
 10
-502.5084390935501
 20
104.6357696704038
  0
VERTEX
  8
1
  6
CONTINUOUS
 62
     7
 10
-502.5077372107421
 20
104.5895625803915
  0
VERTEX
  8
1
  6
CONTINUOUS
 62
     7
 10
-502.5065974032951
 20
104.56109633369
  0
VERTEX
  8
1
  6
CONTINUOUS
 62
     7
 10
-502.5050634564396
 20
104.5514644493569
  0
SEQEND
  8
1
  6
CONTINUOUS
 62
     7
  0
POLYLINE
  8
1
  6
CONTINUOUS
 62
     7
 66
     1
  0
VERTEX
  8
1
  6
CONTINUOUS
 62
     7
 10
-502.5050634564395
 20
80.47872309922326
  0
VERTEX
  8
1
  6
CONTINUOUS
 62
     7
 10
-502.5065974032951
 20
80.46909121489091
  0
VERTEX
  8
1
  6
CONTINUOUS
 62
     7
 10
-502.507737210742
 20
80.44062496818988
  0
VERTEX
  8
1
  6
CONTINUOUS
 62
     7
 10
-502.5084390935501
 20
80.39441787817789
  0
VERTEX
  8
1
  6
CONTINUOUS
 62
     7
 10
-502.5086760891825
 20
80.33224497104855
  0
VERTEX
  8
1
  6
CONTINUOUS
 62
     7
 10
-502.5084390935501
 20
80.25649459323657
  0
VERTEX
  8
1
  6
CONTINUOUS
 62
     7
 10
-502.5077372107421
 20
80.1700766640803
  0
VERTEX
  8
1
  6
CONTINUOUS
 62
     7
 10
-502.5065974032952
 20
80.07631089247744
  0
VERTEX
  8
1
  6
CONTINUOUS
 62
     7
 10
-502.5050634564396
 20
79.97879925164509
  0
SEQEND
  8
1
  6
CONTINUOUS
 62
     7
  0
LINE
  8
1
  6
CONTINUOUS
 62
     7
 10
-597.357550245899
 20
-56.30391598955275
 11
-597.9213921440335
 21
-56.33175957904608
  0
LINE
  8
1
  6
CONTINUOUS
 62
     7
 10
-602.1933552619857
 20
92.00009377429005
 11
-600.5180870135742
 21
92.00009377429005
  0
LINE
  8
1
  6
CONTINUOUS
 62
     7
 10
-584.9030870135741
 20
102.2650937742901
 11
-584.9030870135741
 21
82.76509377429007
  0
LINE
  8
1
  6
CONTINUOUS
 62
     7
 10
-599.4880870135743
 20
90.32482552587848
 11
-599.4880870135743
 21
92.00009377429005
  0
LINE
  8
1
  6
CONTINUOUS
 62
     7
 10
-586.3394060195649
 20
82.76509377429007
 11
-584.9030870135741
 21
82.76509377429007
  0
LINE
  8
1
  6
CONTINUOUS
 62
     7
 10
-615.1030870135742
 20
102.2650937742901
 11
-615.1030870135742
 21
82.76509377429007
  0
LINE
  8
1
  6
CONTINUOUS
 62
     7
 10
-613.6667680075835
 20
102.2650937742901
 11
-613.6667680075835
 21
110.8787747682994
  0
LINE
  8
1
  6
CONTINUOUS
 62
     7
 10
-584.9030870135741
 20
102.2650937742901
 11
-586.3394060195649
 21
102.2650937742901
  0
LINE
  8
1
  6
CONTINUOUS
 62
     7
 10
-613.6667680075835
 20
82.76509377429007
 11
-615.1030870135742
 21
82.76509377429007
  0
LINE
  8
1
  6
CONTINUOUS
 62
     7
 10
-615.1030870135742
 20
102.2650937742901
 11
-613.6667680075835
 21
102.2650937742901
  0
LINE
  8
1
  6
CONTINUOUS
 62
     7
 10
-597.8128187651627
 20
93.03009377429008
 11
-599.4880870135743
 21
93.03009377429008
  0
LINE
  8
1
  6
CONTINUOUS
 62
     7
 10
-599.4880870135743
 20
92.00009377429005
 11
-597.8128187651627
 21
92.00009377429005
  0
LINE
  8
1
  6
CONTINUOUS
 62
     7
 10
-613.6667680075835
 20
74.1514127802807
 11
-613.6667680075835
 21
82.76509377429007
  0
LINE
  8
1
  6
CONTINUOUS
 62
     7
 10
-586.3394060195649
 20
110.8787747682994
 11
-586.3394060195649
 21
102.2650937742901
  0
LINE
  8
1
  6
CONTINUOUS
 62
     7
 10
-600.5180870135742
 20
92.00009377429005
 11
-600.5180870135742
 21
90.32482552587848
  0
LINE
  8
1
  6
CONTINUOUS
 62
     7
 10
-600.5180870135742
 20
93.03009377429008
 11
-602.1933552619857
 21
93.03009377429008
  0
LINE
  8
1
  6
CONTINUOUS
 62
     7
 10
-589.5030870135743
 20
110.5150937742901
 11
-610.5030870135743
 21
110.5150937742901
  0
LINE
  8
1
  6
CONTINUOUS
 62
     7
 10
-600.5180870135742
 20
94.70536202270166
 11
-600.5180870135742
 21
93.03009377429008
  0
LINE
  8
1
  6
CONTINUOUS
 62
     7
 10
-586.3394060195649
 20
82.76509377429007
 11
-586.3394060195649
 21
74.1514127802807
  0
LINE
  8
1
  6
CONTINUOUS
 62
     7
 10
-599.4880870135743
 20
93.03009377429008
 11
-599.4880870135743
 21
94.70536202270166
  0
LINE
  8
1
  6
CONTINUOUS
 62
     7
 10
-583.5121568921811
 20
43.40737980198443
 11
-583.5352224039976
 21
43.19182445595347
  0
LINE
  8
1
  6
CONTINUOUS
 62
     7
 10
-583.5121568921811
 20
43.40737980198443
 11
-583.5121568921811
 21
44.62280774659572
  0
LINE
  8
1
  6
CONTINUOUS
 62
     7
 10
-616.4940171349673
 20
44.62280774659572
 11
-616.4940171349673
 21
43.40737980198443
  0
LINE
  8
1
  6
CONTINUOUS
 62
     7
 10
-616.4709516231508
 20
43.19182445595343
 11
-616.4940171349673
 21
43.40737980198443
  0
LINE
  8
1
  6
CONTINUOUS
 62
     7
 10
-584.5732899005919
 20
42.41184174899878
 11
-584.4977016502554
 21
42.41248184741674
  0
LINE
  8
1
  6
CONTINUOUS
 62
     7
 10
-615.5084723768915
 20
42.41248184741672
 11
-615.4328841265334
 21
42.41184174899859
  0
LINE
  8
1
  6
CONTINUOUS
 62
     7
 10
-586.5030870135743
 20
82.76509377429007
 11
-586.5030870135743
 21
74.31509377429008
  0
LINE
  8
1
  6
CONTINUOUS
 62
     7
 10
-586.5030870135743
 20
74.31509377429008
 11
-586.3394060195649
 21
74.1514127802807
  0
LINE
  8
1
  6
CONTINUOUS
 62
     7
 10
-586.5030870135743
 20
110.7150937742901
 11
-586.3394060195649
 21
110.8787747682995
  0
LINE
  8
1
  6
CONTINUOUS
 62
     7
 10
-586.9030870135741
 20
102.2650937742901
 11
-586.5030870135743
 21
102.2650937742901
  0
LINE
  8
1
  6
CONTINUOUS
 62
     7
 10
-586.5030870135743
 20
74.31509377429008
 11
-613.5030870135743
 21
74.31509377429008
  0
LINE
  8
1
  6
CONTINUOUS
 62
     7
 10
-613.5030870135743
 20
110.7150937742901
 11
-586.5030870135743
 21
110.7150937742901
  0
LINE
  8
1
  6
CONTINUOUS
 62
     7
 10
-483.2483329830092
 20
91.07634431729625
 11
-483.2483329830092
 21
90.84646462418851
  0
LINE
  8
1
  6
CONTINUOUS
 62
     7
 10
-586.5030870135743
 20
110.7150937742901
 11
-586.5030870135743
 21
102.2650937742901
  0
LINE
  8
1
  6
CONTINUOUS
 62
     7
 10
-483.2483329830092
 20
101.7888670134933
 11
-483.2483329830092
 21
99.34646462418853
  0
LINE
  8
1
  6
CONTINUOUS
 62
     7
 10
-613.5030870135743
 20
74.31509377429008
 11
-613.6667680075835
 21
74.1514127802807
  0
LINE
  8
1
  6
CONTINUOUS
 62
     7
 10
-483.2483329830092
 20
85.68372292439159
 11
-483.2488984696866
 21
85.68372292439159
  0
LINE
  8
1
  6
CONTINUOUS
 62
     7
 10
-483.2488984696866
 20
95.11509377429009
 11
-483.2483612573431
 21
95.11509377429009
  0
LINE
  8
1
  6
CONTINUOUS
 62
     7
 10
-483.2488984696866
 20
98.41509377429006
 11
-483.2483612573431
 21
98.41509377429006
  0
LINE
  8
1
  6
CONTINUOUS
 62
     7
 10
-483.2483612573431
 20
98.41509377429006
 11
-483.2483612573431
 21
95.11509377429009
  0
LINE
  8
1
  6
CONTINUOUS
 62
     7
 10
-483.2483612573431
 20
89.91509377429004
 11
-483.2483612573431
 21
86.61509377429007
  0
LINE
  8
1
  6
CONTINUOUS
 62
     7
 10
-478.0486251568996
 20
94.26509377429004
 11
-478.8486251560113
 21
94.26509377429004
  0
LINE
  8
1
  6
CONTINUOUS
 62
     7
 10
-613.5030870135743
 20
102.2650937742901
 11
-613.5030870135743
 21
110.7150937742901
  0
LINE
  8
1
  6
CONTINUOUS
 62
     7
 10
-483.2483409351656
 20
91.34610984048258
 11
-483.2483329830092
 21
91.07634431729625
  0
LINE
  8
1
  6
CONTINUOUS
 62
     7
 10
-483.2488984696866
 20
94.74940834934078
 11
-483.2483440248234
 21
94.74940834934078
  0
LINE
  8
1
  6
CONTINUOUS
 62
     7
 10
-483.2483329830092
 20
91.07634431729625
 11
-483.2488984696866
 21
91.07634431729625
  0
LINE
  8
1
  6
CONTINUOUS
 62
     7
 10
-478.8486251560113
 20
94.26509377429004
 11
-478.8486157312334
 21
95.26509377429007
  0
LINE
  8
1
  6
CONTINUOUS
 62
     7
 10
-478.1743300176964
 20
95.26509377429007
 11
-478.8486157312334
 21
95.26509377429007
  0
LINE
  8
1
  6
CONTINUOUS
 62
     7
 10
-483.2483440248234
 20
98.7807791992393
 11
-483.2483612573431
 21
98.41509377429006
  0
LINE
  8
1
  6
CONTINUOUS
 62
     7
 10
-483.2483409351656
 20
93.68407770809753
 11
-483.2483409351656
 21
91.34610984048258
  0
LINE
  8
1
  6
CONTINUOUS
 62
     7
 10
-585.2030870135743
 20
102.2650937742901
 11
-585.2030870135743
 21
82.76509377429007
  0
LINE
  8
1
  6
CONTINUOUS
 62
     7
 10
-483.2488984696866
 20
93.95384323128388
 11
-483.2483329830092
 21
93.95384323128388
  0
LINE
  8
1
  6
CONTINUOUS
 62
     7
 10
-613.5030870135743
 20
82.76509377429007
 11
-613.1030870135743
 21
82.76509377429007
  0
LINE
  8
1
  6
CONTINUOUS
 62
     7
 10
-586.5030870135743
 20
82.76509377429007
 11
-586.9030870135741
 21
82.76509377429007
  0
LINE
  8
1
  6
CONTINUOUS
 62
     7
 10
-483.2483329830092
 20
99.34646462418853
 11
-483.2483440248234
 21
98.7807791992393
  0
LINE
  8
1
  6
CONTINUOUS
 62
     7
 10
-483.2483440248234
 20
98.7807791992393
 11
-483.2488984696866
 21
98.7807791992393
  0
LINE
  8
1
  6
CONTINUOUS
 62
     7
 10
-483.2483440248234
 20
86.24940834934081
 11
-483.2483329830092
 21
85.68372292439159
  0
LINE
  8
1
  6
CONTINUOUS
 62
     7
 10
-613.5030870135743
 20
82.76509377429007
 11
-613.6667680075835
 21
82.76509377429007
  0
LINE
  8
1
  6
CONTINUOUS
 62
     7
 10
-613.5030870135743
 20
110.7150937742901
 11
-613.6667680075835
 21
110.8787747682995
  0
LINE
  8
1
  6
CONTINUOUS
 62
     7
 10
-483.2488984696866
 20
90.84646462418851
 11
-483.2483329830092
 21
90.84646462418851
  0
LINE
  8
1
  6
CONTINUOUS
 62
     7
 10
-483.2488984696866
 20
91.34610984048258
 11
-483.2483409351656
 21
91.34610984048258
  0
LINE
  8
1
  6
CONTINUOUS
 62
     7
 10
-483.2483329830092
 20
94.18372292439165
 11
-483.2488984696866
 21
94.18372292439165
  0
LINE
  8
1
  6
CONTINUOUS
 62
     7
 10
-613.6667680075835
 20
102.2650937742901
 11
-613.5030870135743
 21
102.2650937742901
  0
LINE
  8
1
  6
CONTINUOUS
 62
     7
 10
-586.5030870135743
 20
82.76509377429007
 11
-586.3394060195649
 21
82.76509377429007
  0
LINE
  8
1
  6
CONTINUOUS
 62
     7
 10
-483.2488984696866
 20
99.34646462418853
 11
-483.2483329830092
 21
99.34646462418853
  0
LINE
  8
1
  6
CONTINUOUS
 62
     7
 10
-586.3394060195649
 20
102.2650937742901
 11
-586.5030870135743
 21
102.2650937742901
  0
LINE
  8
1
  6
CONTINUOUS
 62
     7
 10
-613.1030870135742
 20
102.2650937742901
 11
-613.5030870135741
 21
102.2650937742901
  0
LINE
  8
1
  6
CONTINUOUS
 62
     7
 10
-483.2483329830092
 20
85.68372292439159
 11
-483.2483329830092
 21
83.24132053508674
  0
LINE
  8
1
  6
CONTINUOUS
 62
     7
 10
-483.2488984696866
 20
86.24940834934081
 11
-483.2483440248234
 21
86.24940834934081
  0
LINE
  8
1
  6
CONTINUOUS
 62
     7
 10
-614.8030870135742
 20
82.76509377429007
 11
-614.8030870135742
 21
102.2650937742901
  0
LINE
  8
1
  6
CONTINUOUS
 62
     7
 10
-483.2483329830092
 20
93.95384323128388
 11
-483.2483409351656
 21
93.68407770809753
  0
LINE
  8
1
  6
CONTINUOUS
 62
     7
 10
-483.2483440248234
 20
94.74940834934078
 11
-483.2483329830092
 21
94.18372292439165
  0
LINE
  8
1
  6
CONTINUOUS
 62
     7
 10
-483.2488984696866
 20
86.61509377429007
 11
-483.2483612573431
 21
86.61509377429007
  0
LINE
  8
1
  6
CONTINUOUS
 62
     7
 10
-483.2483329830092
 20
90.84646462418851
 11
-483.2483440248234
 21
90.28077919923929
  0
LINE
  8
1
  6
CONTINUOUS
 62
     7
 10
-483.2483440248234
 20
90.28077919923929
 11
-483.2488984696866
 21
90.28077919923929
  0
LINE
  8
1
  6
CONTINUOUS
 62
     7
 10
-483.2483329830092
 20
94.18372292439165
 11
-483.2483329830092
 21
93.95384323128388
  0
LINE
  8
1
  6
CONTINUOUS
 62
     7
 10
-613.5030870135743
 20
74.31509377429008
 11
-613.5030870135743
 21
82.76509377429007
  0
LINE
  8
1
  6
CONTINUOUS
 62
     7
 10
-483.2483612573431
 20
86.61509377429007
 11
-483.2483440248234
 21
86.24940834934081
  0
LINE
  8
1
  6
CONTINUOUS
 62
     7
 10
-483.2483612573431
 20
95.11509377429009
 11
-483.2483440248234
 21
94.74940834934078
  0
LINE
  8
1
  6
CONTINUOUS
 62
     7
 10
-483.2488984696866
 20
89.91509377429004
 11
-483.2483612573431
 21
89.91509377429004
  0
LINE
  8
1
  6
CONTINUOUS
 62
     7
 10
-483.2483440248234
 20
90.28077919923929
 11
-483.2483612573431
 21
89.91509377429004
  0
LINE
  8
1
  6
CONTINUOUS
 62
     7
 10
-483.2483409351656
 20
93.68407770809753
 11
-483.2488984696866
 21
93.68407770809753
  0
LINE
  8
1
  6
CONTINUOUS
 62
     7
 10
-478.8486251560113
 20
92.51509377429004
 11
-478.8487594590972
 21
92.51509377429007
  0
LINE
  8
1
  6
CONTINUOUS
 62
     7
 10
-475.8487900929566
 20
95.26509377429007
 11
-475.8487900929566
 21
89.76509377429007
  0
LINE
  8
1
  6
CONTINUOUS
 62
     7
 10
-478.1743300176964
 20
95.26509377429007
 11
-478.0486251568996
 21
94.26509377429004
  0
LINE
  8
1
  6
CONTINUOUS
 62
     7
 10
-478.8486251560113
 20
92.51509377429004
 11
-478.8486251560113
 21
94.26509377429004
  0
LINE
  8
1
  6
CONTINUOUS
 62
     7
 10
-478.8486157312334
 20
95.26509377429007
 11
-478.8487594590972
 21
95.26509377429007
  0
LINE
  8
1
  6
CONTINUOUS
 62
     7
 10
-478.8487594590972
 20
92.51509377429007
 11
-478.8487594590972
 21
95.26509377429007
  0
LINE
  8
1
  6
CONTINUOUS
 62
     7
 10
-478.8487594590972
 20
95.26509377429007
 11
-480.7988984696866
 21
95.26509377429007
  0
LINE
  8
1
  6
CONTINUOUS
 62
     7
 10
-478.6960840104472
 20
90.71509377429001
 11
-478.7611606178004
 21
91.27513409752633
  0
LINE
  8
1
  6
CONTINUOUS
 62
     7
 10
-478.0486251568996
 20
92.51509377429007
 11
-478.0486251568996
 21
94.26509377429004
  0
LINE
  8
1
  6
CONTINUOUS
 62
     7
 10
-478.5488890501273
 20
89.76509377429007
 11
-480.7988984696866
 21
89.76509377429007
  0
LINE
  8
1
  6
CONTINUOUS
 62
     7
 10
-478.6682404209539
 20
90.50987258432954
 11
-478.5488890501273
 21
89.76509377429007
  0
LINE
  8
1
  6
CONTINUOUS
 62
     7
 10
-478.8486251560113
 20
92.51509377429004
 11
-478.0486251568996
 21
92.51509377429007
  0
LINE
  8
1
  6
CONTINUOUS
 62
     7
 10
-478.1743300176964
 20
95.26509377429007
 11
-475.8487900929566
 21
95.26509377429007
  0
LINE
  8
1
  6
CONTINUOUS
 62
     7
 10
-478.5487547470413
 20
89.76509377429007
 11
-478.5488890501273
 21
89.76509377429007
  0
LINE
  8
1
  6
CONTINUOUS
 62
     7
 10
-476.3201833209444
 20
89.76509377429007
 11
-478.5487547470413
 21
89.76509377429007
  0
LINE
  8
1
  6
CONTINUOUS
 62
     7
 10
-475.8487900929566
 20
89.76509377429007
 11
-476.3201833209444
 21
89.76509377429007
  0
LINE
  8
1
  6
CONTINUOUS
 62
     7
 10
-502.7500663286365
 20
104.5557409903987
 11
-486.590172266468
 21
104.2736689903104
  0
LINE
  8
1
  6
CONTINUOUS
 62
     7
 10
-486.0988984696867
 20
103.7737451427322
 11
-486.0988984696867
 21
81.2564424058479
  0
LINE
  8
1
  6
CONTINUOUS
 62
     7
 10
-486.590172266468
 20
80.75651855826972
 11
-502.7500663286365
 21
80.47444655818146
  0
LINE
  8
1
  6
CONTINUOUS
 62
     7
 10
-503.2674656199638
 20
104.0648483810444
 11
-503.2674656199638
 21
80.96533916753572
  0
LINE
  8
1
  6
CONTINUOUS
 62
     7
 10
-502.0419089383212
 20
113.5433800571713
 11
-486.590172266468
 21
113.2736689903104
  0
LINE
  8
1
  6
CONTINUOUS
 62
     7
 10
-480.7988984696866
 20
106.3150937742901
 11
-480.7988984696866
 21
102.7650937742901
  0
LINE
  8
1
  6
CONTINUOUS
 62
     7
 10
-481.2988984696866
 20
77.51509377429011
 11
-486.0988984696866
 21
77.51509377429011
  0
LINE
  8
1
  6
CONTINUOUS
 62
     7
 10
-486.0988984696866
 20
106.8150937742901
 11
-481.2988984696866
 21
106.8150937742901
  0
LINE
  8
1
  6
CONTINUOUS
 62
     7
 10
-482.7488984696866
 20
82.76509377429007
 11
-481.2988984696866
 21
82.76509377429007
  0
LINE
  8
1
  6
CONTINUOUS
 62
     7
 10
-480.7988984696866
 20
82.26509377429007
 11
-480.7988984696866
 21
78.01509377429011
  0
LINE
  8
1
  6
CONTINUOUS
 62
     7
 10
-483.2488984696866
 20
101.7650937742901
 11
-483.2488984696866
 21
83.26509377429007
  0
LINE
  8
1
  6
CONTINUOUS
 62
     7
 10
-486.590172266468
 20
71.75651855826972
 11
-502.0419089383203
 21
71.48680749140881
  0
LINE
  8
1
  6
CONTINUOUS
 62
     7
 10
-499.1988984696867
 20
35.03652672068236
 11
-499.1988984696867
 21
71.04508379217256
  0
LINE
  8
1
  6
CONTINUOUS
 62
     7
 10
-512.1988984696867
 20
44.53239651117438
 11
-512.1988984696867
 21
43.49779103740575
  0
LINE
  8
1
  6
CONTINUOUS
 62
     7
 10
-480.7988984696866
 20
83.26509377429007
 11
-480.7988984696866
 21
82.26509377429007
  0
LINE
  8
1
  6
CONTINUOUS
 62
     7
 10
-480.7988984696866
 20
101.7650937742901
 11
-480.7988984696866
 21
83.26509377429007
  0
LINE
  8
1
  6
CONTINUOUS
 62
     7
 10
-486.0988984696867
 20
81.2564424058479
 11
-486.0988984696867
 21
80.25659471069152
  0
LINE
  8
1
  6
CONTINUOUS
 62
     7
 10
-601.1720709460837
 20
-51.75104644324325
 11
-601.4418364689706
 21
-51.75103373084247
  0
LINE
  8
1
  6
CONTINUOUS
 62
     7
 10
-601.441709234468
 20
-49.05103373384036
 11
-601.1719437115813
 21
-49.05104644624114
  0
LINE
  8
1
  6
CONTINUOUS
 62
     7
 10
-480.7988984696866
 20
102.7650937742901
 11
-480.7988984696866
 21
101.7650937742901
  0
LINE
  8
1
  6
CONTINUOUS
 62
     7
 10
-499.1988984696867
 20
113.9851037564076
 11
-499.1988984696867
 21
139.9899715800833
  0
LINE
  8
1
  6
CONTINUOUS
 62
     7
 10
-502.5050634564395
 20
113.0515406017787
 11
-502.5050634564395
 21
105.0513882969351
  0
LINE
  8
1
  6
CONTINUOUS
 62
     7
 10
-502.5050634564395
 20
79.97879925164506
 11
-502.5050634564395
 21
71.97864694680145
  0
LINE
  8
1
  6
CONTINUOUS
 62
     7
 10
-486.0988984696867
 20
80.25659471069152
 11
-486.0988984696867
 21
72.25644240584792
  0
LINE
  8
1
  6
CONTINUOUS
 62
     7
 10
-481.2988984696866
 20
102.2650937742901
 11
-482.7488984696866
 21
102.2650937742901
  0
LINE
  8
1
  6
CONTINUOUS
 62
     7
 10
-506.9604371418303
 20
42.42365609168838
 11
-511.216350876124
 21
42.49794334224936
  0
LINE
  8
1
  6
CONTINUOUS
 62
     7
 10
-486.0988984696867
 20
104.7735928378886
 11
-486.0988984696867
 21
103.7737451427322
  0
LINE
  8
1
  6
CONTINUOUS
 62
     7
 10
-511.216350876124
 20
45.53224420633077
 11
-509.0606282612908
 21
45.56987248453992
  0
LINE
  8
1
  6
CONTINUOUS
 62
     7
 10
-486.0988984696867
 20
112.7737451427322
 11
-486.0988984696867
 21
104.7735928378886
  0
LINE
  8
1
  6
CONTINUOUS
 62
     7
 10
-589.5100665719089
 20
-49.05159599925478
 11
-593.1715889367583
 21
-49.05142345407822
  0
LINE
  8
1
  6
CONTINUOUS
 62
     7
 10
-601.441709234468
 20
-49.05103373384036
 11
-601.6715889273205
 21
-49.05102290101503
  0
LINE
  8
1
  6
CONTINUOUS
 62
     7
 10
-591.7030870135742
 20
-51.75149265859898
 11
-593.1717161712608
 21
-51.75142345108033
  0
LINE
  8
1
  6
CONTINUOUS
 62
     7
 10
-593.7372743610795
 20
-49.0513967967806
 11
-593.1715889367583
 21
-49.05142345407822
  0
LINE
  8
1
  6
CONTINUOUS
 62
     7
 10
-589.5100665719089
 20
-49.05159599925478
 11
-589.1565131817081
 21
-49.05161266006579
  0
LINE
  8
1
  6
CONTINUOUS
 62
     7
 10
-598.3343306308229
 20
-49.05118016560736
 11
-597.7686452065019
 21
-49.05120682290498
  0
LINE
  8
1
  6
CONTINUOUS
 62
     7
 10
-601.671716161823
 20
-51.75102289801715
 11
-602.2374015861441
 21
-51.75099624071953
  0
LINE
  8
1
  6
CONTINUOUS
 62
     7
 10
-597.7687724410042
 20
-51.75120681990709
 11
-598.3344578653254
 21
-51.75118016260947
  0
LINE
  8
1
  6
CONTINUOUS
 62
     7
 10
-598.3344578653254
 20
-51.75118016260947
 11
-598.5643375581778
 21
-51.75116932978415
  0
LINE
  8
1
  6
CONTINUOUS
 62
     7
 10
-601.4418364689706
 20
-51.75103373084247
 11
-601.671716161823
 21
-51.75102289801715
  0
LINE
  8
1
  6
CONTINUOUS
 62
     7
 10
-602.2372743516416
 20
-49.05099624371742
 11
-601.6715889273205
 21
-49.05102290101503
  0
LINE
  8
1
  6
CONTINUOUS
 62
     7
 10
-593.1717161712608
 20
-51.75142345108033
 11
-593.737401595582
 21
-51.75139679378271
  0
LINE
  8
1
  6
CONTINUOUS
 62
     7
 10
-598.3343306308229
 20
-49.05118016560736
 11
-598.5642103236754
 21
-49.05116933278205
  0
LINE
  8
1
  6
CONTINUOUS
 62
     7
 10
-606.4030870135741
 20
-51.75110153031336
 11
-605.9839543108146
 21
-51.7511015303133
  0
LINE
  8
1
  6
CONTINUOUS
 62
     7
 10
-605.3331629373587
 20
-51.75110153031336
 11
-605.9839543108146
 21
-51.75110153031336
  0
LINE
  8
1
  6
CONTINUOUS
 62
     7
 10
-587.9030870135741
 20
-49.2011015303133
 11
-588.0029668343311
 21
-49.2011015303133
  0
LINE
  8
1
  6
CONTINUOUS
 62
     7
 10
-603.0030870135741
 20
-54.20110153031334
 11
-603.5030870135743
 21
-54.20110153031334
  0
LINE
  8
1
  6
CONTINUOUS
 62
     7
 10
-596.5030870135743
 20
-54.20110153031334
 11
-597.0030870135741
 21
-54.20110153031334
  0
LINE
  8
1
  6
CONTINUOUS
 62
     7
 10
-604.0030870135741
 20
-53.70110153031334
 11
-604.0030870135741
 21
-51.75110153031331
  0
LINE
  8
1
  6
CONTINUOUS
 62
     7
 10
-595.5030870135743
 20
-49.05131358481968
 11
-595.5030870135743
 21
-48.9011015303133
  0
LINE
  8
1
  6
CONTINUOUS
 62
     7
 10
-606.4030870135741
 20
-51.75110153031336
 11
-606.4030870135741
 21
-51.75079993741834
  0
LINE
  8
1
  6
CONTINUOUS
 62
     7
 10
-606.4030870135741
 20
-49.05079993442044
 11
-606.4030870135741
 21
-48.9011015303133
  0
LINE
  8
1
  6
CONTINUOUS
 62
     7
 10
-593.6030870135742
 20
-49.05140312021037
 11
-593.6030870135742
 21
-48.9011015303133
  0
LINE
  8
1
  6
CONTINUOUS
 62
     7
 10
-582.2034085592417
 20
-31.73253438003609
 11
-582.4945117975539
 21
-48.40982773353195
  0
LINE
  8
1
  6
CONTINUOUS
 62
     7
 10
-608.3030870135741
 20
-51.75110153031336
 11
-606.4030870135741
 21
-51.75110153031336
  0
LINE
  8
1
  6
CONTINUOUS
 62
     7
 10
-632.0446088777145
 20
-13.80110153031332
 11
-632.0460269535984
 21
-13.80110153031332
  0
LINE
  8
1
  6
CONTINUOUS
 62
     7
 10
-632.0460269535984
 20
-13.80110153031332
 11
-633.4978682913121
 21
-13.80110153031332
  0
LINE
  8
1
  6
CONTINUOUS
 62
     7
 10
-596.0030870135741
 20
-51.75129002587266
 11
-596.0030870135741
 21
-53.70110153031334
  0
LINE
  8
1
  6
CONTINUOUS
 62
     7
 10
-566.5104564508116
 20
-13.80110153031332
 11
-567.96014707355
 21
-13.80110153031332
  0
LINE
  8
1
  6
CONTINUOUS
 62
     7
 10
-597.0030870135741
 20
-54.20110153031334
 11
-597.0532024638288
 21
-54.20110153031335
  0
LINE
  8
1
  6
CONTINUOUS
 62
     7
 10
-567.96014707355
 20
-13.80110153031332
 11
-567.9689525430349
 21
-13.80110153031332
  0
LINE
  8
1
  6
CONTINUOUS
 62
     7
 10
-603.0030870135741
 20
-51.75110153031331
 11
-602.9530870168496
 21
-51.75110153031331
  0
LINE
  8
1
  6
CONTINUOUS
 62
     7
 10
-605.3331629373587
 20
-51.7511015303133
 11
-604.5030870135741
 21
-51.7511015303133
  0
LINE
  8
1
  6
CENTER
 62
     1
 10
-600.0030870135741
 20
31.21886755432873
 11
-600.0030870135741
 21
143.8513166408114
  0
LINE
  8
1
  6
CENTER
 62
     1
 10
-600.0030870135741
 20
-67.8011015303133
 11
-600.0030870135741
 21
-10.80110153031331
  0
LINE
  8
1
  6
CENTER
 62
     1
 10
-525.1988984696867
 20
87.51509377429005
 11
-472.8487900929566
 21
87.51509377429005
  0
LINE
  8
1
  6
CONTINUOUS
 62
     7
 10
-612.1030870135742
 20
-51.7011015303133
 11
-612.0030846707036
 21
-51.7011015303133
  0
LINE
  8
1
  6
CONTINUOUS
 62
     7
 10
-587.9030870135741
 20
-51.7011015303133
 11
-588.0030846440557
 21
-51.7011015303133
  0
LINE
  8
1
  6
CONTINUOUS
 62
     7
 10
-604.5030870135741
 20
-51.7511015303133
 11
-604.5030870135741
 21
-51.75088947280903
  0
LINE
  8
1
  6
CONTINUOUS
 62
     7
 10
-612.1030870135742
 20
-49.2011015303133
 11
-612.0029668609791
 21
-49.2011015303133
  0
LINE
  8
1
  6
CONTINUOUS
 62
     7
 10
-582.994435645132
 20
-48.9011015303133
 11
-583.4945879499757
 21
-48.9011015303133
  0
LINE
  8
1
  6
CONTINUOUS
 62
     7
 10
-602.9532024703798
 20
-54.20110153031334
 11
-603.0030870135741
 21
-54.20110153031334
  0
LINE
  8
1
  6
CONTINUOUS
 62
     7
 10
-604.5030870135741
 20
-51.7511015303133
 11
-604.0030870135741
 21
-51.75110153031336
  0
LINE
  8
1
  6
CENTER
 62
     1
 10
-562.6027493838658
 20
87.51509377429007
 11
-637.3411197756841
 21
87.51509377429007
  0
LINE
  8
1
  6
CONTINUOUS
 62
     7
 10
-616.5115860771728
 20
-48.9011015303133
 11
-617.0117383820163
 21
-48.9011015303133
  0
LINE
  8
1
  6
CONTINUOUS
 62
     7
 10
-604.5030870135741
 20
-49.05088946981114
 11
-604.5030870135741
 21
-48.9011015303133
  0
LINE
  8
1
  6
CONTINUOUS
 62
     7
 10
-617.5116622295945
 20
-48.40982773353195
 11
-617.8027654679066
 21
-31.73253438003609
  0
LINE
  8
1
  6
CONTINUOUS
 62
     7
 10
-604.0030870135741
 20
-51.75110153031331
 11
-603.0030870135741
 21
-51.75110153031331
  0
LINE
  8
1
  6
CONTINUOUS
 62
     7
 10
-606.0033261269929
 20
-56.82510449562617
 11
-606.0032943520273
 21
-56.15081878208913
  0
LINE
  8
1
  6
CONTINUOUS
 62
     7
 10
-615.5084723768915
 20
-28.67973488374541
 11
-616.4709516231507
 21
-28.18490691761389
  0
LINE
  8
1
  6
CONTINUOUS
 62
     7
 10
-593.7372743610795
 20
-49.0513967967806
 11
-594.1029597856227
 21
-49.05137956426093
  0
LINE
  8
1
  6
CONTINUOUS
 62
     7
 10
-583.512156892181
 20
-28.1725968574161
 11
-583.5352224039975
 21
-28.18490691761388
  0
LINE
  8
1
  6
CONTINUOUS
 62
     7
 10
-602.6029597761849
 20
-49.05097901119776
 11
-605.9029597725208
 21
-49.05082350236146
  0
LINE
  8
1
  6
CONTINUOUS
 62
     7
 10
-616.0116622295945
 20
-48.40982773353195
 11
-616.2894576886409
 21
-32.49493654356041
  0
LINE
  8
1
  6
CONTINUOUS
 62
     7
 10
-583.7167163385074
 20
-32.49493654356041
 11
-583.9945117975537
 21
-48.40982773353195
  0
LINE
  8
1
  6
CONTINUOUS
 62
     7
 10
-584.4944356451321
 20
-48.9011015303133
 11
-615.5117383820163
 21
-48.9011015303133
  0
LINE
  8
1
  6
CONTINUOUS
 62
     7
 10
-608.8030870135742
 20
-54.20110153031334
 11
-609.3030870135741
 21
-54.20110153031334
  0
LINE
  8
1
  6
CONTINUOUS
 62
     7
 10
-612.0030870002502
 20
-51.75053604363587
 11
-612.0029597657478
 21
-49.05053604663377
  0
LINE
  8
1
  6
CONTINUOUS
 62
     7
 10
-597.4029597819585
 20
-49.05122405542464
 11
-597.7686452065019
 21
-49.05120682290498
  0
LINE
  8
1
  6
CONTINUOUS
 62
     7
 10
-588.1494064016398
 20
-49.05166011885476
 11
-588.0029597923957
 21
-49.05166701998863
  0
LINE
  8
1
  6
CONTINUOUS
 62
     7
 10
-597.4030870164611
 20
-51.75122405242675
 11
-597.7687724410042
 21
-51.75120681990709
  0
LINE
  8
1
  6
CONTINUOUS
 62
     7
 10
-594.1029597856227
 20
-49.05137956426093
 11
-594.1030870201251
 21
-51.75137956126305
  0
LINE
  8
1
  6
CONTINUOUS
 62
     7
 10
-597.357550245899
 20
-56.30391598955276
 11
-597.0532984899629
 21
-56.23883938219959
  0
LINE
  8
1
  6
CONTINUOUS
 62
     7
 10
-610.8494063764354
 20
-49.0505904065566
 11
-610.4958529862347
 21
-49.05060706736761
  0
LINE
  8
1
  6
CONTINUOUS
 62
     7
 10
-610.8494063764354
 20
-49.0505904065566
 11
-611.8565131565036
 21
-49.05054294776765
  0
LINE
  8
1
  6
CONTINUOUS
 62
     7
 10
-598.8339758465622
 20
-49.05115662038126
 11
-598.5642103236754
 21
-49.05116933278205
  0
LINE
  8
1
  6
CONTINUOUS
 62
     7
 10
-588.0029597923957
 20
-49.05166701998863
 11
-588.0030870002502
 21
-51.75110153031331
  0
LINE
  8
1
  6
CONTINUOUS
 62
     7
 10
-602.3034357278049
 20
-59.15099313715035
 11
-597.7034357329123
 21
-59.15120990704337
  0
LINE
  8
1
  6
CONTINUOUS
 62
     7
 10
-593.737401595582
 20
-51.75139679378271
 11
-594.1030870201251
 21
-51.75137956126305
  0
LINE
  8
1
  6
CONTINUOUS
 62
     7
 10
-594.0033261403169
 20
-56.82566998230361
 11
-594.0032943653513
 21
-56.15138426876657
  0
LINE
  8
1
  6
CONTINUOUS
 62
     7
 10
-615.5084723768915
 20
-28.67973488374541
 11
-615.4328841265334
 21
-28.71640609756069
  0
LINE
  8
1
  6
CONTINUOUS
 62
     7
 10
-614.8030870135742
 20
-53.70110153031334
 11
-614.8030870135742
 21
-48.90110153031334
  0
LINE
  8
1
  6
CONTINUOUS
 62
     7
 10
-585.7030870135742
 20
-54.20110153031334
 11
-590.7030870135742
 21
-54.20110153031334
  0
LINE
  8
1
  6
CONTINUOUS
 62
     7
 10
-594.2033320642411
 20
-56.95137484310035
 11
-596.9534135181971
 21
-58.67981667905558
  0
LINE
  8
1
  6
CONTINUOUS
 62
     7
 10
-606.0033261269929
 20
-56.82510449562617
 11
-602.3034357278049
 21
-59.15099313715035
  0
LINE
  8
1
  6
CONTINUOUS
 62
     7
 10
-597.0532984899629
 20
-56.23883938219959
 11
-597.0530870168496
 21
-51.75124054578817
  0
LINE
  8
1
  6
CONTINUOUS
 62
     7
 10
-602.9532943554137
 20
-56.15096250995298
 11
-602.9530870102986
 21
-51.75096251483844
  0
LINE
  8
1
  6
CONTINUOUS
 62
     7
 10
-602.6029597761849
 20
-49.05097901119776
 11
-602.6030870106873
 21
-51.75097900819986
  0
LINE
  8
1
  6
CONTINUOUS
 62
     7
 10
-598.5643375581778
 20
-51.75116932978415
 11
-598.8341030810647
 21
-51.75115661738337
  0
LINE
  8
1
  6
CONTINUOUS
 62
     7
 10
-606.8343306213851
 20
-49.05077961254418
 11
-610.4958529862347
 21
-49.05060706736761
  0
LINE
  8
1
  6
CONTINUOUS
 62
     7
 10
-606.8343306213851
 20
-49.05077961254418
 11
-606.268645197064
 21
-49.05080626984179
  0
LINE
  8
1
  6
CONTINUOUS
 62
     7
 10
-597.4029597819585
 20
-49.05122405542464
 11
-597.4030870164611
 21
-51.75122405242675
  0
LINE
  8
1
  6
CONTINUOUS
 62
     7
 10
-605.9029597725208
 20
-49.05082350236146
 11
-605.9030870070233
 21
-51.75082349936356
  0
LINE
  8
1
  6
CONTINUOUS
 62
     7
 10
-588.1494064016398
 20
-49.05166011885476
 11
-589.1565131817081
 21
-49.05161266006579
  0
LINE
  8
1
  6
CONTINUOUS
 62
     7
 10
-605.9030870070233
 20
-51.75082349936356
 11
-606.2687724315664
 21
-51.7508062668439
  0
LINE
  8
1
  6
CONTINUOUS
 62
     7
 10
-602.2372743516416
 20
-49.05099624371742
 11
-602.6029597761849
 21
-49.05097901119776
  0
LINE
  8
1
  6
CONTINUOUS
 62
     7
 10
-601.1719437115813
 20
-49.05104644624114
 11
-598.8339758465622
 21
-49.05115662038126
  0
LINE
  8
1
  6
CONTINUOUS
 62
     7
 10
-602.2374015861441
 20
-51.75099624071953
 11
-602.6030870106873
 21
-51.75097900819986
  0
LINE
  8
1
  6
CONTINUOUS
 62
     7
 10
-610.8495336109378
 20
-51.75059040355871
 11
-611.8566403910061
 21
-51.75054294476975
  0
LINE
  8
1
  6
CONTINUOUS
 62
     7
 10
-594.1030870201251
 20
-51.75137956126305
 11
-597.4030870164611
 21
-51.75122405242675
  0
LINE
  8
1
  6
CONTINUOUS
 62
     7
 10
-611.8566403910061
 20
-51.75054294476975
 11
-612.0030870002502
 21
-51.75053604363587
  0
LINE
  8
1
  6
CONTINUOUS
 62
     7
 10
-597.9213921440333
 20
-56.33175957904607
 11
-599.8033084960782
 21
-56.45111094987271
  0
LINE
  8
1
  6
CONTINUOUS
 62
     7
 10
-616.4709516231507
 20
-28.18490691761389
 11
-616.4940171349673
 21
-28.1725968574161
  0
LINE
  8
1
  6
CONTINUOUS
 62
     7
 10
-606.0032943520273
 20
-56.15081878208913
 11
-602.9532943554137
 21
-56.15096250995298
  0
LINE
  8
1
  6
CONTINUOUS
 62
     7
 10
-606.8344578558876
 20
-51.75077960954629
 11
-610.495980220737
 21
-51.75060706436972
  0
LINE
  8
1
  6
CONTINUOUS
 62
     7
 10
-605.9029597725208
 20
-49.05082350236146
 11
-606.268645197064
 21
-49.05080626984179
  0
LINE
  8
1
  6
CONTINUOUS
 62
     7
 10
-602.6030870106873
 20
-51.75097900819986
 11
-605.9030870070233
 21
-51.75082349936356
  0
LINE
  8
1
  6
CONTINUOUS
 62
     7
 10
-597.7034357329123
 20
-59.15120990704337
 11
-596.9534135181971
 21
-58.67981667905558
  0
LINE
  8
1
  6
CONTINUOUS
 62
     7
 10
-610.495980220737
 20
-51.75060706436972
 11
-610.8495336109378
 21
-51.75059040355871
  0
LINE
  8
1
  6
CONTINUOUS
 62
     7
 10
-594.1029597856227
 20
-49.05137956426093
 11
-597.4029597819585
 21
-49.05122405542464
  0
LINE
  8
1
  6
CONTINUOUS
 62
     7
 10
-612.0029597657478
 20
-49.05053604663377
 11
-611.8565131565036
 21
-49.05054294776765
  0
LINE
  8
1
  6
CONTINUOUS
 62
     7
 10
-594.2032943651292
 20
-56.15137484398862
 11
-594.2033320642411
 21
-56.95137484310035
  0
LINE
  8
1
  6
CONTINUOUS
 62
     7
 10
-594.2032943651292
 20
-56.15137484398862
 11
-597.0532943619647
 21
-56.15124054090273
  0
LINE
  8
1
  6
CONTINUOUS
 62
     7
 10
-594.2032943651292
 20
-56.15137484398861
 11
-594.0032943653513
 21
-56.15138426876657
  0
LINE
  8
1
  6
CONTINUOUS
 62
     7
 10
-594.0033261403169
 20
-56.82566998230361
 11
-594.2033320642411
 21
-56.95137484310035
  0
LINE
  8
1
  6
CONTINUOUS
 62
     7
 10
-606.2687724315664
 20
-51.7508062668439
 11
-606.8344578558876
 21
-51.75077960954629
  0
LINE
  8
1
  6
CONTINUOUS
 62
     7
 10
-601.1720709460837
 20
-51.75104644324325
 11
-598.8341030810647
 21
-51.75115661738337
  0
LINE
  8
1
  6
CONTINUOUS
 62
     7
 10
-583.5352224039975
 20
-28.18490691761388
 11
-584.4977016502553
 21
-28.67973488374501
  0
LINE
  8
1
  6
CONTINUOUS
 62
     7
 10
-596.9533084992427
 20
-56.4512452529586
 11
-599.8033084960782
 21
-56.45111094987271
  0
LINE
  8
1
  6
CONTINUOUS
 62
     7
 10
-585.2030870135742
 20
-48.90110153031334
 11
-585.2030870135742
 21
-53.70110153031334
  0
LINE
  8
1
  6
CONTINUOUS
 62
     7
 10
-590.7030870135742
 20
-51.75110153031331
 11
-587.9030870135741
 21
-51.75110153031331
  0
LINE
  8
1
  6
CONTINUOUS
 62
     7
 10
-612.1030870135742
 20
-51.75110153031331
 11
-609.3030870135741
 21
-51.75110153031331
  0
LINE
  8
1
  6
CONTINUOUS
 62
     7
 10
-612.1030870135742
 20
-48.90110153031334
 11
-612.1030870135742
 21
-51.75110153031331
  0
LINE
  8
1
  6
CONTINUOUS
 62
     7
 10
-609.3030870135741
 20
-54.20110153031334
 11
-614.3030870135741
 21
-54.20110153031334
  0
LINE
  8
1
  6
CONTINUOUS
 62
     7
 10
-615.5117383820163
 20
-48.9011015303133
 11
-616.5115860771728
 21
-48.9011015303133
  0
LINE
  8
1
  6
CONTINUOUS
 62
     7
 10
-583.4945879499757
 20
-48.9011015303133
 11
-584.4944356451321
 21
-48.9011015303133
  0
LINE
  8
1
  6
CONTINUOUS
 62
     7
 10
-591.7030870135742
 20
-51.75110153031331
 11
-590.7030870135742
 21
-51.75110153031331
  0
LINE
  8
1
  6
CONTINUOUS
 62
     7
 10
-590.7030870135742
 20
-54.20110153031334
 11
-591.2030870135742
 21
-54.20110153031334
  0
LINE
  8
1
  6
CONTINUOUS
 62
     7
 10
-587.9030870135741
 20
-51.75110153031331
 11
-587.9030870135741
 21
-48.90110153031334
  0
LINE
  8
1
  6
CONTINUOUS
 62
     7
 10
-609.3030870135741
 20
-51.75110153031331
 11
-608.3030870135741
 21
-51.75110153031331
  0
LINE
  8
1
  6
CONTINUOUS
 62
     7
 10
-608.3030870135741
 20
-51.75110153031331
 11
-608.3030870135741
 21
-53.70110153031334
  0
LINE
  8
1
  6
CONTINUOUS
 62
     7
 10
-591.7030870135742
 20
-53.70110153031334
 11
-591.7030870135742
 21
-51.75110153031331
  0
ENDSEC
  0
EOF
