  0
SECTION
  2
HEADER
  9
$ACADVER
  1
AC1004
  9
$INSBASE
 10
0.0
 20
0.0
  9
$EXTMIN
 10
55.65888022431593
 20
13.3238442813217
  9
$EXTMAX
 10
225.1761557186783
 20
184.8513166408114
  9
$LIMMIN
 10
0.0
 20
0.0
  9
$LIMMAX
 10
12.0
 20
9.0
  9
$ORTHOMODE
 70
     0
  9
$REGENMODE
 70
     1
  9
$FILLMODE
 70
     1
  9
$QTEXTMODE
 70
     0
  9
$DRAGMODE
 70
     2
  9
$LTSCALE
 40
1.0
  9
$OSMODE
 70
    37
  9
$ATTMODE
 70
     1
  9
$TEXTSIZE
 40
0.2
  9
$TRACEWID
 40
0.05
  9
$TEXTSTYLE
  7
STANDARD
  9
$CLAYER
  8
0
  9
$CELTYPE
  6
BYLAYER
  9
$CECOLOR
 62
   256
  9
$DIMSCALE
 40
1.0
  9
$DIMASZ
 40
3.0
  9
$DIMEXO
 40
0.0625
  9
$DIMDLI
 40
0.38
  9
$DIMRND
 40
0.0
  9
$DIMDLE
 40
0.0
  9
$DIMEXE
 40
1.5
  9
$DIMTP
 40
0.0
  9
$DIMTM
 40
0.0
  9
$DIMTXT
 40
3.0
  9
$DIMCEN
 40
0.09
  9
$DIMTSZ
 40
0.0
  9
$DIMTOL
 70
     0
  9
$DIMLIM
 70
     0
  9
$DIMTIH
 70
     1
  9
$DIMTOH
 70
     1
  9
$DIMSE1
 70
     0
  9
$DIMSE2
 70
     0
  9
$DIMTAD
 70
     1
  9
$DIMZIN
 70
     0
  9
$DIMBLK
  1

  9
$DIMASO
 70
     1
  9
$DIMSHO
 70
     1
  9
$DIMPOST
  1

  9
$DIMAPOST
  1

  9
$DIMALT
 70
     0
  9
$DIMALTD
 70
     2
  9
$DIMALTF
 40
25.4
  9
$DIMLFAC
 40
1.0
  9
$DIMTOFL
 70
     0
  9
$DIMTVP
 40
0.0
  9
$DIMTIX
 70
     0
  9
$DIMSOXD
 70
     0
  9
$DIMSAH
 70
     0
  9
$DIMBLK1
  1

  9
$DIMBLK2
  1

  9
$LUNITS
 70
     2
  9
$LUPREC
 70
     4
  9
$SKETCHINC
 40
0.1
  9
$FILLETRAD
 40
0.5
  9
$AUNITS
 70
     0
  9
$AUPREC
 70
     0
  9
$MENU
  1
.
  9
$ELEVATION
 40
0.0
  9
$THICKNESS
 40
0.0
  9
$LIMCHECK
 70
     0
  9
$CHAMFERA
 40
0.0
  9
$CHAMFERB
 40
0.0
  9
$SKPOLY
 70
     0
  9
$TDCREATE
 40
2459695.731399514
  9
$TDUPDATE
 40
2459695.731400174
  9
$TDINDWG
 40
0.0000000116
  9
$TDUSRTIMER
 40
0.0000000116
  9
$USRTIMER
 70
     1
  9
$ANGBASE
 50
0.0
  9
$ANGDIR
 70
     0
  9
$PDMODE
 70
     0
  9
$PDSIZE
 40
0.0
  9
$PLINEWID
 40
0.0
  9
$COORDS
 70
     1
  9
$SPLFRAME
 70
     0
  9
$SPLINETYPE
 70
     6
  9
$SPLINESEGS
 70
     8
  9
$ATTDIA
 70
     0
  9
$ATTREQ
 70
     1
  9
$SURFTAB1
 70
     6
  9
$SURFTAB2
 70
     6
  9
$SURFTYPE
 70
     6
  9
$SURFU
 70
     6
  9
$SURFV
 70
     6
  9
$UCSNAME
  2

  9
$UCSORG
 10
0.0
 20
0.0
 30
0.0
  9
$UCSXDIR
 10
1.0
 20
0.0
 30
0.0
  9
$UCSYDIR
 10
0.0
 20
1.0
 30
0.0
  9
$USERI1
 70
     0
  9
$USERI2
 70
     0
  9
$USERI3
 70
     0
  9
$USERI4
 70
     0
  9
$USERI5
 70
     0
  9
$USERR1
 40
0.0
  9
$USERR2
 40
0.0
  9
$USERR3
 40
0.0
  9
$USERR4
 40
0.0
  9
$USERR5
 40
0.0
  9
$WORLDVIEW
 70
     1
  0
ENDSEC
  0
SECTION
  2
TABLES
  0
TABLE
  2
LTYPE
 70
     2
  0
LTYPE
  2
CONTINUOUS
 70
     0
  3
Solid line
 72
    65
 73
     0
 40
0.0
  0
LTYPE
  2
CENTER
 70
     0
  3

 72
    65
 73
     0
 40
0.0
  0
ENDTAB
  0
TABLE
  2
LAYER
 70
     2
  0
LAYER
  2
0
 70
     0
 62
     7
  6
CONTINUOUS
  0
LAYER
  2
1
 70
     0
 62
     7
  6
CONTINUOUS
  0
ENDTAB
  0
TABLE
  2
STYLE
 70
     2
  0
STYLE
  2
STANDARD
 70
     0
 40
0.0
 41
1.0
 50
0.0
 71
     0
 42
0.2
  3
txt
  4

  0
STYLE
  2
ＭＳ_ゴシック
 70
     0
 40
0.0
 41
1.0
 50
0.0
 71
     0
 42
0.2
  3
ＭＳ ゴシック.shx
  4

  0
ENDTAB
  0
TABLE
  2
VIEW
 70
     0
  0
ENDTAB
  0
ENDSEC
  0
SECTION
  2
BLOCKS
  0
ENDSEC
  0
SECTION
  2
ENTITIES
  0
LINE
  8
1
  6
CENTER
 62
     1
 10
170.7761557186784
 20
127.5150937742901
 11
225.1761557186783
 21
127.5150937742901
  0
LINE
  8
1
  6
CONTINUOUS
 62
     7
 10
96.66554213652728
 20
23.9238442813217
 11
96.66554213652728
 21
26.62384428132169
  0
LINE
  8
1
  6
CONTINUOUS
 62
     7
 10
88.7312275614765
 20
26.62384428132169
 11
88.7312275614765
 21
23.9238442813217
  0
ARC
  8
1
  6
CONTINUOUS
 62
     7
 10
196.9761557186784
 20
75.03652672068239
 40
0.8000000000000086
 50
222.4852072623038
 51
0.0
  0
LINE
  8
1
  6
CONTINUOUS
 62
     7
 10
93.32828383632425
 20
23.9238442813217
 11
92.76259841137502
 21
23.9238442813217
  0
LINE
  8
1
  6
CONTINUOUS
 62
     7
 10
105.8433595958325
 20
23.9238442813217
 11
105.4898062052392
 21
23.9238442813217
  0
LINE
  8
1
  6
CONTINUOUS
 62
     7
 10
96.66554213652728
 20
23.9238442813217
 11
96.43566244341956
 21
23.9238442813217
  0
LINE
  8
1
  6
CONTINUOUS
 62
     7
 10
93.55816352943191
 20
23.9238442813217
 11
93.55816352943191
 21
26.62384428132169
  0
LINE
  8
1
  6
CONTINUOUS
 62
     7
 10
96.16589692023325
 20
23.9238442813217
 11
96.16589692023325
 21
26.62384428132169
  0
LINE
  8
1
  6
CONTINUOUS
 62
     7
 10
96.43566244341956
 20
23.9238442813217
 11
96.16589692023325
 21
23.9238442813217
  0
LINE
  8
1
  6
CONTINUOUS
 62
     7
 10
100.8969129864257
 20
26.62384428132169
 11
100.8969129864257
 21
23.9238442813217
  0
LINE
  8
1
  6
CONTINUOUS
 62
     7
 10
92.39691298642578
 20
26.62384428132169
 11
92.39691298642578
 21
23.9238442813217
  0
ARC
  8
1
  6
CONTINUOUS
 62
     7
 10
185.7761557186784
 20
84.53239651117441
 40
0.9999999999999974
 50
90.99999999999946
 51
180.0
  0
LINE
  8
1
  6
CONTINUOUS
 62
     7
 10
216.1761557186784
 20
142.7650937742901
 11
216.1761557186784
 21
141.7650937742901
  0
LINE
  8
1
  6
CONTINUOUS
 62
     7
 10
93.82792905261827
 20
23.9238442813217
 11
93.55816352943191
 21
23.9238442813217
  0
LINE
  8
1
  6
CONTINUOUS
 62
     7
 10
197.7761557186784
 20
75.03652672068239
 11
197.7761557186784
 21
111.0450837921726
  0
LINE
  8
1
  6
CONTINUOUS
 62
     7
 10
97.2312275614765
 20
26.62384428132169
 11
97.2312275614765
 21
23.9238442813217
  0
LINE
  8
1
  6
CONTINUOUS
 62
     7
 10
105.4898062052392
 20
23.9238442813217
 11
105.4898062052392
 21
26.62384428132169
  0
LINE
  8
1
  6
CONTINUOUS
 62
     7
 10
84.50401976761229
 20
23.9238442813217
 11
84.150466377019
 21
23.9238442813217
  0
LINE
  8
1
  6
CONTINUOUS
 62
     7
 10
92.76259841137502
 20
23.9238442813217
 11
92.76259841137502
 21
26.62384428132169
  0
LINE
  8
1
  6
CONTINUOUS
 62
     7
 10
105.8433595958325
 20
26.62384428132169
 11
105.8433595958325
 21
23.9238442813217
  0
LINE
  8
1
  6
CONTINUOUS
 62
     7
 10
88.7312275614765
 20
23.9238442813217
 11
88.16554213652728
 21
23.9238442813217
  0
LINE
  8
1
  6
CONTINUOUS
 62
     7
 10
84.50401976761229
 20
26.62384428132169
 11
84.50401976761229
 21
23.9238442813217
  0
LINE
  8
1
  6
CONTINUOUS
 62
     7
 10
93.82792905261827
 20
26.62384428132169
 11
93.82792905261827
 21
23.9238442813217
  0
LINE
  8
1
  6
CONTINUOUS
 62
     7
 10
88.16554213652728
 20
23.9238442813217
 11
84.50401976761229
 21
23.9238442813217
  0
LINE
  8
1
  6
CONTINUOUS
 62
     7
 10
216.1761557186784
 20
123.2650937742901
 11
216.1761557186784
 21
122.2650937742901
  0
LINE
  8
1
  6
CONTINUOUS
 62
     7
 10
184.7761557186784
 20
84.53239651117441
 11
184.7761557186784
 21
83.49779103740579
  0
LINE
  8
1
  6
CONTINUOUS
 62
     7
 10
93.55816352943191
 20
23.9238442813217
 11
93.32828383632425
 21
23.9238442813217
  0
LINE
  8
1
  6
CONTINUOUS
 62
     7
 10
101.8282838363242
 20
23.9238442813217
 11
101.262598411375
 21
23.9238442813217
  0
LINE
  8
1
  6
CONTINUOUS
 62
     7
 10
93.32828383632425
 20
26.62384428132169
 11
93.32828383632425
 21
23.9238442813217
  0
ARC
  8
1
  6
CONTINUOUS
 62
     7
 10
214.2261557186784
 20
123.2650937742901
 40
0.5000000000000004
 50
180.0
 51
270.0
  0
LINE
  8
1
  6
CONTINUOUS
 62
     7
 10
106.850466377019
 20
23.9238442813217
 11
106.850466377019
 21
26.62384428132169
  0
LINE
  8
1
  6
CONTINUOUS
 62
     7
 10
83.14335959583246
 20
26.62384428132169
 11
83.14335959583246
 21
23.9238442813217
  0
LINE
  8
1
  6
CONTINUOUS
 62
     7
 10
84.150466377019
 20
23.9238442813217
 11
83.14335959583246
 21
23.9238442813217
  0
LINE
  8
1
  6
CONTINUOUS
 62
     7
 10
93.82792905261827
 20
23.9238442813217
 11
96.16589692023325
 21
23.9238442813217
  0
ARC
  8
1
  6
CONTINUOUS
 62
     7
 10
198.2761557186784
 20
111.0450837921726
 40
0.5000000000000059
 50
91.00000000000104
 51
180.0
  0
LINE
  8
1
  6
CONTINUOUS
 62
     7
 10
101.262598411375
 20
23.9238442813217
 11
100.8969129864257
 21
23.9238442813217
  0
LINE
  8
1
  6
CONTINUOUS
 62
     7
 10
92.76259841137502
 20
23.9238442813217
 11
92.39691298642578
 21
23.9238442813217
  0
LINE
  8
1
  6
CONTINUOUS
 62
     7
 10
97.5969129864258
 20
26.62384428132169
 11
97.5969129864258
 21
23.9238442813217
  0
LINE
  8
1
  6
CONTINUOUS
 62
     7
 10
197.7761557186784
 20
153.9851037564076
 11
197.7761557186784
 21
179.9900716564211
  0
LINE
  8
1
  6
CONTINUOUS
 62
     7
 10
96.43566244341956
 20
26.62384428132169
 11
96.43566244341956
 21
23.9238442813217
  0
LINE
  8
1
  6
CONTINUOUS
 62
     7
 10
214.2261557186784
 20
122.7650937742901
 11
215.6761557186784
 21
122.7650937742901
  0
LINE
  8
1
  6
CONTINUOUS
 62
     7
 10
216.1761557186784
 20
122.2650937742901
 11
216.1761557186784
 21
118.0150937742902
  0
LINE
  8
1
  6
CONTINUOUS
 62
     7
 10
216.1761557186784
 20
141.7650937742901
 11
216.1761557186784
 21
123.2650937742901
  0
ARC
  8
1
  6
CONTINUOUS
 62
     7
 10
185.7761557186784
 20
83.49779103740579
 40
1.000000000000001
 50
180.0
 51
269.0000000000006
  0
LINE
  8
1
  6
CONTINUOUS
 62
     7
 10
97.2312275614765
 20
23.9238442813217
 11
96.66554213652728
 21
23.9238442813217
  0
LINE
  8
1
  6
CONTINUOUS
 62
     7
 10
101.8282838363242
 20
26.62384428132169
 11
101.8282838363242
 21
23.9238442813217
  0
ARC
  8
1
  6
CONTINUOUS
 62
     7
 10
196.9761557186784
 20
179.9936608278978
 40
0.7999999999999952
 50
0.0
 51
137.514792737697
  0
ARC
  8
1
  6
CONTINUOUS
 62
     7
 10
198.2761557186784
 20
153.9851037564076
 40
0.5000000000000004
 50
180.0
 51
268.999999999999
  0
LINE
  8
1
  6
CONTINUOUS
 62
     7
 10
101.262598411375
 20
23.9238442813217
 11
101.262598411375
 21
26.62384428132169
  0
LINE
  8
1
  6
CONTINUOUS
 62
     7
 10
88.16554213652728
 20
23.9238442813217
 11
88.16554213652728
 21
26.62384428132169
  0
LINE
  8
1
  6
CONTINUOUS
 62
     7
 10
105.4898062052392
 20
23.9238442813217
 11
101.8282838363242
 21
23.9238442813217
  0
LINE
  8
1
  6
CONTINUOUS
 62
     7
 10
84.150466377019
 20
23.9238442813217
 11
84.150466377019
 21
26.62384428132169
  0
LINE
  8
1
  6
CONTINUOUS
 62
     7
 10
106.850466377019
 20
23.9238442813217
 11
105.8433595958325
 21
23.9238442813217
  0
ARC
  8
1
  6
CONTINUOUS
 62
     7
 10
215.6761557186784
 20
118.0150937742902
 40
0.5000000000000004
 50
270.0
 51
0.0
  0
ARC
  8
1
  6
CONTINUOUS
 62
     7
 10
214.2261557186784
 20
141.7650937742901
 40
0.5000000000000004
 50
90.0
 51
180.0
  0
ARC
  8
1
  6
CONTINUOUS
 62
     7
 10
215.6761557186784
 20
146.3150937742901
 40
0.5000000000000004
 50
0.0
 51
90.0
  0
LINE
  8
1
  6
CONTINUOUS
 62
     7
 10
216.1761557186784
 20
146.3150937742901
 11
216.1761557186784
 21
142.7650937742901
  0
LINE
  8
1
  6
CONTINUOUS
 62
     7
 10
210.384881921897
 20
111.7565185582697
 11
194.9331452500446
 21
111.4868074914089
  0
LINE
  8
1
  6
CONTINUOUS
 62
     7
 10
210.8761557186784
 20
120.2565947106916
 11
210.8761557186784
 21
112.2564424058479
  0
LINE
  8
1
  6
CONTINUOUS
 62
     7
 10
215.6761557186784
 20
142.2650937742901
 11
214.2261557186784
 21
142.2650937742901
  0
ARC
  8
1
  6
CONTINUOUS
 62
     7
 10
215.6761557186784
 20
142.7650937742901
 40
0.5000000000000004
 50
270.0
 51
0.0
  0
ARC
  8
1
  6
CONTINUOUS
 62
     7
 10
210.3761557186784
 20
152.7737451427323
 40
0.5000000000000004
 50
0.0
 51
88.99999999999895
  0
ARC
  8
1
  6
CONTINUOUS
 62
     7
 10
210.3761557186784
 20
112.2564424058479
 40
0.5000000000000059
 50
271.0000000000011
 51
0.0
  0
LINE
  8
1
  6
CONTINUOUS
 62
     7
 10
194.9331452500438
 20
153.5433800571714
 11
210.384881921897
 21
153.2736689903105
  0
ARC
  8
1
  6
CONTINUOUS
 62
     7
 10
215.6761557186784
 20
122.2650937742901
 40
0.5000000000000004
 50
0.0
 51
90.0
  0
LINE
  8
1
  6
CONTINUOUS
 62
     7
 10
213.7261557186784
 20
141.7650937742901
 11
213.7261557186784
 21
123.2650937742901
  0
LINE
  8
1
  6
CONTINUOUS
 62
     7
 10
210.8761557186784
 20
152.7737451427323
 11
210.8761557186784
 21
144.7735928378887
  0
LINE
  8
1
  6
CONTINUOUS
 62
     7
 10
215.6761557186784
 20
117.5150937742902
 11
210.8761557186784
 21
117.5150937742902
  0
LINE
  8
1
  6
CONTINUOUS
 62
     7
 10
210.8761557186784
 20
146.8150937742901
 11
215.6761557186784
 21
146.8150937742901
  0
LINE
  8
1
  6
CONTINUOUS
 62
     7
 10
80.19691298642579
 20
122.7650937742901
 11
80.19691298642579
 21
142.2650937742901
  0
ARC
  8
1
  6
CONTINUOUS
 62
     7
 10
144.379976757805
 20
132.5686619314237
 40
83.57560660877381
 50
160.4626846681431
 51
179.6063853326962
  0
ARC
  8
1
  6
CONTINUOUS
 62
     7
 10
10.74667324406869
 20
127.5926931498863
 40
118.6506027476792
 50
354.6608392160842
 51
13.59178149394552
  0
LINE
  8
1
  6
CONTINUOUS
 62
     7
 10
220.1761557186784
 20
136.26509377429
 11
219.7761557186784
 21
136.2650937742901
  0
LINE
  8
1
  6
CONTINUOUS
 62
     7
 10
222.1761557186784
 20
128.76509377429
 11
218.4761557186783
 21
128.7650937742906
  0
LINE
  8
1
  6
CONTINUOUS
 62
     7
 10
217.9761557186783
 20
132.5150937742906
 11
217.9761557186784
 21
135.2650937742901
  0
LINE
  8
1
  6
CONTINUOUS
 62
     7
 10
217.9761557186783
 20
132.5150937742906
 11
220.1761557186784
 21
132.51509377429
  0
LINE
  8
1
  6
CONTINUOUS
 62
     7
 10
109.7969129864257
 20
142.2650937742901
 11
109.7969129864257
 21
122.7650937742901
  0
LINE
  8
1
  6
CONTINUOUS
 62
     7
 10
108.4969129864258
 20
122.7650937742901
 11
108.0969129864258
 21
122.7650937742901
  0
ARC
  8
1
  6
CONTINUOUS
 62
     7
 10
56.44004796291019
 20
119.9860380422636
 40
72.52378404910601
 50
338.4208564613422
 51
357.2860963588029
  0
LINE
  8
1
  6
CONTINUOUS
 62
     7
 10
108.0969129864258
 20
142.2650937742901
 11
108.4969129864258
 21
142.2650937742901
  0
ARC
  8
1
  6
CONTINUOUS
 62
     7
 10
94.86798414561332
 20
148.0248347272467
 40
32.82673510216303
 50
51.05970686986736
 51
113.0367220027664
  0
ARC
  8
1
  6
CONTINUOUS
 62
     7
 10
94.08209528852679
 20
150.6112545232881
 40
30.14042113050473
 50
113.5859236530763
 51
160.8107855560785
  0
ARC
  8
1
  6
CONTINUOUS
 62
     7
 10
181.9246830094121
 20
127.1533776924632
 40
121.2663422538904
 50
177.1689676763288
 51
192.2038979480531
  0
ARC
  8
1
  6
CONTINUOUS
 62
     7
 10
94.59222718235438
 20
105.6583955085771
 40
31.44213237975408
 50
229.8864717382748
 51
273.0420112257664
  0
LINE
  8
1
  6
CONTINUOUS
 62
     7
 10
81.49691298642576
 20
122.7650937742901
 11
81.89691298642575
 21
122.7650937742901
  0
LINE
  8
1
  6
CONTINUOUS
 62
     7
 10
217.9761557186784
 20
135.2650937742901
 11
217.9761557186784
 21
136.2650937742901
  0
LINE
  8
1
  6
CONTINUOUS
 62
     7
 10
220.1761557186784
 20
136.26509377429
 11
222.1761557186784
 21
136.26509377429
  0
ARC
  8
1
  6
CONTINUOUS
 62
     7
 10
91.49366480922578
 20
147.3852380602951
 40
35.51462203519167
 50
13.16830432802191
 51
47.47170840776504
  0
LINE
  8
1
  6
CONTINUOUS
 62
     7
 10
217.9761557186784
 20
136.26509377429
 11
216.1761557186784
 21
136.26509377429
  0
LINE
  8
1
  6
CONTINUOUS
 62
     7
 10
219.7761557186784
 20
136.2650937742901
 11
217.9761557186784
 21
136.2650937742901
  0
LINE
  8
1
  6
CONTINUOUS
 62
     7
 10
81.89691298642576
 20
142.2650937742901
 11
81.49691298642577
 21
142.2650937742901
  0
LINE
  8
1
  6
CONTINUOUS
 62
     7
 10
220.1761557186784
 20
132.51509377429
 11
220.1761557186784
 21
136.26509377429
  0
ARC
  8
1
  6
CONTINUOUS
 62
     7
 10
96.0005659470059
 20
104.1840988391456
 40
29.92466193446063
 50
270.4982749771278
 51
338.6976807976238
  0
ARC
  8
1
  6
CONTINUOUS
 62
     7
 10
100.2703875423002
 20
108.816781368189
 40
37.5869296491727
 50
191.1959278937004
 51
226.3667794906315
  0
LINE
  8
1
  6
CONTINUOUS
 62
     7
 10
222.1761557186784
 20
128.773436387516
 11
222.1761557186784
 21
128.76509377429
  0
ARC
  8
1
  6
CONTINUOUS
 62
     7
 10
237.9618461154305
 20
133.2715191605242
 40
19.99999999999422
 50
182.1675160702986
 51
193.021770666884
  0
LINE
  8
1
  6
CONTINUOUS
 62
     7
 10
222.1761557186784
 20
136.26509377429
 11
222.1761557186784
 21
128.773436387516
  0
LINE
  8
1
  6
CONTINUOUS
 62
     7
 10
218.4761557186783
 20
128.7650937742906
 11
216.1761557186784
 21
128.7650937742903
  0
ARC
  8
1
  6
CONTINUOUS
 62
     7
 10
254.2761557186784
 20
127.5150937742901
 40
78.50000000000003
 50
137.5148320725234
 51
222.4852072623038
  0
LINE
  8
1
  6
CONTINUOUS
 62
     7
 10
210.8761557186784
 20
143.7737451427323
 11
210.8761557186784
 21
121.2564424058479
  0
LINE
  8
1
  6
CONTINUOUS
 62
     7
 10
190.0154308871495
 20
82.42364188604765
 11
185.7587033122411
 21
82.49794334224941
  0
LINE
  8
1
  6
CONTINUOUS
 62
     7
 10
193.7075885684011
 20
120.9653391675358
 11
193.7075819726597
 21
120.9497387409341
  0
LINE
  8
1
  6
CONTINUOUS
 62
     7
 10
193.7075819726597
 20
120.9497387409341
 11
193.7081055165175
 21
120.9341627142652
  0
LINE
  8
1
  6
CONTINUOUS
 62
     7
 10
193.7081055165175
 20
120.9341627142652
 11
193.7091694272293
 21
120.9185091420407
  0
LINE
  8
1
  6
CONTINUOUS
 62
     7
 10
193.7091694272293
 20
120.9185091420407
 11
193.7107650948479
 21
120.9029482850394
  0
LINE
  8
1
  6
CONTINUOUS
 62
     7
 10
193.7107650948479
 20
120.9029482850394
 11
193.7129491726657
 21
120.8870990178743
  0
LINE
  8
1
  6
CONTINUOUS
 62
     7
 10
193.7129491726657
 20
120.8870990178743
 11
193.7156728668173
 21
120.8714149257551
  0
LINE
  8
1
  6
CONTINUOUS
 62
     7
 10
193.7156728668173
 20
120.8714149257551
 11
193.7189524112926
 21
120.8557940702028
  0
LINE
  8
1
  6
CONTINUOUS
 62
     7
 10
193.7189524112926
 20
120.8557940702028
 11
193.722748065666
 21
120.8404013136283
  0
LINE
  8
1
  6
CONTINUOUS
 62
     7
 10
193.722748065666
 20
120.8404013136283
 11
193.7261928074994
 21
120.828101588591
  0
LINE
  8
1
  6
CONTINUOUS
 62
     7
 10
193.7261928074994
 20
120.828101588591
 11
193.7299581483335
 21
120.8159661035971
  0
LINE
  8
1
  6
CONTINUOUS
 62
     7
 10
193.7299581483335
 20
120.8159661035971
 11
193.7361946501714
 21
120.7980680839521
  0
LINE
  8
1
  6
CONTINUOUS
 62
     7
 10
193.7361946501714
 20
120.7980680839521
 11
193.7430797270733
 21
120.7806316547298
  0
LINE
  8
1
  6
CONTINUOUS
 62
     7
 10
193.7430797270733
 20
120.7806316547298
 11
193.7506479290035
 21
120.7635204618869
  0
LINE
  8
1
  6
CONTINUOUS
 62
     7
 10
193.7506479290035
 20
120.7635204618869
 11
193.7587926680099
 21
120.7469236913545
  0
LINE
  8
1
  6
CONTINUOUS
 62
     7
 10
193.7587926680099
 20
120.7469236913545
 11
193.7677120909753
 21
120.7304330471246
  0
LINE
  8
1
  6
CONTINUOUS
 62
     7
 10
193.7677120909753
 20
120.7304330471246
 11
193.7771527219825
 21
120.7145080988082
  0
LINE
  8
1
  6
CONTINUOUS
 62
     7
 10
193.7771527219825
 20
120.7145080988082
 11
193.7871490267011
 21
120.6990426477552
  0
LINE
  8
1
  6
CONTINUOUS
 62
     7
 10
193.7871490267011
 20
120.6990426477552
 11
193.797593522167
 21
120.6841574488975
  0
LINE
  8
1
  6
CONTINUOUS
 62
     7
 10
193.797593522167
 20
120.6841574488975
 11
193.8135641739002
 21
120.6634734801113
  0
LINE
  8
1
  6
CONTINUOUS
 62
     7
 10
193.8135641739002
 20
120.6634734801113
 11
193.8303200510372
 21
120.643992903884
  0
LINE
  8
1
  6
CONTINUOUS
 62
     7
 10
193.8303200510372
 20
120.643992903884
 11
193.8477458083392
 21
120.6257211694784
  0
LINE
  8
1
  6
CONTINUOUS
 62
     7
 10
193.8477458083392
 20
120.6257211694784
 11
193.866174991913
 21
120.6082558862819
  0
LINE
  8
1
  6
CONTINUOUS
 62
     7
 10
193.866174991913
 20
120.6082558862819
 11
193.8851620188009
 21
120.5919771995831
  0
LINE
  8
1
  6
CONTINUOUS
 62
     7
 10
193.8851620188009
 20
120.5919771995831
 11
193.9046196120274
 21
120.5768714330232
  0
LINE
  8
1
  6
CONTINUOUS
 62
     7
 10
193.9046196120274
 20
120.5768714330232
 11
193.9278180311671
 21
120.5606988842595
  0
LINE
  8
1
  6
CONTINUOUS
 62
     7
 10
193.9278180311671
 20
120.5606988842595
 11
193.9515151691042
 21
120.5460166612594
  0
LINE
  8
1
  6
CONTINUOUS
 62
     7
 10
193.9515151691042
 20
120.5460166612594
 11
193.9756143877447
 21
120.5327980697325
  0
LINE
  8
1
  6
CONTINUOUS
 62
     7
 10
193.9756143877447
 20
120.5327980697325
 11
194.0004769304209
 21
120.5208106376681
  0
LINE
  8
1
  6
CONTINUOUS
 62
     7
 10
194.0004769304209
 20
120.5208106376681
 11
194.0256517341859
 21
120.5102512617913
  0
LINE
  8
1
  6
CONTINUOUS
 62
     7
 10
194.0256517341859
 20
120.5102512617913
 11
194.0510653815654
 21
120.5010979569549
  0
LINE
  8
1
  6
CONTINUOUS
 62
     7
 10
194.0510653815654
 20
120.5010979569549
 11
194.0795305849977
 21
120.4925407915957
  0
LINE
  8
1
  6
CONTINUOUS
 62
     7
 10
194.0795305849977
 20
120.4925407915957
 11
194.1081968584734
 21
120.4856497796382
  0
LINE
  8
1
  6
CONTINUOUS
 62
     7
 10
194.1081968584734
 20
120.4856497796382
 11
194.136985472194
 21
120.4804080912615
  0
LINE
  8
1
  6
CONTINUOUS
 62
     7
 10
194.136985472194
 20
120.4804080912615
 11
194.1662958481041
 21
120.476753321775
  0
LINE
  8
1
  6
CONTINUOUS
 62
     7
 10
194.1662958481041
 20
120.476753321775
 11
194.1956540412104
 21
120.4747670837673
  0
LINE
  8
1
  6
CONTINUOUS
 62
     7
 10
194.1956540412104
 20
120.4747670837673
 11
194.2249878597285
 21
120.4744465581815
  0
ARC
  8
1
  6
CONTINUOUS
 62
     7
 10
210.3761557186784
 20
121.2564424058479
 40
0.5000000000000199
 50
271.0000000000011
 51
0.0
  0
LINE
  8
1
  6
CONTINUOUS
 62
     7
 10
194.2249878597285
 20
144.5557409903987
 11
210.384881921897
 21
144.2736689903105
  0
LINE
  8
1
  6
CONTINUOUS
 62
     7
 10
194.2249878597285
 20
144.5557409903987
 11
194.2016631543727
 21
144.5556214891059
  0
LINE
  8
1
  6
CONTINUOUS
 62
     7
 10
194.2016631543727
 20
144.5556214891059
 11
194.1783242691502
 21
144.5544495639674
  0
LINE
  8
1
  6
CONTINUOUS
 62
     7
 10
194.1783242691502
 20
144.5544495639674
 11
194.146897556507
 21
144.5512038636741
  0
LINE
  8
1
  6
CONTINUOUS
 62
     7
 10
194.146897556507
 20
144.5512038636741
 11
194.115535165501
 21
144.5460316529117
  0
LINE
  8
1
  6
CONTINUOUS
 62
     7
 10
194.115535165501
 20
144.5460316529117
 11
194.0843312914566
 21
144.5389192218309
  0
LINE
  8
1
  6
CONTINUOUS
 62
     7
 10
194.0843312914566
 20
144.5389192218309
 11
194.0607998662119
 21
144.5322129805453
  0
LINE
  8
1
  6
CONTINUOUS
 62
     7
 10
194.0607998662119
 20
144.5322129805453
 11
194.0374227659697
 21
144.5243583802168
  0
LINE
  8
1
  6
CONTINUOUS
 62
     7
 10
194.0374227659697
 20
144.5243583802168
 11
194.0156729505606
 21
144.5159332673353
  0
LINE
  8
1
  6
CONTINUOUS
 62
     7
 10
194.0156729505606
 20
144.5159332673353
 11
193.9940556401108
 21
144.5064336772924
  0
LINE
  8
1
  6
CONTINUOUS
 62
     7
 10
193.9940556401108
 20
144.5064336772924
 11
193.9726731994589
 21
144.4958632949167
  0
LINE
  8
1
  6
CONTINUOUS
 62
     7
 10
193.9726731994589
 20
144.4958632949167
 11
193.95132584853
 21
144.4840600923351
  0
LINE
  8
1
  6
CONTINUOUS
 62
     7
 10
193.95132584853
 20
144.4840600923351
 11
193.930303552925
 21
144.4711117261242
  0
LINE
  8
1
  6
CONTINUOUS
 62
     7
 10
193.930303552925
 20
144.4711117261242
 11
193.90940198397
 21
144.4568062137497
  0
LINE
  8
1
  6
CONTINUOUS
 62
     7
 10
193.90940198397
 20
144.4568062137497
 11
193.8889445104418
 21
144.4412654994064
  0
LINE
  8
1
  6
CONTINUOUS
 62
     7
 10
193.8889445104418
 20
144.4412654994064
 11
193.8689046364616
 21
144.4243731483837
  0
LINE
  8
1
  6
CONTINUOUS
 62
     7
 10
193.8689046364616
 20
144.4243731483837
 11
193.8571494153374
 21
144.4135982613478
  0
LINE
  8
1
  6
CONTINUOUS
 62
     7
 10
193.8571494153374
 20
144.4135982613478
 11
193.8456266451246
 21
144.4023413091817
  0
LINE
  8
1
  6
CONTINUOUS
 62
     7
 10
193.8456266451246
 20
144.4023413091817
 11
193.8305081082038
 21
144.3864022964657
  0
LINE
  8
1
  6
CONTINUOUS
 62
     7
 10
193.8305081082038
 20
144.3864022964657
 11
193.8158958069332
 21
144.3695510406482
  0
LINE
  8
1
  6
CONTINUOUS
 62
     7
 10
193.8158958069332
 20
144.3695510406482
 11
193.8018648419996
 21
144.3517904912945
  0
LINE
  8
1
  6
CONTINUOUS
 62
     7
 10
193.8018648419996
 20
144.3517904912945
 11
193.7916369069025
 21
144.3376874826953
  0
LINE
  8
1
  6
CONTINUOUS
 62
     7
 10
193.7916369069025
 20
144.3376874826953
 11
193.7818095425293
 21
144.3230466634807
  0
LINE
  8
1
  6
CONTINUOUS
 62
     7
 10
193.7818095425293
 20
144.3230466634807
 11
193.7745922233829
 21
144.3114978450079
  0
LINE
  8
1
  6
CONTINUOUS
 62
     7
 10
193.7745922233829
 20
144.3114978450079
 11
193.7676269049931
 21
144.299604326592
  0
LINE
  8
1
  6
CONTINUOUS
 62
     7
 10
193.7676269049931
 20
144.299604326592
 11
193.7609496377243
 21
144.2873981586301
  0
LINE
  8
1
  6
CONTINUOUS
 62
     7
 10
193.7609496377243
 20
144.2873981586301
 11
193.7545609376601
 21
144.2748477810914
  0
LINE
  8
1
  6
CONTINUOUS
 62
     7
 10
193.7545609376601
 20
144.2748477810914
 11
193.7485813586595
 21
144.2621756025549
  0
LINE
  8
1
  6
CONTINUOUS
 62
     7
 10
193.7485813586595
 20
144.2621756025549
 11
193.7429182419513
 21
144.249169290312
  0
LINE
  8
1
  6
CONTINUOUS
 62
     7
 10
193.7429182419513
 20
144.249169290312
 11
193.7376102549886
 21
144.2358791244189
  0
LINE
  8
1
  6
CONTINUOUS
 62
     7
 10
193.7376102549886
 20
144.2358791244189
 11
193.7326193155016
 21
144.2221508809231
  0
LINE
  8
1
  6
CONTINUOUS
 62
     7
 10
193.7326193155016
 20
144.2221508809231
 11
193.7280301992287
 21
144.2081561229919
  0
LINE
  8
1
  6
CONTINUOUS
 62
     7
 10
193.7280301992287
 20
144.2081561229919
 11
193.7238114301635
 21
144.1937261401914
  0
LINE
  8
1
  6
CONTINUOUS
 62
     7
 10
193.7238114301635
 20
144.1937261401914
 11
193.7200427358203
 21
144.1790579987538
  0
LINE
  8
1
  6
CONTINUOUS
 62
     7
 10
193.7200427358203
 20
144.1790579987538
 11
193.7167282103643
 21
144.1641049752363
  0
LINE
  8
1
  6
CONTINUOUS
 62
     7
 10
193.7167282103643
 20
144.1641049752363
 11
193.7143491446415
 21
144.1515545986489
  0
LINE
  8
1
  6
CONTINUOUS
 62
     7
 10
193.7143491446415
 20
144.1515545986489
 11
193.7123080711307
 21
144.1388409794864
  0
LINE
  8
1
  6
CONTINUOUS
 62
     7
 10
193.7123080711307
 20
144.1388409794864
 11
193.7106211484436
 21
144.1260252878806
  0
LINE
  8
1
  6
CONTINUOUS
 62
     7
 10
193.7106211484436
 20
144.1260252878806
 11
193.7092906963203
 21
144.1130781544888
  0
LINE
  8
1
  6
CONTINUOUS
 62
     7
 10
193.7092906963203
 20
144.1130781544888
 11
193.7081600285001
 21
144.0970564673054
  0
LINE
  8
1
  6
CONTINUOUS
 62
     7
 10
193.7081600285001
 20
144.0970564673054
 11
193.7075915631781
 21
144.0809613726993
  0
LINE
  8
1
  6
CONTINUOUS
 62
     7
 10
193.7075915631781
 20
144.0809613726993
 11
193.7075885684012
 21
144.0648483810444
  0
LINE
  8
1
  6
CONTINUOUS
 62
     7
 10
194.4699907319255
 20
111.9786469468015
 11
194.4699643901469
 21
111.9625124375566
  0
LINE
  8
1
  6
CONTINUOUS
 62
     7
 10
194.4699643901469
 20
111.9625124375566
 11
194.4704474882317
 21
111.9464023580298
  0
LINE
  8
1
  6
CONTINUOUS
 62
     7
 10
194.4704474882317
 20
111.9464023580298
 11
194.471449469602
 21
111.9302156847014
  0
LINE
  8
1
  6
CONTINUOUS
 62
     7
 10
194.471449469602
 20
111.9302156847014
 11
194.4729629666168
 21
111.9141212152493
  0
LINE
  8
1
  6
CONTINUOUS
 62
     7
 10
194.4729629666168
 20
111.9141212152493
 11
194.4750402794123
 21
111.8977404172766
  0
LINE
  8
1
  6
CONTINUOUS
 62
     7
 10
194.4750402794123
 20
111.8977404172766
 11
194.4776375996531
 21
111.8815240398002
  0
LINE
  8
1
  6
CONTINUOUS
 62
     7
 10
194.4776375996531
 20
111.8815240398002
 11
194.4807707169649
 21
111.8653704166749
  0
LINE
  8
1
  6
CONTINUOUS
 62
     7
 10
194.4807707169649
 20
111.8653704166749
 11
194.4844037721954
 21
111.8494451141963
  0
LINE
  8
1
  6
CONTINUOUS
 62
     7
 10
194.4844037721954
 20
111.8494451141963
 11
194.4873437368335
 21
111.8380469255762
  0
LINE
  8
1
  6
CONTINUOUS
 62
     7
 10
194.4873437368335
 20
111.8380469255762
 11
194.4905341648675
 21
111.8267813759623
  0
LINE
  8
1
  6
CONTINUOUS
 62
     7
 10
194.4905341648675
 20
111.8267813759623
 11
194.4962819028632
 21
111.808643236117
  0
LINE
  8
1
  6
CONTINUOUS
 62
     7
 10
194.4962819028632
 20
111.808643236117
 11
194.5026407737992
 21
111.7909466537829
  0
LINE
  8
1
  6
CONTINUOUS
 62
     7
 10
194.5026407737992
 20
111.7909466537829
 11
194.5096439007988
 21
111.7735603337148
  0
LINE
  8
1
  6
CONTINUOUS
 62
     7
 10
194.5096439007988
 20
111.7735603337148
 11
194.5171976670384
 21
111.7566733297912
  0
LINE
  8
1
  6
CONTINUOUS
 62
     7
 10
194.5171976670384
 20
111.7566733297912
 11
194.5254856771311
 21
111.7398794833909
  0
LINE
  8
1
  6
CONTINUOUS
 62
     7
 10
194.5254856771311
 20
111.7398794833909
 11
194.5342780557105
 21
111.7236430991405
  0
LINE
  8
1
  6
CONTINUOUS
 62
     7
 10
194.5342780557105
 20
111.7236430991405
 11
194.5436096889659
 21
111.7078586643537
  0
LINE
  8
1
  6
CONTINUOUS
 62
     7
 10
194.5436096889659
 20
111.7078586643537
 11
194.5533807005074
 21
111.6926551855105
  0
LINE
  8
1
  6
CONTINUOUS
 62
     7
 10
194.5533807005074
 20
111.6926551855105
 11
194.5643549245037
 21
111.6769378460144
  0
LINE
  8
1
  6
CONTINUOUS
 62
     7
 10
194.5643549245037
 20
111.6769378460144
 11
194.5757692577604
 21
111.6618855051775
  0
LINE
  8
1
  6
CONTINUOUS
 62
     7
 10
194.5757692577604
 20
111.6618855051775
 11
194.5875792174683
 21
111.6475059222576
  0
LINE
  8
1
  6
CONTINUOUS
 62
     7
 10
194.5875792174683
 20
111.6475059222576
 11
194.5997403208186
 21
111.6338068565125
  0
LINE
  8
1
  6
CONTINUOUS
 62
     7
 10
194.5997403208186
 20
111.6338068565125
 11
194.6168592759173
 21
111.616183285272
  0
LINE
  8
1
  6
CONTINUOUS
 62
     7
 10
194.6168592759173
 20
111.616183285272
 11
194.6345281541876
 21
111.5997655240907
  0
LINE
  8
1
  6
CONTINUOUS
 62
     7
 10
194.6345281541876
 20
111.5997655240907
 11
194.6526627230815
 21
111.5845503534018
  0
LINE
  8
1
  6
CONTINUOUS
 62
     7
 10
194.6526627230815
 20
111.5845503534018
 11
194.6737705780209
 21
111.5686842161397
  0
LINE
  8
1
  6
CONTINUOUS
 62
     7
 10
194.6737705780209
 20
111.5686842161397
 11
194.6953520026136
 21
111.5542928428397
  0
LINE
  8
1
  6
CONTINUOUS
 62
     7
 10
194.6953520026136
 20
111.5542928428397
 11
194.7173162430234
 21
111.5413615164371
  0
LINE
  8
1
  6
CONTINUOUS
 62
     7
 10
194.7173162430234
 20
111.5413615164371
 11
194.7400222796468
 21
111.5296585794209
  0
LINE
  8
1
  6
CONTINUOUS
 62
     7
 10
194.7400222796468
 20
111.5296585794209
 11
194.7630271850007
 21
111.5194019737179
  0
LINE
  8
1
  6
CONTINUOUS
 62
     7
 10
194.7630271850007
 20
111.5194019737179
 11
194.7862585605795
 21
111.5105776565011
  0
LINE
  8
1
  6
CONTINUOUS
 62
     7
 10
194.7862585605795
 20
111.5105776565011
 11
194.8103160095002
 21
111.5029796818654
  0
LINE
  8
1
  6
CONTINUOUS
 62
     7
 10
194.8103160095002
 20
111.5029796818654
 11
194.8345358516063
 21
111.4968471363947
  0
LINE
  8
1
  6
CONTINUOUS
 62
     7
 10
194.8345358516063
 20
111.4968471363947
 11
194.8588541120839
 21
111.4921713787934
  0
LINE
  8
1
  6
CONTINUOUS
 62
     7
 10
194.8588541120839
 20
111.4921713787934
 11
194.8836008255896
 21
111.488903049309
  0
LINE
  8
1
  6
CONTINUOUS
 62
     7
 10
194.8836008255896
 20
111.488903049309
 11
194.9083845716716
 21
111.4871154001252
  0
LINE
  8
1
  6
CONTINUOUS
 62
     7
 10
194.9083845716716
 20
111.4871154001252
 11
194.9331452500446
 21
111.4868074914089
  0
LINE
  8
1
  6
CONTINUOUS
 62
     7
 10
194.4699907319255
 20
153.0515406017787
 11
194.4699907319255
 21
145.0513882969351
  0
LINE
  8
1
  6
CONTINUOUS
 62
     7
 10
193.7075885684012
 20
144.0648483810444
 11
193.7075885684011
 21
120.9653391675357
  0
ARC
  8
1
  6
CONTINUOUS
 62
     7
 10
210.3761557186784
 20
143.7737451427323
 40
0.5000000000000004
 50
0.0
 51
88.99999999999895
  0
LINE
  8
1
  6
CONTINUOUS
 62
     7
 10
194.0274020477535
 20
111.9786469468015
 11
194.4699907319255
 21
111.9786469468015
  0
LINE
  8
1
  6
CONTINUOUS
 62
     7
 10
194.0274020477535
 20
111.9786469468015
 11
194.0274020477535
 21
119.9787992516451
  0
LINE
  8
1
  6
CONTINUOUS
 62
     7
 10
185.7587033122411
 20
85.5322442063308
 11
187.9149130235962
 21
85.56988098684135
  0
LINE
  8
1
  6
CONTINUOUS
 62
     7
 10
210.8761557186784
 20
121.2564424058479
 11
210.8761557186784
 21
120.2565947106916
  0
LINE
  8
1
  6
CONTINUOUS
 62
     7
 10
210.8761557186784
 20
144.7735928378887
 11
210.8761557186784
 21
143.7737451427323
  0
LINE
  8
1
  6
CONTINUOUS
 62
     7
 10
194.9331452500438
 20
153.5433800571714
 11
194.9126559046627
 21
153.5432308420602
  0
LINE
  8
1
  6
CONTINUOUS
 62
     7
 10
194.9126559046627
 20
153.5432308420602
 11
194.8921527621396
 21
153.5420688687863
  0
LINE
  8
1
  6
CONTINUOUS
 62
     7
 10
194.8921527621396
 20
153.5420688687863
 11
194.8645253177943
 21
153.5388968143225
  0
LINE
  8
1
  6
CONTINUOUS
 62
     7
 10
194.8645253177943
 20
153.5388968143225
 11
194.8369575127682
 21
153.5338718765178
  0
LINE
  8
1
  6
CONTINUOUS
 62
     7
 10
194.8369575127682
 20
153.5338718765178
 11
194.809537451468
 21
153.5269858330241
  0
LINE
  8
1
  6
CONTINUOUS
 62
     7
 10
194.809537451468
 20
153.5269858330241
 11
194.7888517896033
 21
153.5205029534155
  0
LINE
  8
1
  6
CONTINUOUS
 62
     7
 10
194.7888517896033
 20
153.5205029534155
 11
194.7683094803991
 21
153.5129242225055
  0
LINE
  8
1
  6
CONTINUOUS
 62
     7
 10
194.7683094803991
 20
153.5129242225055
 11
194.7491424526063
 21
153.504781752163
  0
LINE
  8
1
  6
CONTINUOUS
 62
     7
 10
194.7491424526063
 20
153.504781752163
 11
194.7300990720968
 21
153.4956141298182
  0
LINE
  8
1
  6
CONTINUOUS
 62
     7
 10
194.7300990720968
 20
153.4956141298182
 11
194.7112724485958
 21
153.4854314096543
  0
LINE
  8
1
  6
CONTINUOUS
 62
     7
 10
194.7112724485958
 20
153.4854314096543
 11
194.6924822243502
 21
153.4740809028147
  0
LINE
  8
1
  6
CONTINUOUS
 62
     7
 10
194.6924822243502
 20
153.4740809028147
 11
194.6739881331945
 21
153.4616573212635
  0
LINE
  8
1
  6
CONTINUOUS
 62
     7
 10
194.6739881331945
 20
153.4616573212635
 11
194.6556071929661
 21
153.4479644305423
  0
LINE
  8
1
  6
CONTINUOUS
 62
     7
 10
194.6556071929661
 20
153.4479644305423
 11
194.6376237611552
 21
153.4331311528805
  0
LINE
  8
1
  6
CONTINUOUS
 62
     7
 10
194.6376237611552
 20
153.4331311528805
 11
194.6200123949816
 21
153.417059112698
  0
LINE
  8
1
  6
CONTINUOUS
 62
     7
 10
194.6200123949816
 20
153.417059112698
 11
194.6055162011849
 21
153.4025316535809
  0
LINE
  8
1
  6
CONTINUOUS
 62
     7
 10
194.6055162011849
 20
153.4025316535809
 11
194.591371705694
 21
153.3870681736258
  0
LINE
  8
1
  6
CONTINUOUS
 62
     7
 10
194.591371705694
 20
153.3870681736258
 11
194.5776908127087
 21
153.370721472979
  0
LINE
  8
1
  6
CONTINUOUS
 62
     7
 10
194.5776908127087
 20
153.370721472979
 11
194.5643014450217
 21
153.3531768587398
  0
LINE
  8
1
  6
CONTINUOUS
 62
     7
 10
194.5643014450217
 20
153.3531768587398
 11
194.551503147298
 21
153.3347055518572
  0
LINE
  8
1
  6
CONTINUOUS
 62
     7
 10
194.551503147298
 20
153.3347055518572
 11
194.5431766500911
 21
153.3216252182723
  0
LINE
  8
1
  6
CONTINUOUS
 62
     7
 10
194.5431766500911
 20
153.3216252182723
 11
194.5351710456581
 21
153.3081145001746
  0
LINE
  8
1
  6
CONTINUOUS
 62
     7
 10
194.5351710456581
 20
153.3081145001746
 11
194.5275138807932
 21
153.2941856890541
  0
LINE
  8
1
  6
CONTINUOUS
 62
     7
 10
194.5275138807932
 20
153.2941856890541
 11
194.5219706338889
 21
153.2833813982044
  0
LINE
  8
1
  6
CONTINUOUS
 62
     7
 10
194.5219706338889
 20
153.2833813982044
 11
194.5166485264849
 21
153.2723419505962
  0
LINE
  8
1
  6
CONTINUOUS
 62
     7
 10
194.5166485264849
 20
153.2723419505962
 11
194.5107007285806
 21
153.2590956801905
  0
LINE
  8
1
  6
CONTINUOUS
 62
     7
 10
194.5107007285806
 20
153.2590956801905
 11
194.5050709460401
 21
153.2454926717322
  0
LINE
  8
1
  6
CONTINUOUS
 62
     7
 10
194.5050709460401
 20
153.2454926717322
 11
194.4997975820885
 21
153.2315878556259
  0
LINE
  8
1
  6
CONTINUOUS
 62
     7
 10
194.4997975820885
 20
153.2315878556259
 11
194.4948411758419
 21
153.2172178326759
  0
LINE
  8
1
  6
CONTINUOUS
 62
     7
 10
194.4948411758419
 20
153.2172178326759
 11
194.4902863544861
 21
153.2025660985431
  0
LINE
  8
1
  6
CONTINUOUS
 62
     7
 10
194.4902863544861
 20
153.2025660985431
 11
194.4861004540917
 21
153.1874544989628
  0
LINE
  8
1
  6
CONTINUOUS
 62
     7
 10
194.4861004540917
 20
153.1874544989628
 11
194.4823624583665
 21
153.1720923862493
  0
LINE
  8
1
  6
CONTINUOUS
 62
     7
 10
194.4823624583665
 20
153.1720923862493
 11
194.4790754836981
 21
153.1564312717825
  0
LINE
  8
1
  6
CONTINUOUS
 62
     7
 10
194.4790754836981
 20
153.1564312717825
 11
194.4764286042516
 21
153.1415298758548
  0
LINE
  8
1
  6
CONTINUOUS
 62
     7
 10
194.4764286042516
 20
153.1415298758548
 11
194.4742190727745
 21
153.1264661415045
  0
LINE
  8
1
  6
CONTINUOUS
 62
     7
 10
194.4742190727745
 20
153.1264661415045
 11
194.4724584393302
 21
153.1112789709578
  0
LINE
  8
1
  6
CONTINUOUS
 62
     7
 10
194.4724584393302
 20
153.1112789709578
 11
194.4711871668644
 21
153.0964325906694
  0
LINE
  8
1
  6
CONTINUOUS
 62
     7
 10
194.4711871668644
 20
153.0964325906694
 11
194.4703502666536
 21
153.0815008546301
  0
LINE
  8
1
  6
CONTINUOUS
 62
     7
 10
194.4703502666536
 20
153.0815008546301
 11
194.46995052593
 21
153.0665235844599
  0
LINE
  8
1
  6
CONTINUOUS
 62
     7
 10
194.46995052593
 20
153.0665235844599
 11
194.4699907319255
 21
153.0515406017787
  0
LINE
  8
1
  6
CONTINUOUS
 62
     7
 10
210.384881921897
 20
120.7565185582698
 11
194.2249878597285
 21
120.4744465581815
  0
LINE
  8
1
  6
CONTINUOUS
 62
     7
 10
77.48833777040542
 20
27.11511807810306
 11
77.1972345320932
 21
43.79241143159891
  0
LINE
  8
1
  6
CONTINUOUS
 62
     7
 10
112.7965914407583
 20
43.79241143159892
 11
112.5054882024461
 21
27.11511807810306
  0
LINE
  8
1
  6
CONTINUOUS
 62
     7
 10
79.48826161798361
 20
26.62384428132169
 11
78.48841392282723
 21
26.62384428132169
  0
LINE
  8
1
  6
CONTINUOUS
 62
     7
 10
78.48841392282723
 20
26.62384428132169
 11
77.98826161798361
 21
26.62384428132169
  0
LINE
  8
1
  6
CONTINUOUS
 62
     7
 10
82.89691298642576
 20
23.8238442813217
 11
83.49691298642576
 21
23.8238442813217
  0
LINE
  8
1
  6
CONTINUOUS
 62
     7
 10
82.89691298642576
 20
26.3238442813217
 11
82.99691298642576
 21
26.3238442813217
  0
LINE
  8
1
  6
CONTINUOUS
 62
     7
 10
90.99691298642576
 20
23.7738442813217
 11
91.04691298642575
 21
23.7738442813217
  0
LINE
  8
1
  6
CONTINUOUS
 62
     7
 10
111.5054120500243
 20
26.62384428132169
 11
110.5055643548679
 21
26.62384428132169
  0
LINE
  8
1
  6
CONTINUOUS
 62
     7
 10
112.0055643548679
 20
26.62384428132169
 11
111.5054120500243
 21
26.62384428132169
  0
ARC
  8
1
  6
CONTINUOUS
 62
     7
 10
112.0055643548679
 20
27.12384428132169
 40
0.5000000000000004
 50
270.0
 51
358.9999999999998
  0
ARC
  8
1
  6
CONTINUOUS
 62
     7
 10
77.98826161798361
 20
27.12384428132169
 40
0.499999999999992
 50
181.0000000000002
 51
270.0
  0
LINE
  8
1
  6
CONTINUOUS
 62
     7
 10
88.59691298642575
 20
23.77384428132165
 11
88.59691298642575
 21
23.9238442813217
  0
LINE
  8
1
  6
CONTINUOUS
 62
     7
 10
83.49691298642576
 20
23.8238442813217
 11
83.49691298642576
 21
23.9238442813217
  0
LINE
  8
1
  6
CENTER
 62
     1
 10
94.99691298642576
 20
70.21886755432874
 11
94.99691298642576
 21
184.8513166408114
  0
LINE
  8
1
  6
CONTINUOUS
 62
     7
 10
90.49691298642576
 20
23.7738442813217
 11
90.99691298642576
 21
23.77384428132165
  0
LINE
  8
1
  6
CONTINUOUS
 62
     7
 10
89.66683706264122
 20
23.7738442813217
 11
90.49691298642576
 21
23.7738442813217
  0
LINE
  8
1
  6
CONTINUOUS
 62
     7
 10
89.01604568918525
 20
23.7738442813217
 11
89.01604568918525
 21
23.9238442813217
  0
LINE
  8
1
  6
CONTINUOUS
 62
     7
 10
62.95539099057329
 20
61.7238442813217
 11
62.95397304640154
 21
61.7238442813217
  0
ARC
  8
1
  6
CONTINUOUS
 62
     7
 10
127.03985292645
 20
59.72384428132167
 40
2.000000000000002
 50
90.0
 51
150.0000000000001
  0
LINE
  8
1
  6
CENTER
 62
     1
 10
94.99691298642576
 20
13.3238442813217
 11
94.99691298642576
 21
63.72384428132169
  0
LINE
  8
1
  6
CONTINUOUS
 62
     7
 10
90.49691298642576
 20
23.7738442813217
 11
90.49691298642576
 21
23.9238442813217
  0
LINE
  8
1
  6
CONTINUOUS
 62
     7
 10
86.69691298642573
 20
23.77384428132165
 11
88.59691298642575
 21
23.77384428132165
  0
ARC
  8
1
  6
CONTINUOUS
 62
     7
 10
128.4931814353142
 20
60.9238442813217
 40
0.8000000000000127
 50
332.6847573103383
 51
90.0
  0
LINE
  8
1
  6
CONTINUOUS
 62
     7
 10
128.4890573122934
 20
61.7238442813217
 11
127.03985292645
 21
61.7238442813217
  0
LINE
  8
1
  6
CONTINUOUS
 62
     7
 10
127.03985292645
 20
61.7238442813217
 11
127.038847283326
 21
61.7238442813217
  0
ARC
  8
1
  6
CONTINUOUS
 62
     7
 10
62.95397304640154
 20
59.72384428132169
 40
2.000000000000008
 50
29.99999999999991
 51
89.99999999999962
  0
LINE
  8
1
  6
CONTINUOUS
 62
     7
 10
62.95397304640154
 20
61.7238442813217
 11
61.50333139176362
 21
61.7238442813217
  0
ARC
  8
1
  6
CONTINUOUS
 62
     7
 10
61.50064453753728
 20
60.9238442813217
 40
0.7999999999999952
 50
90.0
 51
207.3152426896625
  0
LINE
  8
1
  6
CONTINUOUS
 62
     7
 10
88.59691298642575
 20
23.77384428132165
 11
89.01604568918525
 21
23.7738442813217
  0
LINE
  8
1
  6
CENTER
 62
     1
 10
134.3972506161342
 20
127.5150937742901
 11
55.65888022431593
 21
127.5150937742901
  0
LINE
  8
1
  6
CONTINUOUS
 62
     7
 10
89.66683706264122
 20
23.9238442813217
 11
89.66683706264122
 21
23.7738442813217
  0
LINE
  8
1
  6
CONTINUOUS
 62
     7
 10
89.66683706264122
 20
23.77384428132165
 11
89.01604568918525
 21
23.77384428132165
  0
LINE
  8
1
  6
CONTINUOUS
 62
     7
 10
109.2969129864257
 20
21.32384428132167
 11
104.2969129864257
 21
21.32384428132167
  0
LINE
  8
1
  6
CONTINUOUS
 62
     7
 10
109.7969129864257
 20
26.62384428132167
 11
109.7969129864257
 21
21.82384428132167
  0
ARC
  8
1
  6
CONTINUOUS
 62
     7
 10
113.2965152883365
 20
43.78368522838027
 40
0.4999999999999908
 50
117.9837140557914
 51
178.999999999999
  0
LINE
  8
1
  6
CONTINUOUS
 62
     7
 10
110.5055643548679
 20
26.62384428132169
 11
79.48826161798361
 21
26.62384428132169
  0
LINE
  8
1
  6
CONTINUOUS
 62
     7
 10
103.2969129864257
 20
21.82384428132167
 11
103.2969129864257
 21
23.7738442813217
  0
LINE
  8
1
  6
CONTINUOUS
 62
     7
 10
85.69691298642579
 20
21.32384428132167
 11
80.69691298642579
 21
21.32384428132167
  0
ARC
  8
1
  6
CONTINUOUS
 62
     7
 10
86.19691298642579
 20
21.82384428132167
 40
0.4999999999999449
 50
270.0
 51
0.0
  0
ARC
  8
1
  6
CONTINUOUS
 62
     7
 10
76.69731068451502
 20
43.78368522838027
 40
0.4999999999999918
 50
0.9999999999994633
 51
62.01628594420716
  0
LINE
  8
1
  6
CONTINUOUS
 62
     7
 10
104.2969129864257
 20
23.7738442813217
 11
107.0969129864258
 21
23.7738442813217
  0
LINE
  8
1
  6
CONTINUOUS
 62
     7
 10
78.98833777040542
 20
27.11511807810306
 11
78.71054231135894
 21
43.0300092680746
  0
LINE
  8
1
  6
CONTINUOUS
 62
     7
 10
110.426710099408
 20
46.80853971408559
 11
110.5022983497446
 21
46.84521092789
  0
LINE
  8
1
  6
CONTINUOUS
 62
     7
 10
85.69691298642579
 20
23.7738442813217
 11
86.69691298642573
 21
23.7738442813217
  0
ARC
  8
1
  6
CONTINUOUS
 62
     7
 10
94.99691298642576
 20
24.72384428132171
 40
28.00000000000002
 50
53.91663176072858
 51
126.0833682392714
  0
LINE
  8
1
  6
CONTINUOUS
 62
     7
 10
103.2969129864257
 20
23.7738442813217
 11
104.2969129864257
 21
23.7738442813217
  0
LINE
  8
1
  6
CONTINUOUS
 62
     7
 10
86.19691298642579
 20
21.32384428132167
 11
85.69691298642579
 21
21.32384428132167
  0
LINE
  8
1
  6
CONTINUOUS
 62
     7
 10
107.0969129864258
 20
23.7738442813217
 11
107.0969129864258
 21
26.62384428132167
  0
ARC
  8
1
  6
CONTINUOUS
 62
     7
 10
103.7969129864257
 20
21.82384428132167
 40
0.5000000000000004
 50
180.0
 51
270.0
  0
ARC
  8
1
  6
CONTINUOUS
 62
     7
 10
80.69691298642579
 20
21.82384428132167
 40
0.5000000000000004
 50
180.0
 51
270.0
  0
LINE
  8
1
  6
CONTINUOUS
 62
     7
 10
111.4878431078189
 20
47.3523489542189
 11
111.4647775960023
 21
47.34003889402113
  0
ARC
  8
1
  6
CONTINUOUS
 62
     7
 10
109.2969129864257
 20
21.82384428132167
 40
0.5000000000000004
 50
270.0
 51
0.0
  0
LINE
  8
1
  6
CONTINUOUS
 62
     7
 10
104.2969129864257
 20
21.32384428132167
 11
103.7969129864257
 21
21.32384428132167
  0
LINE
  8
1
  6
CONTINUOUS
 62
     7
 10
111.2832836614926
 20
43.0300092680746
 11
111.0054882024461
 21
27.11511807810306
  0
LINE
  8
1
  6
CONTINUOUS
 62
     7
 10
80.19691298642579
 20
21.82384428132167
 11
80.19691298642579
 21
26.62384428132167
  0
ARC
  8
1
  6
CONTINUOUS
 62
     7
 10
78.21061846378075
 20
43.02128306485595
 40
0.499999999999992
 50
1.000000000000258
 51
64.50592177571389
  0
ARC
  8
1
  6
CONTINUOUS
 62
     7
 10
110.5055643548679
 20
27.12384428132169
 40
0.4999999999999935
 50
270.0
 51
358.9999999999998
  0
LINE
  8
1
  6
CONTINUOUS
 62
     7
 10
78.5290483768492
 20
47.34003889402112
 11
78.50598286503268
 21
47.3523489542189
  0
LINE
  8
1
  6
CONTINUOUS
 62
     7
 10
86.69691298642573
 20
23.7738442813217
 11
86.69691298642573
 21
21.82384428132167
  0
ARC
  8
1
  6
CONTINUOUS
 62
     7
 10
79.48826161798361
 20
27.12384428132169
 40
0.499999999999992
 50
181.0000000000002
 51
270.0
  0
LINE
  8
1
  6
CONTINUOUS
 62
     7
 10
82.89691298642576
 20
23.7738442813217
 11
85.69691298642579
 21
23.7738442813217
  0
LINE
  8
1
  6
CONTINUOUS
 62
     7
 10
82.89691298642576
 20
26.62384428132167
 11
82.89691298642576
 21
23.7738442813217
  0
ARC
  8
1
  6
CONTINUOUS
 62
     7
 10
111.7832075090708
 20
43.02128306485595
 40
0.4999999999999907
 50
115.4940782242861
 51
178.9999999999998
  0
ARC
  8
1
  6
CONTINUOUS
 62
     7
 10
94.99691298642576
 20
78.2238442813218
 40
35.00000000000009
 50
243.8417870135052
 51
296.1582129865367
  0
LINE
  8
1
  6
CONTINUOUS
 62
     7
 10
89.0969129864258
 20
23.9238442813217
 11
88.7312275614765
 21
23.9238442813217
  0
LINE
  8
1
  6
CONTINUOUS
 62
     7
 10
83.14335959583246
 20
23.9238442813217
 11
82.99691298642576
 21
23.9238442813217
  0
LINE
  8
1
  6
CONTINUOUS
 62
     7
 10
89.0969129864258
 20
26.62384428132169
 11
89.0969129864258
 21
23.9238442813217
  0
LINE
  8
1
  6
CONTINUOUS
 62
     7
 10
86.74691298642578
 20
19.5238442813217
 11
91.04691298642575
 21
19.5238442813217
  0
LINE
  8
1
  6
CONTINUOUS
 62
     7
 10
90.44691298642576
 20
15.3238442813217
 11
99.29691298642578
 21
15.3238442813217
  0
LINE
  8
1
  6
CONTINUOUS
 62
     7
 10
100.8969129864257
 20
23.9238442813217
 11
97.5969129864258
 21
23.9238442813217
  0
LINE
  8
1
  6
CONTINUOUS
 62
     7
 10
92.39691298642578
 20
23.9238442813217
 11
89.0969129864258
 21
23.9238442813217
  0
LINE
  8
1
  6
CONTINUOUS
 62
     7
 10
99.29691298642578
 20
15.3238442813217
 11
99.29691298642578
 21
19.02384428132173
  0
ARC
  8
1
  6
CONTINUOUS
 62
     7
 10
99.42626685313016
 20
32.9745527181877
 40
13.95130812193877
 50
269.4687568538918
 51
284.7106845973687
  0
LINE
  8
1
  6
CONTINUOUS
 62
     7
 10
102.9690385662057
 20
19.48056268920419
 11
103.0469129864258
 21
19.52384428132173
  0
LINE
  8
1
  6
CONTINUOUS
 62
     7
 10
86.94691298642576
 20
17.32384428132169
 11
90.44691298642576
 21
15.3238442813217
  0
ARC
  8
1
  6
CONTINUOUS
 62
     7
 10
95.20993029669594
 20
34.84202941992368
 40
15.81819049478966
 50
269.9528494094491
 51
279.4181468058302
  0
LINE
  8
1
  6
CONTINUOUS
 62
     7
 10
97.5969129864258
 20
23.9238442813217
 11
97.2312275614765
 21
23.9238442813217
  0
LINE
  8
1
  6
CONTINUOUS
 62
     7
 10
91.04691298642575
 20
19.5238442813217
 11
91.04691298642575
 21
23.9238442813217
  0
LINE
  8
1
  6
CONTINUOUS
 62
     7
 10
98.94691298642577
 20
19.41856791313154
 11
98.44365057434857
 21
19.28750776718828
  0
LINE
  8
1
  6
CONTINUOUS
 62
     7
 10
98.94691298642577
 20
19.41856791313154
 11
98.94691298642577
 21
23.9238442813217
  0
LINE
  8
1
  6
CONTINUOUS
 62
     7
 10
106.9969129864258
 20
23.9238442813217
 11
106.850466377019
 21
23.9238442813217
  0
ARC
  8
1
  6
CONTINUOUS
 62
     7
 10
94.9969129864261
 20
78.22384428132197
 40
35.00000000000043
 50
210.0000000001741
 51
241.9325660660725
  0
LINE
  8
1
  6
CONTINUOUS
 62
     7
 10
99.29691298642578
 20
19.02384428132173
 11
95.19691298642574
 21
19.02384428132173
  0
LINE
  8
1
  6
CONTINUOUS
 62
     7
 10
103.0469129864258
 20
19.52384428132173
 11
103.0469129864258
 21
17.32384428132169
  0
LINE
  8
1
  6
CONTINUOUS
 62
     7
 10
106.9969129864258
 20
26.62384428132169
 11
106.9969129864258
 21
23.9238442813217
  0
LINE
  8
1
  6
CONTINUOUS
 62
     7
 10
82.99691298642576
 20
23.9238442813217
 11
82.99691298642576
 21
26.62384428132169
  0
LINE
  8
1
  6
CONTINUOUS
 62
     7
 10
86.74691298642578
 20
17.7238442813217
 11
86.74691298642578
 21
19.5238442813217
  0
LINE
  8
1
  6
CONTINUOUS
 62
     7
 10
95.19691298642574
 20
19.02384428132173
 11
95.1969129864258
 21
23.9238442813217
  0
LINE
  8
1
  6
CONTINUOUS
 62
     7
 10
103.0469129864258
 20
19.52384428132173
 11
98.94691298642577
 21
19.52384428132178
  0
ARC
  8
1
  6
CONTINUOUS
 62
     7
 10
94.99691892511585
 20
78.22385403251687
 40
38.50000975119563
 50
207.3153598769908
 51
269.9999911620314
  0
LINE
  8
1
  6
CONTINUOUS
 62
     7
 10
86.74691298642578
 20
17.7238442813217
 11
86.94691298642576
 21
17.7238442813217
  0
LINE
  8
1
  6
CONTINUOUS
 62
     7
 10
99.54691298642577
 20
15.3238442813217
 11
99.29691298642578
 21
15.3238442813217
  0
ARC
  8
1
  6
CONTINUOUS
 62
     7
 10
94.99691298642576
 20
78.22384428132175
 40
38.50000000000004
 50
270.0
 51
332.6847573101028
  0
LINE
  8
1
  6
CONTINUOUS
 62
     7
 10
111.4647775960023
 20
47.34003889402113
 11
110.5022983497446
 21
46.84521092789
  0
LINE
  8
1
  6
CONTINUOUS
 62
     7
 10
86.94691298642576
 20
17.32384428132169
 11
86.94691298642576
 21
17.7238442813217
  0
ARC
  8
1
  6
CONTINUOUS
 62
     7
 10
94.99691298642571
 20
78.22384428132173
 40
35.00000000000005
 50
298.0674339339273
 51
329.9999999999782
  0
LINE
  8
1
  6
CONTINUOUS
 62
     7
 10
79.4915276231084
 20
46.8452109278896
 11
78.5290483768492
 21
47.34003889402112
  0
LINE
  8
1
  6
CONTINUOUS
 62
     7
 10
103.0469129864258
 20
17.32384428132169
 11
99.54691298642577
 21
15.3238442813217
  0
LINE
  8
1
  6
CONTINUOUS
 62
     7
 10
79.4915276231084
 20
46.8452109278896
 11
79.56711587346649
 21
46.80853971407431
  0
TEXT
  8
1
  6
CONTINUOUS
 62
     7
 10
142.4686319869951
 20
13.32842003251223
 40
3.0
  1
AFP-SH30MSY
  0
CIRCLE
  8
1
  6
CONTINUOUS
 62
     7
 10
94.99691298642576
 20
132.5150937742901
 40
5.5
  0
POLYLINE
  8
1
  6
CONTINUOUS
 62
     7
 66
     1
  0
VERTEX
  8
1
  6
CONTINUOUS
 62
     7
 10
220.1761557186784
 20
132.51509377429
  0
VERTEX
  8
1
  6
CONTINUOUS
 62
     7
 10
220.2139168997803
 20
131.8142024400639
  0
VERTEX
  8
1
  6
CONTINUOUS
 62
     7
 10
220.3258695967411
 20
131.1380131581353
  0
VERTEX
  8
1
  6
CONTINUOUS
 62
     7
 10
220.5080681745669
 20
130.510357387376
  0
VERTEX
  8
1
  6
CONTINUOUS
 62
     7
 10
220.7540912686636
 20
129.9533560828001
  0
VERTEX
  8
1
  6
CONTINUOUS
 62
     7
 10
221.0552680979272
 20
129.4866400697346
  0
VERTEX
  8
1
  6
CONTINUOUS
 62
     7
 10
221.4009840557502
 20
129.1266581795458
  0
VERTEX
  8
1
  6
CONTINUOUS
 62
     7
 10
221.7790548087659
 20
128.886097530826
  0
VERTEX
  8
1
  6
CONTINUOUS
 62
     7
 10
222.1761557186784
 20
128.7734363875161
  0
SEQEND
  8
1
  6
CONTINUOUS
 62
     7
  0
LINE
  8
1
  6
CONTINUOUS
 62
     7
 10
84.99691298642581
 20
115.2650937742901
 11
84.99691298642578
 21
149.7650937742901
  0
POLYLINE
  8
1
  6
CONTINUOUS
 62
     7
 66
     1
  0
VERTEX
  8
1
  6
CONTINUOUS
 62
     7
 10
110.5018237992256
 20
85.61769989074539
  0
VERTEX
  8
1
  6
CONTINUOUS
 62
     7
 10
104.5133031410207
 20
85.65790106031612
  0
VERTEX
  8
1
  6
CONTINUOUS
 62
     7
 10
98.20497927922484
 20
85.67834516240353
  0
VERTEX
  8
1
  6
CONTINUOUS
 62
     7
 10
91.7888466936269
 20
85.67834516240353
  0
VERTEX
  8
1
  6
CONTINUOUS
 62
     7
 10
85.480522831831
 20
85.65790106031612
  0
VERTEX
  8
1
  6
CONTINUOUS
 62
     7
 10
79.49200217362602
 20
85.61769989074539
  0
SEQEND
  8
1
  6
CONTINUOUS
 62
     7
  0
POLYLINE
  8
1
  6
CONTINUOUS
 62
     7
 66
     1
  0
VERTEX
  8
1
  6
CONTINUOUS
 62
     7
 10
110.5022983497437
 20
82.41248184741673
  0
VERTEX
  8
1
  6
CONTINUOUS
 62
     7
 10
105.7051343199206
 20
82.4592936734718
  0
VERTEX
  8
1
  6
CONTINUOUS
 62
     7
 10
100.4642901965401
 20
82.48817979029343
  0
VERTEX
  8
1
  6
CONTINUOUS
 62
     7
 10
94.99691298642638
 20
82.49794334224939
  0
VERTEX
  8
1
  6
CONTINUOUS
 62
     7
 10
89.52953577631268
 20
82.48817979029343
  0
VERTEX
  8
1
  6
CONTINUOUS
 62
     7
 10
84.28869165293203
 20
82.45929367347182
  0
VERTEX
  8
1
  6
CONTINUOUS
 62
     7
 10
79.49152762310885
 20
82.41248184741674
  0
SEQEND
  8
1
  6
CONTINUOUS
 62
     7
  0
POLYLINE
  8
1
  6
CONTINUOUS
 62
     7
 66
     1
  0
VERTEX
  8
1
  6
CONTINUOUS
 62
     7
 10
79.56711587346649
 20
82.41184174899861
  0
VERTEX
  8
1
  6
CONTINUOUS
 62
     7
 10
85.52888025277326
 20
82.37204865438282
  0
VERTEX
  8
1
  6
CONTINUOUS
 62
     7
 10
91.80552335345837
 20
82.35181566238636
  0
VERTEX
  8
1
  6
CONTINUOUS
 62
     7
 10
98.18830261941856
 20
82.3518156623864
  0
VERTEX
  8
1
  6
CONTINUOUS
 62
     7
 10
104.4649457201028
 20
82.37204865438295
  0
VERTEX
  8
1
  6
CONTINUOUS
 62
     7
 10
110.4267100994079
 20
82.41184174899881
  0
SEQEND
  8
1
  6
CONTINUOUS
 62
     7
  0
LINE
  8
1
  6
CONTINUOUS
 62
     7
 10
98.44365057434857
 20
19.28750776718827
 11
97.79839403875341
 21
19.23706207021387
  0
LINE
  8
1
  6
CONTINUOUS
 62
     7
 10
104.9969129864258
 20
115.2650937742901
 11
84.99691298642578
 21
115.2650937742901
  0
LINE
  8
1
  6
CONTINUOUS
 62
     7
 10
104.9969129864258
 20
149.7650937742901
 11
104.9969129864258
 21
115.2650937742901
  0
LINE
  8
1
  6
CONTINUOUS
 62
     7
 10
81.89691298642576
 20
114.5150937742901
 11
84.49691298642577
 21
114.5150937742901
  0
LINE
  8
1
  6
CONTINUOUS
 62
     7
 10
81.89691298642576
 20
150.5150937742901
 11
81.89691298642576
 21
114.5150937742901
  0
LINE
  8
1
  6
CONTINUOUS
 62
     7
 10
84.49691298642576
 20
150.5150937742901
 11
81.89691298642576
 21
150.5150937742901
  0
POLYLINE
  8
1
  6
CONTINUOUS
 62
     7
 66
     1
  0
VERTEX
  8
1
  6
CONTINUOUS
 62
     7
 10
108.6605939804354
 20
114.1514127802807
  0
VERTEX
  8
1
  6
CONTINUOUS
 62
     7
 10
101.9684524622825
 20
114.1876482984492
  0
VERTEX
  8
1
  6
CONTINUOUS
 62
     7
 10
94.99691298642595
 20
114.1998903457639
  0
VERTEX
  8
1
  6
CONTINUOUS
 62
     7
 10
88.02537351056942
 20
114.1876482984492
  0
VERTEX
  8
1
  6
CONTINUOUS
 62
     7
 10
81.3332319924165
 20
114.1514127802807
  0
SEQEND
  8
1
  6
CONTINUOUS
 62
     7
  0
POLYLINE
  8
1
  6
CONTINUOUS
 62
     7
 66
     1
  0
VERTEX
  8
1
  6
CONTINUOUS
 62
     7
 10
81.33323199241639
 20
150.8787747682995
  0
VERTEX
  8
1
  6
CONTINUOUS
 62
     7
 10
88.02537351056928
 20
150.842539250131
  0
VERTEX
  8
1
  6
CONTINUOUS
 62
     7
 10
94.99691298642574
 20
150.8302972028163
  0
VERTEX
  8
1
  6
CONTINUOUS
 62
     7
 10
101.9684524622822
 20
150.842539250131
  0
VERTEX
  8
1
  6
CONTINUOUS
 62
     7
 10
108.6605939804351
 20
150.8787747682995
  0
SEQEND
  8
1
  6
CONTINUOUS
 62
     7
  0
POLYLINE
  8
1
  6
CONTINUOUS
 62
     7
 66
     1
  0
VERTEX
  8
1
  6
CONTINUOUS
 62
     7
 10
79.49200217362578
 20
85.61769989074539
  0
VERTEX
  8
1
  6
CONTINUOUS
 62
     7
 10
84.28904640288903
 20
85.57089119994475
  0
VERTEX
  8
1
  6
CONTINUOUS
 62
     7
 10
89.52972499373796
 20
85.54200707534804
  0
VERTEX
  8
1
  6
CONTINUOUS
 62
     7
 10
94.99691298642553
 20
85.53224420633079
  0
VERTEX
  8
1
  6
CONTINUOUS
 62
     7
 10
100.4641009791131
 20
85.54200707534804
  0
VERTEX
  8
1
  6
CONTINUOUS
 62
     7
 10
105.7047795699621
 20
85.57089119994475
  0
VERTEX
  8
1
  6
CONTINUOUS
 62
     7
 10
110.5018237992254
 20
85.61769989074537
  0
SEQEND
  8
1
  6
CONTINUOUS
 62
     7
  0
POLYLINE
  8
1
  6
CONTINUOUS
 62
     7
 66
     1
  0
VERTEX
  8
1
  6
CONTINUOUS
 62
     7
 10
194.4699907319255
 20
145.0513882969351
  0
VERTEX
  8
1
  6
CONTINUOUS
 62
     7
 10
194.4684567850699
 20
144.9538766561032
  0
VERTEX
  8
1
  6
CONTINUOUS
 62
     7
 10
194.467316977623
 20
144.8601108845009
  0
VERTEX
  8
1
  6
CONTINUOUS
 62
     7
 10
194.4666150948149
 20
144.773692955345
  0
VERTEX
  8
1
  6
CONTINUOUS
 62
     7
 10
194.4663780991826
 20
144.6979425775332
  0
VERTEX
  8
1
  6
CONTINUOUS
 62
     7
 10
194.4666150948149
 20
144.6357696704038
  0
VERTEX
  8
1
  6
CONTINUOUS
 62
     7
 10
194.467316977623
 20
144.5895625803915
  0
VERTEX
  8
1
  6
CONTINUOUS
 62
     7
 10
194.4684567850699
 20
144.56109633369
  0
VERTEX
  8
1
  6
CONTINUOUS
 62
     7
 10
194.4699907319255
 20
144.5514644493569
  0
SEQEND
  8
1
  6
CONTINUOUS
 62
     7
  0
POLYLINE
  8
1
  6
CONTINUOUS
 62
     7
 66
     1
  0
VERTEX
  8
1
  6
CONTINUOUS
 62
     7
 10
194.4699907319255
 20
120.4787230992233
  0
VERTEX
  8
1
  6
CONTINUOUS
 62
     7
 10
194.382995467027
 20
120.4677869334382
  0
VERTEX
  8
1
  6
CONTINUOUS
 62
     7
 10
194.299605541053
 20
120.4384330985822
  0
VERTEX
  8
1
  6
CONTINUOUS
 62
     7
 10
194.2229618267037
 20
120.3917672037257
  0
VERTEX
  8
1
  6
CONTINUOUS
 62
     7
 10
194.155951101335
 20
120.3295469148395
  0
VERTEX
  8
1
  6
CONTINUOUS
 62
     7
 10
194.1010973167971
 20
120.2541157524924
  0
VERTEX
  8
1
  6
CONTINUOUS
 62
     7
 10
194.0604665350553
 20
120.1683148233983
  0
VERTEX
  8
1
  6
CONTINUOUS
 62
     7
 10
194.0355891101861
 20
120.0753758104336
  0
VERTEX
  8
1
  6
CONTINUOUS
 62
     7
 10
194.0274020477535
 20
119.9787992516451
  0
SEQEND
  8
1
  6
CONTINUOUS
 62
     7
  0
LINE
  8
1
  6
CONTINUOUS
 62
     7
 10
84.99691298642576
 20
149.7650937742901
 11
104.9969129864258
 21
149.7650937742901
  0
ARC
  8
1
  6
CONTINUOUS
 62
     7
 10
94.99691298642576
 20
132.5150937742901
 40
2.249999999999993
 50
166.7683351757011
 51
193.231664824299
  0
LINE
  8
1
  6
CONTINUOUS
 62
     7
 10
108.6605939804352
 20
150.8787747682995
 11
108.6605939804352
 21
142.2650937742901
  0
LINE
  8
1
  6
CONTINUOUS
 62
     7
 10
95.51191298642576
 20
130.3248255258785
 11
95.51191298642576
 21
132.0000937742901
  0
LINE
  8
1
  6
CONTINUOUS
 62
     7
 10
78.50598286503268
 20
84.62280774659574
 11
78.5069674490354
 21
84.66708298733094
  0
LINE
  8
1
  6
CONTINUOUS
 62
     7
 10
78.5069674490354
 20
84.66708298733094
 11
78.50990115395095
 21
84.7113782028418
  0
LINE
  8
1
  6
CONTINUOUS
 62
     7
 10
78.50990115395095
 20
84.7113782028418
 11
78.51475390914025
 21
84.75553843484462
  0
LINE
  8
1
  6
CONTINUOUS
 62
     7
 10
78.51475390914025
 20
84.75553843484462
 11
78.52149564396427
 21
84.7994087250557
  0
LINE
  8
1
  6
CONTINUOUS
 62
     7
 10
78.52149564396427
 20
84.7994087250557
 11
78.53009628778396
 21
84.84283411519134
  0
LINE
  8
1
  6
CONTINUOUS
 62
     7
 10
78.53009628778396
 20
84.84283411519134
 11
78.54052576996023
 21
84.88565964696787
  0
LINE
  8
1
  6
CONTINUOUS
 62
     7
 10
78.54052576996023
 20
84.88565964696787
 11
78.55275401985418
 21
84.92773036210157
  0
LINE
  8
1
  6
CONTINUOUS
 62
     7
 10
78.55275401985418
 20
84.92773036210157
 11
78.56676807721557
 21
84.96900514316589
  0
LINE
  8
1
  6
CONTINUOUS
 62
     7
 10
78.56676807721557
 20
84.96900514316589
 11
78.58255778872602
 21
85.0095769501223
  0
LINE
  8
1
  6
CONTINUOUS
 62
     7
 10
78.58255778872602
 20
85.0095769501223
 11
78.60004680996624
 21
85.04933167951467
  0
LINE
  8
1
  6
CONTINUOUS
 62
     7
 10
78.60004680996624
 20
85.04933167951467
 11
78.61915879651681
 21
85.088155227887
  0
LINE
  8
1
  6
CONTINUOUS
 62
     7
 10
78.61915879651681
 20
85.088155227887
 11
78.63981740395842
 21
85.12593349178319
  0
LINE
  8
1
  6
CONTINUOUS
 62
     7
 10
78.63981740395842
 20
85.12593349178319
 11
78.66194628787171
 21
85.16255236774717
  0
LINE
  8
1
  6
CONTINUOUS
 62
     7
 10
78.66194628787171
 20
85.16255236774717
 11
78.68546910383733
 21
85.19789775232286
  0
LINE
  8
1
  6
CONTINUOUS
 62
     7
 10
78.68546910383733
 20
85.19789775232286
 11
78.71573107533692
 21
85.23891305614387
  0
LINE
  8
1
  6
CONTINUOUS
 62
     7
 10
78.71573107533692
 20
85.23891305614387
 11
78.74797800889499
 21
85.27815345817915
  0
LINE
  8
1
  6
CONTINUOUS
 62
     7
 10
78.74797800889499
 20
85.27815345817915
 11
78.78204890055478
 21
85.31550996430704
  0
LINE
  8
1
  6
CONTINUOUS
 62
     7
 10
78.78204890055478
 20
85.31550996430704
 11
78.81778274635947
 21
85.3508735804059
  0
LINE
  8
1
  6
CONTINUOUS
 62
     7
 10
78.81778274635947
 20
85.3508735804059
 11
78.85501854235227
 21
85.38413531235416
  0
LINE
  8
1
  6
CONTINUOUS
 62
     7
 10
78.85501854235227
 20
85.38413531235416
 11
78.89359528457635
 21
85.41518616603014
  0
LINE
  8
1
  6
CONTINUOUS
 62
     7
 10
78.89359528457635
 20
85.41518616603014
 11
78.93727910622128
 21
85.4466250300114
  0
LINE
  8
1
  6
CONTINUOUS
 62
     7
 10
78.93727910622128
 20
85.4466250300114
 11
78.98251024205271
 21
85.47551709675668
  0
LINE
  8
1
  6
CONTINUOUS
 62
     7
 10
78.98251024205271
 20
85.47551709675668
 11
79.02909323871287
 21
85.50181226542321
  0
LINE
  8
1
  6
CONTINUOUS
 62
     7
 10
79.02909323871287
 20
85.50181226542321
 11
79.07683264284398
 21
85.52546043516831
  0
LINE
  8
1
  6
CONTINUOUS
 62
     7
 10
79.07683264284398
 20
85.52546043516831
 11
79.12553300108816
 21
85.5464115051493
  0
LINE
  8
1
  6
CONTINUOUS
 62
     7
 10
79.12553300108816
 20
85.5464115051493
 11
79.17499886008756
 21
85.56461537452344
  0
LINE
  8
1
  6
CONTINUOUS
 62
     7
 10
79.17499886008756
 20
85.56461537452344
 11
79.22647416074385
 21
85.58044997171898
  0
LINE
  8
1
  6
CONTINUOUS
 62
     7
 10
79.22647416074385
 20
85.58044997171898
 11
79.27873504705201
 21
85.59348993300979
  0
LINE
  8
1
  6
CONTINUOUS
 62
     7
 10
79.27873504705201
 20
85.59348993300979
 11
79.33159990525319
 21
85.60373508197685
  0
LINE
  8
1
  6
CONTINUOUS
 62
     7
 10
79.33159990525319
 20
85.60373508197685
 11
79.38488712158848
 21
85.61118524220115
  0
LINE
  8
1
  6
CONTINUOUS
 62
     7
 10
79.38488712158848
 20
85.61118524220115
 11
79.43841508229899
 21
85.61584023726365
  0
LINE
  8
1
  6
CONTINUOUS
 62
     7
 10
79.43841508229899
 20
85.61584023726365
 11
79.492002173626
 21
85.61769989074539
  0
LINE
  8
1
  6
CONTINUOUS
 62
     7
 10
97.18718123483738
 20
133.0300937742901
 11
95.51191298642578
 21
133.0300937742901
  0
ARC
  8
1
  6
CONTINUOUS
 62
     7
 10
94.99691298642576
 20
132.5150937742901
 40
1.030668528585347
 50
60.02145438351382
 51
119.9785456164862
  0
LINE
  8
1
  6
CONTINUOUS
 62
     7
 10
108.6605939804352
 20
122.7650937742901
 11
108.6605939804352
 21
114.1514127802807
  0
LINE
  8
1
  6
CONTINUOUS
 62
     7
 10
95.51191298642576
 20
132.0000937742901
 11
97.18718123483734
 21
132.0000937742901
  0
LINE
  8
1
  6
CONTINUOUS
 62
     7
 10
81.33323199241637
 20
114.1514127802807
 11
81.33323199241637
 21
122.7650937742901
  0
LINE
  8
1
  6
CONTINUOUS
 62
     7
 10
78.50598286503268
 20
84.62280774659574
 11
78.50598286503268
 21
83.40737980198445
  0
LINE
  8
1
  6
CONTINUOUS
 62
     7
 10
84.49691298642576
 20
150.5150937742901
 11
84.49691298642576
 21
114.5150937742901
  0
ARC
  8
1
  6
CONTINUOUS
 62
     7
 10
94.99691298642576
 20
132.5150937742901
 40
1.03066852858534
 50
330.0214543835145
 51
29.97854561648552
  0
LINE
  8
1
  6
CONTINUOUS
 62
     7
 10
105.4969129864258
 20
114.5150937742901
 11
105.4969129864258
 21
150.5150937742901
  0
LINE
  8
1
  6
CONTINUOUS
 62
     7
 10
92.8066447380142
 20
132.0000937742901
 11
94.48191298642578
 21
132.0000937742901
  0
ARC
  8
1
  6
CONTINUOUS
 62
     7
 10
94.99691298642576
 20
132.5150937742901
 40
2.249999999999997
 50
76.7683351757007
 51
103.2316648242993
  0
LINE
  8
1
  6
CONTINUOUS
 62
     7
 10
81.33323199241637
 20
122.7650937742901
 11
79.89691298642575
 21
122.7650937742901
  0
LINE
  8
1
  6
CONTINUOUS
 62
     7
 10
105.4969129864258
 20
114.5150937742901
 11
108.0969129864258
 21
114.5150937742901
  0
LINE
  8
1
  6
CONTINUOUS
 62
     7
 10
108.6605939804351
 20
122.7650937742901
 11
110.0969129864258
 21
122.7650937742901
  0
LINE
  8
1
  6
CONTINUOUS
 62
     7
 10
110.0969129864258
 20
142.2650937742901
 11
108.6605939804351
 21
142.2650937742901
  0
LINE
  8
1
  6
CONTINUOUS
 62
     7
 10
81.33323199241637
 20
142.2650937742901
 11
81.33323199241637
 21
150.8787747682995
  0
LINE
  8
1
  6
CONTINUOUS
 62
     7
 10
108.0969129864258
 20
150.5150937742901
 11
105.4969129864258
 21
150.5150937742901
  0
ARC
  8
1
  6
CONTINUOUS
 62
     7
 10
94.99691298642576
 20
132.5150937742901
 40
2.249999999999997
 50
256.7683351757007
 51
283.2316648242993
  0
ARC
  8
1
  6
CONTINUOUS
 62
     7
 10
94.99691298642576
 20
132.5150937742901
 40
2.249999999999993
 50
346.7683351757011
 51
13.23166482429895
  0
LINE
  8
1
  6
CONTINUOUS
 62
     7
 10
94.48191298642577
 20
132.0000937742901
 11
94.48191298642577
 21
130.3248255258785
  0
LINE
  8
1
  6
CONTINUOUS
 62
     7
 10
108.0969129864258
 20
114.5150937742901
 11
108.0969129864258
 21
150.5150937742901
  0
LINE
  8
1
  6
CONTINUOUS
 62
     7
 10
110.5018237992255
 20
85.61769989074539
 11
110.5552046407204
 21
85.61584558532476
  0
LINE
  8
1
  6
CONTINUOUS
 62
     7
 10
110.5552046407204
 20
85.61584558532476
 11
110.6085592802615
 21
85.61120489768739
  0
LINE
  8
1
  6
CONTINUOUS
 62
     7
 10
110.6085592802615
 20
85.61120489768739
 11
110.6617057763384
 21
85.60378116470021
  0
LINE
  8
1
  6
CONTINUOUS
 62
     7
 10
110.6617057763384
 20
85.60378116470021
 11
110.7144621874405
 21
85.59357772323014
  0
LINE
  8
1
  6
CONTINUOUS
 62
     7
 10
110.7144621874405
 20
85.59357772323014
 11
110.7666465720571
 21
85.58059791014422
  0
LINE
  8
1
  6
CONTINUOUS
 62
     7
 10
110.7666465720571
 20
85.58059791014422
 11
110.8180769886778
 21
85.56484506230935
  0
LINE
  8
1
  6
CONTINUOUS
 62
     7
 10
110.8180769886778
 20
85.56484506230935
 11
110.8685714957919
 21
85.54632251659253
  0
LINE
  8
1
  6
CONTINUOUS
 62
     7
 10
110.8685714957919
 20
85.54632251659253
 11
110.9121416417532
 21
85.52770983426342
  0
LINE
  8
1
  6
CONTINUOUS
 62
     7
 10
110.9121416417532
 20
85.52770983426342
 11
110.9550397122188
 21
85.50685161795279
  0
LINE
  8
1
  6
CONTINUOUS
 62
     7
 10
110.9550397122188
 20
85.50685161795279
 11
110.9971199172796
 21
85.4837993791444
  0
LINE
  8
1
  6
CONTINUOUS
 62
     7
 10
110.9971199172796
 20
85.4837993791444
 11
111.0382364670266
 21
85.45860462932193
  0
LINE
  8
1
  6
CONTINUOUS
 62
     7
 10
111.0382364670266
 20
85.45860462932193
 11
111.0782435715508
 21
85.43131887996903
  0
LINE
  8
1
  6
CONTINUOUS
 62
     7
 10
111.0782435715508
 20
85.43131887996903
 11
111.1169954409433
 21
85.40199364256948
  0
LINE
  8
1
  6
CONTINUOUS
 62
     7
 10
111.1169954409433
 20
85.40199364256948
 11
111.1543462852948
 21
85.37068042860693
  0
LINE
  8
1
  6
CONTINUOUS
 62
     7
 10
111.1543462852948
 20
85.37068042860693
 11
111.1901503146966
 21
85.33743074956512
  0
LINE
  8
1
  6
CONTINUOUS
 62
     7
 10
111.1901503146966
 20
85.33743074956512
 11
111.2213626558521
 21
85.30543677175886
  0
LINE
  8
1
  6
CONTINUOUS
 62
     7
 10
111.2213626558521
 20
85.30543677175886
 11
111.251314444551
 21
85.2717194546649
  0
LINE
  8
1
  6
CONTINUOUS
 62
     7
 10
111.251314444551
 20
85.2717194546649
 11
111.2798967434234
 21
85.23638788216861
  0
LINE
  8
1
  6
CONTINUOUS
 62
     7
 10
111.2798967434234
 20
85.23638788216861
 11
111.3070006150993
 21
85.19955113815537
  0
LINE
  8
1
  6
CONTINUOUS
 62
     7
 10
111.3070006150993
 20
85.19955113815537
 11
111.3325171222088
 21
85.16131830651055
  0
LINE
  8
1
  6
CONTINUOUS
 62
     7
 10
111.3325171222088
 20
85.16131830651055
 11
111.3563373273818
 21
85.12179847111953
  0
LINE
  8
1
  6
CONTINUOUS
 62
     7
 10
111.3563373273818
 20
85.12179847111953
 11
111.3783522932483
 21
85.08110071586769
  0
LINE
  8
1
  6
CONTINUOUS
 62
     7
 10
111.3783522932483
 20
85.08110071586769
 11
111.3984530824385
 21
85.03933412464038
  0
LINE
  8
1
  6
CONTINUOUS
 62
     7
 10
111.3984530824385
 20
85.03933412464038
 11
111.4145961849421
 21
85.00150604257523
  0
LINE
  8
1
  6
CONTINUOUS
 62
     7
 10
111.4145961849421
 20
85.00150604257523
 11
111.4292452244747
 21
84.96276196654773
  0
LINE
  8
1
  6
CONTINUOUS
 62
     7
 10
111.4292452244747
 20
84.96276196654773
 11
111.4423578998197
 21
84.92322516495298
  0
LINE
  8
1
  6
CONTINUOUS
 62
     7
 10
111.4423578998197
 20
84.92322516495298
 11
111.4538919097603
 21
84.8830189061862
  0
LINE
  8
1
  6
CONTINUOUS
 62
     7
 10
111.4538919097603
 20
84.8830189061862
 11
111.4638049530802
 21
84.8422664586425
  0
LINE
  8
1
  6
CONTINUOUS
 62
     7
 10
111.4638049530802
 20
84.8422664586425
 11
111.4720547285625
 21
84.80109109071704
  0
LINE
  8
1
  6
CONTINUOUS
 62
     7
 10
111.4720547285625
 20
84.80109109071704
 11
111.4785989349907
 21
84.75961607080501
  0
LINE
  8
1
  6
CONTINUOUS
 62
     7
 10
111.4785989349907
 20
84.75961607080501
 11
111.4833952711482
 21
84.7179646673015
  0
LINE
  8
1
  6
CONTINUOUS
 62
     7
 10
111.4833952711482
 20
84.7179646673015
 11
111.4858641693602
 21
84.68631482580693
  0
LINE
  8
1
  6
CONTINUOUS
 62
     7
 10
111.4858641693602
 20
84.68631482580693
 11
111.4873478426641
 21
84.65457612051831
  0
LINE
  8
1
  6
CONTINUOUS
 62
     7
 10
111.4873478426641
 20
84.65457612051831
 11
111.4878431078189
 21
84.62280774659574
  0
LINE
  8
1
  6
CONTINUOUS
 62
     7
 10
79.89691298642576
 20
142.2650937742901
 11
81.33323199241639
 21
142.2650937742901
  0
LINE
  8
1
  6
CONTINUOUS
 62
     7
 10
78.5290483768492
 20
83.19182445595347
 11
78.50598286503266
 21
83.40737980198445
  0
LINE
  8
1
  6
CONTINUOUS
 62
     7
 10
84.49691298642576
 20
114.5150937742901
 11
105.4969129864257
 21
114.5150937742901
  0
CIRCLE
  8
1
  6
CONTINUOUS
 62
     7
 10
94.99691298642576
 20
132.5150937742901
 40
4.2
  0
LINE
  8
1
  6
CONTINUOUS
 62
     7
 10
94.48191298642577
 20
134.7053620227017
 11
94.48191298642577
 21
133.0300937742901
  0
LINE
  8
1
  6
CONTINUOUS
 62
     7
 10
95.51191298642576
 20
133.0300937742901
 11
95.51191298642576
 21
134.7053620227017
  0
ARC
  8
1
  6
CONTINUOUS
 62
     7
 10
94.99691298642576
 20
132.5150937742901
 40
1.03066852858534
 50
150.0214543835145
 51
209.9785456164855
  0
LINE
  8
1
  6
CONTINUOUS
 62
     7
 10
110.0969129864258
 20
142.2650937742901
 11
110.0969129864258
 21
122.7650937742901
  0
LINE
  8
1
  6
CONTINUOUS
 62
     7
 10
79.89691298642576
 20
142.2650937742901
 11
79.89691298642576
 21
122.7650937742901
  0
LINE
  8
1
  6
CONTINUOUS
 62
     7
 10
105.4969129864258
 20
150.5150937742901
 11
84.49691298642578
 21
150.5150937742901
  0
LINE
  8
1
  6
CONTINUOUS
 62
     7
 10
94.48191298642577
 20
133.0300937742901
 11
92.80664473801419
 21
133.0300937742901
  0
ARC
  8
1
  6
CONTINUOUS
 62
     7
 10
94.99691298642576
 20
132.5150937742901
 40
1.030668528585347
 50
240.0214543835138
 51
299.9785456164861
  0
LINE
  8
1
  6
CONTINUOUS
 62
     7
 10
108.4969129864258
 20
122.7650937742901
 11
108.4969129864258
 21
114.3150937742901
  0
LINE
  8
1
  6
CONTINUOUS
 62
     7
 10
81.49691298642576
 20
142.2650937742901
 11
81.49691298642576
 21
150.7150937742901
  0
LINE
  8
1
  6
CONTINUOUS
 62
     7
 10
111.4878431078189
 20
83.40737980198445
 11
111.4878431078189
 21
84.62280774659574
  0
LINE
  8
1
  6
CONTINUOUS
 62
     7
 10
111.4647775960023
 20
83.1918244559535
 11
111.4541479464765
 21
83.14695125241678
  0
LINE
  8
1
  6
CONTINUOUS
 62
     7
 10
111.4541479464765
 20
83.14695125241678
 11
111.4418074840542
 21
83.10257836530302
  0
LINE
  8
1
  6
CONTINUOUS
 62
     7
 10
111.4418074840542
 20
83.10257836530302
 11
111.4277627094437
 21
83.05885917409358
  0
LINE
  8
1
  6
CONTINUOUS
 62
     7
 10
111.4277627094437
 20
83.05885917409358
 11
111.4120201233532
 21
83.01594705826987
  0
LINE
  8
1
  6
CONTINUOUS
 62
     7
 10
111.4120201233532
 20
83.01594705826987
 11
111.3945862264908
 21
82.97399539731336
  0
LINE
  8
1
  6
CONTINUOUS
 62
     7
 10
111.3945862264908
 20
82.97399539731336
 11
111.3754675195649
 21
82.9331575707054
  0
LINE
  8
1
  6
CONTINUOUS
 62
     7
 10
111.3754675195649
 20
82.9331575707054
 11
111.3546705032835
 21
82.89358695792748
  0
LINE
  8
1
  6
CONTINUOUS
 62
     7
 10
111.3546705032835
 20
82.89358695792748
 11
111.3321248991395
 21
82.85527733816092
  0
LINE
  8
1
  6
CONTINUOUS
 62
     7
 10
111.3321248991395
 20
82.85527733816092
 11
111.3078252071039
 21
82.81820166136883
  0
LINE
  8
1
  6
CONTINUOUS
 62
     7
 10
111.3078252071039
 20
82.81820166136883
 11
111.2818628745181
 21
82.78246009650886
  0
LINE
  8
1
  6
CONTINUOUS
 62
     7
 10
111.2818628745181
 20
82.78246009650886
 11
111.2543293487237
 21
82.7481528125387
  0
LINE
  8
1
  6
CONTINUOUS
 62
     7
 10
111.2543293487237
 20
82.7481528125387
 11
111.2253160770621
 21
82.7153799784161
  0
LINE
  8
1
  6
CONTINUOUS
 62
     7
 10
111.2253160770621
 20
82.7153799784161
 11
111.1949145068749
 21
82.68424176309874
  0
LINE
  8
1
  6
CONTINUOUS
 62
     7
 10
111.1949145068749
 20
82.68424176309874
 11
111.1632160855034
 21
82.6548383355443
  0
LINE
  8
1
  6
CONTINUOUS
 62
     7
 10
111.1632160855034
 20
82.6548383355443
 11
111.1243541562337
 21
82.62249973311106
  0
LINE
  8
1
  6
CONTINUOUS
 62
     7
 10
111.1243541562337
 20
82.62249973311106
 11
111.0837646487612
 21
82.59242142710208
  0
LINE
  8
1
  6
CONTINUOUS
 62
     7
 10
111.0837646487612
 20
82.59242142710208
 11
111.0416446981148
 21
82.5646418351705
  0
LINE
  8
1
  6
CONTINUOUS
 62
     7
 10
111.0416446981148
 20
82.5646418351705
 11
110.9981914393233
 21
82.53919937496953
  0
LINE
  8
1
  6
CONTINUOUS
 62
     7
 10
110.9981914393233
 20
82.53919937496953
 11
110.9536020074157
 21
82.51613246415229
  0
LINE
  8
1
  6
CONTINUOUS
 62
     7
 10
110.9536020074157
 20
82.51613246415229
 11
110.9080735374208
 21
82.495479520372
  0
LINE
  8
1
  6
CONTINUOUS
 62
     7
 10
110.9080735374208
 20
82.495479520372
 11
110.855890139991
 21
82.47509972098699
  0
LINE
  8
1
  6
CONTINUOUS
 62
     7
 10
110.855890139991
 20
82.47509972098699
 11
110.8026310694115
 21
82.45759251748952
  0
LINE
  8
1
  6
CONTINUOUS
 62
     7
 10
110.8026310694115
 20
82.45759251748952
 11
110.7485314365229
 21
82.44295463494166
  0
LINE
  8
1
  6
CONTINUOUS
 62
     7
 10
110.7485314365229
 20
82.44295463494166
 11
110.6938263521657
 21
82.4311827984055
  0
LINE
  8
1
  6
CONTINUOUS
 62
     7
 10
110.6938263521657
 20
82.4311827984055
 11
110.6387509271807
 21
82.42227373294317
  0
LINE
  8
1
  6
CONTINUOUS
 62
     7
 10
110.6387509271807
 20
82.42227373294317
 11
110.5835402724083
 21
82.41622416361673
  0
LINE
  8
1
  6
CONTINUOUS
 62
     7
 10
110.5835402724083
 20
82.41622416361673
 11
110.5429131576438
 21
82.41358809924198
  0
LINE
  8
1
  6
CONTINUOUS
 62
     7
 10
110.5429131576438
 20
82.41358809924198
 11
110.5022983497446
 21
82.41248184741676
  0
ARC
  8
1
  6
CONTINUOUS
 62
     7
 10
124.2018833904572
 20
118.0559458505653
 40
60.65692059747077
 50
184.8797696386746
 51
204.3580052449525
  0
ARC
  8
1
  6
CONTINUOUS
 62
     7
 10
95.1188600355246
 20
150.282306440051
 40
28.51647901652082
 50
20.43792959892156
 51
66.40077507183825
  0
LINE
  8
1
  6
CONTINUOUS
 62
     7
 10
81.49691298642576
 20
150.7150937742901
 11
81.33323199241637
 21
150.8787747682995
  0
LINE
  8
1
  6
CONTINUOUS
 62
     7
 10
81.49691298642576
 20
114.3150937742901
 11
81.49691298642576
 21
122.7650937742901
  0
LINE
  8
1
  6
CONTINUOUS
 62
     7
 10
79.06562093178215
 20
82.504305968081
 11
78.93514044497202
 21
82.57568726376252
  0
LINE
  8
1
  6
CONTINUOUS
 62
     7
 10
78.93514044497202
 20
82.57568726376252
 11
78.8168028613398
 21
82.66733951647207
  0
LINE
  8
1
  6
CONTINUOUS
 62
     7
 10
78.8168028613398
 20
82.66733951647207
 11
78.72402115582261
 21
82.76700458378511
  0
LINE
  8
1
  6
CONTINUOUS
 62
     7
 10
78.72402115582261
 20
82.76700458378511
 11
78.6497124006934
 21
82.8755079429346
  0
LINE
  8
1
  6
CONTINUOUS
 62
     7
 10
78.6497124006934
 20
82.8755079429346
 11
78.59025283166393
 21
82.99472596190927
  0
LINE
  8
1
  6
CONTINUOUS
 62
     7
 10
78.59025283166393
 20
82.99472596190927
 11
78.54942300903971
 21
83.11119928557012
  0
LINE
  8
1
  6
CONTINUOUS
 62
     7
 10
78.54942300903971
 20
83.11119928557012
 11
78.5290483768492
 21
83.19182445595347
  0
LINE
  8
1
  6
CONTINUOUS
 62
     7
 10
111.4878431078189
 20
83.40737980198445
 11
111.4647775960023
 21
83.1918244559535
  0
ARC
  8
1
  6
CONTINUOUS
 62
     7
 10
95.29402581385443
 20
104.8387551988423
 40
28.51168517535508
 50
269.4029248338047
 51
306.8731448703685
  0
LINE
  8
1
  6
CONTINUOUS
 62
     7
 10
108.4969129864258
 20
150.7150937742901
 11
108.4969129864258
 21
142.2650937742901
  0
LINE
  8
1
  6
CONTINUOUS
 62
     7
 10
108.4969129864258
 20
114.3150937742901
 11
81.49691298642578
 21
114.3150937742901
  0
LINE
  8
1
  6
CONTINUOUS
 62
     7
 10
81.49691298642576
 20
150.7150937742901
 11
108.4969129864257
 21
150.7150937742901
  0
ARC
  8
1
  6
CONTINUOUS
 62
     7
 10
183.7107517124372
 20
127.1521901799113
 40
120.790152500497
 50
167.8521635796264
 51
186.7780258727735
  0
LINE
  8
1
  6
CONTINUOUS
 62
     7
 10
81.49691298642576
 20
114.3150937742901
 11
81.33323199241637
 21
114.1514127802807
  0
ARC
  8
1
  6
CONTINUOUS
 62
     7
 10
94.483003139476
 20
104.1916672636362
 40
27.86778803888854
 50
203.5910882666964
 51
271.0566512987263
  0
ARC
  8
1
  6
CONTINUOUS
 62
     7
 10
95.10414388461801
 20
149.6263532219988
 40
29.12453049405031
 50
66.8908605401766
 51
134.9615496400513
  0
ARC
  8
1
  6
CONTINUOUS
 62
     7
 10
16.77701318060992
 20
127.2007720659633
 40
110.3366002033498
 50
345.8908583827031
 51
4.10463072895277
  0
ARC
  8
1
  6
CONTINUOUS
 62
     7
 10
90.71876897437598
 20
108.2192244854458
 40
34.00047872616674
 50
309.6237112400124
 51
346.5382551766683
  0
LINE
  8
1
  6
CONTINUOUS
 62
     7
 10
81.49691298642576
 20
122.7650937742901
 11
81.33323199241637
 21
122.7650937742901
  0
LINE
  8
1
  6
CONTINUOUS
 62
     7
 10
108.4969129864258
 20
150.7150937742901
 11
108.6605939804352
 21
150.8787747682995
  0
LINE
  8
1
  6
CONTINUOUS
 62
     7
 10
110.426710099408
 20
82.41184174899881
 11
110.5022983497446
 21
82.41248184741676
  0
LINE
  8
1
  6
CONTINUOUS
 62
     7
 10
108.4969129864258
 20
122.7650937742901
 11
108.6605939804352
 21
122.7650937742901
  0
ARC
  8
1
  6
CONTINUOUS
 62
     7
 10
50.75396770656426
 20
133.0640965268192
 40
76.1038277752078
 50
1.531773837932964
 51
20.92161687825205
  0
LINE
  8
1
  6
CONTINUOUS
 62
     7
 10
81.33323199241637
 20
142.2650937742901
 11
81.49691298642576
 21
142.2650937742901
  0
LINE
  8
1
  6
CONTINUOUS
 62
     7
 10
79.4915276231084
 20
82.41248184741676
 11
79.5671158734665
 21
82.41184174899861
  0
ARC
  8
1
  6
CONTINUOUS
 62
     7
 10
79.49894908351635
 20
83.4805556646642
 40
1.068099600769566
 50
246.0649913853088
 51
269.6018893926553
  0
ARC
  8
1
  6
CONTINUOUS
 62
     7
 10
103.3093459208362
 20
144.6597314471636
 40
38.50540766538807
 50
138.3804148760675
 51
168.1441881041994
  0
LINE
  8
1
  6
CONTINUOUS
 62
     7
 10
108.4969129864258
 20
114.3150937742901
 11
108.6605939804352
 21
114.1514127802807
  0
LINE
  8
1
  6
CONTINUOUS
 62
     7
 10
108.6605939804352
 20
142.2650937742901
 11
108.4969129864258
 21
142.2650937742901
  0
ENDSEC
  0
EOF
