  0
SECTION
  2
HEADER
  9
$ACADVER
  1
AC1004
  9
$INSBASE
 10
0.0
 20
0.0
  9
$EXTMIN
 10
-315.8411197756841
 20
51.17045454545454
  9
$EXTMAX
 10
-120.4738442813217
 20
273.8513166408114
  9
$LIMMIN
 10
0.0
 20
0.0
  9
$LIMMAX
 10
12.0
 20
9.0
  9
$ORTHOMODE
 70
     0
  9
$REGENMODE
 70
     1
  9
$FILLMODE
 70
     1
  9
$QTEXTMODE
 70
     0
  9
$DRAGMODE
 70
     2
  9
$LTSCALE
 40
1.0
  9
$OSMODE
 70
    37
  9
$ATTMODE
 70
     1
  9
$TEXTSIZE
 40
0.2
  9
$TRACEWID
 40
0.05
  9
$TEXTSTYLE
  7
STANDARD
  9
$CLAYER
  8
0
  9
$CELTYPE
  6
BYLAYER
  9
$CECOLOR
 62
   256
  9
$DIMSCALE
 40
1.0
  9
$DIMASZ
 40
3.0
  9
$DIMEXO
 40
0.0625
  9
$DIMDLI
 40
0.38
  9
$DIMRND
 40
0.0
  9
$DIMDLE
 40
0.0
  9
$DIMEXE
 40
1.5
  9
$DIMTP
 40
0.0
  9
$DIMTM
 40
0.0
  9
$DIMTXT
 40
3.0
  9
$DIMCEN
 40
0.09
  9
$DIMTSZ
 40
0.0
  9
$DIMTOL
 70
     0
  9
$DIMLIM
 70
     0
  9
$DIMTIH
 70
     1
  9
$DIMTOH
 70
     1
  9
$DIMSE1
 70
     0
  9
$DIMSE2
 70
     0
  9
$DIMTAD
 70
     1
  9
$DIMZIN
 70
     0
  9
$DIMBLK
  1

  9
$DIMASO
 70
     1
  9
$DIMSHO
 70
     1
  9
$DIMPOST
  1

  9
$DIMAPOST
  1

  9
$DIMALT
 70
     0
  9
$DIMALTD
 70
     2
  9
$DIMALTF
 40
25.4
  9
$DIMLFAC
 40
1.0
  9
$DIMTOFL
 70
     0
  9
$DIMTVP
 40
0.0
  9
$DIMTIX
 70
     0
  9
$DIMSOXD
 70
     0
  9
$DIMSAH
 70
     0
  9
$DIMBLK1
  1

  9
$DIMBLK2
  1

  9
$LUNITS
 70
     2
  9
$LUPREC
 70
     4
  9
$SKETCHINC
 40
0.1
  9
$FILLETRAD
 40
0.5
  9
$AUNITS
 70
     0
  9
$AUPREC
 70
     0
  9
$MENU
  1
.
  9
$ELEVATION
 40
0.0
  9
$THICKNESS
 40
0.0
  9
$LIMCHECK
 70
     0
  9
$CHAMFERA
 40
0.0
  9
$CHAMFERB
 40
0.0
  9
$SKPOLY
 70
     0
  9
$TDCREATE
 40
2459695.731867477
  9
$TDUPDATE
 40
2459695.731868148
  9
$TDINDWG
 40
0.0000000116
  9
$TDUSRTIMER
 40
0.0000000116
  9
$USRTIMER
 70
     1
  9
$ANGBASE
 50
0.0
  9
$ANGDIR
 70
     0
  9
$PDMODE
 70
     0
  9
$PDSIZE
 40
0.0
  9
$PLINEWID
 40
0.0
  9
$COORDS
 70
     1
  9
$SPLFRAME
 70
     0
  9
$SPLINETYPE
 70
     6
  9
$SPLINESEGS
 70
     8
  9
$ATTDIA
 70
     0
  9
$ATTREQ
 70
     1
  9
$SURFTAB1
 70
     6
  9
$SURFTAB2
 70
     6
  9
$SURFTYPE
 70
     6
  9
$SURFU
 70
     6
  9
$SURFV
 70
     6
  9
$UCSNAME
  2

  9
$UCSORG
 10
0.0
 20
0.0
 30
0.0
  9
$UCSXDIR
 10
1.0
 20
0.0
 30
0.0
  9
$UCSYDIR
 10
0.0
 20
1.0
 30
0.0
  9
$USERI1
 70
     0
  9
$USERI2
 70
     0
  9
$USERI3
 70
     0
  9
$USERI4
 70
     0
  9
$USERI5
 70
     0
  9
$USERR1
 40
0.0
  9
$USERR2
 40
0.0
  9
$USERR3
 40
0.0
  9
$USERR4
 40
0.0
  9
$USERR5
 40
0.0
  9
$WORLDVIEW
 70
     1
  0
ENDSEC
  0
SECTION
  2
TABLES
  0
TABLE
  2
LTYPE
 70
     2
  0
LTYPE
  2
CONTINUOUS
 70
     0
  3
Solid line
 72
    65
 73
     0
 40
0.0
  0
LTYPE
  2
CENTER
 70
     0
  3

 72
    65
 73
     0
 40
0.0
  0
ENDTAB
  0
TABLE
  2
LAYER
 70
     2
  0
LAYER
  2
0
 70
     0
 62
     7
  6
CONTINUOUS
  0
LAYER
  2
1
 70
     0
 62
     7
  6
CONTINUOUS
  0
ENDTAB
  0
TABLE
  2
STYLE
 70
     2
  0
STYLE
  2
STANDARD
 70
     0
 40
0.0
 41
1.0
 50
0.0
 71
     0
 42
0.2
  3
txt
  4

  0
STYLE
  2
ＭＳ_ゴシック
 70
     0
 40
0.0
 41
1.0
 50
0.0
 71
     0
 42
0.2
  3
ＭＳ ゴシック.shx
  4

  0
ENDTAB
  0
TABLE
  2
VIEW
 70
     0
  0
ENDTAB
  0
ENDSEC
  0
SECTION
  2
BLOCKS
  0
ENDSEC
  0
SECTION
  2
ENTITIES
  0
ARC
  8
1
  6
CONTINUOUS
 62
     7
 10
-277.5030870135743
 20
222.5150937742901
 40
2.25000000000002
 50
346.7683351757013
 51
13.23166482429883
  0
ARC
  8
1
  6
CONTINUOUS
 62
     7
 10
-277.5030870135743
 20
222.5150937742901
 40
1.03066852858534
 50
240.0214543835145
 51
299.9785456164855
  0
ARC
  8
1
  6
CONTINUOUS
 62
     7
 10
-277.5030870135743
 20
222.5150937742901
 40
1.03066852858534
 50
330.0214543835145
 51
29.97854561648552
  0
ARC
  8
1
  6
CONTINUOUS
 62
     7
 10
-277.5030870135743
 20
222.5150937742901
 40
1.03066852858534
 50
60.0214543835145
 51
119.9785456164855
  0
ARC
  8
1
  6
CONTINUOUS
 62
     7
 10
-277.5030870135743
 20
222.5150937742901
 40
2.249999999999993
 50
256.7683351757011
 51
283.2316648242989
  0
ARC
  8
1
  6
CONTINUOUS
 62
     7
 10
-277.5030870135743
 20
222.5150937742901
 40
2.25000000000002
 50
166.7683351757012
 51
193.2316648242988
  0
ARC
  8
1
  6
CONTINUOUS
 62
     7
 10
-277.5030870135743
 20
222.5150937742901
 40
2.249999999999993
 50
76.76833517570103
 51
103.2316648242989
  0
CIRCLE
  8
1
  6
CONTINUOUS
 62
     7
 10
-277.5030870135743
 20
222.5150937742901
 40
5.5
  0
CIRCLE
  8
1
  6
CONTINUOUS
 62
     7
 10
-277.5030870135743
 20
222.5150937742901
 40
4.2
  0
LINE
  8
1
  6
CONTINUOUS
 62
     7
 10
-278.0180870135742
 20
222.0000937742901
 11
-278.0180870135742
 21
220.3248255258785
  0
LINE
  8
1
  6
CONTINUOUS
 62
     7
 10
-278.0180870135742
 20
223.0300937742901
 11
-279.6933552619859
 21
223.0300937742901
  0
LINE
  8
1
  6
CONTINUOUS
 62
     7
 10
-267.0030870135743
 20
240.5150937742901
 11
-288.0030870135743
 21
240.5150937742901
  0
LINE
  8
1
  6
CONTINUOUS
 62
     7
 10
-276.9880870135743
 20
223.0300937742901
 11
-276.9880870135743
 21
224.7053620227016
  0
LINE
  8
1
  6
CONTINUOUS
 62
     7
 10
-290.6030870135743
 20
240.5150937742901
 11
-290.6030870135743
 21
204.5150937742901
  0
LINE
  8
1
  6
CONTINUOUS
 62
     7
 10
-288.0030870135743
 20
204.5150937742901
 11
-267.0030870135743
 21
204.5150937742901
  0
LINE
  8
1
  6
CONTINUOUS
 62
     7
 10
-288.0030870135743
 20
240.5150937742901
 11
-288.0030870135743
 21
204.5150937742901
  0
LINE
  8
1
  6
CONTINUOUS
 62
     7
 10
-290.6030870135743
 20
204.5150937742901
 11
-288.0030870135743
 21
204.5150937742901
  0
LINE
  8
1
  6
CONTINUOUS
 62
     7
 10
-278.0180870135742
 20
224.7053620227016
 11
-278.0180870135742
 21
223.0300937742901
  0
LINE
  8
1
  6
CONTINUOUS
 62
     7
 10
-276.9880870135743
 20
220.3248255258785
 11
-276.9880870135743
 21
222.0000937742901
  0
LINE
  8
1
  6
CONTINUOUS
 62
     7
 10
-276.9880870135743
 20
222.0000937742901
 11
-275.3128187651627
 21
222.0000937742901
  0
LINE
  8
1
  6
CONTINUOUS
 62
     7
 10
-279.6933552619859
 20
222.0000937742901
 11
-278.0180870135742
 21
222.0000937742901
  0
LINE
  8
1
  6
CONTINUOUS
 62
     7
 10
-275.3128187651627
 20
223.0300937742901
 11
-276.9880870135742
 21
223.0300937742901
  0
ARC
  8
1
  6
CONTINUOUS
 62
     7
 10
-277.9077728176457
 20
195.6583955085771
 40
31.44213237975405
 50
229.8864717382749
 51
273.0420112257665
  0
ARC
  8
1
  6
CONTINUOUS
 62
     7
 10
-294.5117383820165
 20
73.97384428132167
 40
0.4999999999999916
 50
180.9999999999979
 51
270.0
  0
ARC
  8
1
  6
CONTINUOUS
 62
     7
 10
-107.6806000643981
 20
223.0348876588894
 40
20.00000000000034
 50
181.4892674801243
 51
195.2772294817361
  0
ARC
  8
1
  6
CONTINUOUS
 62
     7
 10
-277.5030870135743
 20
71.57384428132168
 40
28.0
 50
53.91663176072865
 51
126.0833682392715
  0
ARC
  8
1
  6
CONTINUOUS
 62
     7
 10
-259.2034847116635
 20
90.63368522838024
 40
0.4999999999999968
 50
117.9837140557911
 51
178.999999999999
  0
ARC
  8
1
  6
CONTINUOUS
 62
     7
 10
-310.9993554624627
 20
107.7738442813217
 40
0.7999999999999952
 50
90.0
 51
207.3152426896627
  0
ARC
  8
1
  6
CONTINUOUS
 62
     7
 10
-138.9738442813217
 20
233.7737451427322
 40
0.5000000000000004
 50
0.0
 51
88.99999999999895
  0
ARC
  8
1
  6
CONTINUOUS
 62
     7
 10
-138.9738442813217
 20
242.7737451427322
 40
0.5000000000000004
 50
0.0
 51
88.99999999999895
  0
ARC
  8
1
  6
CONTINUOUS
 62
     7
 10
-163.5738442813217
 20
173.4977910374058
 40
1.000000000000001
 50
180.0
 51
269.0000000000006
  0
ARC
  8
1
  6
CONTINUOUS
 62
     7
 10
-293.0117383820165
 20
73.97384428132167
 40
0.4999999999999916
 50
180.9999999999979
 51
270.0
  0
ARC
  8
1
  6
CONTINUOUS
 62
     7
 10
-260.4944356451321
 20
73.97384428132167
 40
0.5000000000000004
 50
270.0
 51
358.9999999999989
  0
ARC
  8
1
  6
CONTINUOUS
 62
     7
 10
-133.6738442813216
 20
232.7650937742901
 40
0.5000000000000004
 50
270.0
 51
0.0
  0
ARC
  8
1
  6
CONTINUOUS
 62
     7
 10
-277.5030870135743
 20
125.0738442813218
 40
35.00000000000009
 50
298.0674339339273
 51
329.9999999998939
  0
ARC
  8
1
  6
CONTINUOUS
 62
     7
 10
-272.3666932652571
 20
78.2392911464935
 40
16.26567630329206
 50
269.6956769373097
 51
286.3855239450409
  0
ARC
  8
1
  6
CONTINUOUS
 62
     7
 10
-152.3738442813217
 20
165.0365267206824
 40
0.7999999999999992
 50
222.485207262303
 51
0.0
  0
ARC
  8
1
  6
CONTINUOUS
 62
     7
 10
-277.5030870135743
 20
125.0738442813217
 40
35.00000000000001
 50
243.8417870135052
 51
296.1582129865367
  0
ARC
  8
1
  6
CONTINUOUS
 62
     7
 10
-163.5738442813217
 20
174.5323965111744
 40
1.000000000000011
 50
90.99999999999943
 51
180.0
  0
ARC
  8
1
  6
CONTINUOUS
 62
     7
 10
-133.6738442813216
 20
208.0150937742901
 40
0.5000000000000004
 50
270.0
 51
0.0
  0
ARC
  8
1
  6
CONTINUOUS
 62
     7
 10
-135.1238442813216
 20
231.7650937742901
 40
0.5000000000000004
 50
90.0
 51
180.0
  0
ARC
  8
1
  6
CONTINUOUS
 62
     7
 10
-286.3030870135743
 20
68.67384428132165
 40
0.500000000000056
 50
270.0
 51
0.0
  0
ARC
  8
1
  6
CONTINUOUS
 62
     7
 10
-291.8030870135743
 20
68.67384428132165
 40
0.5000000000000004
 50
180.0
 51
270.0
  0
ARC
  8
1
  6
CONTINUOUS
 62
     7
 10
-138.9738442813217
 20
202.2564424058479
 40
0.5000000000000199
 50
271.0000000000011
 51
0.0
  0
ARC
  8
1
  6
CONTINUOUS
 62
     7
 10
-261.9944356451321
 20
73.97384428132167
 40
0.5000000000000004
 50
270.0
 51
359.0000000000022
  0
ARC
  8
1
  6
CONTINUOUS
 62
     7
 10
-277.5030870135741
 20
125.0738442813218
 40
35.00000000000028
 50
210.0000000000907
 51
241.9325660660726
  0
ARC
  8
1
  6
CONTINUOUS
 62
     7
 10
-295.8026893154851
 20
90.63368522838024
 40
0.4999999999999916
 50
0.9999999999978733
 51
62.01628594420892
  0
ARC
  8
1
  6
CONTINUOUS
 62
     7
 10
-95.07384428132168
 20
217.5150937742901
 40
78.49999999999999
 50
137.5147927377398
 51
222.4852072623038
  0
ARC
  8
1
  6
CONTINUOUS
 62
     7
 10
-245.4601470735501
 20
106.5738442813217
 40
2.000000000000002
 50
90.0
 51
150.0000000000001
  0
ARC
  8
1
  6
CONTINUOUS
 62
     7
 10
-244.0068185646858
 20
107.7738442813217
 40
0.8000000000000127
 50
332.6847573103383
 51
90.0
  0
ARC
  8
1
  6
CONTINUOUS
 62
     7
 10
-309.5460269535985
 20
106.5738442813217
 40
2.000000000000008
 50
29.99999999999991
 51
90.00000000000001
  0
ARC
  8
1
  6
CONTINUOUS
 62
     7
 10
-135.1238442813216
 20
213.2650937742901
 40
0.5000000000000004
 50
180.0
 51
270.0
  0
ARC
  8
1
  6
CONTINUOUS
 62
     7
 10
-294.2893815362193
 20
89.87128306485592
 40
0.4999999999999921
 50
1.000000000001053
 51
64.5059217757143
  0
ARC
  8
1
  6
CONTINUOUS
 62
     7
 10
-277.5030870135742
 20
125.0738442813216
 40
38.49999999999995
 50
269.9999999999999
 51
332.6847573101029
  0
ARC
  8
1
  6
CONTINUOUS
 62
     7
 10
-277.5030870135743
 20
125.0738442813216
 40
38.49999999999997
 50
207.3153510589449
 51
270.0000000000001
  0
ARC
  8
1
  6
CONTINUOUS
 62
     7
 10
-138.9738442813217
 20
211.2564424058479
 40
0.4999999999999921
 50
271.0000000000011
 51
0.0
  0
ARC
  8
1
  6
CONTINUOUS
 62
     7
 10
-151.0738442813217
 20
201.0450837921726
 40
0.4999999999999921
 50
91.00000000000104
 51
180.0
  0
ARC
  8
1
  6
CONTINUOUS
 62
     7
 10
-277.291702654713
 20
79.21477005769876
 40
17.24092953498073
 50
269.9621670188205
 51
283.2352057742132
  0
ARC
  8
1
  6
CONTINUOUS
 62
     7
 10
-260.7167924909293
 20
89.87128306485592
 40
0.4999999999999909
 50
115.4940782242843
 51
178.9999999999989
  0
ARC
  8
1
  6
CONTINUOUS
 62
     7
 10
-133.6738442813216
 20
212.2650937742901
 40
0.5000000000000004
 50
0.0
 51
90.0
  0
ARC
  8
1
  6
CONTINUOUS
 62
     7
 10
-133.6738442813216
 20
236.3150937742901
 40
0.5000000000000004
 50
0.0
 51
90.0
  0
ARC
  8
1
  6
CONTINUOUS
 62
     7
 10
-268.7030870135743
 20
68.67384428132165
 40
0.5000000000000004
 50
180.0
 51
270.0
  0
ARC
  8
1
  6
CONTINUOUS
 62
     7
 10
-263.2030870135743
 20
68.67384428132165
 40
0.5000000000000004
 50
270.0
 51
0.0
  0
ARC
  8
1
  6
CONTINUOUS
 62
     7
 10
-152.3738442813217
 20
269.9936608278978
 40
0.7999999999999952
 50
0.0
 51
137.5147927376955
  0
ARC
  8
1
  6
CONTINUOUS
 62
     7
 10
-151.0738442813217
 20
243.9851037564076
 40
0.5000000000000004
 50
180.0
 51
268.999999999999
  0
ARC
  8
1
  6
CONTINUOUS
 62
     7
 10
-277.5030870135743
 20
222.5150937742901
 40
1.03066852858534
 50
150.0214543835145
 51
209.9785456164855
  0
ARC
  8
1
  6
CONTINUOUS
 62
     7
 10
-319.9492036070317
 20
223.6491156018996
 40
74.24105103630157
 50
2.398570078892805
 51
20.38320973853557
  0
ARC
  8
1
  6
CONTINUOUS
 62
     7
 10
-277.1440737222374
 20
194.5763489479172
 40
28.2500121544871
 50
269.2718410172997
 51
309.9933273273637
  0
ARC
  8
1
  6
CONTINUOUS
 62
     7
 10
-228.120023242195
 20
222.5686619314236
 40
83.57560660877381
 50
160.4626846681431
 51
179.6063853326962
  0
ARC
  8
1
  6
CONTINUOUS
 62
     7
 10
-270.0914928802694
 20
235.0127422893726
 40
37.55551882350196
 50
135.8013634601576
 51
168.524057573799
  0
ARC
  8
1
  6
CONTINUOUS
 62
     7
 10
-281.0063351907743
 20
237.3852380602951
 40
35.51462203519167
 50
13.16830432802191
 51
47.47170840776502
  0
ARC
  8
1
  6
CONTINUOUS
 62
     7
 10
-278.0127407712063
 20
194.1870146940265
 40
27.86305808588617
 50
203.9721006468222
 51
271.0480772713309
  0
ARC
  8
1
  6
CONTINUOUS
 62
     7
 10
-277.6320158543867
 20
238.0248347272467
 40
32.82673510216302
 50
51.0597068698674
 51
113.0367220027664
  0
ARC
  8
1
  6
CONTINUOUS
 62
     7
 10
-190.575316990588
 20
217.1533776924632
 40
121.2663422538903
 50
177.1689676763288
 51
192.2038979480531
  0
ARC
  8
1
  6
CONTINUOUS
 62
     7
 10
-276.4994340529942
 20
194.1840988391455
 40
29.92466193446063
 50
270.4982749771278
 51
338.6976807976238
  0
ARC
  8
1
  6
CONTINUOUS
 62
     7
 10
-361.7533267559314
 20
217.5926931498862
 40
118.6506027476792
 50
354.6608392160841
 51
13.59178149394546
  0
ARC
  8
1
  6
CONTINUOUS
 62
     7
 10
-278.4179047114733
 20
240.611254523288
 40
30.14042113050477
 50
113.5859236530763
 51
160.8107855560785
  0
ARC
  8
1
  6
CONTINUOUS
 62
     7
 10
-247.0445351388416
 20
208.4556202513002
 40
61.95894449411649
 50
184.5658073215487
 51
204.3935236836676
  0
ARC
  8
1
  6
CONTINUOUS
 62
     7
 10
-277.3895254690979
 20
239.334914597739
 40
29.37758501751127
 50
61.78539332904187
 51
131.9189544475632
  0
ARC
  8
1
  6
CONTINUOUS
 62
     7
 10
-277.7569815961361
 20
239.9439915401126
 40
29.02104949796754
 50
19.23979120003781
 51
60.57753062574982
  0
ARC
  8
1
  6
CONTINUOUS
 62
     7
 10
-188.7200984378938
 20
217.1618880892898
 40
120.8587476017823
 50
167.9055609189308
 51
186.4794130880352
  0
ARC
  8
1
  6
CONTINUOUS
 62
     7
 10
-354.8842202335476
 20
217.2167041312064
 40
109.5272411163249
 50
345.7758153543124
 51
4.996599753365217
  0
ARC
  8
1
  6
CONTINUOUS
 62
     7
 10
-316.0599520370899
 20
209.9860380422635
 40
72.52378404910603
 50
338.4208564613421
 51
357.2860963588029
  0
ARC
  8
1
  6
CONTINUOUS
 62
     7
 10
-272.2296124576999
 20
198.8167813681889
 40
37.58692964917268
 50
191.1959278937004
 51
226.3667794906314
  0
ARC
  8
1
  6
CONTINUOUS
 62
     7
 10
-282.7224547601995
 20
198.6930883563328
 40
35.02699066744028
 50
312.6571150264009
 51
346.1428370612239
  0
LINE
  8
1
  6
CONTINUOUS
 62
     7
 10
-261.9981762007745
 20
175.6176998907453
 11
-261.9519965643761
 21
175.6162728995993
  0
LINE
  8
1
  6
CONTINUOUS
 62
     7
 10
-261.9519965643761
 20
175.6162728995993
 11
-261.9059012154424
 21
175.6127856534773
  0
LINE
  8
1
  6
CONTINUOUS
 62
     7
 10
-261.9059012154424
 20
175.6127856534773
 11
-261.8600029008364
 21
175.607233721126
  0
LINE
  8
1
  6
CONTINUOUS
 62
     7
 10
-261.8600029008364
 20
175.607233721126
 11
-261.8144143674209
 21
175.5996126712923
  0
LINE
  8
1
  6
CONTINUOUS
 62
     7
 10
-261.8144143674209
 20
175.5996126712923
 11
-261.7679139576715
 21
175.5896028732728
  0
LINE
  8
1
  6
CONTINUOUS
 62
     7
 10
-261.7679139576715
 20
175.5896028732728
 11
-261.7218278004103
 21
175.5773777892382
  0
LINE
  8
1
  6
CONTINUOUS
 62
     7
 10
-261.7218278004103
 20
175.5773777892382
 11
-261.6762884608511
 21
175.5629476075558
  0
LINE
  8
1
  6
CONTINUOUS
 62
     7
 10
-261.6762884608511
 20
175.5629476075558
 11
-261.6314285042081
 21
175.5463225165925
  0
LINE
  8
1
  6
CONTINUOUS
 62
     7
 10
-261.6314285042081
 20
175.5463225165925
 11
-261.5884585244819
 21
175.5280099396277
  0
LINE
  8
1
  6
CONTINUOUS
 62
     7
 10
-261.5884585244819
 20
175.5280099396277
 11
-261.5462293319592
 21
175.50759145059
  0
LINE
  8
1
  6
CONTINUOUS
 62
     7
 10
-261.5462293319592
 20
175.50759145059
 11
-261.5048747469512
 21
175.4850991610843
  0
LINE
  8
1
  6
CONTINUOUS
 62
     7
 10
-261.5048747469512
 20
175.4850991610843
 11
-261.464528589769
 21
175.4605651827153
  0
LINE
  8
1
  6
CONTINUOUS
 62
     7
 10
-261.464528589769
 20
175.4605651827153
 11
-261.4238958736066
 21
175.4330078588713
  0
LINE
  8
1
  6
CONTINUOUS
 62
     7
 10
-261.4238958736066
 20
175.4330078588713
 11
-261.3844659119639
 21
175.403250103575
  0
LINE
  8
1
  6
CONTINUOUS
 62
     7
 10
-261.3844659119639
 20
175.403250103575
 11
-261.3463975631074
 21
175.3713662795613
  0
LINE
  8
1
  6
CONTINUOUS
 62
     7
 10
-261.3463975631074
 20
175.3713662795613
 11
-261.3098496853034
 21
175.3374307495651
  0
LINE
  8
1
  6
CONTINUOUS
 62
     7
 10
-261.3098496853034
 20
175.3374307495651
 11
-261.2790772502964
 21
175.3059472352396
  0
LINE
  8
1
  6
CONTINUOUS
 62
     7
 10
-261.2790772502964
 20
175.3059472352396
 11
-261.2495775544293
 21
175.2728971942563
  0
LINE
  8
1
  6
CONTINUOUS
 62
     7
 10
-261.2495775544293
 20
175.2728971942563
 11
-261.2214586642453
 21
175.238365059882
  0
LINE
  8
1
  6
CONTINUOUS
 62
     7
 10
-261.2214586642453
 20
175.238365059882
 11
-261.1948286462879
 21
175.2024352653834
  0
LINE
  8
1
  6
CONTINUOUS
 62
     7
 10
-261.1948286462879
 20
175.2024352653834
 11
-261.1688395615863
 21
175.1637070199153
  0
LINE
  8
1
  6
CONTINUOUS
 62
     7
 10
-261.1688395615863
 20
175.1637070199153
 11
-261.144556931149
 21
175.1235228728845
  0
LINE
  8
1
  6
CONTINUOUS
 62
     7
 10
-261.144556931149
 20
175.1235228728845
 11
-261.1220897260996
 21
175.0820196369173
  0
LINE
  8
1
  6
CONTINUOUS
 62
     7
 10
-261.1220897260996
 20
175.0820196369173
 11
-261.1015469175616
 21
175.0393341246403
  0
LINE
  8
1
  6
CONTINUOUS
 62
     7
 10
-261.1015469175616
 20
175.0393341246403
 11
-261.0855972489399
 21
175.0020418655283
  0
LINE
  8
1
  6
CONTINUOUS
 62
     7
 10
-261.0855972489399
 20
175.0020418655283
 11
-261.0711075697008
 21
174.9639507792497
  0
LINE
  8
1
  6
CONTINUOUS
 62
     7
 10
-261.0711075697008
 20
174.9639507792497
 11
-261.0581294897408
 21
174.9251696597229
  0
LINE
  8
1
  6
CONTINUOUS
 62
     7
 10
-261.0581294897408
 20
174.9251696597229
 11
-261.0467146189567
 21
174.8858073008663
  0
LINE
  8
1
  6
CONTINUOUS
 62
     7
 10
-261.0467146189567
 20
174.8858073008663
 11
-261.0365823838883
 21
174.8445186705539
  0
LINE
  8
1
  6
CONTINUOUS
 62
     7
 10
-261.0365823838883
 20
174.8445186705539
 11
-261.0281654620886
 21
174.8026896102703
  0
LINE
  8
1
  6
CONTINUOUS
 62
     7
 10
-261.0281654620886
 20
174.8026896102703
 11
-261.0214956461968
 21
174.7604587368935
  0
LINE
  8
1
  6
CONTINUOUS
 62
     7
 10
-261.0214956461968
 20
174.7604587368935
 11
-261.0166047288519
 21
174.7179646673015
  0
LINE
  8
1
  6
CONTINUOUS
 62
     7
 10
-261.0166047288519
 20
174.7179646673015
 11
-261.0141358306399
 21
174.6863148258069
  0
LINE
  8
1
  6
CONTINUOUS
 62
     7
 10
-261.0141358306399
 20
174.6863148258069
 11
-261.012652157336
 21
174.6545761205183
  0
LINE
  8
1
  6
CONTINUOUS
 62
     7
 10
-261.012652157336
 20
174.6545761205183
 11
-261.0121568921812
 21
174.6228077465957
  0
LINE
  8
1
  6
CONTINUOUS
 62
     7
 10
-155.6424114315989
 20
210.9653391675357
 11
-155.6424151978703
 21
210.9495705736237
  0
LINE
  8
1
  6
CONTINUOUS
 62
     7
 10
-155.6424151978703
 20
210.9495705736237
 11
-155.6418773517167
 21
210.9338272797156
  0
LINE
  8
1
  6
CONTINUOUS
 62
     7
 10
-155.6418773517167
 20
210.9338272797156
 11
-155.6407894595253
 21
210.9180299494082
  0
LINE
  8
1
  6
CONTINUOUS
 62
     7
 10
-155.6407894595253
 20
210.9180299494082
 11
-155.639160092057
 21
210.9023281014177
  0
LINE
  8
1
  6
CONTINUOUS
 62
     7
 10
-155.639160092057
 20
210.9023281014177
 11
-155.636976761921
 21
210.8866250005087
  0
LINE
  8
1
  6
CONTINUOUS
 62
     7
 10
-155.636976761921
 20
210.8866250005087
 11
-155.6342637714482
 21
210.8710851008512
  0
LINE
  8
1
  6
CONTINUOUS
 62
     7
 10
-155.6342637714482
 20
210.8710851008512
 11
-155.6310104320638
 21
210.8556313917082
  0
LINE
  8
1
  6
CONTINUOUS
 62
     7
 10
-155.6310104320638
 20
210.8556313917082
 11
-155.6272519343341
 21
210.8404013136283
  0
LINE
  8
1
  6
CONTINUOUS
 62
     7
 10
-155.6272519343341
 20
210.8404013136283
 11
-155.6238048691209
 21
210.8280939707798
  0
LINE
  8
1
  6
CONTINUOUS
 62
     7
 10
-155.6238048691209
 20
210.8280939707798
 11
-155.6200418516665
 21
210.8159661035971
  0
LINE
  8
1
  6
CONTINUOUS
 62
     7
 10
-155.6200418516665
 20
210.8159661035971
 11
-155.6137328117577
 21
210.7978730732248
  0
LINE
  8
1
  6
CONTINUOUS
 62
     7
 10
-155.6137328117577
 20
210.7978730732248
 11
-155.6067612753004
 21
210.7802521613368
  0
LINE
  8
1
  6
CONTINUOUS
 62
     7
 10
-155.6067612753004
 20
210.7802521613368
 11
-155.5991087379347
 21
210.7629996874305
  0
LINE
  8
1
  6
CONTINUOUS
 62
     7
 10
-155.5991087379347
 20
210.7629996874305
 11
-155.590870505841
 21
210.7462714671864
  0
LINE
  8
1
  6
CONTINUOUS
 62
     7
 10
-155.590870505841
 20
210.7462714671864
 11
-155.5820146007436
 21
210.7299514860528
  0
LINE
  8
1
  6
CONTINUOUS
 62
     7
 10
-155.5820146007436
 20
210.7299514860528
 11
-155.5726482515593
 21
210.7141870678164
  0
LINE
  8
1
  6
CONTINUOUS
 62
     7
 10
-155.5726482515593
 20
210.7141870678164
 11
-155.5627467227321
 21
210.6988880113028
  0
LINE
  8
1
  6
CONTINUOUS
 62
     7
 10
-155.5627467227321
 20
210.6988880113028
 11
-155.552406477833
 21
210.6841574488975
  0
LINE
  8
1
  6
CONTINUOUS
 62
     7
 10
-155.552406477833
 20
210.6841574488975
 11
-155.5394431393894
 21
210.6671969430286
  0
LINE
  8
1
  6
CONTINUOUS
 62
     7
 10
-155.5394431393894
 20
210.6671969430286
 11
-155.5259471892119
 21
210.6510405904231
  0
LINE
  8
1
  6
CONTINUOUS
 62
     7
 10
-155.5259471892119
 20
210.6510405904231
 11
-155.5119830910813
 21
210.6356928410669
  0
LINE
  8
1
  6
CONTINUOUS
 62
     7
 10
-155.5119830910813
 20
210.6356928410669
 11
-155.4977528953193
 21
210.6212904148942
  0
LINE
  8
1
  6
CONTINUOUS
 62
     7
 10
-155.4977528953193
 20
210.6212904148942
 11
-155.4831411001453
 21
210.6076409599736
  0
LINE
  8
1
  6
CONTINUOUS
 62
     7
 10
-155.4831411001453
 20
210.6076409599736
 11
-155.4681950257922
 21
210.5947392906214
  0
LINE
  8
1
  6
CONTINUOUS
 62
     7
 10
-155.4681950257922
 20
210.5947392906214
 11
-155.4453803879726
 21
210.5768714330231
  0
LINE
  8
1
  6
CONTINUOUS
 62
     7
 10
-155.4453803879726
 20
210.5768714330231
 11
-155.422108690583
 21
210.5606512163312
  0
LINE
  8
1
  6
CONTINUOUS
 62
     7
 10
-155.422108690583
 20
210.5606512163312
 11
-155.3982653039985
 21
210.5458889967906
  0
LINE
  8
1
  6
CONTINUOUS
 62
     7
 10
-155.3982653039985
 20
210.5458889967906
 11
-155.3740039369993
 21
210.5326017415181
  0
LINE
  8
1
  6
CONTINUOUS
 62
     7
 10
-155.3740039369993
 20
210.5326017415181
 11
-155.3492838856682
 21
210.5207033019919
  0
LINE
  8
1
  6
CONTINUOUS
 62
     7
 10
-155.3492838856682
 20
210.5207033019919
 11
-155.3242663232475
 21
210.5102196805119
  0
LINE
  8
1
  6
CONTINUOUS
 62
     7
 10
-155.3242663232475
 20
210.5102196805119
 11
-155.2989346184346
 21
210.5010979569548
  0
LINE
  8
1
  6
CONTINUOUS
 62
     7
 10
-155.2989346184346
 20
210.5010979569548
 11
-155.270387270409
 21
210.4925189184516
  0
LINE
  8
1
  6
CONTINUOUS
 62
     7
 10
-155.270387270409
 20
210.4925189184516
 11
-155.2415662024751
 21
210.4856000467984
  0
LINE
  8
1
  6
CONTINUOUS
 62
     7
 10
-155.2415662024751
 20
210.4856000467984
 11
-155.2126098728097
 21
210.4803461632874
  0
LINE
  8
1
  6
CONTINUOUS
 62
     7
 10
-155.2126098728097
 20
210.4803461632874
 11
-155.183456023194
 21
210.476729647841
  0
LINE
  8
1
  6
CONTINUOUS
 62
     7
 10
-155.183456023194
 20
210.476729647841
 11
-155.1542671420327
 21
210.4747641246381
  0
LINE
  8
1
  6
CONTINUOUS
 62
     7
 10
-155.1542671420327
 20
210.4747641246381
 11
-155.1250121402715
 21
210.4744465581815
  0
LINE
  8
1
  6
CONTINUOUS
 62
     7
 10
-154.4168547499562
 20
243.5433800571714
 11
-154.4443519211756
 21
243.5429475504433
  0
LINE
  8
1
  6
CONTINUOUS
 62
     7
 10
-154.4443519211756
 20
243.5429475504433
 11
-154.4718599596905
 21
243.5406913395054
  0
LINE
  8
1
  6
CONTINUOUS
 62
     7
 10
-154.4718599596905
 20
243.5406913395054
 11
-154.4994668164103
 21
243.5365809728244
  0
LINE
  8
1
  6
CONTINUOUS
 62
     7
 10
-154.4994668164103
 20
243.5365809728244
 11
-154.5269701666681
 21
243.5306133667601
  0
LINE
  8
1
  6
CONTINUOUS
 62
     7
 10
-154.5269701666681
 20
243.5306133667601
 11
-154.5544476057443
 21
243.522726919661
  0
LINE
  8
1
  6
CONTINUOUS
 62
     7
 10
-154.5544476057443
 20
243.522726919661
 11
-154.5816905196009
 21
243.5129242225055
  0
LINE
  8
1
  6
CONTINUOUS
 62
     7
 10
-154.5816905196009
 20
243.5129242225055
 11
-154.6009686970941
 21
243.504731417189
  0
LINE
  8
1
  6
CONTINUOUS
 62
     7
 10
-154.6009686970941
 20
243.504731417189
 11
-154.6201220330323
 21
243.4955011378326
  0
LINE
  8
1
  6
CONTINUOUS
 62
     7
 10
-154.6201220330323
 20
243.4955011378326
 11
-154.6390556671296
 21
243.4852436339738
  0
LINE
  8
1
  6
CONTINUOUS
 62
     7
 10
-154.6390556671296
 20
243.4852436339738
 11
-154.6578464185984
 21
243.4738712810651
  0
LINE
  8
1
  6
CONTINUOUS
 62
     7
 10
-154.6578464185984
 20
243.4738712810651
 11
-154.6763401438504
 21
243.461424914289
  0
LINE
  8
1
  6
CONTINUOUS
 62
     7
 10
-154.6763401438504
 20
243.461424914289
 11
-154.6946103737802
 21
243.4477937793739
  0
LINE
  8
1
  6
CONTINUOUS
 62
     7
 10
-154.6946103737802
 20
243.4477937793739
 11
-154.7124870245333
 21
243.4330350296633
  0
LINE
  8
1
  6
CONTINUOUS
 62
     7
 10
-154.7124870245333
 20
243.4330350296633
 11
-154.7299876050184
 21
243.4170591126979
  0
LINE
  8
1
  6
CONTINUOUS
 62
     7
 10
-154.7299876050184
 20
243.4170591126979
 11
-154.7446074180579
 21
243.4024022656482
  0
LINE
  8
1
  6
CONTINUOUS
 62
     7
 10
-154.7446074180579
 20
243.4024022656482
 11
-154.7588713741884
 21
243.386790251741
  0
LINE
  8
1
  6
CONTINUOUS
 62
     7
 10
-154.7588713741884
 20
243.386790251741
 11
-154.7726626022883
 21
243.3702791517414
  0
LINE
  8
1
  6
CONTINUOUS
 62
     7
 10
-154.7726626022883
 20
243.3702791517414
 11
-154.7860455905334
 21
243.3526993483643
  0
LINE
  8
1
  6
CONTINUOUS
 62
     7
 10
-154.7860455905334
 20
243.3526993483643
 11
-154.7988351484806
 21
243.3341916394452
  0
LINE
  8
1
  6
CONTINUOUS
 62
     7
 10
-154.7988351484806
 20
243.3341916394452
 11
-154.807079532088
 21
243.3212078437604
  0
LINE
  8
1
  6
CONTINUOUS
 62
     7
 10
-154.807079532088
 20
243.3212078437604
 11
-154.8150077859664
 21
243.3078010770031
  0
LINE
  8
1
  6
CONTINUOUS
 62
     7
 10
-154.8150077859664
 20
243.3078010770031
 11
-154.8225930327163
 21
243.2939833889428
  0
LINE
  8
1
  6
CONTINUOUS
 62
     7
 10
-154.8225930327163
 20
243.2939833889428
 11
-154.8280807885334
 21
243.2832780178686
  0
LINE
  8
1
  6
CONTINUOUS
 62
     7
 10
-154.8280807885334
 20
243.2832780178686
 11
-154.8333514735152
 21
243.2723419505962
  0
LINE
  8
1
  6
CONTINUOUS
 62
     7
 10
-154.8333514735152
 20
243.2723419505962
 11
-154.8393345287848
 21
243.2590139396393
  0
LINE
  8
1
  6
CONTINUOUS
 62
     7
 10
-154.8393345287848
 20
243.2590139396393
 11
-154.8449955106297
 21
243.2453249799193
  0
LINE
  8
1
  6
CONTINUOUS
 62
     7
 10
-154.8449955106297
 20
243.2453249799193
 11
-154.8502954858184
 21
243.2313306555807
  0
LINE
  8
1
  6
CONTINUOUS
 62
     7
 10
-154.8502954858184
 20
243.2313306555807
 11
-154.8552459709231
 21
243.2169517846764
  0
LINE
  8
1
  6
CONTINUOUS
 62
     7
 10
-154.8552459709231
 20
243.2169517846764
 11
-154.8597943412005
 21
243.2022913597594
  0
LINE
  8
1
  6
CONTINUOUS
 62
     7
 10
-154.8597943412005
 20
243.2022913597594
 11
-154.8639485971854
 21
243.1872658102279
  0
LINE
  8
1
  6
CONTINUOUS
 62
     7
 10
-154.8639485971854
 20
243.1872658102279
 11
-154.8676600572624
 21
243.1719929874378
  0
LINE
  8
1
  6
CONTINUOUS
 62
     7
 10
-154.8676600572624
 20
243.1719929874378
 11
-154.8709245163019
 21
243.1564312717825
  0
LINE
  8
1
  6
CONTINUOUS
 62
     7
 10
-154.8709245163019
 20
243.1564312717825
 11
-154.8735713957484
 21
243.1415298758547
  0
LINE
  8
1
  6
CONTINUOUS
 62
     7
 10
-154.8735713957484
 20
243.1415298758547
 11
-154.8757809272255
 21
243.1264661415045
  0
LINE
  8
1
  6
CONTINUOUS
 62
     7
 10
-154.8757809272255
 20
243.1264661415045
 11
-154.8775415606698
 21
243.1112789709578
  0
LINE
  8
1
  6
CONTINUOUS
 62
     7
 10
-154.8775415606698
 20
243.1112789709578
 11
-154.8788128331357
 21
243.0964325906693
  0
LINE
  8
1
  6
CONTINUOUS
 62
     7
 10
-154.8788128331357
 20
243.0964325906693
 11
-154.8796497333464
 21
243.08150085463
  0
LINE
  8
1
  6
CONTINUOUS
 62
     7
 10
-154.8796497333464
 20
243.08150085463
 11
-154.88004947407
 21
243.0665235844598
  0
LINE
  8
1
  6
CONTINUOUS
 62
     7
 10
-154.88004947407
 20
243.0665235844598
 11
-154.8800092680746
 21
243.0515406017787
  0
LINE
  8
1
  6
CONTINUOUS
 62
     7
 10
-155.1250121402715
 20
234.5557409903987
 11
-155.1515159314411
 21
234.5555238361412
  0
LINE
  8
1
  6
CONTINUOUS
 62
     7
 10
-155.1515159314411
 20
234.5555238361412
 11
-155.1780424800091
 21
234.5539470941955
  0
LINE
  8
1
  6
CONTINUOUS
 62
     7
 10
-155.1780424800091
 20
234.5539470941955
 11
-155.2045387157269
 21
234.5510091997963
  0
LINE
  8
1
  6
CONTINUOUS
 62
     7
 10
-155.2045387157269
 20
234.5510091997963
 11
-155.2324754762104
 21
234.5464176530375
  0
LINE
  8
1
  6
CONTINUOUS
 62
     7
 10
-155.2324754762104
 20
234.5464176530375
 11
-155.2603020061842
 21
234.5402850292798
  0
LINE
  8
1
  6
CONTINUOUS
 62
     7
 10
-155.2603020061842
 20
234.5402850292798
 11
-155.2865133269732
 21
234.5330385930495
  0
LINE
  8
1
  6
CONTINUOUS
 62
     7
 10
-155.2865133269732
 20
234.5330385930495
 11
-155.3125772340304
 21
234.5243583802168
  0
LINE
  8
1
  6
CONTINUOUS
 62
     7
 10
-155.3125772340304
 20
234.5243583802168
 11
-155.3376373476484
 21
234.5145530343748
  0
LINE
  8
1
  6
CONTINUOUS
 62
     7
 10
-155.3376373476484
 20
234.5145530343748
 11
-155.3624266484726
 21
234.503356040865
  0
LINE
  8
1
  6
CONTINUOUS
 62
     7
 10
-155.3624266484726
 20
234.503356040865
 11
-155.3897139434291
 21
234.4891726917975
  0
LINE
  8
1
  6
CONTINUOUS
 62
     7
 10
-155.3897139434291
 20
234.4891726917975
 11
-155.4055625324189
 21
234.4799678125238
  0
LINE
  8
1
  6
CONTINUOUS
 62
     7
 10
-155.4055625324189
 20
234.4799678125238
 11
-155.4212209773054
 21
234.4701183030817
  0
LINE
  8
1
  6
CONTINUOUS
 62
     7
 10
-155.4212209773054
 20
234.4701183030817
 11
-155.4442248113373
 21
234.4541672545024
  0
LINE
  8
1
  6
CONTINUOUS
 62
     7
 10
-155.4442248113373
 20
234.4541672545024
 11
-155.4666740958712
 21
234.4367055324418
  0
LINE
  8
1
  6
CONTINUOUS
 62
     7
 10
-155.4666740958712
 20
234.4367055324418
 11
-155.4810953635385
 21
234.4243731483837
  0
LINE
  8
1
  6
CONTINUOUS
 62
     7
 10
-155.4810953635385
 20
234.4243731483837
 11
-155.4967960648121
 21
234.4098247005315
  0
LINE
  8
1
  6
CONTINUOUS
 62
     7
 10
-155.4967960648121
 20
234.4098247005315
 11
-155.512113931024
 21
234.3943567189177
  0
LINE
  8
1
  6
CONTINUOUS
 62
     7
 10
-155.512113931024
 20
234.3943567189177
 11
-155.5269481327524
 21
234.377996224292
  0
LINE
  8
1
  6
CONTINUOUS
 62
     7
 10
-155.5269481327524
 20
234.377996224292
 11
-155.5413121847859
 21
234.3606384256177
  0
LINE
  8
1
  6
CONTINUOUS
 62
     7
 10
-155.5413121847859
 20
234.3606384256177
 11
-155.5550660623431
 21
234.3423513331651
  0
LINE
  8
1
  6
CONTINUOUS
 62
     7
 10
-155.5550660623431
 20
234.3423513331651
 11
-155.5681904574707
 21
234.3230466634807
  0
LINE
  8
1
  6
CONTINUOUS
 62
     7
 10
-155.5681904574707
 20
234.3230466634807
 11
-155.5754187923602
 21
234.3114795817857
  0
LINE
  8
1
  6
CONTINUOUS
 62
     7
 10
-155.5754187923602
 20
234.3114795817857
 11
-155.5823765387613
 21
234.2995983267535
  0
LINE
  8
1
  6
CONTINUOUS
 62
     7
 10
-155.5823765387613
 20
234.2995983267535
 11
-155.5890609764524
 21
234.2873779516567
  0
LINE
  8
1
  6
CONTINUOUS
 62
     7
 10
-155.5890609764524
 20
234.2873779516567
 11
-155.5954390623399
 21
234.2748477810914
  0
LINE
  8
1
  6
CONTINUOUS
 62
     7
 10
-155.5954390623399
 20
234.2748477810914
 11
-155.6014611496685
 21
234.2620817088784
  0
LINE
  8
1
  6
CONTINUOUS
 62
     7
 10
-155.6014611496685
 20
234.2620817088784
 11
-155.6071437301347
 21
234.2490209481002
  0
LINE
  8
1
  6
CONTINUOUS
 62
     7
 10
-155.6071437301347
 20
234.2490209481002
 11
-155.6124940209845
 21
234.2356053192432
  0
LINE
  8
1
  6
CONTINUOUS
 62
     7
 10
-155.6124940209845
 20
234.2356053192432
 11
-155.6174634158318
 21
234.2219117118767
  0
LINE
  8
1
  6
CONTINUOUS
 62
     7
 10
-155.6174634158318
 20
234.2219117118767
 11
-155.6220606166669
 21
234.2078626295338
  0
LINE
  8
1
  6
CONTINUOUS
 62
     7
 10
-155.6220606166669
 20
234.2078626295338
 11
-155.6262339363454
 21
234.1935613981454
  0
LINE
  8
1
  6
CONTINUOUS
 62
     7
 10
-155.6262339363454
 20
234.1935613981454
 11
-155.629985182517
 21
234.1789405801159
  0
LINE
  8
1
  6
CONTINUOUS
 62
     7
 10
-155.629985182517
 20
234.1789405801159
 11
-155.6332717896358
 21
234.1641049752362
  0
LINE
  8
1
  6
CONTINUOUS
 62
     7
 10
-155.6332717896358
 20
234.1641049752362
 11
-155.6353749923136
 21
234.153113961255
  0
LINE
  8
1
  6
CONTINUOUS
 62
     7
 10
-155.6353749923136
 20
234.153113961255
 11
-155.6372145014646
 21
234.1420308382566
  0
LINE
  8
1
  6
CONTINUOUS
 62
     7
 10
-155.6372145014646
 20
234.1420308382566
 11
-155.6391901835044
 21
234.127609462599
  0
LINE
  8
1
  6
CONTINUOUS
 62
     7
 10
-155.6391901835044
 20
234.127609462599
 11
-155.6407093036797
 21
234.1130781544888
  0
LINE
  8
1
  6
CONTINUOUS
 62
     7
 10
-155.6407093036797
 20
234.1130781544888
 11
-155.6418408543983
 21
234.0970593131264
  0
LINE
  8
1
  6
CONTINUOUS
 62
     7
 10
-155.6418408543983
 20
234.0970593131264
 11
-155.6424091010375
 21
234.0809674697925
  0
LINE
  8
1
  6
CONTINUOUS
 62
     7
 10
-155.6424091010375
 20
234.0809674697925
 11
-155.6424114315989
 21
234.0648483810444
  0
LINE
  8
1
  6
CONTINUOUS
 62
     7
 10
-293.9940171349674
 20
174.6228077465957
 11
-293.9932959494761
 21
174.6610782030214
  0
LINE
  8
1
  6
CONTINUOUS
 62
     7
 10
-293.9932959494761
 20
174.6610782030214
 11
-293.9911386486045
 21
174.6993138615819
  0
LINE
  8
1
  6
CONTINUOUS
 62
     7
 10
-293.9911386486045
 20
174.6993138615819
 11
-293.9875546157552
 21
174.7374117895875
  0
LINE
  8
1
  6
CONTINUOUS
 62
     7
 10
-293.9875546157552
 20
174.7374117895875
 11
-293.9825532343314
 21
174.7752690543486
  0
LINE
  8
1
  6
CONTINUOUS
 62
     7
 10
-293.9825532343314
 20
174.7752690543486
 11
-293.9759217319614
 21
174.8139789065424
  0
LINE
  8
1
  6
CONTINUOUS
 62
     7
 10
-293.9759217319614
 20
174.8139789065424
 11
-293.9678057960609
 21
174.8523620873905
  0
LINE
  8
1
  6
CONTINUOUS
 62
     7
 10
-293.9678057960609
 20
174.8523620873905
 11
-293.9582367657493
 21
174.8903140786559
  0
LINE
  8
1
  6
CONTINUOUS
 62
     7
 10
-293.9582367657493
 20
174.8903140786559
 11
-293.9472459801459
 21
174.9277303621016
  0
LINE
  8
1
  6
CONTINUOUS
 62
     7
 10
-293.9472459801459
 20
174.9277303621016
 11
-293.9352332549502
 21
174.9634969453046
  0
LINE
  8
1
  6
CONTINUOUS
 62
     7
 10
-293.9352332549502
 20
174.9634969453046
 11
-293.9219175100192
 21
174.9987029679309
  0
LINE
  8
1
  6
CONTINUOUS
 62
     7
 10
-293.9219175100192
 20
174.9987029679309
 11
-293.907342673779
 21
175.0332664050713
  0
LINE
  8
1
  6
CONTINUOUS
 62
     7
 10
-293.907342673779
 20
175.0332664050713
 11
-293.8915526746557
 21
175.0671052318164
  0
LINE
  8
1
  6
CONTINUOUS
 62
     7
 10
-293.8915526746557
 20
175.0671052318164
 11
-293.8740875407616
 21
175.1010858016046
  0
LINE
  8
1
  6
CONTINUOUS
 62
     7
 10
-293.8740875407616
 20
175.1010858016046
 11
-293.8553899610341
 21
175.1342586166773
  0
LINE
  8
1
  6
CONTINUOUS
 62
     7
 10
-293.8553899610341
 20
175.1342586166773
 11
-293.8355182934941
 21
175.1665528694462
  0
LINE
  8
1
  6
CONTINUOUS
 62
     7
 10
-293.8355182934941
 20
175.1665528694462
 11
-293.8145308961627
 21
175.1978977523228
  0
LINE
  8
1
  6
CONTINUOUS
 62
     7
 10
-293.8145308961627
 20
175.1978977523228
 11
-293.7842689246631
 21
175.2389130561438
  0
LINE
  8
1
  6
CONTINUOUS
 62
     7
 10
-293.7842689246631
 20
175.2389130561438
 11
-293.752021991105
 21
175.2781534581791
  0
LINE
  8
1
  6
CONTINUOUS
 62
     7
 10
-293.752021991105
 20
175.2781534581791
 11
-293.7179510994453
 21
175.315509964307
  0
LINE
  8
1
  6
CONTINUOUS
 62
     7
 10
-293.7179510994453
 20
175.315509964307
 11
-293.6822172536405
 21
175.3508735804059
  0
LINE
  8
1
  6
CONTINUOUS
 62
     7
 10
-293.6822172536405
 20
175.3508735804059
 11
-293.6449814576478
 21
175.3841353123541
  0
LINE
  8
1
  6
CONTINUOUS
 62
     7
 10
-293.6449814576478
 20
175.3841353123541
 11
-293.6064047154237
 21
175.4151861660301
  0
LINE
  8
1
  6
CONTINUOUS
 62
     7
 10
-293.6064047154237
 20
175.4151861660301
 11
-293.5627208937788
 21
175.4466250300114
  0
LINE
  8
1
  6
CONTINUOUS
 62
     7
 10
-293.5627208937788
 20
175.4466250300114
 11
-293.5174897579473
 21
175.4755170967566
  0
LINE
  8
1
  6
CONTINUOUS
 62
     7
 10
-293.5174897579473
 20
175.4755170967566
 11
-293.4709067612872
 21
175.5018122654232
  0
LINE
  8
1
  6
CONTINUOUS
 62
     7
 10
-293.4709067612872
 20
175.5018122654232
 11
-293.423167357156
 21
175.5254604351683
  0
LINE
  8
1
  6
CONTINUOUS
 62
     7
 10
-293.423167357156
 20
175.5254604351683
 11
-293.3744669989119
 21
175.5464115051493
  0
LINE
  8
1
  6
CONTINUOUS
 62
     7
 10
-293.3744669989119
 20
175.5464115051493
 11
-293.3250011399125
 21
175.5646153745234
  0
LINE
  8
1
  6
CONTINUOUS
 62
     7
 10
-293.3250011399125
 20
175.5646153745234
 11
-293.2735258392562
 21
175.580449971719
  0
LINE
  8
1
  6
CONTINUOUS
 62
     7
 10
-293.2735258392562
 20
175.580449971719
 11
-293.221264952948
 21
175.5934899330098
  0
LINE
  8
1
  6
CONTINUOUS
 62
     7
 10
-293.221264952948
 20
175.5934899330098
 11
-293.1684000947469
 21
175.6037350819768
  0
LINE
  8
1
  6
CONTINUOUS
 62
     7
 10
-293.1684000947469
 20
175.6037350819768
 11
-293.1151128784116
 21
175.6111852422011
  0
LINE
  8
1
  6
CONTINUOUS
 62
     7
 10
-293.1151128784116
 20
175.6111852422011
 11
-293.0615849177011
 21
175.6158402372636
  0
LINE
  8
1
  6
CONTINUOUS
 62
     7
 10
-293.0615849177011
 20
175.6158402372636
 11
-293.007997826374
 21
175.6176998907453
  0
LINE
  8
1
  6
CONTINUOUS
 62
     7
 10
-293.0084723768916
 20
172.4124818474167
 11
-293.0563997625844
 21
172.4139497756577
  0
LINE
  8
1
  6
CONTINUOUS
 62
     7
 10
-293.0563997625844
 20
172.4139497756577
 11
-293.1043278198912
 21
172.4175466901241
  0
LINE
  8
1
  6
CONTINUOUS
 62
     7
 10
-293.1043278198912
 20
172.4175466901241
 11
-293.1524100935556
 21
172.4233059855649
  0
LINE
  8
1
  6
CONTINUOUS
 62
     7
 10
-293.1524100935556
 20
172.4233059855649
 11
-293.2002754479857
 21
172.4312153476426
  0
LINE
  8
1
  6
CONTINUOUS
 62
     7
 10
-293.2002754479857
 20
172.4312153476426
 11
-293.2481222615606
 21
172.4413546856314
  0
LINE
  8
1
  6
CONTINUOUS
 62
     7
 10
-293.2481222615606
 20
172.4413546856314
 11
-293.2955248868674
 21
172.4536905435413
  0
LINE
  8
1
  6
CONTINUOUS
 62
     7
 10
-293.2955248868674
 20
172.4536905435413
 11
-293.3426387192671
 21
172.4683301605269
  0
LINE
  8
1
  6
CONTINUOUS
 62
     7
 10
-293.3426387192671
 20
172.4683301605269
 11
-293.3890626485099
 21
172.4852238804148
  0
LINE
  8
1
  6
CONTINUOUS
 62
     7
 10
-293.3890626485099
 20
172.4852238804148
 11
-293.4160632747821
 21
172.4962498876304
  0
LINE
  8
1
  6
CONTINUOUS
 62
     7
 10
-293.4160632747821
 20
172.4962498876304
 11
-293.4427531799111
 21
172.5080693161833
  0
LINE
  8
1
  6
CONTINUOUS
 62
     7
 10
-293.4427531799111
 20
172.5080693161833
 11
-293.4774104604278
 21
172.5248662601395
  0
LINE
  8
1
  6
CONTINUOUS
 62
     7
 10
-293.4774104604278
 20
172.5248662601395
 11
-293.5114280792863
 21
172.5430581174442
  0
LINE
  8
1
  6
CONTINUOUS
 62
     7
 10
-293.5114280792863
 20
172.5430581174442
 11
-293.5447175424042
 21
172.5626357855064
  0
LINE
  8
1
  6
CONTINUOUS
 62
     7
 10
-293.5447175424042
 20
172.5626357855064
 11
-293.5762714369108
 21
172.5829672104504
  0
LINE
  8
1
  6
CONTINUOUS
 62
     7
 10
-293.5762714369108
 20
172.5829672104504
 11
-293.607039017564
 21
172.6046147783859
  0
LINE
  8
1
  6
CONTINUOUS
 62
     7
 10
-293.607039017564
 20
172.6046147783859
 11
-293.6369372465259
 21
172.6275561197842
  0
LINE
  8
1
  6
CONTINUOUS
 62
     7
 10
-293.6369372465259
 20
172.6275561197842
 11
-293.6652588350748
 21
172.6512193675236
  0
LINE
  8
1
  6
CONTINUOUS
 62
     7
 10
-293.6652588350748
 20
172.6512193675236
 11
-293.6926605968495
 21
172.6761094916949
  0
LINE
  8
1
  6
CONTINUOUS
 62
     7
 10
-293.6926605968495
 20
172.6761094916949
 11
-293.7190690781187
 21
172.7021879040489
  0
LINE
  8
1
  6
CONTINUOUS
 62
     7
 10
-293.7190690781187
 20
172.7021879040489
 11
-293.7385284136903
 21
172.7228816161801
  0
LINE
  8
1
  6
CONTINUOUS
 62
     7
 10
-293.7385284136903
 20
172.7228816161801
 11
-293.7573655514516
 21
172.7442463942975
  0
LINE
  8
1
  6
CONTINUOUS
 62
     7
 10
-293.7573655514516
 20
172.7442463942975
 11
-293.7816357333677
 21
172.773954307505
  0
LINE
  8
1
  6
CONTINUOUS
 62
     7
 10
-293.7816357333677
 20
172.773954307505
 11
-293.8047191408787
 21
172.8048172369601
  0
LINE
  8
1
  6
CONTINUOUS
 62
     7
 10
-293.8047191408787
 20
172.8048172369601
 11
-293.8265584284567
 21
172.8367619416992
  0
LINE
  8
1
  6
CONTINUOUS
 62
     7
 10
-293.8265584284567
 20
172.8367619416992
 11
-293.8473300331555
 21
172.8700951158455
  0
LINE
  8
1
  6
CONTINUOUS
 62
     7
 10
-293.8473300331555
 20
172.8700951158455
 11
-293.8667955079108
 21
172.9044530555641
  0
LINE
  8
1
  6
CONTINUOUS
 62
     7
 10
-293.8667955079108
 20
172.9044530555641
 11
-293.8849186773867
 21
172.9397423243999
  0
LINE
  8
1
  6
CONTINUOUS
 62
     7
 10
-293.8849186773867
 20
172.9397423243999
 11
-293.8977182181728
 21
172.9669968047205
  0
LINE
  8
1
  6
CONTINUOUS
 62
     7
 10
-293.8977182181728
 20
172.9669968047205
 11
-293.9097471683361
 21
172.9947259619092
  0
LINE
  8
1
  6
CONTINUOUS
 62
     7
 10
-293.9097471683361
 20
172.9947259619092
 11
-293.9222868753042
 21
173.0262643034212
  0
LINE
  8
1
  6
CONTINUOUS
 62
     7
 10
-293.9222868753042
 20
173.0262643034212
 11
-293.9338655237823
 21
173.058315453984
  0
LINE
  8
1
  6
CONTINUOUS
 62
     7
 10
-293.9338655237823
 20
173.058315453984
 11
-293.9479160688685
 21
173.1021087357128
  0
LINE
  8
1
  6
CONTINUOUS
 62
     7
 10
-293.9479160688685
 20
173.1021087357128
 11
-293.960272971744
 21
173.1466652632394
  0
LINE
  8
1
  6
CONTINUOUS
 62
     7
 10
-293.960272971744
 20
173.1466652632394
 11
-293.9709516231508
 21
173.1918244559534
  0
LINE
  8
1
  6
CONTINUOUS
 62
     7
 10
-154.8800092680746
 20
201.9786469468015
 11
-154.8800332096019
 21
201.9623455228349
  0
LINE
  8
1
  6
CONTINUOUS
 62
     7
 10
-154.8800332096019
 20
201.9623455228349
 11
-154.879537130185
 21
201.946069389447
  0
LINE
  8
1
  6
CONTINUOUS
 62
     7
 10
-154.879537130185
 20
201.946069389447
 11
-154.8785132013085
 21
201.9297398453459
  0
LINE
  8
1
  6
CONTINUOUS
 62
     7
 10
-154.8785132013085
 20
201.9297398453459
 11
-154.8769687558451
 21
201.913505149036
  0
LINE
  8
1
  6
CONTINUOUS
 62
     7
 10
-154.8769687558451
 20
201.913505149036
 11
-154.8748918944723
 21
201.8972692289246
  0
LINE
  8
1
  6
CONTINUOUS
 62
     7
 10
-154.8748918944723
 20
201.8972692289246
 11
-154.8723042050938
 21
201.8811958543983
  0
LINE
  8
1
  6
CONTINUOUS
 62
     7
 10
-154.8723042050938
 20
201.8811958543983
 11
-154.8691950873755
 21
201.8652084728309
  0
LINE
  8
1
  6
CONTINUOUS
 62
     7
 10
-154.8691950873755
 20
201.8652084728309
 11
-154.8655962278046
 21
201.8494451141963
  0
LINE
  8
1
  6
CONTINUOUS
 62
     7
 10
-154.8655962278046
 20
201.8494451141963
 11
-154.8626547047733
 21
201.8380413358639
  0
LINE
  8
1
  6
CONTINUOUS
 62
     7
 10
-154.8626547047733
 20
201.8380413358639
 11
-154.8594658351325
 21
201.8267813759623
  0
LINE
  8
1
  6
CONTINUOUS
 62
     7
 10
-154.8594658351325
 20
201.8267813759623
 11
-154.853652560337
 21
201.8084495495214
  0
LINE
  8
1
  6
CONTINUOUS
 62
     7
 10
-154.853652560337
 20
201.8084495495214
 11
-154.8472152618
 21
201.7905691798882
  0
LINE
  8
1
  6
CONTINUOUS
 62
     7
 10
-154.8472152618
 20
201.7905691798882
 11
-154.8401346967924
 21
201.7730402313041
  0
LINE
  8
1
  6
CONTINUOUS
 62
     7
 10
-154.8401346967924
 20
201.7730402313041
 11
-154.8324947224442
 21
201.7560201491309
  0
LINE
  8
1
  6
CONTINUOUS
 62
     7
 10
-154.8324947224442
 20
201.7560201491309
 11
-154.8242637150931
 21
201.7393957971952
  0
LINE
  8
1
  6
CONTINUOUS
 62
     7
 10
-154.8242637150931
 20
201.7393957971952
 11
-154.8155384411067
 21
201.7233192653993
  0
LINE
  8
1
  6
CONTINUOUS
 62
     7
 10
-154.8155384411067
 20
201.7233192653993
 11
-154.8062939811459
 21
201.7077025457124
  0
LINE
  8
1
  6
CONTINUOUS
 62
     7
 10
-154.8062939811459
 20
201.7077025457124
 11
-154.7966192994927
 21
201.6926551855105
  0
LINE
  8
1
  6
CONTINUOUS
 62
     7
 10
-154.7966192994927
 20
201.6926551855105
 11
-154.7846602402329
 21
201.6755896358517
  0
LINE
  8
1
  6
CONTINUOUS
 62
     7
 10
-154.7846602402329
 20
201.6755896358517
 11
-154.7721887940264
 21
201.6593162426484
  0
LINE
  8
1
  6
CONTINUOUS
 62
     7
 10
-154.7721887940264
 20
201.6593162426484
 11
-154.7592636500577
 21
201.6438465937192
  0
LINE
  8
1
  6
CONTINUOUS
 62
     7
 10
-154.7592636500577
 20
201.6438465937192
 11
-154.7460668949528
 21
201.629320417202
  0
LINE
  8
1
  6
CONTINUOUS
 62
     7
 10
-154.7460668949528
 20
201.629320417202
 11
-154.7324958892281
 21
201.6155539038919
  0
LINE
  8
1
  6
CONTINUOUS
 62
     7
 10
-154.7324958892281
 20
201.6155539038919
 11
-154.7185956371894
 21
201.6025475423309
  0
LINE
  8
1
  6
CONTINUOUS
 62
     7
 10
-154.7185956371894
 20
201.6025475423309
 11
-154.6973372769185
 21
201.5845503534017
  0
LINE
  8
1
  6
CONTINUOUS
 62
     7
 10
-154.6973372769185
 20
201.5845503534017
 11
-154.6761570055601
 21
201.5686329270204
  0
LINE
  8
1
  6
CONTINUOUS
 62
     7
 10
-154.6761570055601
 20
201.5686329270204
 11
-154.6544319629035
 21
201.5541574231679
  0
LINE
  8
1
  6
CONTINUOUS
 62
     7
 10
-154.6544319629035
 20
201.5541574231679
 11
-154.6323082902471
 21
201.5411546088979
  0
LINE
  8
1
  6
CONTINUOUS
 62
     7
 10
-154.6323082902471
 20
201.5411546088979
 11
-154.6097427867103
 21
201.5295459073821
  0
LINE
  8
1
  6
CONTINUOUS
 62
     7
 10
-154.6097427867103
 20
201.5295459073821
 11
-154.5868933161435
 21
201.5193691847257
  0
LINE
  8
1
  6
CONTINUOUS
 62
     7
 10
-154.5868933161435
 20
201.5193691847257
 11
-154.5637414394205
 21
201.5105776565011
  0
LINE
  8
1
  6
CONTINUOUS
 62
     7
 10
-154.5637414394205
 20
201.5105776565011
 11
-154.5396160661989
 21
201.5029603425085
  0
LINE
  8
1
  6
CONTINUOUS
 62
     7
 10
-154.5396160661989
 20
201.5029603425085
 11
-154.5152686762634
 21
201.4968036391606
  0
LINE
  8
1
  6
CONTINUOUS
 62
     7
 10
-154.5152686762634
 20
201.4968036391606
 11
-154.4908122487544
 21
201.4921173811703
  0
LINE
  8
1
  6
CONTINUOUS
 62
     7
 10
-154.4908122487544
 20
201.4921173811703
 11
-154.4661948106942
 21
201.488882150447
  0
LINE
  8
1
  6
CONTINUOUS
 62
     7
 10
-154.4661948106942
 20
201.488882150447
 11
-154.4415509313357
 21
201.4871125405182
  0
LINE
  8
1
  6
CONTINUOUS
 62
     7
 10
-154.4415509313357
 20
201.4871125405182
 11
-154.4168547499554
 21
201.4868074914088
  0
LINE
  8
1
  6
CONTINUOUS
 62
     7
 10
-261.0352224039978
 20
173.1918244559535
 11
-261.0443505245551
 21
173.1527674476103
  0
LINE
  8
1
  6
CONTINUOUS
 62
     7
 10
-261.0443505245551
 20
173.1527674476103
 11
-261.0547239071597
 21
173.1141685614166
  0
LINE
  8
1
  6
CONTINUOUS
 62
     7
 10
-261.0547239071597
 20
173.1141685614166
 11
-261.066434900467
 21
173.0758810465201
  0
LINE
  8
1
  6
CONTINUOUS
 62
     7
 10
-261.066434900467
 20
173.0758810465201
 11
-261.0794420478857
 21
173.0381997948475
  0
LINE
  8
1
  6
CONTINUOUS
 62
     7
 10
-261.0794420478857
 20
173.0381997948475
 11
-261.0938605641645
 21
173.0009458190788
  0
LINE
  8
1
  6
CONTINUOUS
 62
     7
 10
-261.0938605641645
 20
173.0009458190788
 11
-261.1096104481164
 21
172.9644483593503
  0
LINE
  8
1
  6
CONTINUOUS
 62
     7
 10
-261.1096104481164
 20
172.9644483593503
 11
-261.1267995831795
 21
172.928566548018
  0
LINE
  8
1
  6
CONTINUOUS
 62
     7
 10
-261.1267995831795
 20
172.928566548018
 11
-261.1453294967166
 21
172.8935869579275
  0
LINE
  8
1
  6
CONTINUOUS
 62
     7
 10
-261.1453294967166
 20
172.8935869579275
 11
-261.1648151298076
 21
172.8601856356393
  0
LINE
  8
1
  6
CONTINUOUS
 62
     7
 10
-261.1648151298076
 20
172.8601856356393
 11
-261.1855612576654
 21
172.8277726516096
  0
LINE
  8
1
  6
CONTINUOUS
 62
     7
 10
-261.1855612576654
 20
172.8277726516096
 11
-261.2076768513043
 21
172.7962212385473
  0
LINE
  8
1
  6
CONTINUOUS
 62
     7
 10
-261.2076768513043
 20
172.7962212385473
 11
-261.2310099228189
 21
172.7657722577391
  0
LINE
  8
1
  6
CONTINUOUS
 62
     7
 10
-261.2310099228189
 20
172.7657722577391
 11
-261.2556942236048
 21
172.7362764783877
  0
LINE
  8
1
  6
CONTINUOUS
 62
     7
 10
-261.2556942236048
 20
172.7362764783877
 11
-261.2815297872721
 21
172.7079817726285
  0
LINE
  8
1
  6
CONTINUOUS
 62
     7
 10
-261.2815297872721
 20
172.7079817726285
 11
-261.3086264493962
 21
172.6807716539709
  0
LINE
  8
1
  6
CONTINUOUS
 62
     7
 10
-261.3086264493962
 20
172.6807716539709
 11
-261.3367839144967
 21
172.6548383355443
  0
LINE
  8
1
  6
CONTINUOUS
 62
     7
 10
-261.3367839144967
 20
172.6548383355443
 11
-261.3680419858415
 21
172.6285176104436
  0
LINE
  8
1
  6
CONTINUOUS
 62
     7
 10
-261.3680419858415
 20
172.6285176104436
 11
-261.4003906511421
 21
172.6036946102423
  0
LINE
  8
1
  6
CONTINUOUS
 62
     7
 10
-261.4003906511421
 20
172.6036946102423
 11
-261.4337256670725
 21
172.5804051484424
  0
LINE
  8
1
  6
CONTINUOUS
 62
     7
 10
-261.4337256670725
 20
172.5804051484424
 11
-261.4676117997882
 21
172.5588775939129
  0
LINE
  8
1
  6
CONTINUOUS
 62
     7
 10
-261.4676117997882
 20
172.5588775939129
 11
-261.502341174612
 21
172.5388430555133
  0
LINE
  8
1
  6
CONTINUOUS
 62
     7
 10
-261.502341174612
 20
172.5388430555133
 11
-261.5378135096026
 21
172.5203155892688
  0
LINE
  8
1
  6
CONTINUOUS
 62
     7
 10
-261.5378135096026
 20
172.5203155892688
 11
-261.5646949605337
 21
172.50748364722
  0
LINE
  8
1
  6
CONTINUOUS
 62
     7
 10
-261.5646949605337
 20
172.50748364722
 11
-261.5919264625792
 21
172.495479520372
  0
LINE
  8
1
  6
CONTINUOUS
 62
     7
 10
-261.5919264625792
 20
172.495479520372
 11
-261.6438525800042
 21
172.4751832854305
  0
LINE
  8
1
  6
CONTINUOUS
 62
     7
 10
-261.6438525800042
 20
172.4751832854305
 11
-261.6969459901991
 21
172.4576981853432
  0
LINE
  8
1
  6
CONTINUOUS
 62
     7
 10
-261.6969459901991
 20
172.4576981853432
 11
-261.7508122121985
 21
172.443088378354
  0
LINE
  8
1
  6
CONTINUOUS
 62
     7
 10
-261.7508122121985
 20
172.443088378354
 11
-261.8055795431932
 21
172.4312756794451
  0
LINE
  8
1
  6
CONTINUOUS
 62
     7
 10
-261.8055795431932
 20
172.4312756794451
 11
-261.8607817268102
 21
172.422329931946
  0
LINE
  8
1
  6
CONTINUOUS
 62
     7
 10
-261.8607817268102
 20
172.422329931946
 11
-261.9164597275918
 21
172.4162241636167
  0
LINE
  8
1
  6
CONTINUOUS
 62
     7
 10
-261.9164597275918
 20
172.4162241636167
 11
-261.9570630206978
 21
172.4135891796795
  0
LINE
  8
1
  6
CONTINUOUS
 62
     7
 10
-261.9570630206978
 20
172.4135891796795
 11
-261.9977016502554
 21
172.4124818474167
  0
TEXT
  8
1
  6
CONTINUOUS
 62
     7
 10
-241.9427316493686
 20
50.82842003251218
 40
3.0
  1
AFP-SH40MSY
  0
LINE
  8
1
  6
CONTINUOUS
 62
     7
 10
-264.4030870135743
 20
240.5150937742901
 11
-267.0030870135743
 21
240.5150937742901
  0
LINE
  8
1
  6
CONTINUOUS
 62
     7
 10
-287.5030870135743
 20
205.2650937742901
 11
-287.5030870135743
 21
239.7650937742901
  0
LINE
  8
1
  6
CONTINUOUS
 62
     7
 10
-287.5030870135743
 20
239.7650937742901
 11
-267.5030870135743
 21
239.7650937742901
  0
LINE
  8
1
  6
CONTINUOUS
 62
     7
 10
-267.5030870135743
 20
239.7650937742901
 11
-267.5030870135743
 21
205.2650937742901
  0
LINE
  8
1
  6
CONTINUOUS
 62
     7
 10
-267.0030870135743
 20
204.5150937742901
 11
-264.4030870135743
 21
204.5150937742901
  0
LINE
  8
1
  6
CONTINUOUS
 62
     7
 10
-267.0030870135743
 20
204.5150937742901
 11
-267.0030870135743
 21
240.5150937742901
  0
LINE
  8
1
  6
CONTINUOUS
 62
     7
 10
-264.4030870135743
 20
204.5150937742901
 11
-264.4030870135743
 21
240.5150937742901
  0
LINE
  8
1
  6
CONTINUOUS
 62
     7
 10
-288.0030870135743
 20
240.5150937742901
 11
-290.6030870135743
 21
240.5150937742901
  0
LINE
  8
1
  6
CONTINUOUS
 62
     7
 10
-267.5030870135743
 20
205.2650937742901
 11
-287.5030870135743
 21
205.2650937742901
  0
LINE
  8
1
  6
CONTINUOUS
 62
     7
 10
-271.6030870135743
 20
73.32384428132168
 11
-274.9030870135742
 21
73.32384428132168
  0
LINE
  8
1
  6
CONTINUOUS
 62
     7
 10
-267.7030870135742
 20
62.67384428132166
 11
-267.7030870135742
 21
60.47384428132166
  0
LINE
  8
1
  6
CONTINUOUS
 62
     7
 10
-265.4030870135743
 20
70.62384428132168
 11
-265.4030870135743
 21
73.47384428132165
  0
LINE
  8
1
  6
CONTINUOUS
 62
     7
 10
-263.2030870135743
 20
68.17384428132165
 11
-268.2030870135743
 21
68.17384428132165
  0
LINE
  8
1
  6
CONTINUOUS
 62
     7
 10
-278.6720709473818
 20
70.62384428132168
 11
-276.3341030797668
 21
70.62384428132168
  0
LINE
  8
1
  6
CONTINUOUS
 62
     7
 10
-283.4030870135743
 20
70.62384428132168
 11
-283.7687724385236
 21
70.62384428132168
  0
LINE
  8
1
  6
CONTINUOUS
 62
     7
 10
-271.237401588625
 20
70.62384428132168
 11
-271.6030870135743
 21
70.62384428132168
  0
LINE
  8
1
  6
CONTINUOUS
 62
     7
 10
-267.7030870135742
 20
62.67384428132166
 11
-272.5530870135743
 21
62.67384428132169
  0
LINE
  8
1
  6
CONTINUOUS
 62
     7
 10
-286.8030870135743
 20
70.62384428132168
 11
-285.8030870135743
 21
70.62384428132168
  0
LINE
  8
1
  6
CONTINUOUS
 62
     7
 10
-285.8030870135743
 20
70.62384428132168
 11
-285.8030870135743
 21
68.67384428132165
  0
LINE
  8
1
  6
CONTINUOUS
 62
     7
 10
-265.649533622981
 20
73.32384428132168
 11
-266.6566404041676
 21
73.32384428132168
  0
LINE
  8
1
  6
CONTINUOUS
 62
     7
 10
-269.2030870135743
 20
68.67384428132165
 11
-269.2030870135743
 21
70.62384428132168
  0
LINE
  8
1
  6
CONTINUOUS
 62
     7
 10
-287.5030870135743
 20
60.58812999560739
 11
-287.5030870135743
 21
62.67384428132166
  0
LINE
  8
1
  6
CONTINUOUS
 62
     7
 10
-271.2030870135743
 20
58.47384428132165
 11
-272.4530870135743
 21
58.47384428132165
  0
LINE
  8
1
  6
CONTINUOUS
 62
     7
 10
-292.3030870135743
 20
68.67384428132165
 11
-292.3030870135743
 21
73.47384428132165
  0
LINE
  8
1
  6
CONTINUOUS
 62
     7
 10
-271.237401588625
 20
73.32384428132168
 11
-271.6030870135743
 21
73.32384428132168
  0
LINE
  8
1
  6
CONTINUOUS
 62
     7
 10
-276.0643375565805
 20
70.62384428132168
 11
-276.3341030797668
 21
70.62384428132168
  0
LINE
  8
1
  6
CONTINUOUS
 62
     7
 10
-274.9030870135742
 20
73.32384428132168
 11
-275.2687724385235
 21
73.32384428132168
  0
LINE
  8
1
  6
CONTINUOUS
 62
     7
 10
-272.4530870135743
 20
61.97384428132166
 11
-277.3030870135743
 21
61.97384428132166
  0
LINE
  8
1
  6
CONTINUOUS
 62
     7
 10
-272.5530870135743
 20
62.58618426797349
 11
-272.5530870135743
 21
70.62384428132168
  0
LINE
  8
1
  6
CONTINUOUS
 62
     7
 10
-278.6720709473818
 20
70.62384428132168
 11
-278.9418364705681
 21
70.62384428132168
  0
LINE
  8
1
  6
CONTINUOUS
 62
     7
 10
-283.8030870135743
 20
58.47384428132165
 11
-272.4530870135743
 21
58.47384428132165
  0
LINE
  8
1
  6
CONTINUOUS
 62
     7
 10
-282.4530870135743
 20
62.67384428132169
 11
-282.4530870135743
 21
70.62384428132168
  0
LINE
  8
1
  6
CONTINUOUS
 62
     7
 10
-288.349533622981
 20
73.32384428132168
 11
-289.3566404041676
 21
73.32384428132168
  0
LINE
  8
1
  6
CONTINUOUS
 62
     7
 10
-267.7030870135742
 20
60.47384428132166
 11
-267.5030870135743
 21
60.58812999560739
  0
LINE
  8
1
  6
CONTINUOUS
 62
     7
 10
-280.1030870135743
 20
73.32384428132168
 11
-280.1030870135743
 21
70.62384428132168
  0
LINE
  8
1
  6
CONTINUOUS
 62
     7
 10
-265.649533622981
 20
73.32384428132168
 11
-265.5030870135743
 21
73.32384428132168
  0
LINE
  8
1
  6
CONTINUOUS
 62
     7
 10
-293.0084723768916
 20
93.69521092788958
 11
-292.9328841265336
 21
93.65853971407428
  0
LINE
  8
1
  6
CONTINUOUS
 62
     7
 10
-261.2167163385075
 20
89.88000926807457
 11
-261.494511797554
 21
73.96511807810305
  0
LINE
  8
1
  6
CONTINUOUS
 62
     7
 10
-280.1030870135743
 20
73.32384428132168
 11
-283.4030870135743
 21
73.32384428132168
  0
LINE
  8
1
  6
CONTINUOUS
 62
     7
 10
-278.6720709473818
 20
73.32384428132168
 11
-276.3341030797668
 21
73.32384428132168
  0
LINE
  8
1
  6
CONTINUOUS
 62
     7
 10
-265.5030870135743
 20
73.32384428132168
 11
-265.5030870135743
 21
70.62384428132168
  0
LINE
  8
1
  6
CONTINUOUS
 62
     7
 10
-280.1030870135743
 20
70.62384428132168
 11
-283.4030870135743
 21
70.62384428132168
  0
LINE
  8
1
  6
CONTINUOUS
 62
     7
 10
-287.5030870135743
 20
62.67384428132166
 11
-282.4530870135743
 21
62.67384428132169
  0
LINE
  8
1
  6
CONTINUOUS
 62
     7
 10
-289.5030870135743
 20
73.32384428132168
 11
-289.3566404041675
 21
73.32384428132168
  0
LINE
  8
1
  6
CONTINUOUS
 62
     7
 10
-289.5030870135743
 20
70.62384428132168
 11
-289.5030870135743
 21
73.32384428132168
  0
LINE
  8
1
  6
CONTINUOUS
 62
     7
 10
-271.6030870135743
 20
70.62384428132168
 11
-274.9030870135742
 21
70.62384428132168
  0
LINE
  8
1
  6
CONTINUOUS
 62
     7
 10
-279.737401588625
 20
70.62384428132168
 11
-280.1030870135743
 21
70.62384428132168
  0
LINE
  8
1
  6
CONTINUOUS
 62
     7
 10
-267.7781610659818
 20
62.6342407505579
 11
-267.7030870135742
 21
62.67384428132166
  0
LINE
  8
1
  6
CONTINUOUS
 62
     7
 10
-267.7030870135743
 20
60.47384428132166
 11
-271.2030870135743
 21
58.47384428132165
  0
LINE
  8
1
  6
CONTINUOUS
 62
     7
 10
-267.5030870135743
 20
60.58812999560739
 11
-267.5030870135743
 21
62.67384428132166
  0
LINE
  8
1
  6
CONTINUOUS
 62
     7
 10
-287.5030870135743
 20
60.58812999560739
 11
-283.8030870135743
 21
58.47384428132165
  0
LINE
  8
1
  6
CONTINUOUS
 62
     7
 10
-261.0352224039978
 20
94.19003889402111
 11
-261.9977016502554
 21
93.69521092788997
  0
LINE
  8
1
  6
CONTINUOUS
 62
     7
 10
-288.349533622981
 20
73.32384428132168
 11
-287.9959802323878
 21
73.32384428132168
  0
LINE
  8
1
  6
CONTINUOUS
 62
     7
 10
-271.6030870135743
 20
73.32384428132168
 11
-271.6030870135743
 21
70.62384428132168
  0
LINE
  8
1
  6
CONTINUOUS
 62
     7
 10
-279.737401588625
 20
73.32384428132168
 11
-280.1030870135743
 21
73.32384428132168
  0
LINE
  8
1
  6
CONTINUOUS
 62
     7
 10
-274.9030870135742
 20
73.32384428132168
 11
-274.9030870135742
 21
70.62384428132168
  0
LINE
  8
1
  6
CONTINUOUS
 62
     7
 10
-283.4030870135743
 20
73.32384428132168
 11
-283.4030870135743
 21
70.62384428132168
  0
LINE
  8
1
  6
CONTINUOUS
 62
     7
 10
-293.0084723768916
 20
93.69521092788958
 11
-293.9709516231508
 21
94.1900388940211
  0
LINE
  8
1
  6
CONTINUOUS
 62
     7
 10
-293.9709516231508
 20
94.1900388940211
 11
-293.9940171349674
 21
94.20234895421888
  0
LINE
  8
1
  6
CONTINUOUS
 62
     7
 10
-261.0121568921812
 20
94.20234895421888
 11
-261.0352224039978
 21
94.19003889402111
  0
LINE
  8
1
  6
CONTINUOUS
 62
     7
 10
-293.5116622295946
 20
73.96511807810305
 11
-293.7894576886411
 21
89.88000926807457
  0
LINE
  8
1
  6
CONTINUOUS
 62
     7
 10
-267.7030870135742
 20
62.67384428132166
 11
-267.5030870135743
 21
62.67384428132166
  0
LINE
  8
1
  6
CONTINUOUS
 62
     7
 10
-278.9418364705681
 20
73.32384428132168
 11
-278.6720709473818
 21
73.32384428132168
  0
LINE
  8
1
  6
CONTINUOUS
 62
     7
 10
-261.9944356451321
 20
73.47384428132167
 11
-293.0117383820165
 21
73.47384428132167
  0
LINE
  8
1
  6
CONTINUOUS
 62
     7
 10
-268.2030870135743
 20
70.62384428132168
 11
-265.4030870135743
 21
70.62384428132168
  0
LINE
  8
1
  6
CONTINUOUS
 62
     7
 10
-273.0005877076332
 20
62.45130680175456
 11
-272.5530870135743
 21
62.58618426797349
  0
LINE
  8
1
  6
CONTINUOUS
 62
     7
 10
-286.3030870135743
 20
68.17384428132165
 11
-286.8030870135743
 21
68.17384428132165
  0
LINE
  8
1
  6
CONTINUOUS
 62
     7
 10
-268.2030870135743
 20
68.17384428132165
 11
-268.7030870135743
 21
68.17384428132165
  0
LINE
  8
1
  6
CONTINUOUS
 62
     7
 10
-286.8030870135743
 20
68.17384428132165
 11
-291.8030870135743
 21
68.17384428132165
  0
LINE
  8
1
  6
CONTINUOUS
 62
     7
 10
-279.1717161636758
 20
70.62384428132168
 11
-279.737401588625
 21
70.62384428132168
  0
LINE
  8
1
  6
CONTINUOUS
 62
     7
 10
-276.3341030797668
 20
73.32384428132168
 11
-276.0643375565805
 21
73.32384428132168
  0
LINE
  8
1
  6
CONTINUOUS
 62
     7
 10
-274.9030870135742
 20
70.62384428132168
 11
-275.2687724385235
 21
70.62384428132168
  0
LINE
  8
1
  6
CONTINUOUS
 62
     7
 10
-283.4030870135743
 20
73.32384428132168
 11
-283.7687724385236
 21
73.32384428132168
  0
LINE
  8
1
  6
CONTINUOUS
 62
     7
 10
-278.9418364705681
 20
73.32384428132168
 11
-279.1717161636758
 21
73.32384428132168
  0
LINE
  8
1
  6
CONTINUOUS
 62
     7
 10
-278.9418364705681
 20
70.62384428132168
 11
-279.1717161636758
 21
70.62384428132168
  0
LINE
  8
1
  6
CONTINUOUS
 62
     7
 10
-271.237401588625
 20
73.32384428132168
 11
-270.6717161636758
 21
73.32384428132168
  0
LINE
  8
1
  6
CONTINUOUS
 62
     7
 10
-270.6717161636758
 20
70.62384428132168
 11
-271.237401588625
 21
70.62384428132168
  0
LINE
  8
1
  6
CONTINUOUS
 62
     7
 10
-275.2687724385235
 20
70.62384428132168
 11
-275.8344578634728
 21
70.62384428132168
  0
LINE
  8
1
  6
CONTINUOUS
 62
     7
 10
-279.737401588625
 20
73.32384428132168
 11
-279.1717161636758
 21
73.32384428132168
  0
LINE
  8
1
  6
CONTINUOUS
 62
     7
 10
-283.9030870135742
 20
73.32384428132168
 11
-283.9030870135743
 21
73.47384428132167
  0
LINE
  8
1
  6
CONTINUOUS
 62
     7
 10
-245.4601470735501
 20
108.5738442813217
 11
-245.4689651113304
 21
108.5738442813217
  0
LINE
  8
1
  6
CONTINUOUS
 62
     7
 10
-269.2030870135743
 20
70.62384428132168
 11
-268.2030870135743
 21
70.62384428132168
  0
LINE
  8
1
  6
CONTINUOUS
 62
     7
 10
-293.0117383820165
 20
73.47384428132167
 11
-294.0115860771728
 21
73.47384428132167
  0
LINE
  8
1
  6
CONTINUOUS
 62
     7
 10
-260.9945879499758
 20
73.47384428132167
 11
-261.9944356451321
 21
73.47384428132167
  0
LINE
  8
1
  6
CONTINUOUS
 62
     7
 10
-273.0030870135743
 20
73.32384428132168
 11
-273.0030870135743
 21
73.47384428132167
  0
LINE
  8
1
  6
CONTINUOUS
 62
     7
 10
-262.7030870135743
 20
73.47384428132165
 11
-262.7030870135743
 21
68.67384428132165
  0
LINE
  8
1
  6
CONTINUOUS
 62
     7
 10
-271.1030870135743
 20
73.32384428132168
 11
-271.1030870135743
 21
73.47384428132167
  0
LINE
  8
1
  6
CONTINUOUS
 62
     7
 10
-309.5446088532636
 20
108.5738442813217
 11
-309.5460269535985
 21
108.5738442813217
  0
LINE
  8
1
  6
CONTINUOUS
 62
     7
 10
-123.4738442813217
 20
217.932518079334
 11
-123.4738442813217
 21
217.7650937742899
  0
LINE
  8
1
  6
CONTINUOUS
 62
     7
 10
-126.9738442813217
 20
217.7650937742901
 11
-133.1738442813216
 21
217.7650937742899
  0
LINE
  8
1
  6
CONTINUOUS
 62
     7
 10
-265.4030870135743
 20
70.67384428132168
 11
-265.5030870135743
 21
70.67384428132168
  0
LINE
  8
1
  6
CONTINUOUS
 62
     7
 10
-289.6030870135743
 20
70.67384428132168
 11
-289.5030870135743
 21
70.67384428132168
  0
LINE
  8
1
  6
CONTINUOUS
 62
     7
 10
-125.4738442813217
 20
222.5150937742899
 11
-125.4738442813217
 21
226.2650937742901
  0
LINE
  8
1
  6
CONTINUOUS
 62
     7
 10
-127.6738442813217
 20
226.2650937742901
 11
-127.6738442813217
 21
227.2650937742901
  0
LINE
  8
1
  6
CONTINUOUS
 62
     7
 10
-289.6030870135743
 20
70.62384428132168
 11
-286.8030870135743
 21
70.62384428132168
  0
LINE
  8
1
  6
CONTINUOUS
 62
     7
 10
-309.5460269535985
 20
108.5738442813217
 11
-310.997758245102
 21
108.5738442813217
  0
LINE
  8
1
  6
CONTINUOUS
 62
     7
 10
-123.4738442813217
 20
227.2650937742901
 11
-123.4738442813217
 21
217.932518079334
  0
LINE
  8
1
  6
CONTINUOUS
 62
     7
 10
-289.6030870135743
 20
73.17384428132168
 11
-289.5030870135743
 21
73.17384428132168
  0
LINE
  8
1
  6
CONTINUOUS
 62
     7
 10
-244.0103847646402
 20
108.5738442813217
 11
-245.4601470735501
 21
108.5738442813217
  0
LINE
  8
1
  6
CONTINUOUS
 62
     7
 10
-282.0030870135743
 20
73.32384428132168
 11
-282.0030870135743
 21
73.47384428132167
  0
LINE
  8
1
  6
CONTINUOUS
 62
     7
 10
-127.6738442813217
 20
222.5150937742896
 11
-127.6738442813217
 21
226.2650937742901
  0
LINE
  8
1
  6
CONTINUOUS
 62
     7
 10
-265.4030870135743
 20
73.17384428132168
 11
-265.5030870135743
 21
73.17384428132168
  0
LINE
  8
1
  6
CONTINUOUS
 62
     7
 10
-125.4738442813217
 20
226.2650937742901
 11
-127.6738442813217
 21
226.2650937742901
  0
LINE
  8
1
  6
CONTINUOUS
 62
     7
 10
-260.4944356451321
 20
73.47384428132167
 11
-260.9945879499758
 21
73.47384428132167
  0
LINE
  8
1
  6
CONTINUOUS
 62
     7
 10
-127.6738442813217
 20
227.2650937742901
 11
-133.1738442813216
 21
227.2650937742899
  0
LINE
  8
1
  6
CONTINUOUS
 62
     7
 10
-294.0115860771728
 20
73.47384428132167
 11
-294.5117383820165
 21
73.47384428132167
  0
LINE
  8
1
  6
CONTINUOUS
 62
     7
 10
-125.5881299956074
 20
227.2650937742901
 11
-123.4738442813217
 21
227.2650937742901
  0
LINE
  8
1
  6
CONTINUOUS
 62
     7
 10
-125.5881299956074
 20
227.2650937742901
 11
-127.6738442813217
 21
227.2650937742901
  0
LINE
  8
1
  6
CONTINUOUS
 62
     7
 10
-123.4738442813217
 20
217.7650937742901
 11
-126.9738442813217
 21
217.7650937742901
  0
LINE
  8
1
  6
CONTINUOUS
 62
     7
 10
-125.4738442813217
 20
226.2650937742901
 11
-125.5881299956074
 21
227.2650937742901
  0
LINE
  8
1
  6
CONTINUOUS
 62
     7
 10
-259.7034085592417
 20
90.6424114315989
 11
-259.994511797554
 21
73.96511807810305
  0
LINE
  8
1
  6
CONTINUOUS
 62
     7
 10
-289.6030870135743
 20
73.47384428132165
 11
-289.6030870135743
 21
70.62384428132168
  0
LINE
  8
1
  6
CONTINUOUS
 62
     7
 10
-127.6738442813217
 20
222.5150937742896
 11
-125.4738442813217
 21
222.5150937742899
  0
LINE
  8
1
  6
CONTINUOUS
 62
     7
 10
-295.0116622295946
 20
73.96511807810305
 11
-295.3027654679069
 21
90.64241143159887
  0
LINE
  8
1
  6
CONTINUOUS
 62
     7
 10
-138.4738442813217
 20
242.7737451427322
 11
-138.4738442813217
 21
234.7735928378886
  0
LINE
  8
1
  6
CONTINUOUS
 62
     7
 10
-135.6238442813216
 20
231.7650937742901
 11
-135.6238442813216
 21
213.2650937742901
  0
LINE
  8
1
  6
CONTINUOUS
 62
     7
 10
-133.1738442813216
 20
236.3150937742901
 11
-133.1738442813216
 21
232.7650937742901
  0
LINE
  8
1
  6
CONTINUOUS
 62
     7
 10
-154.8800092680746
 20
243.0515406017787
 11
-154.8800092680746
 21
235.0513882969351
  0
LINE
  8
1
  6
CONTINUOUS
 62
     7
 10
-163.591296687759
 20
175.5322442063308
 11
-161.4355642330412
 21
175.5698726562958
  0
LINE
  8
1
  6
CONTINUOUS
 62
     7
 10
-159.3353860972323
 20
172.423656146563
 11
-163.591296687759
 21
172.4979433422494
  0
LINE
  8
1
  6
CONTINUOUS
 62
     7
 10
-138.4738442813217
 20
211.2564424058479
 11
-138.4738442813217
 21
210.2565947106915
  0
LINE
  8
1
  6
CONTINUOUS
 62
     7
 10
-138.4738442813217
 20
234.7735928378886
 11
-138.4738442813217
 21
233.7737451427322
  0
LINE
  8
1
  6
CONTINUOUS
 62
     7
 10
-154.4168547499562
 20
243.5433800571714
 11
-138.965118078103
 21
243.2736689903104
  0
LINE
  8
1
  6
CONTINUOUS
 62
     7
 10
-138.965118078103
 20
201.7565185582697
 11
-154.4168547499554
 21
201.4868074914088
  0
LINE
  8
1
  6
CONTINUOUS
 62
     7
 10
-154.8800092680746
 20
209.9787992516451
 11
-154.8800092680746
 21
201.9786469468015
  0
LINE
  8
1
  6
CONTINUOUS
 62
     7
 10
-138.4738442813217
 20
210.2565947106915
 11
-138.4738442813217
 21
202.2564424058479
  0
LINE
  8
1
  6
CONTINUOUS
 62
     7
 10
-133.6738442813216
 20
232.2650937742901
 11
-135.1238442813216
 21
232.2650937742901
  0
LINE
  8
1
  6
CONTINUOUS
 62
     7
 10
-138.4738442813216
 20
236.8150937742901
 11
-133.6738442813216
 21
236.8150937742901
  0
LINE
  8
1
  6
CONTINUOUS
 62
     7
 10
-133.6738442813216
 20
207.5150937742901
 11
-138.4738442813216
 21
207.5150937742901
  0
LINE
  8
1
  6
CONTINUOUS
 62
     7
 10
-155.6424114315989
 20
234.0648483810444
 11
-155.6424114315989
 21
210.9653391675357
  0
LINE
  8
1
  6
CONTINUOUS
 62
     7
 10
-138.4738442813217
 20
233.7737451427322
 11
-138.4738442813217
 21
211.2564424058479
  0
LINE
  8
1
  6
CONTINUOUS
 62
     7
 10
-155.1250121402715
 20
234.5557409903987
 11
-138.965118078103
 21
234.2736689903104
  0
LINE
  8
1
  6
CONTINUOUS
 62
     7
 10
-138.965118078103
 20
210.7565185582697
 11
-155.1250121402715
 21
210.4744465581815
  0
LINE
  8
1
  6
CENTER
 62
     1
 10
-239.1027493838659
 20
217.5150937742901
 11
-315.8411197756841
 21
217.5150937742901
  0
LINE
  8
1
  6
CONTINUOUS
 62
     7
 10
-135.1238442813216
 20
212.7650937742901
 11
-133.6738442813216
 21
212.7650937742901
  0
LINE
  8
1
  6
CENTER
 62
     1
 10
-277.5030870135743
 20
55.47384428132165
 11
-277.5030870135743
 21
111.5738442813217
  0
LINE
  8
1
  6
CONTINUOUS
 62
     7
 10
-164.5738442813217
 20
174.5323965111744
 11
-164.5738442813217
 21
173.4977910374058
  0
LINE
  8
1
  6
CONTINUOUS
 62
     7
 10
-133.1738442813216
 20
213.2650937742901
 11
-133.1738442813216
 21
212.2650937742901
  0
LINE
  8
1
  6
CONTINUOUS
 62
     7
 10
-133.1738442813216
 20
232.7650937742901
 11
-133.1738442813216
 21
231.7650937742901
  0
LINE
  8
1
  6
CONTINUOUS
 62
     7
 10
-151.5738442813217
 20
165.0365267206824
 11
-151.5738442813217
 21
201.0450837921726
  0
LINE
  8
1
  6
CONTINUOUS
 62
     7
 10
-151.5738442813217
 20
243.9851037564076
 11
-151.5738442813217
 21
269.9899592696448
  0
LINE
  8
1
  6
CONTINUOUS
 62
     7
 10
-133.1738442813216
 20
212.2650937742901
 11
-133.1738442813216
 21
208.0150937742901
  0
LINE
  8
1
  6
CONTINUOUS
 62
     7
 10
-133.1738442813216
 20
231.7650937742901
 11
-133.1738442813216
 21
213.2650937742901
  0
LINE
  8
1
  6
CENTER
 62
     1
 10
-277.5030870135743
 20
161.2188675543287
 11
-277.5030870135743
 21
273.8513166408114
  0
LINE
  8
1
  6
CENTER
 62
     1
 10
-175.5738442813217
 20
217.5150937742901
 11
-120.4738442813217
 21
217.5150937742901
  0
POLYLINE
  8
1
  6
CONTINUOUS
 62
     7
 66
     1
  0
VERTEX
  8
1
  6
CONTINUOUS
 62
     7
 10
-291.1667680075836
 20
240.8787747682995
  0
VERTEX
  8
1
  6
CONTINUOUS
 62
     7
 10
-284.4746264894308
 20
240.8425392501309
  0
VERTEX
  8
1
  6
CONTINUOUS
 62
     7
 10
-277.5030870135743
 20
240.8302972028163
  0
VERTEX
  8
1
  6
CONTINUOUS
 62
     7
 10
-270.5315475377178
 20
240.8425392501309
  0
VERTEX
  8
1
  6
CONTINUOUS
 62
     7
 10
-263.8394060195649
 20
240.8787747682995
  0
SEQEND
  8
1
  6
CONTINUOUS
 62
     7
  0
POLYLINE
  8
1
  6
CONTINUOUS
 62
     7
 66
     1
  0
VERTEX
  8
1
  6
CONTINUOUS
 62
     7
 10
-261.9977016502563
 20
172.4124818474167
  0
VERTEX
  8
1
  6
CONTINUOUS
 62
     7
 10
-266.7948656800794
 20
172.4592936734718
  0
VERTEX
  8
1
  6
CONTINUOUS
 62
     7
 10
-272.03570980346
 20
172.4881797902934
  0
VERTEX
  8
1
  6
CONTINUOUS
 62
     7
 10
-277.5030870135736
 20
172.4979433422494
  0
VERTEX
  8
1
  6
CONTINUOUS
 62
     7
 10
-282.9704642236873
 20
172.4881797902934
  0
VERTEX
  8
1
  6
CONTINUOUS
 62
     7
 10
-288.211308347068
 20
172.4592936734718
  0
VERTEX
  8
1
  6
CONTINUOUS
 62
     7
 10
-293.0084723768912
 20
172.4124818474167
  0
SEQEND
  8
1
  6
CONTINUOUS
 62
     7
  0
POLYLINE
  8
1
  6
CONTINUOUS
 62
     7
 66
     1
  0
VERTEX
  8
1
  6
CONTINUOUS
 62
     7
 10
-293.0079978263743
 20
175.6176998907453
  0
VERTEX
  8
1
  6
CONTINUOUS
 62
     7
 10
-288.210953597111
 20
175.5708911999447
  0
VERTEX
  8
1
  6
CONTINUOUS
 62
     7
 10
-282.9702750062621
 20
175.542007075348
  0
VERTEX
  8
1
  6
CONTINUOUS
 62
     7
 10
-277.5030870135745
 20
175.5322442063308
  0
VERTEX
  8
1
  6
CONTINUOUS
 62
     7
 10
-272.0358990208869
 20
175.542007075348
  0
VERTEX
  8
1
  6
CONTINUOUS
 62
     7
 10
-266.7952204300379
 20
175.5708911999447
  0
VERTEX
  8
1
  6
CONTINUOUS
 62
     7
 10
-261.9981762007746
 20
175.6176998907453
  0
SEQEND
  8
1
  6
CONTINUOUS
 62
     7
  0
POLYLINE
  8
1
  6
CONTINUOUS
 62
     7
 66
     1
  0
VERTEX
  8
1
  6
CONTINUOUS
 62
     7
 10
-263.8394060195646
 20
204.1514127802807
  0
VERTEX
  8
1
  6
CONTINUOUS
 62
     7
 10
-270.5315475377175
 20
204.1876482984492
  0
VERTEX
  8
1
  6
CONTINUOUS
 62
     7
 10
-277.5030870135741
 20
204.1998903457638
  0
VERTEX
  8
1
  6
CONTINUOUS
 62
     7
 10
-284.4746264894306
 20
204.1876482984492
  0
VERTEX
  8
1
  6
CONTINUOUS
 62
     7
 10
-291.1667680075835
 20
204.1514127802807
  0
SEQEND
  8
1
  6
CONTINUOUS
 62
     7
  0
POLYLINE
  8
1
  6
CONTINUOUS
 62
     7
 66
     1
  0
VERTEX
  8
1
  6
CONTINUOUS
 62
     7
 10
-154.8800092680746
 20
210.4787230992233
  0
VERTEX
  8
1
  6
CONTINUOUS
 62
     7
 10
-154.8815432149302
 20
210.4690912148901
  0
VERTEX
  8
1
  6
CONTINUOUS
 62
     7
 10
-154.8826830223771
 20
210.4406249681886
  0
VERTEX
  8
1
  6
CONTINUOUS
 62
     7
 10
-154.8833849051851
 20
210.3944178781763
  0
VERTEX
  8
1
  6
CONTINUOUS
 62
     7
 10
-154.8836219008174
 20
210.3322449710469
  0
VERTEX
  8
1
  6
CONTINUOUS
 62
     7
 10
-154.8833849051851
 20
210.2564945932351
  0
VERTEX
  8
1
  6
CONTINUOUS
 62
     7
 10
-154.8826830223771
 20
210.1700766640792
  0
VERTEX
  8
1
  6
CONTINUOUS
 62
     7
 10
-154.8815432149301
 20
210.0763108924769
  0
VERTEX
  8
1
  6
CONTINUOUS
 62
     7
 10
-154.8800092680746
 20
209.9787992516451
  0
SEQEND
  8
1
  6
CONTINUOUS
 62
     7
  0
POLYLINE
  8
1
  6
CONTINUOUS
 62
     7
 66
     1
  0
VERTEX
  8
1
  6
CONTINUOUS
 62
     7
 10
-154.8800092680746
 20
235.051388296935
  0
VERTEX
  8
1
  6
CONTINUOUS
 62
     7
 10
-154.8815432149301
 20
234.9538766561032
  0
VERTEX
  8
1
  6
CONTINUOUS
 62
     7
 10
-154.8826830223771
 20
234.8601108845008
  0
VERTEX
  8
1
  6
CONTINUOUS
 62
     7
 10
-154.8833849051851
 20
234.7736929553449
  0
VERTEX
  8
1
  6
CONTINUOUS
 62
     7
 10
-154.8836219008174
 20
234.6979425775331
  0
VERTEX
  8
1
  6
CONTINUOUS
 62
     7
 10
-154.8833849051851
 20
234.6357696704038
  0
VERTEX
  8
1
  6
CONTINUOUS
 62
     7
 10
-154.8826830223771
 20
234.5895625803915
  0
VERTEX
  8
1
  6
CONTINUOUS
 62
     7
 10
-154.8815432149302
 20
234.56109633369
  0
VERTEX
  8
1
  6
CONTINUOUS
 62
     7
 10
-154.8800092680746
 20
234.5514644493569
  0
SEQEND
  8
1
  6
CONTINUOUS
 62
     7
  0
POLYLINE
  8
1
  6
CONTINUOUS
 62
     7
 66
     1
  0
VERTEX
  8
1
  6
CONTINUOUS
 62
     7
 10
-125.4738442813217
 20
222.5150937742899
  0
VERTEX
  8
1
  6
CONTINUOUS
 62
     7
 10
-125.4268481685006
 20
221.6350105781513
  0
VERTEX
  8
1
  6
CONTINUOUS
 62
     7
 10
-125.2874872450208
 20
220.785403531933
  0
VERTEX
  8
1
  6
CONTINUOUS
 62
     7
 10
-125.0605874005432
 20
219.9956934356545
  0
VERTEX
  8
1
  6
CONTINUOUS
 62
     7
 10
-124.7540058850499
 20
219.2932269349434
  0
VERTEX
  8
1
  6
CONTINUOUS
 62
     7
 10
-124.3783592223765
 20
218.7023295418466
  0
VERTEX
  8
1
  6
CONTINUOUS
 62
     7
 10
-123.9466555736366
 20
218.2434632736125
  0
VERTEX
  8
1
  6
CONTINUOUS
 62
     7
 10
-123.4738442813217
 20
217.932518079334
  0
SEQEND
  8
1
  6
CONTINUOUS
 62
     7
  0
LINE
  8
1
  6
CONTINUOUS
 62
     7
 10
-273.0005877076331
 20
62.45130680175454
 11
-273.3444082334324
 21
62.43178706950806
  0
POLYLINE
  8
1
  6
CONTINUOUS
 62
     7
 66
     1
  0
VERTEX
  8
1
  6
CONTINUOUS
 62
     7
 10
-292.9328841265335
 20
172.4118417489986
  0
VERTEX
  8
1
  6
CONTINUOUS
 62
     7
 10
-286.9711197472267
 20
172.3720486543828
  0
VERTEX
  8
1
  6
CONTINUOUS
 62
     7
 10
-280.6944766465417
 20
172.3518156623863
  0
VERTEX
  8
1
  6
CONTINUOUS
 62
     7
 10
-274.3116973805814
 20
172.3518156623863
  0
VERTEX
  8
1
  6
CONTINUOUS
 62
     7
 10
-268.0350542798972
 20
172.3720486543829
  0
VERTEX
  8
1
  6
CONTINUOUS
 62
     7
 10
-262.0732899005921
 20
172.4118417489988
  0
SEQEND
  8
1
  6
CONTINUOUS
 62
     7
  0
POLYLINE
  8
1
  6
CONTINUOUS
 62
     7
 66
     1
  0
VERTEX
  8
1
  6
CONTINUOUS
 62
     7
 10
-261.9981762007744
 20
175.6176998907453
  0
VERTEX
  8
1
  6
CONTINUOUS
 62
     7
 10
-267.9866968589793
 20
175.6579010603161
  0
VERTEX
  8
1
  6
CONTINUOUS
 62
     7
 10
-274.2950207207751
 20
175.6783451624035
  0
VERTEX
  8
1
  6
CONTINUOUS
 62
     7
 10
-280.7111533063731
 20
175.6783451624035
  0
VERTEX
  8
1
  6
CONTINUOUS
 62
     7
 10
-287.019477168169
 20
175.6579010603161
  0
VERTEX
  8
1
  6
CONTINUOUS
 62
     7
 10
-293.007997826374
 20
175.6176998907454
  0
SEQEND
  8
1
  6
CONTINUOUS
 62
     7
  0
LINE
  8
1
  6
CONTINUOUS
 62
     7
 10
-291.1667680075837
 20
212.76509377429
 11
-292.6030870135743
 21
212.76509377429
  0
LINE
  8
1
  6
CONTINUOUS
 62
     7
 10
-262.4030870135743
 20
232.2650937742901
 11
-262.4030870135743
 21
212.76509377429
  0
LINE
  8
1
  6
CONTINUOUS
 62
     7
 10
-263.8394060195649
 20
212.76509377429
 11
-263.8394060195649
 21
204.1514127802807
  0
LINE
  8
1
  6
CONTINUOUS
 62
     7
 10
-291.1667680075837
 20
232.2650937742901
 11
-291.1667680075837
 21
240.8787747682995
  0
LINE
  8
1
  6
CONTINUOUS
 62
     7
 10
-291.1667680075837
 20
204.1514127802807
 11
-291.1667680075837
 21
212.7650937742901
  0
LINE
  8
1
  6
CONTINUOUS
 62
     7
 10
-262.0732899005921
 20
172.4118417489988
 11
-261.9977016502554
 21
172.4124818474167
  0
LINE
  8
1
  6
CONTINUOUS
 62
     7
 10
-262.4030870135742
 20
232.2650937742901
 11
-263.8394060195649
 21
232.2650937742901
  0
LINE
  8
1
  6
CONTINUOUS
 62
     7
 10
-263.8394060195649
 20
240.8787747682995
 11
-263.8394060195649
 21
232.2650937742901
  0
LINE
  8
1
  6
CONTINUOUS
 62
     7
 10
-292.6030870135743
 20
232.2650937742901
 11
-291.1667680075837
 21
232.2650937742901
  0
LINE
  8
1
  6
CONTINUOUS
 62
     7
 10
-263.8394060195649
 20
212.76509377429
 11
-262.4030870135742
 21
212.76509377429
  0
LINE
  8
1
  6
CONTINUOUS
 62
     7
 10
-293.0084723768916
 20
172.4124818474167
 11
-292.9328841265336
 21
172.4118417489986
  0
LINE
  8
1
  6
CONTINUOUS
 62
     7
 10
-292.6030870135743
 20
232.2650937742901
 11
-292.6030870135743
 21
212.76509377429
  0
LINE
  8
1
  6
CONTINUOUS
 62
     7
 10
-264.0030870135743
 20
212.7650937742901
 11
-264.0030870135743
 21
204.3150937742901
  0
LINE
  8
1
  6
CONTINUOUS
 62
     7
 10
-264.0030870135743
 20
212.7650937742901
 11
-263.8394060195649
 21
212.7650937742901
  0
LINE
  8
1
  6
CONTINUOUS
 62
     7
 10
-264.0030870135743
 20
240.7150937742901
 11
-264.0030870135743
 21
232.2650937742901
  0
LINE
  8
1
  6
CONTINUOUS
 62
     7
 10
-263.8394060195649
 20
232.2650937742901
 11
-264.0030870135743
 21
232.2650937742901
  0
LINE
  8
1
  6
CONTINUOUS
 62
     7
 10
-291.0030870135743
 20
212.7650937742901
 11
-290.6030870135743
 21
212.7650937742901
  0
LINE
  8
1
  6
CONTINUOUS
 62
     7
 10
-290.6030870135743
 20
232.2650937742901
 11
-291.0030870135743
 21
232.2650937742901
  0
LINE
  8
1
  6
CONTINUOUS
 62
     7
 10
-264.0030870135743
 20
204.31509377429
 11
-263.8394060195649
 21
204.1514127802807
  0
LINE
  8
1
  6
CONTINUOUS
 62
     7
 10
-264.0030870135743
 20
204.31509377429
 11
-291.0030870135743
 21
204.31509377429
  0
LINE
  8
1
  6
CONTINUOUS
 62
     7
 10
-292.3030870135743
 20
212.7650937742901
 11
-292.3030870135743
 21
232.2650937742901
  0
LINE
  8
1
  6
CONTINUOUS
 62
     7
 10
-267.0101937947608
 20
73.32384428132168
 11
-270.6717161636758
 21
73.32384428132168
  0
LINE
  8
1
  6
CONTINUOUS
 62
     7
 10
-262.7030870135743
 20
232.2650937742901
 11
-262.7030870135743
 21
212.76509377429
  0
LINE
  8
1
  6
CONTINUOUS
 62
     7
 10
-269.2030870135743
 20
70.62384428132168
 11
-270.6717161636758
 21
70.62384428132168
  0
LINE
  8
1
  6
CONTINUOUS
 62
     7
 10
-261.0121568921812
 20
173.4073798019844
 11
-261.0352224039977
 21
173.1918244559535
  0
LINE
  8
1
  6
CONTINUOUS
 62
     7
 10
-291.1667680075837
 20
232.2650937742901
 11
-291.0030870135743
 21
232.2650937742901
  0
LINE
  8
1
  6
CONTINUOUS
 62
     7
 10
-264.4030870135743
 20
232.2650937742901
 11
-264.0030870135743
 21
232.2650937742901
  0
LINE
  8
1
  6
CONTINUOUS
 62
     7
 10
-267.0101937947608
 20
73.32384428132168
 11
-266.6566404041675
 21
73.32384428132168
  0
LINE
  8
1
  6
CONTINUOUS
 62
     7
 10
-261.0121568921812
 20
173.4073798019844
 11
-261.0121568921812
 21
174.6228077465957
  0
LINE
  8
1
  6
CONTINUOUS
 62
     7
 10
-264.0030870135743
 20
212.7650937742901
 11
-264.4030870135743
 21
212.7650937742901
  0
LINE
  8
1
  6
CONTINUOUS
 62
     7
 10
-264.0030870135743
 20
240.7150937742901
 11
-263.8394060195649
 21
240.8787747682995
  0
LINE
  8
1
  6
CONTINUOUS
 62
     7
 10
-275.8344578634728
 20
73.32384428132168
 11
-276.0643375565805
 21
73.32384428132168
  0
LINE
  8
1
  6
CONTINUOUS
 62
     7
 10
-293.9940171349674
 20
174.6228077465957
 11
-293.9940171349674
 21
173.4073798019845
  0
LINE
  8
1
  6
CONTINUOUS
 62
     7
 10
-291.0030870135743
 20
204.31509377429
 11
-291.0030870135743
 21
212.76509377429
  0
LINE
  8
1
  6
CONTINUOUS
 62
     7
 10
-293.9709516231508
 20
173.1918244559534
 11
-293.9940171349674
 21
173.4073798019844
  0
LINE
  8
1
  6
CONTINUOUS
 62
     7
 10
-291.0030870135743
 20
204.31509377429
 11
-291.1667680075837
 21
204.1514127802807
  0
LINE
  8
1
  6
CONTINUOUS
 62
     7
 10
-291.0030870135743
 20
212.7650937742901
 11
-291.1667680075837
 21
212.7650937742901
  0
LINE
  8
1
  6
CONTINUOUS
 62
     7
 10
-291.0030870135743
 20
232.2650937742901
 11
-291.0030870135743
 21
240.7150937742901
  0
LINE
  8
1
  6
CONTINUOUS
 62
     7
 10
-291.0030870135743
 20
240.7150937742901
 11
-291.1667680075837
 21
240.8787747682995
  0
LINE
  8
1
  6
CONTINUOUS
 62
     7
 10
-291.0030870135743
 20
240.7150937742901
 11
-264.0030870135743
 21
240.7150937742901
  0
LINE
  8
1
  6
CONTINUOUS
 62
     7
 10
-283.7687724385236
 20
70.62384428132168
 11
-284.3344578634728
 21
70.62384428132168
  0
LINE
  8
1
  6
CONTINUOUS
 62
     7
 10
-284.3344578634728
 20
73.32384428132168
 11
-287.9959802323878
 21
73.32384428132168
  0
LINE
  8
1
  6
CONTINUOUS
 62
     7
 10
-284.3344578634728
 20
70.62384428132168
 11
-285.8030870135743
 21
70.62384428132165
  0
LINE
  8
1
  6
CONTINUOUS
 62
     7
 10
-275.8344578634728
 20
73.32384428132168
 11
-275.2687724385235
 21
73.32384428132168
  0
LINE
  8
1
  6
CONTINUOUS
 62
     7
 10
-284.3344578634728
 20
73.32384428132168
 11
-283.7687724385236
 21
73.32384428132168
  0
LINE
  8
1
  6
CONTINUOUS
 62
     7
 10
-275.8344578634728
 20
70.62384428132168
 11
-276.0643375565805
 21
70.62384428132168
  0
ENDSEC
  0
EOF
