  0
SECTION
  2
HEADER
  9
$ACADVER
  1
AC1004
  9
$INSBASE
 10
0.0
 20
0.0
  9
$EXTMIN
 10
-132.5000000000458
 20
43.67045454545456
  9
$EXTMAX
 10
-32.275
 20
175.5
  9
$LIMMIN
 10
0.0
 20
0.0
  9
$LIMMAX
 10
12.0
 20
9.0
  9
$ORTHOMODE
 70
     0
  9
$REGENMODE
 70
     1
  9
$FILLMODE
 70
     1
  9
$QTEXTMODE
 70
     0
  9
$DRAGMODE
 70
     2
  9
$LTSCALE
 40
1.0
  9
$OSMODE
 70
    37
  9
$ATTMODE
 70
     1
  9
$TEXTSIZE
 40
0.2
  9
$TRACEWID
 40
0.05
  9
$TEXTSTYLE
  7
STANDARD
  9
$CLAYER
  8
0
  9
$CELTYPE
  6
BYLAYER
  9
$CECOLOR
 62
   256
  9
$DIMSCALE
 40
1.0
  9
$DIMASZ
 40
3.0
  9
$DIMEXO
 40
0.0625
  9
$DIMDLI
 40
0.38
  9
$DIMRND
 40
0.0
  9
$DIMDLE
 40
0.0
  9
$DIMEXE
 40
1.5
  9
$DIMTP
 40
0.0
  9
$DIMTM
 40
0.0
  9
$DIMTXT
 40
3.0
  9
$DIMCEN
 40
0.09
  9
$DIMTSZ
 40
0.0
  9
$DIMTOL
 70
     0
  9
$DIMLIM
 70
     0
  9
$DIMTIH
 70
     1
  9
$DIMTOH
 70
     1
  9
$DIMSE1
 70
     0
  9
$DIMSE2
 70
     0
  9
$DIMTAD
 70
     1
  9
$DIMZIN
 70
     0
  9
$DIMBLK
  1

  9
$DIMASO
 70
     1
  9
$DIMSHO
 70
     1
  9
$DIMPOST
  1

  9
$DIMAPOST
  1

  9
$DIMALT
 70
     0
  9
$DIMALTD
 70
     2
  9
$DIMALTF
 40
25.4
  9
$DIMLFAC
 40
1.0
  9
$DIMTOFL
 70
     0
  9
$DIMTVP
 40
0.0
  9
$DIMTIX
 70
     0
  9
$DIMSOXD
 70
     0
  9
$DIMSAH
 70
     0
  9
$DIMBLK1
  1

  9
$DIMBLK2
  1

  9
$LUNITS
 70
     2
  9
$LUPREC
 70
     4
  9
$SKETCHINC
 40
0.1
  9
$FILLETRAD
 40
0.5
  9
$AUNITS
 70
     0
  9
$AUPREC
 70
     0
  9
$MENU
  1
.
  9
$ELEVATION
 40
0.0
  9
$THICKNESS
 40
0.0
  9
$LIMCHECK
 70
     0
  9
$CHAMFERA
 40
0.0
  9
$CHAMFERB
 40
0.0
  9
$SKPOLY
 70
     0
  9
$TDCREATE
 40
2459695.732542674
  9
$TDUPDATE
 40
2459695.732543345
  9
$TDINDWG
 40
0.0000000116
  9
$TDUSRTIMER
 40
0.0000000116
  9
$USRTIMER
 70
     1
  9
$ANGBASE
 50
0.0
  9
$ANGDIR
 70
     0
  9
$PDMODE
 70
     0
  9
$PDSIZE
 40
0.0
  9
$PLINEWID
 40
0.0
  9
$COORDS
 70
     1
  9
$SPLFRAME
 70
     0
  9
$SPLINETYPE
 70
     6
  9
$SPLINESEGS
 70
     8
  9
$ATTDIA
 70
     0
  9
$ATTREQ
 70
     1
  9
$SURFTAB1
 70
     6
  9
$SURFTAB2
 70
     6
  9
$SURFTYPE
 70
     6
  9
$SURFU
 70
     6
  9
$SURFV
 70
     6
  9
$UCSNAME
  2

  9
$UCSORG
 10
0.0
 20
0.0
 30
0.0
  9
$UCSXDIR
 10
1.0
 20
0.0
 30
0.0
  9
$UCSYDIR
 10
0.0
 20
1.0
 30
0.0
  9
$USERI1
 70
     0
  9
$USERI2
 70
     0
  9
$USERI3
 70
     0
  9
$USERI4
 70
     0
  9
$USERI5
 70
     0
  9
$USERR1
 40
0.0
  9
$USERR2
 40
0.0
  9
$USERR3
 40
0.0
  9
$USERR4
 40
0.0
  9
$USERR5
 40
0.0
  9
$WORLDVIEW
 70
     1
  0
ENDSEC
  0
SECTION
  2
TABLES
  0
TABLE
  2
LTYPE
 70
     2
  0
LTYPE
  2
CONTINUOUS
 70
     0
  3
Solid line
 72
    65
 73
     0
 40
0.0
  0
LTYPE
  2
CENTER
 70
     0
  3

 72
    65
 73
     0
 40
0.0
  0
ENDTAB
  0
TABLE
  2
LAYER
 70
     2
  0
LAYER
  2
0
 70
     0
 62
     7
  6
CONTINUOUS
  0
LAYER
  2
1
 70
     0
 62
     7
  6
CONTINUOUS
  0
ENDTAB
  0
TABLE
  2
STYLE
 70
     2
  0
STYLE
  2
STANDARD
 70
     0
 40
0.0
 41
1.0
 50
0.0
 71
     0
 42
0.2
  3
txt
  4

  0
STYLE
  2
ＭＳ_ゴシック
 70
     0
 40
0.0
 41
1.0
 50
0.0
 71
     0
 42
0.2
  3
ＭＳ ゴシック.shx
  4

  0
ENDTAB
  0
TABLE
  2
VIEW
 70
     0
  0
ENDTAB
  0
ENDSEC
  0
SECTION
  2
BLOCKS
  0
ENDSEC
  0
SECTION
  2
ENTITIES
  0
LINE
  8
1
  6
CONTINUOUS
 62
     7
 10
-50.82499999999998
 20
107.4999999999998
 11
-50.84953383716368
 21
107.4993977281024
  0
LINE
  8
1
  6
CONTINUOUS
 62
     7
 10
-50.84953383716368
 20
107.4993977281024
 11
-50.87400857016476
 21
107.4975923633359
  0
LINE
  8
1
  6
CONTINUOUS
 62
     7
 10
-50.87400857016476
 20
107.4975923633359
 11
-50.89836523722767
 21
107.4945882549822
  0
LINE
  8
1
  6
CONTINUOUS
 62
     7
 10
-50.89836523722767
 20
107.4945882549822
 11
-50.92254516100804
 21
107.4903926402015
  0
LINE
  8
1
  6
CONTINUOUS
 62
     7
 10
-50.92254516100804
 20
107.4903926402015
 11
-50.94649008995161
 21
107.4850156265971
  0
LINE
  8
1
  6
CONTINUOUS
 62
     7
 10
-50.94649008995161
 20
107.4850156265971
 11
-50.97014233862722
 21
107.478470167866
  0
LINE
  8
1
  6
CONTINUOUS
 62
     7
 10
-50.97014233862722
 20
107.478470167866
 11
-50.99344492669609
 21
107.4707720325914
  0
LINE
  8
1
  6
CONTINUOUS
 62
     7
 10
-50.99344492669609
 20
107.4707720325914
 11
-51.01634171618252
 21
107.4619397662555
  0
LINE
  8
1
  6
CONTINUOUS
 62
     7
 10
-51.01634171618252
 20
107.4619397662555
 11
-51.03877754671512
 21
107.4519946465616
  0
LINE
  8
1
  6
CONTINUOUS
 62
     7
 10
-51.03877754671512
 20
107.4519946465616
 11
-51.06069836841298
 21
107.440960632174
  0
LINE
  8
1
  6
CONTINUOUS
 62
     7
 10
-51.06069836841298
 20
107.440960632174
 11
-51.08205137209659
 21
107.428864305
  0
LINE
  8
1
  6
CONTINUOUS
 62
     7
 10
-51.08205137209659
 20
107.428864305
 11
-51.10278511650979
 21
107.4157348061511
  0
LINE
  8
1
  6
CONTINUOUS
 62
     7
 10
-51.10278511650979
 20
107.4157348061511
 11
-51.1228496522462
 21
107.4016037657402
  0
LINE
  8
1
  6
CONTINUOUS
 62
     7
 10
-51.1228496522462
 20
107.4016037657402
 11
-51.14219664208181
 21
107.3865052266812
  0
LINE
  8
1
  6
CONTINUOUS
 62
     7
 10
-51.14219664208181
 20
107.3865052266812
 11
-51.16077947742349
 21
107.3704755626773
  0
LINE
  8
1
  6
CONTINUOUS
 62
     7
 10
-51.16077947742349
 20
107.3704755626773
 11
-51.17855339059325
 21
107.3535533905931
  0
LINE
  8
1
  6
CONTINUOUS
 62
     7
 10
-51.17855339059325
 20
107.3535533905931
 11
-51.19547556267747
 21
107.3357794774234
  0
LINE
  8
1
  6
CONTINUOUS
 62
     7
 10
-51.19547556267747
 20
107.3357794774234
 11
-51.21150522668135
 21
107.3171966420817
  0
LINE
  8
1
  6
CONTINUOUS
 62
     7
 10
-51.21150522668135
 20
107.3171966420817
 11
-51.2266037657403
 21
107.2978496522461
  0
LINE
  8
1
  6
CONTINUOUS
 62
     7
 10
-51.2266037657403
 20
107.2978496522461
 11
-51.24073480615125
 21
107.2777851165096
  0
LINE
  8
1
  6
CONTINUOUS
 62
     7
 10
-51.24073480615125
 20
107.2777851165096
 11
-51.25386430500011
 21
107.2570513720965
  0
LINE
  8
1
  6
CONTINUOUS
 62
     7
 10
-51.25386430500011
 20
107.2570513720965
 11
-51.26596063217416
 21
107.2356983684128
  0
LINE
  8
1
  6
CONTINUOUS
 62
     7
 10
-51.26596063217416
 20
107.2356983684128
 11
-51.2769946465617
 21
107.213777546715
  0
LINE
  8
1
  6
CONTINUOUS
 62
     7
 10
-51.2769946465617
 20
107.213777546715
 11
-51.28693976625563
 21
107.1913417161824
  0
LINE
  8
1
  6
CONTINUOUS
 62
     7
 10
-51.28693976625563
 20
107.1913417161824
 11
-51.29577203259149
 21
107.168444926696
  0
LINE
  8
1
  6
CONTINUOUS
 62
     7
 10
-51.29577203259149
 20
107.168444926696
 11
-51.30347016786609
 21
107.1451423386271
  0
LINE
  8
1
  6
CONTINUOUS
 62
     7
 10
-51.30347016786609
 20
107.1451423386271
 11
-51.31001562659726
 21
107.1214900899515
  0
LINE
  8
1
  6
CONTINUOUS
 62
     7
 10
-51.31001562659726
 20
107.1214900899515
 11
-51.3153926402016
 21
107.0975451610079
  0
LINE
  8
1
  6
CONTINUOUS
 62
     7
 10
-51.3153926402016
 20
107.0975451610079
 11
-51.31958825498236
 21
107.0733652372275
  0
LINE
  8
1
  6
CONTINUOUS
 62
     7
 10
-51.31958825498236
 20
107.0733652372275
 11
-51.32259236333608
 21
107.0490085701646
  0
LINE
  8
1
  6
CONTINUOUS
 62
     7
 10
-51.32259236333608
 20
107.0490085701646
 11
-51.32439772810257
 21
107.0245338371636
  0
LINE
  8
1
  6
CONTINUOUS
 62
     7
 10
-51.32439772810257
 20
107.0245338371636
 11
-51.32499999999998
 21
106.9999999999998
  0
LINE
  8
1
  6
CONTINUOUS
 62
     7
 10
-99.30114531511475
 20
58.23212578332523
 11
-99.20457793581812
 21
58.26810920197563
  0
LINE
  8
1
  6
CONTINUOUS
 62
     7
 10
-99.20457793581812
 20
58.26810920197563
 11
-99.2
 21
58.27500000000001
  0
LINE
  8
1
  6
CONTINUOUS
 62
     7
 10
-51.32499999999998
 20
142.9999999999999
 11
-51.32439772810257
 21
142.9754661628362
  0
LINE
  8
1
  6
CONTINUOUS
 62
     7
 10
-51.32439772810257
 20
142.9754661628362
 11
-51.32259236333608
 21
142.9509914298352
  0
LINE
  8
1
  6
CONTINUOUS
 62
     7
 10
-51.32259236333608
 20
142.9509914298352
 11
-51.31958825498236
 21
142.9266347627723
  0
LINE
  8
1
  6
CONTINUOUS
 62
     7
 10
-51.31958825498236
 20
142.9266347627723
 11
-51.3153926402016
 21
142.9024548389919
  0
LINE
  8
1
  6
CONTINUOUS
 62
     7
 10
-51.3153926402016
 20
142.9024548389919
 11
-51.31001562659726
 21
142.8785099100483
  0
LINE
  8
1
  6
CONTINUOUS
 62
     7
 10
-51.31001562659726
 20
142.8785099100483
 11
-51.30347016786609
 21
142.8548576613727
  0
LINE
  8
1
  6
CONTINUOUS
 62
     7
 10
-51.30347016786609
 20
142.8548576613727
 11
-51.29577203259149
 21
142.8315550733038
  0
LINE
  8
1
  6
CONTINUOUS
 62
     7
 10
-51.29577203259149
 20
142.8315550733038
 11
-51.28693976625563
 21
142.8086582838174
  0
LINE
  8
1
  6
CONTINUOUS
 62
     7
 10
-51.28693976625563
 20
142.8086582838174
 11
-51.2769946465617
 21
142.7862224532848
  0
LINE
  8
1
  6
CONTINUOUS
 62
     7
 10
-51.2769946465617
 20
142.7862224532848
 11
-51.26596063217416
 21
142.7643016315869
  0
LINE
  8
1
  6
CONTINUOUS
 62
     7
 10
-51.26596063217416
 20
142.7643016315869
 11
-51.25386430500011
 21
142.7429486279033
  0
LINE
  8
1
  6
CONTINUOUS
 62
     7
 10
-51.25386430500011
 20
142.7429486279033
 11
-51.24073480615125
 21
142.7222148834901
  0
LINE
  8
1
  6
CONTINUOUS
 62
     7
 10
-51.24073480615125
 20
142.7222148834901
 11
-51.2266037657403
 21
142.7021503477537
  0
LINE
  8
1
  6
CONTINUOUS
 62
     7
 10
-51.2266037657403
 20
142.7021503477537
 11
-51.21150522668135
 21
142.6828033579181
  0
LINE
  8
1
  6
CONTINUOUS
 62
     7
 10
-51.21150522668135
 20
142.6828033579181
 11
-51.19547556267747
 21
142.6642205225764
  0
LINE
  8
1
  6
CONTINUOUS
 62
     7
 10
-51.19547556267747
 20
142.6642205225764
 11
-51.17855339059325
 21
142.6464466094067
  0
LINE
  8
1
  6
CONTINUOUS
 62
     7
 10
-51.17855339059325
 20
142.6464466094067
 11
-51.16077947742349
 21
142.6295244373225
  0
LINE
  8
1
  6
CONTINUOUS
 62
     7
 10
-51.16077947742349
 20
142.6295244373225
 11
-51.14219664208181
 21
142.6134947733186
  0
LINE
  8
1
  6
CONTINUOUS
 62
     7
 10
-51.14219664208181
 20
142.6134947733186
 11
-51.1228496522462
 21
142.5983962342596
  0
LINE
  8
1
  6
CONTINUOUS
 62
     7
 10
-51.1228496522462
 20
142.5983962342596
 11
-51.10278511650979
 21
142.5842651938487
  0
LINE
  8
1
  6
CONTINUOUS
 62
     7
 10
-51.10278511650979
 20
142.5842651938487
 11
-51.08205137209659
 21
142.5711356949998
  0
LINE
  8
1
  6
CONTINUOUS
 62
     7
 10
-51.08205137209659
 20
142.5711356949998
 11
-51.06069836841298
 21
142.5590393678258
  0
LINE
  8
1
  6
CONTINUOUS
 62
     7
 10
-51.06069836841298
 20
142.5590393678258
 11
-51.03877754671512
 21
142.5480053534382
  0
LINE
  8
1
  6
CONTINUOUS
 62
     7
 10
-51.03877754671512
 20
142.5480053534382
 11
-51.01634171618252
 21
142.5380602337443
  0
LINE
  8
1
  6
CONTINUOUS
 62
     7
 10
-51.01634171618252
 20
142.5380602337443
 11
-50.99344492669609
 21
142.5292279674084
  0
LINE
  8
1
  6
CONTINUOUS
 62
     7
 10
-50.99344492669609
 20
142.5292279674084
 11
-50.97014233862722
 21
142.5215298321338
  0
LINE
  8
1
  6
CONTINUOUS
 62
     7
 10
-50.97014233862722
 20
142.5215298321338
 11
-50.94649008995161
 21
142.5149843734027
  0
LINE
  8
1
  6
CONTINUOUS
 62
     7
 10
-50.94649008995161
 20
142.5149843734027
 11
-50.92254516100804
 21
142.5096073597983
  0
LINE
  8
1
  6
CONTINUOUS
 62
     7
 10
-50.92254516100804
 20
142.5096073597983
 11
-50.89836523722767
 21
142.5054117450175
  0
LINE
  8
1
  6
CONTINUOUS
 62
     7
 10
-50.89836523722767
 20
142.5054117450175
 11
-50.87400857016476
 21
142.5024076366638
  0
LINE
  8
1
  6
CONTINUOUS
 62
     7
 10
-50.87400857016476
 20
142.5024076366638
 11
-50.84953383716368
 21
142.5006022718973
  0
LINE
  8
1
  6
CONTINUOUS
 62
     7
 10
-50.84953383716368
 20
142.5006022718973
 11
-50.82499999999998
 21
142.4999999999999
  0
TEXT
  8
1
  6
CONTINUOUS
 62
     7
 10
-84.44273164936853
 20
43.32842003251221
 40
3.0
  1
AFP-TH20MSY
  0
ARC
  8
1
  6
CONTINUOUS
 62
     7
 10
-96.19999999999996
 20
60.72500000000005
 40
0.5000000000000004
 50
180.0000000000008
 51
270.0
  0
ARC
  8
1
  6
CONTINUOUS
 62
     7
 10
-101.5
 20
60.72500000000002
 40
0.5000000000000004
 50
270.0
 51
0.0
  0
ARC
  8
1
  6
CONTINUOUS
 62
     7
 10
-81.03498629387839
 20
71.82500000000002
 40
0.4999999999999866
 50
270.0
 51
359.0000000000006
  0
ARC
  8
1
  6
CONTINUOUS
 62
     7
 10
-40.72500000000004
 20
135.25
 40
0.5000000000000004
 50
270.0
 51
0.0
  0
ARC
  8
1
  6
CONTINUOUS
 62
     7
 10
-42.17500000000003
 20
134.25
 40
0.5000000000000004
 50
90.0
 51
180.0
  0
ARC
  8
1
  6
CONTINUOUS
 62
     7
 10
-128.863774329538
 20
66.02500000000002
 40
0.4999999999999918
 50
180.9999999999994
 51
270.0
  0
ARC
  8
1
  6
CONTINUOUS
 62
     7
 10
-119.3
 20
60.72500000000004
 40
0.5000000000000004
 50
180.0000000000008
 51
270.0
  0
ARC
  8
1
  6
CONTINUOUS
 62
     7
 10
-84.69999999999999
 20
72.72500000000001
 40
2.000000000000002
 50
33.37275330190617
 51
89.99999999999562
  0
ARC
  8
1
  6
CONTINUOUS
 62
     7
 10
-51.825
 20
171.9650137061217
 40
0.5000000000000004
 50
0.0000000000063611
 51
88.99999999999976
  0
ARC
  8
1
  6
CONTINUOUS
 62
     7
 10
-90.69999999999996
 20
60.72500000000005
 40
0.5000000000000004
 50
270.0
 51
359.9999999999993
  0
ARC
  8
1
  6
CONTINUOUS
 62
     7
 10
-101.867002815668
 20
70.89251018330786
 40
12.91777681601865
 50
269.6318700067381
 51
281.4568542891822
  0
ARC
  8
1
  6
CONTINUOUS
 62
     7
 10
-108.5
 20
60.72500000000002
 40
0.5000000000000004
 50
180.0
 51
270.0
  0
ARC
  8
1
  6
CONTINUOUS
 62
     7
 10
-51.825
 20
98.03498629387828
 40
0.4999999999999918
 50
270.9999999999994
 51
359.9999999999952
  0
ARC
  8
1
  6
CONTINUOUS
 62
     7
 10
-40.72500000000004
 20
114.75
 40
0.5000000000000004
 50
0.0
 51
90.0
  0
ARC
  8
1
  6
CONTINUOUS
 62
     7
 10
-113.8
 20
60.72500000000004
 40
0.5000000000000004
 50
270.0
 51
0.0
  0
ARC
  8
1
  6
CONTINUOUS
 62
     7
 10
-128.9650137061216
 20
71.82500000000002
 40
0.4999999999999918
 50
180.9999999999994
 51
270.0
  0
ARC
  8
1
  6
CONTINUOUS
 62
     7
 10
-81.13622567046205
 20
66.02500000000002
 40
0.5000000000000004
 50
270.0
 51
359.0000000000006
  0
ARC
  8
1
  6
CONTINUOUS
 62
     7
 10
-125.3
 20
72.72500000000001
 40
2.000000000000002
 50
90.0
 51
146.627246698094
  0
ARC
  8
1
  6
CONTINUOUS
 62
     7
 10
-46.02500000000001
 20
107.9999999999998
 40
0.5000000000000004
 50
270.0
 51
0.0
  0
ARC
  8
1
  6
CONTINUOUS
 62
     7
 10
-85.49920445020422
 20
106.943982283266
 40
4.999204450249999
 50
295.6796530701859
 51
0.0002451954164826
  0
ARC
  8
1
  6
CONTINUOUS
 62
     7
 10
-105.0
 20
147.5
 40
49.99999999999995
 50
244.3201017343975
 51
295.6798982656026
  0
ARC
  8
1
  6
CONTINUOUS
 62
     7
 10
-124.5007955498477
 20
106.9439822832333
 40
4.999204450198061
 50
179.9997548042093
 51
244.3203469301881
  0
ARC
  8
1
  6
CONTINUOUS
 62
     7
 10
-46.02500000000001
 20
118.4999999999999
 40
0.5000000000000004
 50
0.0
 51
90.0
  0
ARC
  8
1
  6
CONTINUOUS
 62
     7
 10
-105.0
 20
122.5
 40
50.00000000000002
 50
64.32010173439744
 51
115.6798982656026
  0
ARC
  8
1
  6
CONTINUOUS
 62
     7
 10
-46.02500000000001
 20
131.5
 40
0.5000000000000004
 50
270.0
 51
0.0
  0
ARC
  8
1
  6
CONTINUOUS
 62
     7
 10
-46.02500000000001
 20
141.9999999999999
 40
0.5000000000000004
 50
0.0
 51
90.0
  0
ARC
  8
1
  6
CONTINUOUS
 62
     7
 10
-42.17500000000003
 20
115.75
 40
0.5000000000000004
 50
180.0
 51
270.0
  0
ARC
  8
1
  6
CONTINUOUS
 62
     7
 10
-40.72500000000004
 20
110.4999999999999
 40
0.5000000000000004
 50
270.0000000000015
 51
0.0
  0
ARC
  8
1
  6
CONTINUOUS
 62
     7
 10
-40.72500000000002
 20
138.8
 40
0.5000000000000004
 50
0.0
 51
90.0
  0
ARC
  8
1
  6
CONTINUOUS
 62
     7
 10
-124.5007955497957
 20
163.0560177167339
 40
4.999204450250085
 50
115.6796530701868
 51
180.000245195416
  0
ARC
  8
1
  6
CONTINUOUS
 62
     7
 10
-85.49920445015238
 20
163.0560177167666
 40
4.999204450198144
 50
359.9997548042096
 51
64.32034693018748
  0
LINE
  8
1
  6
CONTINUOUS
 62
     7
 10
-127.3000000000001
 20
117.4999999999999
 11
-125.7000000000001
 21
117.4999999999999
  0
LINE
  8
1
  6
CONTINUOUS
 62
     7
 10
-125.2999999999999
 20
109.5999999999999
 11
-84.69999999999983
 21
109.5999999999999
  0
LINE
  8
1
  6
CONTINUOUS
 62
     7
 10
-127.2999999999999
 20
109.6
 11
-127.3000000000001
 21
111.1999999999999
  0
LINE
  8
1
  6
CONTINUOUS
 62
     7
 10
-84.7
 20
111.1999999999999
 11
-82.69999999999999
 21
111.1999999999999
  0
LINE
  8
1
  6
CONTINUOUS
 62
     7
 10
-84.30000000000007
 20
135.9999999999999
 11
-84.30000000000007
 21
136.9999999999999
  0
LINE
  8
1
  6
CONTINUOUS
 62
     7
 10
-127.2999999999999
 20
111.1999999999999
 11
-125.3000000000001
 21
111.1999999999999
  0
LINE
  8
1
  6
CONTINUOUS
 62
     7
 10
-84.7
 20
138.8
 11
-125.3000000000001
 21
138.8
  0
LINE
  8
1
  6
CONTINUOUS
 62
     7
 10
-82.69999999999999
 20
140.4
 11
-82.70000000000006
 21
138.8
  0
LINE
  8
1
  6
CONTINUOUS
 62
     7
 10
-82.70000000000006
 20
132.4999999999999
 11
-84.30000000000005
 21
132.4999999999999
  0
LINE
  8
1
  6
CONTINUOUS
 62
     7
 10
-84.30000000000007
 20
112.9999999999999
 11
-84.30000000000007
 21
113.9999999999999
  0
LINE
  8
1
  6
CONTINUOUS
 62
     7
 10
-84.30000000000005
 20
117.4999999999999
 11
-82.70000000000006
 21
117.4999999999999
  0
LINE
  8
1
  6
CONTINUOUS
 62
     7
 10
-82.70000000000006
 20
135.9999999999999
 11
-82.70000000000006
 21
133.4999999999999
  0
LINE
  8
1
  6
CONTINUOUS
 62
     7
 10
-84.30000000000007
 20
116.4999999999999
 11
-84.30000000000007
 21
113.9999999999999
  0
LINE
  8
1
  6
CONTINUOUS
 62
     7
 10
-82.70000000000006
 20
112.9999999999999
 11
-84.30000000000007
 21
112.9999999999999
  0
LINE
  8
1
  6
CONTINUOUS
 62
     7
 10
-84.30000000000007
 20
133.4999999999999
 11
-84.30000000000007
 21
135.9999999999999
  0
LINE
  8
1
  6
CONTINUOUS
 62
     7
 10
-125.2999999999999
 20
109.6
 11
-127.3
 21
109.6
  0
LINE
  8
1
  6
CONTINUOUS
 62
     7
 10
-127.3
 20
116.4999999999999
 11
-127.3
 21
117.4999999999999
  0
LINE
  8
1
  6
CONTINUOUS
 62
     7
 10
-82.70000000000006
 20
111.1999999999999
 11
-82.69999999999997
 21
109.6
  0
LINE
  8
1
  6
CONTINUOUS
 62
     7
 10
-125.3000000000001
 20
138.8
 11
-127.2999999999999
 21
138.8
  0
LINE
  8
1
  6
CONTINUOUS
 62
     7
 10
-84.69999999999983
 20
140.4
 11
-82.69999999999999
 21
140.4
  0
LINE
  8
1
  6
CONTINUOUS
 62
     7
 10
-127.2999999999999
 20
135.9999999999999
 11
-127.2999999999999
 21
136.9999999999999
  0
LINE
  8
1
  6
CONTINUOUS
 62
     7
 10
-82.69999999999999
 20
138.8
 11
-84.7
 21
138.8
  0
LINE
  8
1
  6
CONTINUOUS
 62
     7
 10
-125.7000000000001
 20
116.4999999999999
 11
-125.7000000000001
 21
113.9999999999999
  0
LINE
  8
1
  6
CONTINUOUS
 62
     7
 10
-127.3000000000001
 20
112.9999999999999
 11
-127.3
 21
113.9999999999999
  0
LINE
  8
1
  6
CONTINUOUS
 62
     7
 10
-127.3000000000001
 20
132.4999999999999
 11
-127.2999999999999
 21
133.4999999999999
  0
LINE
  8
1
  6
CONTINUOUS
 62
     7
 10
-125.7000000000001
 20
133.4999999999999
 11
-125.7000000000001
 21
132.4999999999999
  0
LINE
  8
1
  6
CONTINUOUS
 62
     7
 10
-127.3000000000001
 20
119.4999999999999
 11
-127.3000000000001
 21
119.9999999999999
  0
LINE
  8
1
  6
CONTINUOUS
 62
     7
 10
-127.3000000000001
 20
130.0
 11
-127.3000000000001
 21
130.4999999999999
  0
LINE
  8
1
  6
CONTINUOUS
 62
     7
 10
-125.7000000000001
 20
130.4999999999999
 11
-125.7000000000001
 21
132.4999999999999
  0
LINE
  8
1
  6
CONTINUOUS
 62
     7
 10
-82.70000000000006
 20
130.4999999999999
 11
-84.30000000000005
 21
130.4999999999999
  0
LINE
  8
1
  6
CONTINUOUS
 62
     7
 10
-82.70000000000006
 20
130.4999999999999
 11
-82.70000000000006
 21
130.0
  0
LINE
  8
1
  6
CONTINUOUS
 62
     7
 10
-82.70000000000006
 20
119.9999999999999
 11
-82.70000000000006
 21
119.4999999999999
  0
LINE
  8
1
  6
CONTINUOUS
 62
     7
 10
-82.69999999999999
 20
133.4999999999999
 11
-82.69999999999999
 21
132.4999999999999
  0
LINE
  8
1
  6
CONTINUOUS
 62
     7
 10
-125.0
 20
137.5
 11
-85.0
 21
137.5
  0
LINE
  8
1
  6
CONTINUOUS
 62
     7
 10
-85.00000000000001
 20
112.5
 11
-125.0
 21
112.5
  0
LINE
  8
1
  6
CONTINUOUS
 62
     7
 10
-82.69999999999997
 20
109.6
 11
-84.69999999999983
 21
109.6
  0
LINE
  8
1
  6
CONTINUOUS
 62
     7
 10
-127.3
 20
140.4
 11
-125.3
 21
140.4
  0
LINE
  8
1
  6
CONTINUOUS
 62
     7
 10
-82.70000000000006
 20
117.4999999999999
 11
-82.69999999999999
 21
116.4999999999999
  0
LINE
  8
1
  6
CONTINUOUS
 62
     7
 10
-127.3000000000001
 20
136.9999999999999
 11
-125.7000000000001
 21
136.9999999999999
  0
LINE
  8
1
  6
CONTINUOUS
 62
     7
 10
-125.7000000000001
 20
136.9999999999999
 11
-125.7000000000001
 21
138.8
  0
LINE
  8
1
  6
CONTINUOUS
 62
     7
 10
-125.7000000000001
 20
113.9999999999999
 11
-125.7000000000001
 21
112.9999999999999
  0
LINE
  8
1
  6
CONTINUOUS
 62
     7
 10
-85.0
 20
137.5
 11
-85.00000000000001
 21
112.5
  0
LINE
  8
1
  6
CONTINUOUS
 62
     7
 10
-127.3000000000001
 20
138.8
 11
-127.3
 21
140.4
  0
LINE
  8
1
  6
CONTINUOUS
 62
     7
 10
-125.7000000000001
 20
112.9999999999999
 11
-127.3000000000001
 21
112.9999999999999
  0
LINE
  8
1
  6
CONTINUOUS
 62
     7
 10
-125.7000000000001
 20
117.4999999999999
 11
-125.7000000000001
 21
116.4999999999999
  0
LINE
  8
1
  6
CONTINUOUS
 62
     7
 10
-125.7000000000001
 20
136.9999999999999
 11
-125.7000000000001
 21
135.9999999999999
  0
LINE
  8
1
  6
CONTINUOUS
 62
     7
 10
-127.3000000000001
 20
113.9999999999999
 11
-127.3000000000001
 21
116.4999999999999
  0
LINE
  8
1
  6
CONTINUOUS
 62
     7
 10
-125.7000000000001
 20
132.4999999999999
 11
-127.3000000000001
 21
132.4999999999999
  0
LINE
  8
1
  6
CONTINUOUS
 62
     7
 10
-84.7
 20
111.1999999999999
 11
-125.3000000000001
 21
111.1999999999999
  0
LINE
  8
1
  6
CONTINUOUS
 62
     7
 10
-84.30000000000005
 20
132.4999999999999
 11
-84.30000000000007
 21
133.4999999999999
  0
LINE
  8
1
  6
CONTINUOUS
 62
     7
 10
-84.30000000000007
 20
136.9999999999999
 11
-82.70000000000006
 21
136.9999999999999
  0
LINE
  8
1
  6
CONTINUOUS
 62
     7
 10
-127.3000000000001
 20
135.9999999999999
 11
-127.3000000000001
 21
133.4999999999999
  0
LINE
  8
1
  6
CONTINUOUS
 62
     7
 10
-125.7000000000001
 20
119.4999999999999
 11
-125.7000000000001
 21
117.4999999999999
  0
LINE
  8
1
  6
CONTINUOUS
 62
     7
 10
-125.7000000000001
 20
133.4999999999999
 11
-125.7000000000001
 21
135.9999999999999
  0
LINE
  8
1
  6
CONTINUOUS
 62
     7
 10
-127.3000000000001
 20
119.4999999999999
 11
-125.7000000000001
 21
119.4999999999999
  0
LINE
  8
1
  6
CONTINUOUS
 62
     7
 10
-82.69999999999999
 20
113.9999999999999
 11
-82.69999999999999
 21
112.9999999999999
  0
LINE
  8
1
  6
CONTINUOUS
 62
     7
 10
-82.70000000000006
 20
136.9999999999999
 11
-82.69999999999999
 21
135.9999999999999
  0
LINE
  8
1
  6
CONTINUOUS
 62
     7
 10
-82.70000000000006
 20
113.9999999999999
 11
-82.70000000000006
 21
116.4999999999999
  0
LINE
  8
1
  6
CONTINUOUS
 62
     7
 10
-84.30000000000007
 20
116.4999999999999
 11
-84.30000000000007
 21
117.4999999999999
  0
LINE
  8
1
  6
CONTINUOUS
 62
     7
 10
-127.3000000000001
 20
130.4999999999999
 11
-125.7000000000001
 21
130.4999999999999
  0
LINE
  8
1
  6
CONTINUOUS
 62
     7
 10
-84.30000000000005
 20
136.9999999999999
 11
-84.30000000000007
 21
138.7999999999999
  0
LINE
  8
1
  6
CONTINUOUS
 62
     7
 10
-84.30000000000005
 20
130.4999999999999
 11
-84.30000000000007
 21
132.4999999999999
  0
LINE
  8
1
  6
CONTINUOUS
 62
     7
 10
-125.0
 20
112.5
 11
-125.0
 21
137.5
  0
LINE
  8
1
  6
CONTINUOUS
 62
     7
 10
-125.3
 20
140.3999999999999
 11
-84.69999999999983
 21
140.3999999999999
  0
POLYLINE
  8
1
  6
CONTINUOUS
 62
     7
 66
     1
  0
VERTEX
  8
1
  6
CONTINUOUS
 62
     7
 10
-82.69999999999999
 20
132.5763842863666
  0
VERTEX
  8
1
  6
CONTINUOUS
 62
     7
 10
-82.65611663260599
 20
132.5438142807981
  0
VERTEX
  8
1
  6
CONTINUOUS
 62
     7
 10
-82.60705233703766
 20
132.5197458797962
  0
VERTEX
  8
1
  6
CONTINUOUS
 62
     7
 10
-82.55443525494731
 20
132.5049777652887
  0
VERTEX
  8
1
  6
CONTINUOUS
 62
     7
 10
-82.5000114230808
 20
132.5
  0
SEQEND
  8
1
  6
CONTINUOUS
 62
     7
  0
POLYLINE
  8
1
  6
CONTINUOUS
 62
     7
 66
     1
  0
VERTEX
  8
1
  6
CONTINUOUS
 62
     7
 10
-127.2
 20
137.2000114230807
  0
VERTEX
  8
1
  6
CONTINUOUS
 62
     7
 10
-127.2057640782483
 20
137.2585375082313
  0
VERTEX
  8
1
  6
CONTINUOUS
 62
     7
 10
-127.2228348241067
 20
137.3148138082239
  0
VERTEX
  8
1
  6
CONTINUOUS
 62
     7
 10
-127.2505562817872
 20
137.3666778654234
  0
VERTEX
  8
1
  6
CONTINUOUS
 62
     7
 10
-127.2878632341765
 20
137.4121367658235
  0
VERTEX
  8
1
  6
CONTINUOUS
 62
     7
 10
-127.3333221345766
 20
137.4494437182129
  0
VERTEX
  8
1
  6
CONTINUOUS
 62
     7
 10
-127.3851861917761
 20
137.4771651758933
  0
VERTEX
  8
1
  6
CONTINUOUS
 62
     7
 10
-127.4414624917686
 20
137.4942359217517
  0
VERTEX
  8
1
  6
CONTINUOUS
 62
     7
 10
-127.4999885769193
 20
137.5
  0
SEQEND
  8
1
  6
CONTINUOUS
 62
     7
  0
POLYLINE
  8
1
  6
CONTINUOUS
 62
     7
 66
     1
  0
VERTEX
  8
1
  6
CONTINUOUS
 62
     7
 10
-82.5000114230808
 20
117.5
  0
VERTEX
  8
1
  6
CONTINUOUS
 62
     7
 10
-82.5544352549473
 20
117.4950222347113
  0
VERTEX
  8
1
  6
CONTINUOUS
 62
     7
 10
-82.60705233703766
 20
117.4802541202038
  0
VERTEX
  8
1
  6
CONTINUOUS
 62
     7
 10
-82.65611663260599
 20
117.4561857192019
  0
VERTEX
  8
1
  6
CONTINUOUS
 62
     7
 10
-82.69999999999997
 20
117.4236157136334
  0
SEQEND
  8
1
  6
CONTINUOUS
 62
     7
  0
LINE
  8
1
  6
CONTINUOUS
 62
     7
 10
-102.3542486889354
 20
58.12231021379876
 11
-102.9180892743455
 21
58.09444005391289
  0
POLYLINE
  8
1
  6
CONTINUOUS
 62
     7
 66
     1
  0
VERTEX
  8
1
  6
CONTINUOUS
 62
     7
 10
-37.47499999999999
 20
125.0
  0
VERTEX
  8
1
  6
CONTINUOUS
 62
     7
 10
-37.44178598469701
 20
124.4635016144556
  0
VERTEX
  8
1
  6
CONTINUOUS
 62
     7
 10
-37.3434203347695
 20
123.947620560996
  0
VERTEX
  8
1
  6
CONTINUOUS
 62
     7
 10
-37.18368318698011
 20
123.4721818591961
  0
VERTEX
  8
1
  6
CONTINUOUS
 62
     7
 10
-36.96871315033674
 20
123.055456351737
  0
VERTEX
  8
1
  6
CONTINUOUS
 62
     7
 10
-36.70677140279102
 20
122.713458566168
  0
VERTEX
  8
1
  6
CONTINUOUS
 62
     7
 10
-36.40792421880251
 20
122.4593312855939
  0
VERTEX
  8
1
  6
CONTINUOUS
 62
     7
 10
-36.08365612805645
 20
122.3028404788911
  0
VERTEX
  8
1
  6
CONTINUOUS
 62
     7
 10
-35.74642857142857
 20
122.25
  0
SEQEND
  8
1
  6
CONTINUOUS
 62
     7
  0
POLYLINE
  8
1
  6
CONTINUOUS
 62
     7
 66
     1
  0
VERTEX
  8
1
  6
CONTINUOUS
 62
     7
 10
-127.4999885769193
 20
112.5
  0
VERTEX
  8
1
  6
CONTINUOUS
 62
     7
 10
-127.4414624917687
 20
112.5057640782483
  0
VERTEX
  8
1
  6
CONTINUOUS
 62
     7
 10
-127.3851861917761
 20
112.5228348241067
  0
VERTEX
  8
1
  6
CONTINUOUS
 62
     7
 10
-127.3333221345767
 20
112.5505562817872
  0
VERTEX
  8
1
  6
CONTINUOUS
 62
     7
 10
-127.2878632341765
 20
112.5878632341765
  0
VERTEX
  8
1
  6
CONTINUOUS
 62
     7
 10
-127.2505562817872
 20
112.6333221345766
  0
VERTEX
  8
1
  6
CONTINUOUS
 62
     7
 10
-127.2228348241068
 20
112.6851861917761
  0
VERTEX
  8
1
  6
CONTINUOUS
 62
     7
 10
-127.2057640782483
 20
112.7414624917686
  0
VERTEX
  8
1
  6
CONTINUOUS
 62
     7
 10
-127.2
 20
112.7999885769193
  0
SEQEND
  8
1
  6
CONTINUOUS
 62
     7
  0
POLYLINE
  8
1
  6
CONTINUOUS
 62
     7
 66
     1
  0
VERTEX
  8
1
  6
CONTINUOUS
 62
     7
 10
-82.80000000000004
 20
112.7999885769193
  0
VERTEX
  8
1
  6
CONTINUOUS
 62
     7
 10
-82.79423592175176
 20
112.7414624917687
  0
VERTEX
  8
1
  6
CONTINUOUS
 62
     7
 10
-82.77716517589333
 20
112.6851861917761
  0
VERTEX
  8
1
  6
CONTINUOUS
 62
     7
 10
-82.7494437182129
 20
112.6333221345767
  0
VERTEX
  8
1
  6
CONTINUOUS
 62
     7
 10
-82.71213676582359
 20
112.5878632341765
  0
VERTEX
  8
1
  6
CONTINUOUS
 62
     7
 10
-82.6666778654234
 20
112.5505562817872
  0
VERTEX
  8
1
  6
CONTINUOUS
 62
     7
 10
-82.61481380822396
 20
112.5228348241068
  0
VERTEX
  8
1
  6
CONTINUOUS
 62
     7
 10
-82.55853750823142
 20
112.5057640782483
  0
VERTEX
  8
1
  6
CONTINUOUS
 62
     7
 10
-82.50001142308079
 20
112.5
  0
SEQEND
  8
1
  6
CONTINUOUS
 62
     7
  0
POLYLINE
  8
1
  6
CONTINUOUS
 62
     7
 66
     1
  0
VERTEX
  8
1
  6
CONTINUOUS
 62
     7
 10
-82.5000114230808
 20
137.5
  0
VERTEX
  8
1
  6
CONTINUOUS
 62
     7
 10
-82.55853750823144
 20
137.4942359217517
  0
VERTEX
  8
1
  6
CONTINUOUS
 62
     7
 10
-82.61481380822397
 20
137.4771651758932
  0
VERTEX
  8
1
  6
CONTINUOUS
 62
     7
 10
-82.66667786542342
 20
137.4494437182128
  0
VERTEX
  8
1
  6
CONTINUOUS
 62
     7
 10
-82.7121367658236
 20
137.4121367658235
  0
VERTEX
  8
1
  6
CONTINUOUS
 62
     7
 10
-82.74944371821292
 20
137.3666778654233
  0
VERTEX
  8
1
  6
CONTINUOUS
 62
     7
 10
-82.77716517589334
 20
137.3148138082239
  0
VERTEX
  8
1
  6
CONTINUOUS
 62
     7
 10
-82.79423592175178
 20
137.2585375082314
  0
VERTEX
  8
1
  6
CONTINUOUS
 62
     7
 10
-82.80000000000005
 20
137.2000114230807
  0
SEQEND
  8
1
  6
CONTINUOUS
 62
     7
  0
POLYLINE
  8
1
  6
CONTINUOUS
 62
     7
 66
     1
  0
VERTEX
  8
1
  6
CONTINUOUS
 62
     7
 10
-127.4999885769193
 20
132.5
  0
VERTEX
  8
1
  6
CONTINUOUS
 62
     7
 10
-127.4455647450527
 20
132.5049777652887
  0
VERTEX
  8
1
  6
CONTINUOUS
 62
     7
 10
-127.3929476629623
 20
132.5197458797962
  0
VERTEX
  8
1
  6
CONTINUOUS
 62
     7
 10
-127.3438833673939
 20
132.5438142807982
  0
VERTEX
  8
1
  6
CONTINUOUS
 62
     7
 10
-127.2999999999999
 20
132.5763842863667
  0
SEQEND
  8
1
  6
CONTINUOUS
 62
     7
  0
POLYLINE
  8
1
  6
CONTINUOUS
 62
     7
 66
     1
  0
VERTEX
  8
1
  6
CONTINUOUS
 62
     7
 10
-127.3
 20
117.4236157136333
  0
VERTEX
  8
1
  6
CONTINUOUS
 62
     7
 10
-127.343883367394
 20
117.4561857192018
  0
VERTEX
  8
1
  6
CONTINUOUS
 62
     7
 10
-127.3929476629623
 20
117.4802541202038
  0
VERTEX
  8
1
  6
CONTINUOUS
 62
     7
 10
-127.4455647450527
 20
117.4950222347113
  0
VERTEX
  8
1
  6
CONTINUOUS
 62
     7
 10
-127.4999885769193
 20
117.5
  0
SEQEND
  8
1
  6
CONTINUOUS
 62
     7
  0
LINE
  8
1
  6
CONTINUOUS
 62
     7
 10
-82.47381939662762
 20
116.4825081860328
 11
-82.47381939662762
 21
113.5174918139673
  0
LINE
  8
1
  6
CONTINUOUS
 62
     7
 10
-82.47381939662762
 20
133.5174918139673
 11
-82.48247010909681
 21
132.5175298909031
  0
LINE
  8
1
  6
CONTINUOUS
 62
     7
 10
-82.47381939662762
 20
133.5174918139673
 11
-82.47381939662762
 21
136.4825081860327
  0
LINE
  8
1
  6
CONTINUOUS
 62
     7
 10
-82.70000000000006
 20
119.4999999999999
 11
-84.30000000000005
 21
119.5
  0
LINE
  8
1
  6
CONTINUOUS
 62
     7
 10
-129.5
 20
106.9440036771981
 11
-129.5
 21
163.0559963228019
  0
LINE
  8
1
  6
CONTINUOUS
 62
     7
 10
-80.50000000000001
 20
163.0559963228019
 11
-80.5
 21
106.9440036771981
  0
LINE
  8
1
  6
CONTINUOUS
 62
     7
 10
-127.4999999999999
 20
128.5
 11
-127.4999999999999
 21
125.75
  0
LINE
  8
1
  6
CONTINUOUS
 62
     7
 10
-82.4999999999999
 20
130.0
 11
-81.79999999999988
 21
129.9999999999999
  0
LINE
  8
1
  6
CONTINUOUS
 62
     7
 10
-82.48254626441837
 20
119.0
 11
-82.4999999999999
 21
119.0
  0
LINE
  8
1
  6
CONTINUOUS
 62
     7
 10
-82.49999999999989
 20
112.5
 11
-82.49999999999989
 21
109.4999999999998
  0
LINE
  8
1
  6
CONTINUOUS
 62
     7
 10
-82.44502073291812
 20
109.4450207329181
 11
-127.5549792670817
 21
109.4450207329181
  0
LINE
  8
1
  6
CONTINUOUS
 62
     7
 10
-127.4999999999999
 20
142.4999999999998
 11
-127.4999999999999
 21
162.4999999999999
  0
LINE
  8
1
  6
CONTINUOUS
 62
     7
 10
-81.79999999999988
 20
118.9999999999999
 11
-82.44502073291812
 21
118.9999999999999
  0
LINE
  8
1
  6
CONTINUOUS
 62
     7
 10
-127.4999999999999
 20
119.9999999999999
 11
-127.4999999999999
 21
121.5
  0
LINE
  8
1
  6
CONTINUOUS
 62
     7
 10
-82.49999999999989
 20
117.5
 11
-82.48247010909681
 21
117.4824701090969
  0
LINE
  8
1
  6
CONTINUOUS
 62
     7
 10
-82.44502073291812
 20
140.5549792670817
 11
-82.4999999999999
 21
140.4999999999999
  0
LINE
  8
1
  6
CONTINUOUS
 62
     7
 10
-82.47381939662762
 20
131.0
 11
-82.47381939662762
 21
129.9999999999999
  0
LINE
  8
1
  6
CONTINUOUS
 62
     7
 10
-82.49999999999989
 20
121.5
 11
-82.49999999999989
 21
119.9999999999999
  0
LINE
  8
1
  6
CONTINUOUS
 62
     7
 10
-127.4999999999999
 20
124.2499999999999
 11
-127.4999999999999
 21
125.75
  0
LINE
  8
1
  6
CONTINUOUS
 62
     7
 10
-82.4999999999999
 20
140.4999999999999
 11
-82.49999999999989
 21
137.5
  0
LINE
  8
1
  6
CONTINUOUS
 62
     7
 10
-128.1999999999999
 20
119.9999999999999
 11
-128.1999999999999
 21
118.9999999999999
  0
LINE
  8
1
  6
CONTINUOUS
 62
     7
 10
-82.49999999999989
 20
119.9999999999999
 11
-84.10000000000001
 21
120.0
  0
LINE
  8
1
  6
CONTINUOUS
 62
     7
 10
-82.4999999999999
 20
142.4999999999998
 11
-127.4999999999999
 21
142.4999999999998
  0
LINE
  8
1
  6
CONTINUOUS
 62
     7
 10
-128.1999999999999
 20
118.9999999999999
 11
-127.5549792670817
 21
118.9999999999999
  0
LINE
  8
1
  6
CONTINUOUS
 62
     7
 10
-84.30000000000005
 20
119.5
 11
-84.30000000000005
 21
117.4999999999999
  0
LINE
  8
1
  6
CONTINUOUS
 62
     7
 10
-82.49999999999989
 20
121.5
 11
-82.4999999999999
 21
124.25
  0
LINE
  8
1
  6
CONTINUOUS
 62
     7
 10
-82.4999999999999
 20
125.75
 11
-82.4999999999999
 21
124.25
  0
LINE
  8
1
  6
CONTINUOUS
 62
     7
 10
-82.44502073291812
 20
118.9999999999999
 11
-82.47381939662762
 21
118.9999999999999
  0
LINE
  8
1
  6
CONTINUOUS
 62
     7
 10
-127.4999999999999
 20
130.0
 11
-128.1999999999999
 21
129.9999999999999
  0
LINE
  8
1
  6
CONTINUOUS
 62
     7
 10
-81.79999999999988
 20
131.0
 11
-82.44502073291812
 21
131.0
  0
LINE
  8
1
  6
CONTINUOUS
 62
     7
 10
-127.4999999999999
 20
121.5
 11
-127.4999999999999
 21
124.2499999999999
  0
LINE
  8
1
  6
CONTINUOUS
 62
     7
 10
-127.5549792670817
 20
109.4450207329181
 11
-127.5549792670817
 21
118.9999999999999
  0
LINE
  8
1
  6
CONTINUOUS
 62
     7
 10
-82.44502073291812
 20
140.5549792670817
 11
-82.44502073291812
 21
131.0
  0
LINE
  8
1
  6
CONTINUOUS
 62
     7
 10
-82.49999999999989
 20
137.5
 11
-82.48247010909681
 21
137.4824701090969
  0
LINE
  8
1
  6
CONTINUOUS
 62
     7
 10
-82.48254626441837
 20
131.0
 11
-82.48254626441837
 21
130.0
  0
LINE
  8
1
  6
CONTINUOUS
 62
     7
 10
-82.49999999999989
 20
131.0
 11
-82.48254626441837
 21
131.0
  0
LINE
  8
1
  6
CONTINUOUS
 62
     7
 10
-82.4999999999999
 20
130.0
 11
-82.49999999999989
 21
128.5
  0
LINE
  8
1
  6
CONTINUOUS
 62
     7
 10
-82.44502073291812
 20
109.4450207329181
 11
-82.49999999999989
 21
109.4999999999998
  0
LINE
  8
1
  6
CONTINUOUS
 62
     7
 10
-82.49999999999989
 20
132.5
 11
-82.49999999999989
 21
131.0
  0
LINE
  8
1
  6
CONTINUOUS
 62
     7
 10
-82.49999999999989
 20
132.5
 11
-82.48247010909681
 21
132.5175298909031
  0
LINE
  8
1
  6
CONTINUOUS
 62
     7
 10
-82.48247010909681
 20
137.4824701090969
 11
-82.47381939662762
 21
136.4825081860327
  0
LINE
  8
1
  6
CONTINUOUS
 62
     7
 10
-84.30000000000007
 20
112.9999999999999
 11
-84.30000000000003
 21
111.2
  0
LINE
  8
1
  6
CONTINUOUS
 62
     7
 10
-82.49999999999989
 20
119.9999999999999
 11
-81.79999999999988
 21
119.9999999999999
  0
LINE
  8
1
  6
CONTINUOUS
 62
     7
 10
-127.5549792670817
 20
140.5549792670817
 11
-82.44502073291812
 21
140.5549792670817
  0
LINE
  8
1
  6
CONTINUOUS
 62
     7
 10
-128.1999999999999
 20
129.9999999999999
 11
-128.1999999999999
 21
130.9999999999999
  0
LINE
  8
1
  6
CONTINUOUS
 62
     7
 10
-127.4999999999999
 20
128.5
 11
-127.4999999999999
 21
130.0
  0
LINE
  8
1
  6
CONTINUOUS
 62
     7
 10
-127.4999999999999
 20
119.9999999999999
 11
-128.1999999999999
 21
119.9999999999999
  0
LINE
  8
1
  6
CONTINUOUS
 62
     7
 10
-84.10000000000001
 20
120.0
 11
-84.09999999999988
 21
121.5
  0
LINE
  8
1
  6
CONTINUOUS
 62
     7
 10
-84.09999999999988
 20
121.5
 11
-82.49999999999989
 21
121.5
  0
LINE
  8
1
  6
CONTINUOUS
 62
     7
 10
-82.48254626441837
 20
120.0
 11
-82.48254626441837
 21
119.0
  0
LINE
  8
1
  6
CONTINUOUS
 62
     7
 10
-82.48247010909681
 20
117.4824701090969
 11
-82.47381939662762
 21
116.4825081860328
  0
LINE
  8
1
  6
CONTINUOUS
 62
     7
 10
-82.47381939662762
 20
118.9999999999999
 11
-82.47381939662762
 21
119.9999999999999
  0
LINE
  8
1
  6
CONTINUOUS
 62
     7
 10
-82.4999999999999
 20
119.0
 11
-82.49999999999989
 21
117.5
  0
LINE
  8
1
  6
CONTINUOUS
 62
     7
 10
-82.47381939662762
 20
113.5174918139673
 11
-82.48247010909681
 21
112.5175298909031
  0
LINE
  8
1
  6
CONTINUOUS
 62
     7
 10
-127.5549792670817
 20
130.9999999999999
 11
-127.5549792670817
 21
140.5549792670817
  0
LINE
  8
1
  6
CONTINUOUS
 62
     7
 10
-82.49999999999989
 20
112.5
 11
-82.48247010909681
 21
112.5175298909031
  0
LINE
  8
1
  6
CONTINUOUS
 62
     7
 10
-125.7000000000001
 20
112.9999999999999
 11
-125.7000000000001
 21
111.1999999999999
  0
LINE
  8
1
  6
CONTINUOUS
 62
     7
 10
-82.4999999999999
 20
162.4999999999999
 11
-82.4999999999999
 21
142.4999999999998
  0
LINE
  8
1
  6
CONTINUOUS
 62
     7
 10
-127.4999999999999
 20
162.4999999999999
 11
-82.4999999999999
 21
162.4999999999999
  0
LINE
  8
1
  6
CONTINUOUS
 62
     7
 10
-82.44502073291812
 20
118.9999999999999
 11
-82.44502073291812
 21
109.4450207329181
  0
LINE
  8
1
  6
CONTINUOUS
 62
     7
 10
-81.79999999999988
 20
129.9999999999999
 11
-81.79999999999988
 21
131.0
  0
LINE
  8
1
  6
CONTINUOUS
 62
     7
 10
-82.49999999999989
 20
128.5
 11
-82.4999999999999
 21
125.75
  0
LINE
  8
1
  6
CONTINUOUS
 62
     7
 10
-81.79999999999988
 20
119.9999999999999
 11
-81.79999999999988
 21
118.9999999999999
  0
LINE
  8
1
  6
CONTINUOUS
 62
     7
 10
-128.1999999999999
 20
130.9999999999999
 11
-127.5549792670817
 21
130.9999999999999
  0
LINE
  8
1
  6
CONTINUOUS
 62
     7
 10
-127.4999999999999
 20
137.5
 11
-127.517529890903
 21
137.4824701090969
  0
LINE
  8
1
  6
CONTINUOUS
 62
     7
 10
-127.4999999999999
 20
140.4999999999999
 11
-82.4999999999999
 21
140.4999999999999
  0
LINE
  8
1
  6
CONTINUOUS
 62
     7
 10
-127.2
 20
112.7999885769193
 11
-127.2
 21
112.9999999999999
  0
LINE
  8
1
  6
CONTINUOUS
 62
     7
 10
-125.8999999999999
 20
124.25
 11
-127.4999999999999
 21
124.2499999999999
  0
LINE
  8
1
  6
CONTINUOUS
 62
     7
 10
-84.10000000000001
 20
128.5
 11
-84.10000000000001
 21
130.0
  0
LINE
  8
1
  6
CONTINUOUS
 62
     7
 10
-84.10000000000001
 20
130.0
 11
-82.4999999999999
 21
130.0
  0
LINE
  8
1
  6
CONTINUOUS
 62
     7
 10
-84.10000000000001
 20
124.25
 11
-84.09999999999988
 21
125.75
  0
LINE
  8
1
  6
CONTINUOUS
 62
     7
 10
-125.9
 20
121.5
 11
-125.9
 21
120.0
  0
LINE
  8
1
  6
CONTINUOUS
 62
     7
 10
-127.4999999999999
 20
112.5
 11
-127.517529890903
 21
112.5175298909031
  0
LINE
  8
1
  6
CONTINUOUS
 62
     7
 10
-127.4999999999999
 20
109.4999999999998
 11
-127.4999999999999
 21
112.5
  0
LINE
  8
1
  6
CONTINUOUS
 62
     7
 10
-82.49999999999989
 20
128.5
 11
-84.10000000000001
 21
128.5
  0
LINE
  8
1
  6
CONTINUOUS
 62
     7
 10
-127.5261806033722
 20
116.4825081860328
 11
-127.517529890903
 21
117.4824701090969
  0
LINE
  8
1
  6
CONTINUOUS
 62
     7
 10
-84.09999999999988
 20
125.75
 11
-82.4999999999999
 21
125.75
  0
LINE
  8
1
  6
CONTINUOUS
 62
     7
 10
-127.5174537355815
 20
120.0
 11
-127.5174537355815
 21
119.0
  0
LINE
  8
1
  6
CONTINUOUS
 62
     7
 10
-82.44502073291812
 20
131.0
 11
-82.47381939662762
 21
131.0
  0
LINE
  8
1
  6
CONTINUOUS
 62
     7
 10
-127.5174537355815
 20
119.0
 11
-127.4999999999999
 21
119.0
  0
LINE
  8
1
  6
CONTINUOUS
 62
     7
 10
-127.4999999999999
 20
137.5
 11
-127.4999999999999
 21
140.4999999999999
  0
LINE
  8
1
  6
CONTINUOUS
 62
     7
 10
-127.4999999999999
 20
131.0
 11
-127.5174537355814
 21
131.0
  0
LINE
  8
1
  6
CONTINUOUS
 62
     7
 10
-125.9
 20
130.0
 11
-125.8999999999999
 21
128.5
  0
LINE
  8
1
  6
CONTINUOUS
 62
     7
 10
-82.80000000000005
 20
137.2000114230808
 11
-82.80000000000005
 21
136.9999999999999
  0
LINE
  8
1
  6
CONTINUOUS
 62
     7
 10
-117.1
 20
109.4999999999998
 11
-127.4999999999999
 21
109.4999999999998
  0
LINE
  8
1
  6
CONTINUOUS
 62
     7
 10
-127.4999999999999
 20
119.0
 11
-125.7000000000001
 21
119.0
  0
LINE
  8
1
  6
CONTINUOUS
 62
     7
 10
-125.7000000000001
 20
131.0
 11
-127.4999999999999
 21
131.0
  0
LINE
  8
1
  6
CONTINUOUS
 62
     7
 10
-127.4999999999999
 20
130.0
 11
-125.9
 21
130.0
  0
LINE
  8
1
  6
CONTINUOUS
 62
     7
 10
-127.5174537355814
 20
131.0
 11
-127.5174537355814
 21
130.0
  0
LINE
  8
1
  6
CONTINUOUS
 62
     7
 10
-127.5261806033722
 20
130.9999999999999
 11
-127.5261806033722
 21
129.9999999999999
  0
LINE
  8
1
  6
CONTINUOUS
 62
     7
 10
-127.4999999999999
 20
132.5
 11
-127.517529890903
 21
132.5175298909031
  0
LINE
  8
1
  6
CONTINUOUS
 62
     7
 10
-127.4999999999999
 20
121.5
 11
-125.9
 21
121.5
  0
LINE
  8
1
  6
CONTINUOUS
 62
     7
 10
-125.9
 20
125.75
 11
-125.8999999999999
 21
128.5
  0
LINE
  8
1
  6
CONTINUOUS
 62
     7
 10
-127.5261806033722
 20
136.4825081860327
 11
-127.517529890903
 21
137.4824701090969
  0
LINE
  8
1
  6
CONTINUOUS
 62
     7
 10
-82.80000000000005
 20
112.7999885769193
 11
-82.80000000000005
 21
112.9999999999999
  0
LINE
  8
1
  6
CONTINUOUS
 62
     7
 10
-37.60071428571428
 20
127.75
 11
-37.47499999999999
 21
126.75
  0
LINE
  8
1
  6
CONTINUOUS
 62
     7
 10
-127.5549792670817
 20
109.4450207329181
 11
-127.4999999999999
 21
109.4999999999998
  0
LINE
  8
1
  6
CONTINUOUS
 62
     7
 10
-37.60071428571428
 20
127.75
 11
-35.275
 21
127.75
  0
LINE
  8
1
  6
CONTINUOUS
 62
     7
 10
-82.49999999999989
 20
109.4999999999998
 11
-92.9
 21
109.5
  0
LINE
  8
1
  6
CONTINUOUS
 62
     7
 10
-35.275
 20
122.25
 11
-35.74642857142857
 21
122.25
  0
LINE
  8
1
  6
CONTINUOUS
 62
     7
 10
-127.5549792670817
 20
140.5549792670817
 11
-127.4999999999999
 21
140.4999999999999
  0
LINE
  8
1
  6
CONTINUOUS
 62
     7
 10
-37.47499999999999
 20
125.0
 11
-37.47499999999999
 21
126.75
  0
LINE
  8
1
  6
CONTINUOUS
 62
     7
 10
-37.47499999999999
 20
126.75
 11
-38.27500000000001
 21
126.75
  0
LINE
  8
1
  6
CONTINUOUS
 62
     7
 10
-127.517529890903
 20
132.5175298909031
 11
-127.5261806033722
 21
133.5174918139673
  0
LINE
  8
1
  6
CONTINUOUS
 62
     7
 10
-127.5261806033722
 20
116.4825081860328
 11
-127.5261806033722
 21
113.5174918139673
  0
LINE
  8
1
  6
CONTINUOUS
 62
     7
 10
-125.8999999999999
 20
128.5
 11
-127.4999999999999
 21
128.5
  0
LINE
  8
1
  6
CONTINUOUS
 62
     7
 10
-127.4999999999999
 20
117.5
 11
-127.517529890903
 21
117.4824701090969
  0
LINE
  8
1
  6
CONTINUOUS
 62
     7
 10
-84.09999999999988
 20
125.75
 11
-84.10000000000001
 21
128.5
  0
LINE
  8
1
  6
CONTINUOUS
 62
     7
 10
-127.4999999999999
 20
125.75
 11
-125.9
 21
125.75
  0
LINE
  8
1
  6
CONTINUOUS
 62
     7
 10
-84.10000000000001
 20
124.25
 11
-84.09999999999988
 21
121.5
  0
LINE
  8
1
  6
CONTINUOUS
 62
     7
 10
-125.8999999999999
 20
124.25
 11
-125.9
 21
121.5
  0
LINE
  8
1
  6
CONTINUOUS
 62
     7
 10
-127.2
 20
137.2000114230808
 11
-127.2
 21
136.9999999999999
  0
LINE
  8
1
  6
CONTINUOUS
 62
     7
 10
-127.5261806033722
 20
133.5174918139673
 11
-127.5261806033722
 21
136.4825081860327
  0
LINE
  8
1
  6
CONTINUOUS
 62
     7
 10
-84.30000000000005
 20
131.0
 11
-82.49999999999989
 21
131.0
  0
LINE
  8
1
  6
CONTINUOUS
 62
     7
 10
-127.5261806033722
 20
118.9999999999999
 11
-127.5261806033722
 21
119.9999999999999
  0
LINE
  8
1
  6
CONTINUOUS
 62
     7
 10
-82.4999999999999
 20
119.0
 11
-84.30000000000005
 21
119.0
  0
LINE
  8
1
  6
CONTINUOUS
 62
     7
 10
-35.275
 20
127.75
 11
-35.275
 21
122.25
  0
LINE
  8
1
  6
CONTINUOUS
 62
     7
 10
-127.4999999999999
 20
131.0
 11
-127.4999999999999
 21
132.5
  0
LINE
  8
1
  6
CONTINUOUS
 62
     7
 10
-38.27500000000001
 20
126.75
 11
-38.27500000000001
 21
127.75
  0
LINE
  8
1
  6
CONTINUOUS
 62
     7
 10
-37.60071428571428
 20
127.75
 11
-38.27500000000001
 21
127.75
  0
LINE
  8
1
  6
CONTINUOUS
 62
     7
 10
-38.27500000000001
 20
125.0
 11
-38.27500000000001
 21
126.7499999999999
  0
LINE
  8
1
  6
CONTINUOUS
 62
     7
 10
-125.9
 20
125.75
 11
-125.8999999999999
 21
124.25
  0
LINE
  8
1
  6
CONTINUOUS
 62
     7
 10
-125.9
 20
120.0
 11
-127.4999999999999
 21
119.9999999999999
  0
LINE
  8
1
  6
CONTINUOUS
 62
     7
 10
-82.4999999999999
 20
124.25
 11
-84.10000000000001
 21
124.25
  0
LINE
  8
1
  6
CONTINUOUS
 62
     7
 10
-127.5549792670817
 20
118.9999999999999
 11
-127.5261806033722
 21
118.9999999999999
  0
LINE
  8
1
  6
CONTINUOUS
 62
     7
 10
-127.5549792670817
 20
130.9999999999999
 11
-127.5261806033722
 21
130.9999999999999
  0
LINE
  8
1
  6
CONTINUOUS
 62
     7
 10
-127.4999999999999
 20
117.5
 11
-127.4999999999999
 21
119.0
  0
LINE
  8
1
  6
CONTINUOUS
 62
     7
 10
-127.517529890903
 20
112.5175298909031
 11
-127.5261806033722
 21
113.5174918139673
  0
LINE
  8
1
  6
CONTINUOUS
 62
     7
 10
-54.72499999999999
 20
138.8
 11
-54.72499999999999
 21
140.3999999999999
  0
LINE
  8
1
  6
CONTINUOUS
 62
     7
 10
-54.72499999999999
 20
111.1999999999999
 11
-53.825
 21
111.1999999999999
  0
LINE
  8
1
  6
CONTINUOUS
 62
     7
 10
-53.825
 20
109.6
 11
-54.72499999999999
 21
109.6
  0
LINE
  8
1
  6
CONTINUOUS
 62
     7
 10
-53.825
 20
138.8
 11
-54.72499999999999
 21
138.8
  0
LINE
  8
1
  6
CONTINUOUS
 62
     7
 10
-47.525
 20
130.4999999999999
 11
-47.525
 21
119.4999999999999
  0
LINE
  8
1
  6
CONTINUOUS
 62
     7
 10
-54.72499999999999
 20
109.5999999999999
 11
-54.72499999999999
 21
111.1999999999999
  0
LINE
  8
1
  6
CONTINUOUS
 62
     7
 10
-49.12500000000001
 20
119.4999999999999
 11
-47.525
 21
119.4999999999999
  0
LINE
  8
1
  6
CONTINUOUS
 62
     7
 10
-38.27500000000001
 20
127.75
 11
-40.22500000000004
 21
127.75
  0
LINE
  8
1
  6
CONTINUOUS
 62
     7
 10
-37.97500000000001
 20
122.25
 11
-40.22500000000004
 21
122.25
  0
LINE
  8
1
  6
CONTINUOUS
 62
     7
 10
-54.72499999999999
 20
140.3999999999999
 11
-53.825
 21
140.4
  0
LINE
  8
1
  6
CONTINUOUS
 62
     7
 10
-49.12500000000001
 20
130.4999999999999
 11
-49.12500000000001
 21
119.4999999999999
  0
LINE
  8
1
  6
CONTINUOUS
 62
     7
 10
-37.97500000000001
 20
122.25
 11
-38.27500000000001
 21
125.0
  0
LINE
  8
1
  6
CONTINUOUS
 62
     7
 10
-35.74642857142857
 20
122.25
 11
-37.97500000000001
 21
122.25
  0
LINE
  8
1
  6
CONTINUOUS
 62
     7
 10
-47.52500000000001
 20
130.4999999999999
 11
-47.52500000000001
 21
131.0
  0
LINE
  8
1
  6
CONTINUOUS
 62
     7
 10
-49.12500000000001
 20
130.4999999999999
 11
-49.12500000000001
 21
131.0
  0
LINE
  8
1
  6
CONTINUOUS
 62
     7
 10
-51.325
 20
106.9999999999998
 11
-51.325
 21
106.9660555463225
  0
LINE
  8
1
  6
CONTINUOUS
 62
     7
 10
-53.825
 20
163.0559963228019
 11
-53.825
 21
167.5614555722306
  0
LINE
  8
1
  6
CONTINUOUS
 62
     7
 10
-51.325
 20
163.0339444536774
 11
-51.325
 21
142.9999999999999
  0
LINE
  8
1
  6
CONTINUOUS
 62
     7
 10
-51.325
 20
106.9160371171995
 11
-51.325
 21
102.9101868962386
  0
LINE
  8
1
  6
CONTINUOUS
 62
     7
 10
-51.325
 20
167.0898131037613
 11
-51.325
 21
163.0339444536774
  0
LINE
  8
1
  6
CONTINUOUS
 62
     7
 10
-49.12500000000001
 20
119.5
 11
-49.12500000000004
 21
119.0
  0
LINE
  8
1
  6
CONTINUOUS
 62
     7
 10
-47.52500000000001
 20
119.4999999999999
 11
-47.52500000000001
 21
119.0
  0
LINE
  8
1
  6
CONTINUOUS
 62
     7
 10
-53.825
 20
102.4385444277694
 11
-53.825
 21
106.9440036771981
  0
LINE
  8
1
  6
CONTINUOUS
 62
     7
 10
-51.325
 20
106.9660555463225
 11
-51.325
 21
106.9160371171995
  0
LINE
  8
1
  6
CONTINUOUS
 62
     7
 10
-49.12500000000001
 20
130.4999999999999
 11
-47.525
 21
130.4999999999999
  0
LINE
  8
1
  6
CONTINUOUS
 62
     7
 10
-53.825
 20
163.0559963228019
 11
-53.825
 21
106.9440036771981
  0
LINE
  8
1
  6
CONTINUOUS
 62
     7
 10
-103.8310160661925
 20
65.37500000000001
 11
-103.5612505430062
 21
65.37500000000001
  0
LINE
  8
1
  6
CONTINUOUS
 62
     7
 10
-53.825
 20
102.4385444277694
 11
-53.825
 21
97.50000000000003
  0
LINE
  8
1
  6
CONTINUOUS
 62
     7
 10
-111.8313708498985
 20
65.37500000000001
 11
-111.2656854249492
 21
65.37500000000001
  0
LINE
  8
1
  6
CONTINUOUS
 62
     7
 10
-49.52500000000001
 20
131.0000761524218
 11
-49.52500000000001
 21
118.9999238475781
  0
LINE
  8
1
  6
CONTINUOUS
 62
     7
 10
-51.325
 20
171.9650137061216
 11
-51.325
 21
167.0898131037613
  0
LINE
  8
1
  6
CONTINUOUS
 62
     7
 10
-45.52500000000001
 20
130.5
 11
-45.52500000000001
 21
119.5
  0
LINE
  8
1
  6
CONTINUOUS
 62
     7
 10
-40.22500000000004
 20
138.8
 11
-40.22500000000004
 21
135.25
  0
LINE
  8
1
  6
CONTINUOUS
 62
     7
 10
-45.52500000000001
 20
130.5
 11
-45.52500000000001
 21
131.5
  0
LINE
  8
1
  6
CONTINUOUS
 62
     7
 10
-40.22500000000004
 20
114.75
 11
-40.22500000000004
 21
115.75
  0
LINE
  8
1
  6
CONTINUOUS
 62
     7
 10
-51.81627379678136
 20
172.4649375536998
 11
-53.825
 21
172.5
  0
LINE
  8
1
  6
CONTINUOUS
 62
     7
 10
-40.22500000000004
 20
134.25
 11
-40.22500000000004
 21
135.25
  0
LINE
  8
1
  6
CONTINUOUS
 62
     7
 10
-45.52500000000001
 20
118.4999999999999
 11
-45.52500000000001
 21
119.5
  0
LINE
  8
1
  6
CONTINUOUS
 62
     7
 10
-103.3313708498985
 20
65.37500000000001
 11
-102.7656854249493
 21
65.37500000000001
  0
LINE
  8
1
  6
CONTINUOUS
 62
     7
 10
-53.825
 20
172.5
 11
-53.825
 21
167.5614555722306
  0
LINE
  8
1
  6
CONTINUOUS
 62
     7
 10
-98.73431457505077
 20
65.37500000000001
 11
-98.16862915010152
 21
65.37500000000001
  0
LINE
  8
1
  6
CONTINUOUS
 62
     7
 10
-103.3313708498985
 20
62.675
 11
-103.5612505430062
 21
62.675
  0
LINE
  8
1
  6
CONTINUOUS
 62
     7
 10
-45.52500000000001
 20
118.4999999999999
 11
-45.52500000000001
 21
107.9999999999998
  0
LINE
  8
1
  6
CONTINUOUS
 62
     7
 10
-42.67500000000003
 20
134.25
 11
-42.67500000000003
 21
115.75
  0
LINE
  8
1
  6
CONTINUOUS
 62
     7
 10
-103.3313708498985
 20
65.37500000000001
 11
-103.5612505430062
 21
65.37500000000001
  0
LINE
  8
1
  6
CONTINUOUS
 62
     7
 10
-40.22500000000004
 20
114.75
 11
-40.22500000000004
 21
110.4999999999999
  0
LINE
  8
1
  6
CONTINUOUS
 62
     7
 10
-111.2656854249492
 20
62.675
 11
-111.8313708498985
 21
62.675
  0
LINE
  8
1
  6
CONTINUOUS
 62
     7
 10
-49.52500000000001
 20
119.0
 11
-46.02500000000001
 21
119.0
  0
LINE
  8
1
  6
CONTINUOUS
 62
     7
 10
-106.1689839338075
 20
62.675
 11
-106.4387494569938
 21
62.675
  0
LINE
  8
1
  6
CONTINUOUS
 62
     7
 10
-107.2343145750508
 20
65.37500000000001
 11
-106.6686291501015
 21
65.37500000000001
  0
LINE
  8
1
  6
CONTINUOUS
 62
     7
 10
-45.52500000000001
 20
141.9999999999999
 11
-45.52500000000001
 21
131.5
  0
LINE
  8
1
  6
CONTINUOUS
 62
     7
 10
-45.22500000000001
 20
134.75
 11
-45.52499999999981
 21
134.75
  0
LINE
  8
1
  6
CONTINUOUS
 62
     7
 10
-45.52499999999981
 20
115.25
 11
-45.225
 21
115.25
  0
LINE
  8
1
  6
CONTINUOUS
 62
     7
 10
-40.22500000000004
 20
134.25
 11
-40.22500000000004
 21
115.75
  0
LINE
  8
1
  6
CONTINUOUS
 62
     7
 10
-53.825
 20
97.49999999999997
 11
-51.81627379678136
 21
97.53506244630017
  0
LINE
  8
1
  6
CONTINUOUS
 62
     7
 10
-106.4387494569938
 20
62.675
 11
-106.6686291501015
 21
62.675
  0
LINE
  8
1
  6
CONTINUOUS
 62
     7
 10
-94.50710678118655
 20
65.37500000000001
 11
-94.15355339059327
 21
65.37500000000001
  0
LINE
  8
1
  6
CONTINUOUS
 62
     7
 10
-40.72500000000004
 20
134.75
 11
-42.17500000000003
 21
134.75
  0
LINE
  8
1
  6
CONTINUOUS
 62
     7
 10
-40.72500000000002
 20
109.9999999999999
 11
-45.52500000000001
 21
109.9999999999999
  0
LINE
  8
1
  6
CONTINUOUS
 62
     7
 10
-98.16862915010152
 20
62.675
 11
-98.73431457505077
 21
62.675
  0
LINE
  8
1
  6
CONTINUOUS
 62
     7
 10
-106.4387494569938
 20
65.37500000000001
 11
-106.6686291501015
 21
65.37500000000001
  0
LINE
  8
1
  6
CONTINUOUS
 62
     7
 10
-103.5612505430062
 20
62.675
 11
-103.8310160661925
 21
62.675
  0
LINE
  8
1
  6
CONTINUOUS
 62
     7
 10
-46.02500000000001
 20
107.4999999999998
 11
-50.82499999999998
 21
107.4999999999998
  0
LINE
  8
1
  6
CONTINUOUS
 62
     7
 10
-42.17500000000003
 20
115.25
 11
-40.72500000000004
 21
115.25
  0
LINE
  8
1
  6
CONTINUOUS
 62
     7
 10
-46.02500000000001
 20
131.0
 11
-49.52500000000001
 21
131.0
  0
LINE
  8
1
  6
CONTINUOUS
 62
     7
 10
-50.82499999999998
 20
142.4999999999999
 11
-46.02500000000001
 21
142.4999999999999
  0
LINE
  8
1
  6
CONTINUOUS
 62
     7
 10
-45.52500000000001
 20
139.3
 11
-40.72500000000002
 21
139.3
  0
LINE
  8
1
  6
CONTINUOUS
 62
     7
 10
-96.7
 20
62.675
 11
-98.16862915010152
 21
62.675
  0
LINE
  8
1
  6
CONTINUOUS
 62
     7
 10
-94.50710678118655
 20
65.37500000000001
 11
-98.16862915010152
 21
65.37500000000001
  0
LINE
  8
1
  6
CONTINUOUS
 62
     7
 10
-106.6686291501015
 20
62.675
 11
-107.2343145750508
 21
62.675
  0
LINE
  8
1
  6
CONTINUOUS
 62
     7
 10
-51.325
 20
102.9101868962386
 11
-51.325
 21
98.03498629387825
  0
LINE
  8
1
  6
CONTINUOUS
 62
     7
 10
-102.7656854249493
 20
62.675
 11
-103.3313708498985
 21
62.675
  0
LINE
  8
1
  6
CONTINUOUS
 62
     7
 10
-115.8464466094067
 20
65.37500000000001
 11
-115.4928932188135
 21
65.37500000000001
  0
LINE
  8
1
  6
CONTINUOUS
 62
     7
 10
-45.225
 20
115.25
 11
-45.22500000000001
 21
134.75
  0
LINE
  8
1
  6
CONTINUOUS
 62
     7
 10
-106.4387494569938
 20
65.37500000000001
 11
-106.1689839338075
 21
65.37500000000001
  0
LINE
  8
1
  6
CONTINUOUS
 62
     7
 10
-129.4474824887716
 20
70.81627379678135
 11
-129.4649375536998
 21
71.81627379678135
  0
LINE
  8
1
  6
CONTINUOUS
 62
     7
 10
-80.53580539223012
 20
71.77371045296199
 11
-80.53622148553676
 21
71.74987248339086
  0
LINE
  8
1
  6
CONTINUOUS
 62
     7
 10
-81.13622567046205
 20
65.52500000000002
 11
-128.863774329538
 21
65.52500000000002
  0
LINE
  8
1
  6
CONTINUOUS
 62
     7
 10
-99.0
 20
57.6007142857143
 11
-99.2
 21
57.47500000000001
  0
LINE
  8
1
  6
CONTINUOUS
 62
     7
 10
-129.3636981771162
 20
66.01627379678138
 11
-129.4474824887716
 21
70.81627379678135
  0
LINE
  8
1
  6
CONTINUOUS
 62
     7
 10
-80.53782645869317
 20
71.65792363284105
 11
-80.55251751122842
 21
70.81627379678135
  0
LINE
  8
1
  6
CONTINUOUS
 62
     7
 10
-80.55251751122842
 20
70.81627379678136
 11
-80.63630182288387
 21
66.01627379678139
  0
LINE
  8
1
  6
CONTINUOUS
 62
     7
 10
-114.3
 20
60.22500000000004
 11
-119.3
 21
60.22500000000004
  0
LINE
  8
1
  6
CONTINUOUS
 62
     7
 10
-102.4
 20
62.675
 11
-102.7656854249493
 21
62.675
  0
LINE
  8
1
  6
CONTINUOUS
 62
     7
 10
-99.10000000000002
 20
62.675
 11
-102.4
 21
62.675
  0
LINE
  8
1
  6
CONTINUOUS
 62
     7
 10
-110.9
 20
65.37500000000001
 11
-110.9
 21
62.67500000000002
  0
LINE
  8
1
  6
CONTINUOUS
 62
     7
 10
-110.9
 20
65.37500000000001
 11
-111.2656854249492
 21
65.37500000000001
  0
LINE
  8
1
  6
CONTINUOUS
 62
     7
 10
-99.10000000000002
 20
65.37500000000001
 11
-99.10000000000002
 21
62.67500000000002
  0
LINE
  8
1
  6
CONTINUOUS
 62
     7
 10
-99.2
 20
58.27500000000001
 11
-99.2
 21
57.47500000000001
  0
LINE
  8
1
  6
CONTINUOUS
 62
     7
 10
-102.05
 20
58.18740115860589
 11
-102.05
 21
62.675
  0
LINE
  8
1
  6
CONTINUOUS
 62
     7
 10
-93.14644660940672
 20
65.37500000000001
 11
-94.15355339059327
 21
65.37500000000001
  0
LINE
  8
1
  6
CONTINUOUS
 62
     7
 10
-99.19999999999999
 20
57.47500000000002
 11
-101.95
 21
55.74642857142859
  0
LINE
  8
1
  6
CONTINUOUS
 62
     7
 10
-107.6
 20
62.675
 11
-110.9
 21
62.675
  0
LINE
  8
1
  6
CONTINUOUS
 62
     7
 10
-111.0
 20
58.27500000000001
 11
-107.95
 21
58.27500000000001
  0
LINE
  8
1
  6
CONTINUOUS
 62
     7
 10
-106.1689839338075
 20
62.675
 11
-103.8310160661925
 21
62.675
  0
LINE
  8
1
  6
CONTINUOUS
 62
     7
 10
-101.95
 20
57.97500000000002
 11
-104.8
 21
57.97500000000002
  0
LINE
  8
1
  6
CONTINUOUS
 62
     7
 10
-125.2999999999999
 20
74.72500000000001
 11
-84.69999999999983
 21
74.72500000000001
  0
LINE
  8
1
  6
CONTINUOUS
 62
     7
 10
-83.33285386323594
 20
73.82500000000002
 11
-80.5
 21
73.82500000000002
  0
LINE
  8
1
  6
CONTINUOUS
 62
     7
 10
-115.8464466094067
 20
65.37500000000001
 11
-116.8535533905933
 21
65.37500000000001
  0
LINE
  8
1
  6
CONTINUOUS
 62
     7
 10
-117.0
 20
62.675
 11
-117.0
 21
65.375
  0
LINE
  8
1
  6
CONTINUOUS
 62
     7
 10
-102.3542486889355
 20
58.12231021379876
 11
-102.05
 21
58.18740115860589
  0
LINE
  8
1
  6
CONTINUOUS
 62
     7
 10
-80.53622148553676
 20
71.74987248339086
 11
-80.53782645869317
 21
71.65792363284105
  0
LINE
  8
1
  6
CONTINUOUS
 62
     7
 10
-80.53544376894764
 20
71.79442783694098
 11
-80.53580539223012
 21
71.77371045296199
  0
LINE
  8
1
  6
CONTINUOUS
 62
     7
 10
-129.5
 20
73.82500000000002
 11
-126.6671461367641
 21
73.82500000000002
  0
LINE
  8
1
  6
CONTINUOUS
 62
     7
 10
-102.9180892743455
 20
58.0944400539129
 11
-104.8
 21
57.97500000000002
  0
LINE
  8
1
  6
CONTINUOUS
 62
     7
 10
-111.8313708498985
 20
62.675
 11
-113.3
 21
62.675
  0
LINE
  8
1
  6
CONTINUOUS
 62
     7
 10
-99.2
 20
58.27500000000001
 11
-102.05
 21
58.27500000000001
  0
LINE
  8
1
  6
CONTINUOUS
 62
     7
 10
-126.4134571781027
 20
71.32500000000002
 11
-128.9650137061216
 21
71.32500000000002
  0
LINE
  8
1
  6
CONTINUOUS
 62
     7
 10
-83.33285386323597
 20
73.82500000000002
 11
-126.667146136764
 21
73.82500000000002
  0
LINE
  8
1
  6
CONTINUOUS
 62
     7
 10
-80.53506244630019
 20
71.81627379678136
 11
-80.53544376894764
 21
71.79442783694098
  0
LINE
  8
1
  6
CONTINUOUS
 62
     7
 10
-117.0
 20
65.37500000000001
 11
-116.8535533905933
 21
65.37500000000001
  0
LINE
  8
1
  6
CONTINUOUS
 62
     7
 10
-93.14644660940672
 20
65.37500000000001
 11
-93.0
 21
65.37500000000001
  0
LINE
  8
1
  6
CONTINUOUS
 62
     7
 10
-107.2343145750508
 20
62.675
 11
-107.6
 21
62.675
  0
LINE
  8
1
  6
CONTINUOUS
 62
     7
 10
-98.73431457505077
 20
65.37500000000001
 11
-99.10000000000002
 21
65.37500000000001
  0
LINE
  8
1
  6
CONTINUOUS
 62
     7
 10
-111.8313708498985
 20
65.37500000000001
 11
-115.4928932188135
 21
65.37500000000001
  0
LINE
  8
1
  6
CONTINUOUS
 62
     7
 10
-102.4
 20
65.37500000000001
 11
-102.4
 21
62.67500000000002
  0
LINE
  8
1
  6
CONTINUOUS
 62
     7
 10
-99.10000000000002
 20
65.37500000000001
 11
-102.4
 21
65.37500000000001
  0
LINE
  8
1
  6
CONTINUOUS
 62
     7
 10
-106.1689839338075
 20
65.37500000000001
 11
-103.8310160661925
 21
65.37500000000001
  0
LINE
  8
1
  6
CONTINUOUS
 62
     7
 10
-102.7
 20
55.27500000000002
 11
-101.95
 21
55.74642857142859
  0
LINE
  8
1
  6
CONTINUOUS
 62
     7
 10
-107.6
 20
65.37500000000001
 11
-110.9
 21
65.37500000000001
  0
LINE
  8
1
  6
CONTINUOUS
 62
     7
 10
-93.0
 20
65.37500000000001
 11
-93.0
 21
62.67500000000002
  0
LINE
  8
1
  6
CONTINUOUS
 62
     7
 10
-111.0
 20
57.6007142857143
 11
-111.0
 21
58.27500000000001
  0
LINE
  8
1
  6
CONTINUOUS
 62
     7
 10
-99.2
 20
58.27500000000001
 11
-99.0
 21
58.27500000000002
  0
LINE
  8
1
  6
CONTINUOUS
 62
     7
 10
-107.3
 20
55.27500000000002
 11
-102.7
 21
55.27500000000002
  0
LINE
  8
1
  6
CONTINUOUS
 62
     7
 10
-83.58654282189725
 20
71.32500000000003
 11
-126.4134571781028
 21
71.32500000000003
  0
LINE
  8
1
  6
CONTINUOUS
 62
     7
 10
-107.6
 20
65.37500000000001
 11
-107.6
 21
62.67500000000002
  0
LINE
  8
1
  6
CONTINUOUS
 62
     7
 10
-98.73431457505077
 20
62.675
 11
-99.10000000000002
 21
62.675
  0
LINE
  8
1
  6
CONTINUOUS
 62
     7
 10
-129.4649375536998
 20
71.81627379678137
 11
-129.5
 21
73.82500000000003
  0
LINE
  8
1
  6
CONTINUOUS
 62
     7
 10
-99.0
 20
57.6007142857143
 11
-99.0
 21
58.27500000000002
  0
LINE
  8
1
  6
CONTINUOUS
 62
     7
 10
-80.5
 20
73.82500000000002
 11
-80.53506244630019
 21
71.81627379678137
  0
LINE
  8
1
  6
CONTINUOUS
 62
     7
 10
-111.0
 20
57.6007142857143
 11
-107.3
 21
55.27500000000002
  0
LINE
  8
1
  6
CONTINUOUS
 62
     7
 10
-110.9
 20
62.675
 11
-111.2656854249492
 21
62.675
  0
LINE
  8
1
  6
CONTINUOUS
 62
     7
 10
-107.2343145750508
 20
65.37500000000001
 11
-107.6
 21
65.37500000000001
  0
LINE
  8
1
  6
CONTINUOUS
 62
     7
 10
-107.95
 20
58.27500000000001
 11
-107.95
 21
62.675
  0
LINE
  8
1
  6
CONTINUOUS
 62
     7
 10
-102.4
 20
65.37500000000001
 11
-102.7656854249493
 21
65.37500000000001
  0
LINE
  8
1
  6
CONTINUOUS
 62
     7
 10
-81.03498629387839
 20
71.32500000000003
 11
-83.58654282189728
 21
71.32500000000003
  0
LINE
  8
1
  6
CONTINUOUS
 62
     7
 10
-107.95
 20
60.22500000000002
 11
-108.0
 21
60.22500000000002
  0
LINE
  8
1
  6
CONTINUOUS
 62
     7
 10
-92.90000000000003
 20
62.67500000000002
 11
-92.90000000000003
 21
65.52499999999984
  0
LINE
  8
1
  6
CONTINUOUS
 62
     7
 10
-90.19999999999996
 20
65.52500000000002
 11
-90.19999999999996
 21
60.72500000000004
  0
LINE
  8
1
  6
CONTINUOUS
 62
     7
 10
-113.3
 20
62.67500000000002
 11
-113.3
 21
60.72500000000004
  0
LINE
  8
1
  6
CONTINUOUS
 62
     7
 10
-108.0
 20
60.22500000000002
 11
-108.5
 21
60.22500000000002
  0
LINE
  8
1
  6
CONTINUOUS
 62
     7
 10
-117.1
 20
62.72500000000002
 11
-117.0
 21
62.72500000000002
  0
LINE
  8
1
  6
CONTINUOUS
 62
     7
 10
-119.8
 20
60.72500000000004
 11
-119.8
 21
65.52500000000002
  0
LINE
  8
1
  6
CONTINUOUS
 62
     7
 10
-117.1
 20
65.52499999999984
 11
-117.1
 21
62.67500000000002
  0
LINE
  8
1
  6
CONTINUOUS
 62
     7
 10
-90.69999999999996
 20
60.22500000000005
 11
-95.69999999999996
 21
60.22500000000005
  0
LINE
  8
1
  6
CONTINUOUS
 62
     7
 10
-92.90000000000003
 20
62.72500000000002
 11
-93.0
 21
62.72500000000002
  0
LINE
  8
1
  6
CONTINUOUS
 62
     7
 10
-80.5378274194869
 20
71.65786858912607
 11
-80.53627639616298
 21
71.74878837136256
  0
LINE
  8
1
  6
CONTINUOUS
 62
     7
 10
-95.69999999999996
 20
62.67500000000002
 11
-92.90000000000003
 21
62.67500000000002
  0
LINE
  8
1
  6
CONTINUOUS
 62
     7
 10
-111.3
 20
65.37500000000001
 11
-111.3
 21
65.525
  0
LINE
  8
1
  6
CENTER
 62
     1
 10
-132.5000000000458
 20
135.0
 11
-77.49999999995421
 21
135.0
  0
LINE
  8
1
  6
CENTER
 62
     1
 10
-105.0
 20
52.27500000000001
 11
-105.0
 21
77.72500000000001
  0
LINE
  8
1
  6
CONTINUOUS
 62
     7
 10
-109.0
 20
60.72500000000002
 11
-109.0
 21
62.675
  0
LINE
  8
1
  6
CENTER
 62
     1
 10
-105.0
 20
94.5
 11
-105.0
 21
175.5
  0
LINE
  8
1
  6
CONTINUOUS
 62
     7
 10
-96.69999999999996
 20
60.72500000000004
 11
-96.69999999999996
 21
62.67500000000002
  0
LINE
  8
1
  6
CENTER
 62
     1
 10
-57.72499999999999
 20
135.0
 11
-32.275
 21
135.0
  0
LINE
  8
1
  6
CONTINUOUS
 62
     7
 10
-117.1
 20
62.67500000000002
 11
-114.3
 21
62.67500000000002
  0
LINE
  8
1
  6
CONTINUOUS
 62
     7
 10
-95.69999999999996
 20
60.22500000000005
 11
-96.19999999999996
 21
60.22500000000005
  0
LINE
  8
1
  6
CONTINUOUS
 62
     7
 10
-101.5
 20
60.22500000000002
 11
-102.0
 21
60.22500000000002
  0
LINE
  8
1
  6
CONTINUOUS
 62
     7
 10
-98.7
 20
65.37500000000001
 11
-98.7
 21
65.525
  0
LINE
  8
1
  6
CONTINUOUS
 62
     7
 10
-101.0
 20
62.675
 11
-101.0
 21
60.72500000000001
  0
LINE
  8
1
  6
CONTINUOUS
 62
     7
 10
-96.69999999999996
 20
62.67500000000002
 11
-95.69999999999996
 21
62.67500000000002
  0
LINE
  8
1
  6
CONTINUOUS
 62
     7
 10
-109.5
 20
65.37500000000001
 11
-109.5
 21
65.525
  0
LINE
  8
1
  6
CONTINUOUS
 62
     7
 10
-80.53587545081228
 20
71.7734977893547
 11
-80.53712612592373
 21
71.76329101227678
  0
LINE
  8
1
  6
CONTINUOUS
 62
     7
 10
-80.53583674491036
 20
71.77298076102967
 11
-80.53587545081228
 21
71.7734977893547
  0
LINE
  8
1
  6
CONTINUOUS
 62
     7
 10
-80.53712612592373
 20
71.76329101227678
 11
-80.68730645861238
 21
71.4655981622067
  0
LINE
  8
1
  6
CONTINUOUS
 62
     7
 10
-100.5
 20
65.37500000000001
 11
-100.5
 21
65.52500000000002
  0
LINE
  8
1
  6
CONTINUOUS
 62
     7
 10
-114.3
 20
62.67500000000002
 11
-113.3
 21
62.67500000000002
  0
LINE
  8
1
  6
CONTINUOUS
 62
     7
 10
-102.0
 20
60.22500000000002
 11
-102.05
 21
60.22500000000002
  0
LINE
  8
1
  6
CONTINUOUS
 62
     7
 10
-113.8
 20
60.22500000000004
 11
-114.3
 21
60.22500000000004
  0
LINE
  8
1
  6
CONTINUOUS
 62
     7
 10
-92.90000000000003
 20
65.22500000000002
 11
-93.00000000000001
 21
65.22500000000002
  0
LINE
  8
1
  6
CONTINUOUS
 62
     7
 10
-117.1
 20
65.22500000000001
 11
-117.0
 21
65.22500000000001
  0
LINE
  8
1
  6
CONTINUOUS
 62
     7
 10
-80.53627639616298
 20
71.74878837136256
 11
-80.53583674491036
 21
71.77298076102967
  0
ENDSEC
  0
EOF
