  0
SECTION
  2
HEADER
  9
$ACADVER
  1
AC1004
  9
$INSBASE
 10
0.0
 20
0.0
  9
$EXTMIN
 10
42.49999999995423
 20
48.67045454545456
  9
$EXTMAX
 10
143.25
 20
180.5
  9
$LIMMIN
 10
0.0
 20
0.0
  9
$LIMMAX
 10
12.0
 20
9.0
  9
$ORTHOMODE
 70
     0
  9
$REGENMODE
 70
     1
  9
$FILLMODE
 70
     1
  9
$QTEXTMODE
 70
     0
  9
$DRAGMODE
 70
     2
  9
$LTSCALE
 40
1.0
  9
$OSMODE
 70
    37
  9
$ATTMODE
 70
     1
  9
$TEXTSIZE
 40
0.2
  9
$TRACEWID
 40
0.05
  9
$TEXTSTYLE
  7
STANDARD
  9
$CLAYER
  8
0
  9
$CELTYPE
  6
BYLAYER
  9
$CECOLOR
 62
   256
  9
$DIMSCALE
 40
1.0
  9
$DIMASZ
 40
3.0
  9
$DIMEXO
 40
0.0625
  9
$DIMDLI
 40
0.38
  9
$DIMRND
 40
0.0
  9
$DIMDLE
 40
0.0
  9
$DIMEXE
 40
1.5
  9
$DIMTP
 40
0.0
  9
$DIMTM
 40
0.0
  9
$DIMTXT
 40
3.0
  9
$DIMCEN
 40
0.09
  9
$DIMTSZ
 40
0.0
  9
$DIMTOL
 70
     0
  9
$DIMLIM
 70
     0
  9
$DIMTIH
 70
     1
  9
$DIMTOH
 70
     1
  9
$DIMSE1
 70
     0
  9
$DIMSE2
 70
     0
  9
$DIMTAD
 70
     1
  9
$DIMZIN
 70
     0
  9
$DIMBLK
  1

  9
$DIMASO
 70
     1
  9
$DIMSHO
 70
     1
  9
$DIMPOST
  1

  9
$DIMAPOST
  1

  9
$DIMALT
 70
     0
  9
$DIMALTD
 70
     2
  9
$DIMALTF
 40
25.4
  9
$DIMLFAC
 40
1.0
  9
$DIMTOFL
 70
     0
  9
$DIMTVP
 40
0.0
  9
$DIMTIX
 70
     0
  9
$DIMSOXD
 70
     0
  9
$DIMSAH
 70
     0
  9
$DIMBLK1
  1

  9
$DIMBLK2
  1

  9
$LUNITS
 70
     2
  9
$LUPREC
 70
     4
  9
$SKETCHINC
 40
0.1
  9
$FILLETRAD
 40
0.5
  9
$AUNITS
 70
     0
  9
$AUPREC
 70
     0
  9
$MENU
  1
.
  9
$ELEVATION
 40
0.0
  9
$THICKNESS
 40
0.0
  9
$LIMCHECK
 70
     0
  9
$CHAMFERA
 40
0.0
  9
$CHAMFERB
 40
0.0
  9
$SKPOLY
 70
     0
  9
$TDCREATE
 40
2459695.733098403
  9
$TDUPDATE
 40
2459695.733099074
  9
$TDINDWG
 40
0.0000000116
  9
$TDUSRTIMER
 40
0.0000000116
  9
$USRTIMER
 70
     1
  9
$ANGBASE
 50
0.0
  9
$ANGDIR
 70
     0
  9
$PDMODE
 70
     0
  9
$PDSIZE
 40
0.0
  9
$PLINEWID
 40
0.0
  9
$COORDS
 70
     1
  9
$SPLFRAME
 70
     0
  9
$SPLINETYPE
 70
     6
  9
$SPLINESEGS
 70
     8
  9
$ATTDIA
 70
     0
  9
$ATTREQ
 70
     1
  9
$SURFTAB1
 70
     6
  9
$SURFTAB2
 70
     6
  9
$SURFTYPE
 70
     6
  9
$SURFU
 70
     6
  9
$SURFV
 70
     6
  9
$UCSNAME
  2

  9
$UCSORG
 10
0.0
 20
0.0
 30
0.0
  9
$UCSXDIR
 10
1.0
 20
0.0
 30
0.0
  9
$UCSYDIR
 10
0.0
 20
1.0
 30
0.0
  9
$USERI1
 70
     0
  9
$USERI2
 70
     0
  9
$USERI3
 70
     0
  9
$USERI4
 70
     0
  9
$USERI5
 70
     0
  9
$USERR1
 40
0.0
  9
$USERR2
 40
0.0
  9
$USERR3
 40
0.0
  9
$USERR4
 40
0.0
  9
$USERR5
 40
0.0
  9
$WORLDVIEW
 70
     1
  0
ENDSEC
  0
SECTION
  2
TABLES
  0
TABLE
  2
LTYPE
 70
     2
  0
LTYPE
  2
CONTINUOUS
 70
     0
  3
Solid line
 72
    65
 73
     0
 40
0.0
  0
LTYPE
  2
CENTER
 70
     0
  3

 72
    65
 73
     0
 40
0.0
  0
ENDTAB
  0
TABLE
  2
LAYER
 70
     2
  0
LAYER
  2
0
 70
     0
 62
     7
  6
CONTINUOUS
  0
LAYER
  2
1
 70
     0
 62
     7
  6
CONTINUOUS
  0
ENDTAB
  0
TABLE
  2
STYLE
 70
     2
  0
STYLE
  2
STANDARD
 70
     0
 40
0.0
 41
1.0
 50
0.0
 71
     0
 42
0.2
  3
txt
  4

  0
STYLE
  2
ＭＳ_ゴシック
 70
     0
 40
0.0
 41
1.0
 50
0.0
 71
     0
 42
0.2
  3
ＭＳ ゴシック.shx
  4

  0
ENDTAB
  0
TABLE
  2
VIEW
 70
     0
  0
ENDTAB
  0
ENDSEC
  0
SECTION
  2
BLOCKS
  0
ENDSEC
  0
SECTION
  2
ENTITIES
  0
LINE
  8
1
  6
CONTINUOUS
 62
     7
 10
92.5261806033724
 20
123.9999999999999
 11
92.5261806033724
 21
124.9999999999999
  0
LINE
  8
1
  6
CONTINUOUS
 62
     7
 10
123.65
 20
112.4999999999999
 11
123.6254661628363
 21
112.4993977281025
  0
LINE
  8
1
  6
CONTINUOUS
 62
     7
 10
123.6254661628363
 20
112.4993977281025
 11
123.6009914298352
 21
112.497592363336
  0
LINE
  8
1
  6
CONTINUOUS
 62
     7
 10
123.6009914298352
 20
112.497592363336
 11
123.5766347627723
 21
112.4945882549823
  0
LINE
  8
1
  6
CONTINUOUS
 62
     7
 10
123.5766347627723
 20
112.4945882549823
 11
123.552454838992
 21
112.4903926402015
  0
LINE
  8
1
  6
CONTINUOUS
 62
     7
 10
123.552454838992
 20
112.4903926402015
 11
123.5285099100484
 21
112.4850156265971
  0
LINE
  8
1
  6
CONTINUOUS
 62
     7
 10
123.5285099100484
 20
112.4850156265971
 11
123.5048576613728
 21
112.478470167866
  0
LINE
  8
1
  6
CONTINUOUS
 62
     7
 10
123.5048576613728
 20
112.478470167866
 11
123.4815550733039
 21
112.4707720325914
  0
LINE
  8
1
  6
CONTINUOUS
 62
     7
 10
123.4815550733039
 20
112.4707720325914
 11
123.4586582838175
 21
112.4619397662555
  0
LINE
  8
1
  6
CONTINUOUS
 62
     7
 10
123.4586582838175
 20
112.4619397662555
 11
123.4362224532849
 21
112.4519946465616
  0
LINE
  8
1
  6
CONTINUOUS
 62
     7
 10
123.4362224532849
 20
112.4519946465616
 11
123.414301631587
 21
112.440960632174
  0
LINE
  8
1
  6
CONTINUOUS
 62
     7
 10
123.414301631587
 20
112.440960632174
 11
123.3929486279034
 21
112.428864305
  0
LINE
  8
1
  6
CONTINUOUS
 62
     7
 10
123.3929486279034
 20
112.428864305
 11
123.3722148834902
 21
112.4157348061511
  0
LINE
  8
1
  6
CONTINUOUS
 62
     7
 10
123.3722148834902
 20
112.4157348061511
 11
123.3521503477538
 21
112.4016037657402
  0
LINE
  8
1
  6
CONTINUOUS
 62
     7
 10
123.3521503477538
 20
112.4016037657402
 11
123.3328033579182
 21
112.3865052266812
  0
LINE
  8
1
  6
CONTINUOUS
 62
     7
 10
123.3328033579182
 20
112.3865052266812
 11
123.3142205225765
 21
112.3704755626773
  0
LINE
  8
1
  6
CONTINUOUS
 62
     7
 10
123.3142205225765
 20
112.3704755626773
 11
123.2964466094067
 21
112.3535533905931
  0
LINE
  8
1
  6
CONTINUOUS
 62
     7
 10
123.2964466094067
 20
112.3535533905931
 11
123.2795244373225
 21
112.3357794774234
  0
LINE
  8
1
  6
CONTINUOUS
 62
     7
 10
123.2795244373225
 20
112.3357794774234
 11
123.2634947733187
 21
112.3171966420817
  0
LINE
  8
1
  6
CONTINUOUS
 62
     7
 10
123.2634947733187
 20
112.3171966420817
 11
123.2483962342597
 21
112.2978496522461
  0
LINE
  8
1
  6
CONTINUOUS
 62
     7
 10
123.2483962342597
 20
112.2978496522461
 11
123.2342651938488
 21
112.2777851165097
  0
LINE
  8
1
  6
CONTINUOUS
 62
     7
 10
123.2342651938488
 20
112.2777851165097
 11
123.2211356949999
 21
112.2570513720965
  0
LINE
  8
1
  6
CONTINUOUS
 62
     7
 10
123.2211356949999
 20
112.2570513720965
 11
123.2090393678258
 21
112.2356983684129
  0
LINE
  8
1
  6
CONTINUOUS
 62
     7
 10
123.2090393678258
 20
112.2356983684129
 11
123.1980053534383
 21
112.213777546715
  0
LINE
  8
1
  6
CONTINUOUS
 62
     7
 10
123.1980053534383
 20
112.213777546715
 11
123.1880602337444
 21
112.1913417161824
  0
LINE
  8
1
  6
CONTINUOUS
 62
     7
 10
123.1880602337444
 20
112.1913417161824
 11
123.1792279674085
 21
112.168444926696
  0
LINE
  8
1
  6
CONTINUOUS
 62
     7
 10
123.1792279674085
 20
112.168444926696
 11
123.1715298321339
 21
112.1451423386271
  0
LINE
  8
1
  6
CONTINUOUS
 62
     7
 10
123.1715298321339
 20
112.1451423386271
 11
123.1649843734027
 21
112.1214900899515
  0
LINE
  8
1
  6
CONTINUOUS
 62
     7
 10
123.1649843734027
 20
112.1214900899515
 11
123.1596073597984
 21
112.0975451610079
  0
LINE
  8
1
  6
CONTINUOUS
 62
     7
 10
123.1596073597984
 20
112.0975451610079
 11
123.1554117450176
 21
112.0733652372275
  0
LINE
  8
1
  6
CONTINUOUS
 62
     7
 10
123.1554117450176
 20
112.0733652372275
 11
123.1524076366639
 21
112.0490085701646
  0
LINE
  8
1
  6
CONTINUOUS
 62
     7
 10
123.1524076366639
 20
112.0490085701646
 11
123.1506022718974
 21
112.0245338371636
  0
LINE
  8
1
  6
CONTINUOUS
 62
     7
 10
123.1506022718974
 20
112.0245338371636
 11
123.15
 21
111.9999999999999
  0
LINE
  8
1
  6
CONTINUOUS
 62
     7
 10
123.15
 20
148.0
 11
123.1506022718974
 21
147.9754661628363
  0
LINE
  8
1
  6
CONTINUOUS
 62
     7
 10
123.1506022718974
 20
147.9754661628363
 11
123.1524076366639
 21
147.9509914298352
  0
LINE
  8
1
  6
CONTINUOUS
 62
     7
 10
123.1524076366639
 20
147.9509914298352
 11
123.1554117450176
 21
147.9266347627723
  0
LINE
  8
1
  6
CONTINUOUS
 62
     7
 10
123.1554117450176
 20
147.9266347627723
 11
123.1596073597984
 21
147.9024548389919
  0
LINE
  8
1
  6
CONTINUOUS
 62
     7
 10
123.1596073597984
 20
147.9024548389919
 11
123.1649843734027
 21
147.8785099100483
  0
LINE
  8
1
  6
CONTINUOUS
 62
     7
 10
123.1649843734027
 20
147.8785099100483
 11
123.1715298321339
 21
147.8548576613727
  0
LINE
  8
1
  6
CONTINUOUS
 62
     7
 10
123.1715298321339
 20
147.8548576613727
 11
123.1792279674085
 21
147.8315550733038
  0
LINE
  8
1
  6
CONTINUOUS
 62
     7
 10
123.1792279674085
 20
147.8315550733038
 11
123.1880602337444
 21
147.8086582838174
  0
LINE
  8
1
  6
CONTINUOUS
 62
     7
 10
123.1880602337444
 20
147.8086582838174
 11
123.1980053534383
 21
147.7862224532848
  0
LINE
  8
1
  6
CONTINUOUS
 62
     7
 10
123.1980053534383
 20
147.7862224532848
 11
123.2090393678258
 21
147.764301631587
  0
LINE
  8
1
  6
CONTINUOUS
 62
     7
 10
123.2090393678258
 20
147.764301631587
 11
123.2211356949999
 21
147.7429486279034
  0
LINE
  8
1
  6
CONTINUOUS
 62
     7
 10
123.2211356949999
 20
147.7429486279034
 11
123.2342651938488
 21
147.7222148834902
  0
LINE
  8
1
  6
CONTINUOUS
 62
     7
 10
123.2342651938488
 20
147.7222148834902
 11
123.2483962342597
 21
147.7021503477538
  0
LINE
  8
1
  6
CONTINUOUS
 62
     7
 10
123.2483962342597
 20
147.7021503477538
 11
123.2634947733187
 21
147.6828033579181
  0
LINE
  8
1
  6
CONTINUOUS
 62
     7
 10
123.2634947733187
 20
147.6828033579181
 11
123.2795244373225
 21
147.6642205225764
  0
LINE
  8
1
  6
CONTINUOUS
 62
     7
 10
123.2795244373225
 20
147.6642205225764
 11
123.2964466094067
 21
147.6464466094067
  0
LINE
  8
1
  6
CONTINUOUS
 62
     7
 10
123.2964466094067
 20
147.6464466094067
 11
123.3142205225765
 21
147.6295244373225
  0
LINE
  8
1
  6
CONTINUOUS
 62
     7
 10
123.3142205225765
 20
147.6295244373225
 11
123.3328033579182
 21
147.6134947733186
  0
LINE
  8
1
  6
CONTINUOUS
 62
     7
 10
123.3328033579182
 20
147.6134947733186
 11
123.3521503477538
 21
147.5983962342596
  0
LINE
  8
1
  6
CONTINUOUS
 62
     7
 10
123.3521503477538
 20
147.5983962342596
 11
123.3722148834902
 21
147.5842651938487
  0
LINE
  8
1
  6
CONTINUOUS
 62
     7
 10
123.3722148834902
 20
147.5842651938487
 11
123.3929486279034
 21
147.5711356949998
  0
LINE
  8
1
  6
CONTINUOUS
 62
     7
 10
123.3929486279034
 20
147.5711356949998
 11
123.414301631587
 21
147.5590393678258
  0
LINE
  8
1
  6
CONTINUOUS
 62
     7
 10
123.414301631587
 20
147.5590393678258
 11
123.4362224532849
 21
147.5480053534382
  0
LINE
  8
1
  6
CONTINUOUS
 62
     7
 10
123.4362224532849
 20
147.5480053534382
 11
123.4586582838175
 21
147.5380602337443
  0
LINE
  8
1
  6
CONTINUOUS
 62
     7
 10
123.4586582838175
 20
147.5380602337443
 11
123.4815550733039
 21
147.5292279674084
  0
LINE
  8
1
  6
CONTINUOUS
 62
     7
 10
123.4815550733039
 20
147.5292279674084
 11
123.5048576613728
 21
147.5215298321338
  0
LINE
  8
1
  6
CONTINUOUS
 62
     7
 10
123.5048576613728
 20
147.5215298321338
 11
123.5285099100484
 21
147.5149843734027
  0
LINE
  8
1
  6
CONTINUOUS
 62
     7
 10
123.5285099100484
 20
147.5149843734027
 11
123.552454838992
 21
147.5096073597983
  0
LINE
  8
1
  6
CONTINUOUS
 62
     7
 10
123.552454838992
 20
147.5096073597983
 11
123.5766347627723
 21
147.5054117450176
  0
LINE
  8
1
  6
CONTINUOUS
 62
     7
 10
123.5766347627723
 20
147.5054117450176
 11
123.6009914298352
 21
147.5024076366639
  0
LINE
  8
1
  6
CONTINUOUS
 62
     7
 10
123.6009914298352
 20
147.5024076366639
 11
123.6254661628363
 21
147.5006022718974
  0
LINE
  8
1
  6
CONTINUOUS
 62
     7
 10
123.6254661628363
 20
147.5006022718974
 11
123.65
 21
147.5
  0
ARC
  8
1
  6
CONTINUOUS
 62
     7
 10
74.43189400803463
 20
72.35732361757813
 40
13.90794903044301
 50
269.4566356791411
 51
284.7773553205371
  0
LINE
  8
1
  6
CONTINUOUS
 62
     7
 10
77.97930591769342
 20
58.9093901340792
 11
78.05000000000004
 21
58.95000000000005
  0
ARC
  8
1
  6
CONTINUOUS
 62
     7
 10
89.49904675091135
 20
111.9450818585593
 40
5.00095336531402
 50
295.6922509586818
 51
359.9876473069205
  0
ARC
  8
1
  6
CONTINUOUS
 62
     7
 10
60.69999999999999
 20
116.0
 40
1.500000000000001
 50
270.0
 51
291.039469781307
  0
ARC
  8
1
  6
CONTINUOUS
 62
     7
 10
89.49904675084748
 20
168.0549181414005
 40
5.000953365377875
 50
0.0123526935390596
 51
64.30774904085803
  0
ARC
  8
1
  6
CONTINUOUS
 62
     7
 10
79.29999999999998
 20
116.0
 40
1.499999999999997
 50
248.9605302186932
 51
270.0
  0
ARC
  8
1
  6
CONTINUOUS
 62
     7
 10
50.50095324915254
 20
111.9450818585995
 40
5.000953365377888
 50
180.0123526935395
 51
244.307749040858
  0
ARC
  8
1
  6
CONTINUOUS
 62
     7
 10
70.0
 20
127.5
 40
50.0
 50
64.32010173439744
 51
115.6798982656026
  0
ARC
  8
1
  6
CONTINUOUS
 62
     7
 10
156.0356903967517
 20
130.756425386234
 40
19.99999999999386
 50
182.1675160702985
 51
193.0217706668841
  0
ARC
  8
1
  6
CONTINUOUS
 62
     7
 10
128.45
 20
112.9999999999999
 40
0.5000000000000004
 50
270.0
 51
0.0
  0
ARC
  8
1
  6
CONTINUOUS
 62
     7
 10
128.45
 20
136.5
 40
0.5000000000000004
 50
270.0
 51
0.0
  0
ARC
  8
1
  6
CONTINUOUS
 62
     7
 10
128.45
 20
147.0
 40
0.5000000000000004
 50
0.0
 51
90.0
  0
ARC
  8
1
  6
CONTINUOUS
 62
     7
 10
50.50095324908867
 20
168.0549181414407
 40
5.000953365314008
 50
115.6922509586819
 51
179.9876473069206
  0
ARC
  8
1
  6
CONTINUOUS
 62
     7
 10
128.45
 20
123.5
 40
0.5000000000000004
 50
0.0
 51
90.0
  0
ARC
  8
1
  6
CONTINUOUS
 62
     7
 10
133.75
 20
143.8
 40
0.5000000000000004
 50
0.0
 51
90.0
  0
ARC
  8
1
  6
CONTINUOUS
 62
     7
 10
70.0
 20
152.5
 40
49.99999999999999
 50
244.3201017343975
 51
295.6798982656026
  0
ARC
  8
1
  6
CONTINUOUS
 62
     7
 10
133.75
 20
115.4999999999999
 40
0.5000000000000004
 50
270.0
 51
0.0
  0
ARC
  8
1
  6
CONTINUOUS
 62
     7
 10
133.75
 20
119.75
 40
0.5000000000000004
 50
0.0
 51
90.0
  0
LINE
  8
1
  6
CONTINUOUS
 62
     7
 10
47.50000000000009
 20
129.25
 11
47.50000000000009
 21
130.75
  0
LINE
  8
1
  6
CONTINUOUS
 62
     7
 10
47.5000000000001
 20
124.9999999999999
 11
47.50000000000009
 21
126.5
  0
LINE
  8
1
  6
CONTINUOUS
 62
     7
 10
47.5000000000001
 20
124.9999999999999
 11
46.80000000000009
 21
124.9999999999999
  0
LINE
  8
1
  6
CONTINUOUS
 62
     7
 10
47.5000000000001
 20
135.0
 11
46.80000000000009
 21
135.0
  0
LINE
  8
1
  6
CONTINUOUS
 62
     7
 10
47.50000000000009
 20
133.5
 11
47.50000000000009
 21
130.75
  0
LINE
  8
1
  6
CONTINUOUS
 62
     7
 10
47.50000000000009
 20
126.5
 11
47.50000000000009
 21
129.25
  0
LINE
  8
1
  6
CONTINUOUS
 62
     7
 10
46.80000000000009
 20
135.0
 11
46.80000000000009
 21
136.0
  0
LINE
  8
1
  6
CONTINUOUS
 62
     7
 10
47.50000000000009
 20
133.5
 11
47.5000000000001
 21
135.0
  0
TEXT
  8
1
  6
CONTINUOUS
 62
     1
 10
85.55726835063147
 20
48.32842003251221
 40
3.0
  1
AFP-TH30MSY
  0
LINE
  8
1
  6
CONTINUOUS
 62
     7
 10
93.20000000000013
 20
124.9999999999999
 11
93.20000000000013
 21
123.9999999999999
  0
LINE
  8
1
  6
CONTINUOUS
 62
     7
 10
47.69999999999988
 20
119.0
 11
47.69999999999988
 21
121.5
  0
LINE
  8
1
  6
CONTINUOUS
 62
     7
 10
47.69999999999987
 20
124.5
 11
49.29999999999987
 21
124.5
  0
LINE
  8
1
  6
CONTINUOUS
 62
     7
 10
47.69999999999987
 20
135.4999999999999
 11
49.29999999999987
 21
135.4999999999999
  0
LINE
  8
1
  6
CONTINUOUS
 62
     7
 10
49.29999999999987
 20
135.4999999999999
 11
49.29999999999987
 21
137.5
  0
LINE
  8
1
  6
CONTINUOUS
 62
     7
 10
49.29999999999987
 20
141.9999999999999
 11
49.29999999999997
 21
143.8
  0
LINE
  8
1
  6
CONTINUOUS
 62
     7
 10
92.29999999999995
 20
135.4999999999999
 11
92.29999999999995
 21
135.0
  0
LINE
  8
1
  6
CONTINUOUS
 62
     7
 10
49.29999999999987
 20
138.4999999999999
 11
49.29999999999987
 21
137.4999999999999
  0
LINE
  8
1
  6
CONTINUOUS
 62
     7
 10
47.69999999999987
 20
137.4999999999999
 11
47.70000000000006
 21
138.4999999999999
  0
LINE
  8
1
  6
CONTINUOUS
 62
     7
 10
92.29999999999995
 20
124.5
 11
90.69999999999996
 21
124.5
  0
LINE
  8
1
  6
CONTINUOUS
 62
     7
 10
47.50000000000011
 20
147.4999999999998
 11
47.50000000000009
 21
167.4999999999999
  0
LINE
  8
1
  6
CONTINUOUS
 62
     7
 10
49.29999999999987
 20
121.5
 11
49.29999999999987
 21
119.0
  0
LINE
  8
1
  6
CONTINUOUS
 62
     7
 10
92.50000000000011
 20
147.4999999999999
 11
47.50000000000013
 21
147.4999999999998
  0
LINE
  8
1
  6
CONTINUOUS
 62
     7
 10
92.55497926708189
 20
114.4450207329181
 11
47.44502073291831
 21
114.4450207329181
  0
LINE
  8
1
  6
CONTINUOUS
 62
     7
 10
92.55497926708189
 20
123.9999999999999
 11
92.55497926708189
 21
114.4450207329181
  0
LINE
  8
1
  6
CONTINUOUS
 62
     7
 10
92.29999999999995
 20
124.9999999999999
 11
92.29999999999995
 21
124.5
  0
LINE
  8
1
  6
CONTINUOUS
 62
     7
 10
47.44502073291832
 20
114.4450207329181
 11
47.44502073291831
 21
123.9999999999999
  0
LINE
  8
1
  6
CONTINUOUS
 62
     7
 10
49.29999999999987
 20
137.5
 11
47.69999999999987
 21
137.4999999999999
  0
LINE
  8
1
  6
CONTINUOUS
 62
     7
 10
93.20000000000013
 20
123.9999999999999
 11
92.55497926708189
 21
123.9999999999999
  0
LINE
  8
1
  6
CONTINUOUS
 62
     7
 10
90.69999999999996
 20
141.9999999999999
 11
90.69999999999995
 21
143.8
  0
LINE
  8
1
  6
CONTINUOUS
 62
     7
 10
92.29999999999995
 20
135.4999999999999
 11
90.69999999999996
 21
135.5
  0
LINE
  8
1
  6
CONTINUOUS
 62
     7
 10
49.29999999999987
 20
124.5
 11
49.29999999999987
 21
122.4999999999999
  0
LINE
  8
1
  6
CONTINUOUS
 62
     7
 10
47.69999999999987
 20
124.5
 11
47.69999999999987
 21
125.0
  0
LINE
  8
1
  6
CONTINUOUS
 62
     7
 10
49.29999999999987
 20
117.9999999999999
 11
49.29999999999987
 21
116.2
  0
LINE
  8
1
  6
CONTINUOUS
 62
     7
 10
92.50000000000011
 20
167.4999999999999
 11
92.50000000000011
 21
147.4999999999999
  0
LINE
  8
1
  6
CONTINUOUS
 62
     7
 10
90.69999999999996
 20
135.5
 11
90.69999999999995
 21
137.4999999999999
  0
LINE
  8
1
  6
CONTINUOUS
 62
     7
 10
90.69999999999995
 20
117.9999999999999
 11
90.69999999999999
 21
116.2
  0
LINE
  8
1
  6
CONTINUOUS
 62
     7
 10
47.69999999999987
 20
135.0
 11
47.69999999999987
 21
135.4999999999999
  0
LINE
  8
1
  6
CONTINUOUS
 62
     7
 10
90.69999999999996
 20
124.5
 11
90.69999999999996
 21
122.5
  0
LINE
  8
1
  6
CONTINUOUS
 62
     7
 10
47.50000000000009
 20
167.4999999999999
 11
92.50000000000011
 21
167.4999999999999
  0
LINE
  8
1
  6
CONTINUOUS
 62
     7
 10
92.50000000000013
 20
133.5
 11
92.50000000000011
 21
130.75
  0
LINE
  8
1
  6
CONTINUOUS
 62
     7
 10
47.44502073291831
 20
136.0
 11
47.4450207329183
 21
145.5549792670817
  0
LINE
  8
1
  6
CONTINUOUS
 62
     7
 10
92.50000000000013
 20
124.9999999999999
 11
93.20000000000013
 21
124.9999999999999
  0
LINE
  8
1
  6
CONTINUOUS
 62
     7
 10
93.20000000000013
 20
135.0
 11
93.20000000000013
 21
136.0
  0
LINE
  8
1
  6
CONTINUOUS
 62
     7
 10
92.50000000000011
 20
130.75
 11
92.50000000000011
 21
129.25
  0
LINE
  8
1
  6
CONTINUOUS
 62
     7
 10
92.50000000000011
 20
135.0
 11
92.50000000000013
 21
133.5
  0
LINE
  8
1
  6
CONTINUOUS
 62
     7
 10
93.20000000000013
 20
136.0
 11
92.55497926708189
 21
136.0
  0
LINE
  8
1
  6
CONTINUOUS
 62
     7
 10
92.50000000000011
 20
135.0
 11
93.20000000000013
 21
135.0
  0
LINE
  8
1
  6
CONTINUOUS
 62
     7
 10
47.4450207329183
 20
145.5549792670817
 11
92.55497926708189
 21
145.5549792670817
  0
LINE
  8
1
  6
CONTINUOUS
 62
     7
 10
46.80000000000009
 20
136.0
 11
47.44502073291831
 21
136.0
  0
LINE
  8
1
  6
CONTINUOUS
 62
     7
 10
92.55497926708189
 20
145.5549792670817
 11
92.55497926708189
 21
136.0
  0
LINE
  8
1
  6
CONTINUOUS
 62
     7
 10
92.50000000000013
 20
126.5
 11
92.50000000000011
 21
129.25
  0
LINE
  8
1
  6
CONTINUOUS
 62
     7
 10
92.50000000000013
 20
126.5
 11
92.50000000000013
 21
124.9999999999999
  0
LINE
  8
1
  6
CONTINUOUS
 62
     7
 10
58.14644660940674
 20
63.35000000000003
 11
58.00000000000001
 21
63.35000000000003
  0
LINE
  8
1
  6
CONTINUOUS
 62
     7
 10
136.3367822111078
 20
127.2991119359773
 11
134.25
 21
127.2991119359773
  0
LINE
  8
1
  6
CONTINUOUS
 62
     7
 10
82.00000000000001
 20
66.05000000000003
 11
82.00000000000001
 21
63.35000000000003
  0
LINE
  8
1
  6
CONTINUOUS
 62
     7
 10
94.46372360383704
 20
72.27378837136258
 11
94.46412641356254
 21
72.29482357330916
  0
LINE
  8
1
  6
CONTINUOUS
 62
     7
 10
72.23431457505077
 20
63.35000000000003
 11
71.66862915010154
 21
63.35000000000003
  0
LINE
  8
1
  6
CONTINUOUS
 62
     7
 10
76.30000000000001
 20
63.20000000000003
 11
75.99289321881345
 21
63.20000000000003
  0
LINE
  8
1
  6
CONTINUOUS
 62
     7
 10
66.0
 20
63.20000000000003
 11
65.5
 21
63.20000000000003
  0
LINE
  8
1
  6
CONTINUOUS
 62
     7
 10
59.50710678118655
 20
63.35000000000003
 11
59.15355339059327
 21
63.35000000000003
  0
LINE
  8
1
  6
CONTINUOUS
 62
     7
 10
68.83101606619253
 20
63.35000000000003
 11
71.16898393380748
 21
63.35000000000003
  0
LINE
  8
1
  6
CONTINUOUS
 62
     7
 10
76.26568542494924
 20
63.35000000000003
 11
75.89999999999999
 21
63.35000000000003
  0
LINE
  8
1
  6
CONTINUOUS
 62
     7
 10
67.39999999999999
 20
63.35000000000003
 11
64.10000000000002
 21
63.35000000000003
  0
LINE
  8
1
  6
CONTINUOUS
 62
     7
 10
136.1552763681902
 20
128.5725897576378
 11
134.25
 21
128.5725897576378
  0
LINE
  8
1
  6
CONTINUOUS
 62
     7
 10
94.46287387407628
 20
72.28829101227679
 11
94.31269354138763
 21
71.99059816220671
  0
LINE
  8
1
  6
CONTINUOUS
 62
     7
 10
63.7
 20
63.20000000000003
 11
64.00710678118656
 21
63.20000000000003
  0
LINE
  8
1
  6
CENTER
 62
     1
 10
42.49999999995423
 20
140.0
 11
97.5000000000458
 21
140.0
  0
LINE
  8
1
  6
CONTINUOUS
 62
     7
 10
94.46412641356254
 20
72.29482357330916
 11
94.46416325508966
 21
72.29798076102968
  0
LINE
  8
1
  6
CONTINUOUS
 62
     7
 10
80.84644660940674
 20
63.35000000000003
 11
80.49289321881346
 21
63.35000000000003
  0
LINE
  8
1
  6
CONTINUOUS
 62
     7
 10
94.46416325508966
 20
72.29798076102968
 11
94.46412454918773
 21
72.29849778935473
  0
LINE
  8
1
  6
CONTINUOUS
 62
     7
 10
136.2863365141334
 20
127.5999999999999
 11
134.25
 21
127.5999999999999
  0
LINE
  8
1
  6
CENTER
 62
     1
 10
116.75
 20
140.0
 11
143.25
 21
140.0
  0
LINE
  8
1
  6
CONTINUOUS
 62
     7
 10
68.33137084989849
 20
63.35000000000003
 11
67.76568542494925
 21
63.35000000000003
  0
LINE
  8
1
  6
CONTINUOUS
 62
     7
 10
63.7
 20
63.20000000000003
 11
61.7
 21
63.20000000000003
  0
LINE
  8
1
  6
CONTINUOUS
 62
     7
 10
67.76568542494925
 20
63.35000000000003
 11
67.39999999999999
 21
63.35000000000003
  0
LINE
  8
1
  6
CONTINUOUS
 62
     7
 10
72.60000000000002
 20
63.35000000000003
 11
72.23431457505076
 21
63.35000000000003
  0
LINE
  8
1
  6
CONTINUOUS
 62
     7
 10
76.30000000000001
 20
63.20000000000003
 11
76.30000000000001
 21
63.35000000000003
  0
LINE
  8
1
  6
CONTINUOUS
 62
     7
 10
94.46412454918773
 20
72.29849778935473
 11
94.46287387407628
 21
72.28829101227679
  0
LINE
  8
1
  6
CONTINUOUS
 62
     7
 10
58.50000000000001
 20
63.25000000000003
 11
58.50000000000001
 21
63.35000000000003
  0
LINE
  8
1
  6
CONTINUOUS
 62
     7
 10
68.83101606619253
 20
63.35000000000003
 11
68.56125054300618
 21
63.35000000000003
  0
LINE
  8
1
  6
CONTINUOUS
 62
     7
 10
136.55
 20
126.2500000000005
 11
134.25
 21
126.2500000000002
  0
LINE
  8
1
  6
CONTINUOUS
 62
     7
 10
63.73431457505077
 20
63.35000000000003
 11
63.16862915010153
 21
63.35000000000003
  0
LINE
  8
1
  6
CONTINUOUS
 62
     7
 10
75.89999999999999
 20
63.35000000000003
 11
72.60000000000002
 21
63.35000000000003
  0
LINE
  8
1
  6
CONTINUOUS
 62
     7
 10
74.50000000000001
 20
63.20000000000003
 11
74.00000000000001
 21
63.20000000000003
  0
LINE
  8
1
  6
CENTER
 62
     1
 10
70.0
 20
99.49999999999997
 11
70.0
 21
180.5
  0
LINE
  8
1
  6
CONTINUOUS
 62
     7
 10
71.43874945699383
 20
63.35000000000003
 11
71.16898393380748
 21
63.35000000000003
  0
LINE
  8
1
  6
CONTINUOUS
 62
     7
 10
81.5
 20
63.35000000000003
 11
81.5
 21
63.25000000000003
  0
LINE
  8
1
  6
CONTINUOUS
 62
     7
 10
59.15355339059327
 20
63.35000000000003
 11
58.14644660940674
 21
63.35000000000003
  0
LINE
  8
1
  6
CONTINUOUS
 62
     7
 10
58.00000000000001
 20
63.35000000000003
 11
58.00000000000001
 21
66.05000000000003
  0
LINE
  8
1
  6
CONTINUOUS
 62
     7
 10
68.56125054300618
 20
63.35000000000003
 11
68.33137084989849
 21
63.35000000000003
  0
LINE
  8
1
  6
CONTINUOUS
 62
     7
 10
136.05
 20
133.7499999999999
 11
134.25
 21
133.7499999999999
  0
LINE
  8
1
  6
CONTINUOUS
 62
     7
 10
131.8
 20
139.25
 11
131.8
 21
120.75
  0
LINE
  8
1
  6
CENTER
 62
     1
 10
70.0
 20
51.75000000000001
 11
70.0
 21
78.25000000000003
  0
LINE
  8
1
  6
CONTINUOUS
 62
     7
 10
64.10000000000002
 20
63.35000000000003
 11
63.73431457505077
 21
63.35000000000003
  0
LINE
  8
1
  6
CONTINUOUS
 62
     7
 10
82.00000000000001
 20
63.35000000000003
 11
81.85355339059329
 21
63.35000000000003
  0
LINE
  8
1
  6
CONTINUOUS
 62
     7
 10
94.4621725805131
 20
72.18286858912607
 11
94.46372360383704
 21
72.27378837136258
  0
LINE
  8
1
  6
CONTINUOUS
 62
     7
 10
63.16862915010153
 20
63.35000000000003
 11
59.50710678118655
 21
63.35000000000003
  0
LINE
  8
1
  6
CONTINUOUS
 62
     7
 10
78.30000000000001
 20
63.20000000000003
 11
76.30000000000001
 21
63.20000000000003
  0
LINE
  8
1
  6
CONTINUOUS
 62
     7
 10
81.85355339059329
 20
63.35000000000003
 11
80.84644660940674
 21
63.35000000000003
  0
LINE
  8
1
  6
CONTINUOUS
 62
     7
 10
71.66862915010154
 20
63.35000000000003
 11
71.43874945699383
 21
63.35000000000003
  0
LINE
  8
1
  6
CONTINUOUS
 62
     7
 10
76.83137084989849
 20
63.35000000000003
 11
76.26568542494925
 21
63.35000000000003
  0
LINE
  8
1
  6
CONTINUOUS
 62
     7
 10
80.49289321881346
 20
63.35000000000003
 11
76.83137084989849
 21
63.35000000000003
  0
LINE
  8
1
  6
CONTINUOUS
 62
     7
 10
92.50000000000013
 20
124.9999999999999
 11
90.9
 21
125.0
  0
LINE
  8
1
  6
CONTINUOUS
 62
     7
 10
92.51745373558164
 20
124.0
 11
92.50000000000011
 21
124.0
  0
LINE
  8
1
  6
CONTINUOUS
 62
     7
 10
46.80000000000009
 20
123.9999999999999
 11
47.44502073291831
 21
123.9999999999999
  0
LINE
  8
1
  6
CONTINUOUS
 62
     7
 10
90.9
 20
125.0
 11
90.90000000000013
 21
126.5
  0
LINE
  8
1
  6
CONTINUOUS
 62
     7
 10
90.90000000000013
 20
126.5
 11
92.50000000000013
 21
126.5
  0
LINE
  8
1
  6
CONTINUOUS
 62
     7
 10
46.80000000000009
 20
124.9999999999999
 11
46.80000000000009
 21
123.9999999999999
  0
ARC
  8
1
  6
CONTINUOUS
 62
     7
 10
122.65
 20
103.0349862938783
 40
0.5000000000000057
 50
270.9999999999994
 51
359.9999999999952
  0
ARC
  8
1
  6
CONTINUOUS
 62
     7
 10
93.96501370612162
 20
72.35000000000002
 40
0.4999999999999866
 50
270.0
 51
359.0000000000006
  0
ARC
  8
1
  6
CONTINUOUS
 62
     7
 10
90.30000000000003
 20
73.25000000000003
 40
2.000000000000002
 50
33.37275330190617
 51
89.99999999999562
  0
ARC
  8
1
  6
CONTINUOUS
 62
     7
 10
122.65
 20
176.9650137061217
 40
0.5000000000000004
 50
0.0000000000063611
 51
89.00000000000054
  0
ARC
  8
1
  6
CONTINUOUS
 62
     7
 10
133.75
 20
140.25
 40
0.5000000000000004
 50
270.0
 51
0.0
  0
ARC
  8
1
  6
CONTINUOUS
 62
     7
 10
49.70000000000006
 20
73.25000000000003
 40
2.000000000000002
 50
89.99999999999982
 51
146.6272466980938
  0
ARC
  8
1
  6
CONTINUOUS
 62
     7
 10
70.21556547236857
 20
74.23709488364791
 40
15.78710255712652
 50
269.9435085688387
 51
279.427487646441
  0
ARC
  8
1
  6
CONTINUOUS
 62
     7
 10
46.03498629387839
 20
72.35000000000002
 40
0.4999999999999987
 50
180.9999999999994
 51
270.0
  0
POLYLINE
  8
1
  6
CONTINUOUS
 62
     7
 66
     1
  0
VERTEX
  8
1
  6
CONTINUOUS
 62
     7
 10
92.49998857691921
 20
142.5
  0
VERTEX
  8
1
  6
CONTINUOUS
 62
     7
 10
92.44146249176858
 20
142.4942359217517
  0
VERTEX
  8
1
  6
CONTINUOUS
 62
     7
 10
92.38518619177604
 20
142.4771651758933
  0
VERTEX
  8
1
  6
CONTINUOUS
 62
     7
 10
92.33332213457659
 20
142.4494437182129
  0
VERTEX
  8
1
  6
CONTINUOUS
 62
     7
 10
92.28786323417641
 20
142.4121367658236
  0
VERTEX
  8
1
  6
CONTINUOUS
 62
     7
 10
92.2505562817871
 20
142.3666778654234
  0
VERTEX
  8
1
  6
CONTINUOUS
 62
     7
 10
92.22283482410667
 20
142.3148138082239
  0
VERTEX
  8
1
  6
CONTINUOUS
 62
     7
 10
92.20576407824824
 20
142.2585375082314
  0
VERTEX
  8
1
  6
CONTINUOUS
 62
     7
 10
92.19999999999996
 20
142.2000114230808
  0
SEQEND
  8
1
  6
CONTINUOUS
 62
     7
  0
POLYLINE
  8
1
  6
CONTINUOUS
 62
     7
 66
     1
  0
VERTEX
  8
1
  6
CONTINUOUS
 62
     7
 10
47.50001142308073
 20
137.5
  0
VERTEX
  8
1
  6
CONTINUOUS
 62
     7
 10
47.55443525494727
 20
137.5049777652887
  0
VERTEX
  8
1
  6
CONTINUOUS
 62
     7
 10
47.60705233703767
 20
137.5197458797963
  0
VERTEX
  8
1
  6
CONTINUOUS
 62
     7
 10
47.65611663260604
 20
137.5438142807982
  0
VERTEX
  8
1
  6
CONTINUOUS
 62
     7
 10
47.70000000000006
 20
137.5763842863668
  0
SEQEND
  8
1
  6
CONTINUOUS
 62
     7
  0
LINE
  8
1
  6
CONTINUOUS
 62
     7
 10
73.4467375879228
 20
58.7136634858666
 11
72.80148105232766
 21
58.66321778889219
  0
POLYLINE
  8
1
  6
CONTINUOUS
 62
     7
 66
     1
  0
VERTEX
  8
1
  6
CONTINUOUS
 62
     7
 10
47.70000000000007
 20
122.4236157136333
  0
VERTEX
  8
1
  6
CONTINUOUS
 62
     7
 10
47.65611663260605
 20
122.4561857192018
  0
VERTEX
  8
1
  6
CONTINUOUS
 62
     7
 10
47.60705233703769
 20
122.4802541202038
  0
VERTEX
  8
1
  6
CONTINUOUS
 62
     7
 10
47.55443525494728
 20
122.4950222347113
  0
VERTEX
  8
1
  6
CONTINUOUS
 62
     7
 10
47.50001142308072
 20
122.5000000000001
  0
SEQEND
  8
1
  6
CONTINUOUS
 62
     7
  0
POLYLINE
  8
1
  6
CONTINUOUS
 62
     7
 66
     1
  0
VERTEX
  8
1
  6
CONTINUOUS
 62
     7
 10
92.30000000000004
 20
137.5763842863666
  0
VERTEX
  8
1
  6
CONTINUOUS
 62
     7
 10
92.34388336739404
 20
137.5438142807982
  0
VERTEX
  8
1
  6
CONTINUOUS
 62
     7
 10
92.39294766296236
 20
137.5197458797962
  0
VERTEX
  8
1
  6
CONTINUOUS
 62
     7
 10
92.44556474505272
 20
137.5049777652887
  0
VERTEX
  8
1
  6
CONTINUOUS
 62
     7
 10
92.49998857691922
 20
137.5
  0
SEQEND
  8
1
  6
CONTINUOUS
 62
     7
  0
POLYLINE
  8
1
  6
CONTINUOUS
 62
     7
 66
     1
  0
VERTEX
  8
1
  6
CONTINUOUS
 62
     7
 10
92.19999999999997
 20
117.7999885769193
  0
VERTEX
  8
1
  6
CONTINUOUS
 62
     7
 10
92.20576407824825
 20
117.7414624917687
  0
VERTEX
  8
1
  6
CONTINUOUS
 62
     7
 10
92.22283482410668
 20
117.6851861917761
  0
VERTEX
  8
1
  6
CONTINUOUS
 62
     7
 10
92.25055628178711
 20
117.6333221345767
  0
VERTEX
  8
1
  6
CONTINUOUS
 62
     7
 10
92.28786323417643
 20
117.5878632341765
  0
VERTEX
  8
1
  6
CONTINUOUS
 62
     7
 10
92.33332213457662
 20
117.5505562817872
  0
VERTEX
  8
1
  6
CONTINUOUS
 62
     7
 10
92.38518619177606
 20
117.5228348241068
  0
VERTEX
  8
1
  6
CONTINUOUS
 62
     7
 10
92.44146249176859
 20
117.5057640782483
  0
VERTEX
  8
1
  6
CONTINUOUS
 62
     7
 10
92.49998857691922
 20
117.5000000000001
  0
SEQEND
  8
1
  6
CONTINUOUS
 62
     7
  0
POLYLINE
  8
1
  6
CONTINUOUS
 62
     7
 66
     1
  0
VERTEX
  8
1
  6
CONTINUOUS
 62
     7
 10
47.50001142308074
 20
117.5
  0
VERTEX
  8
1
  6
CONTINUOUS
 62
     7
 10
47.55853750823136
 20
117.5057640782483
  0
VERTEX
  8
1
  6
CONTINUOUS
 62
     7
 10
47.61481380822389
 20
117.5228348241067
  0
VERTEX
  8
1
  6
CONTINUOUS
 62
     7
 10
47.66667786542335
 20
117.5505562817872
  0
VERTEX
  8
1
  6
CONTINUOUS
 62
     7
 10
47.71213676582353
 20
117.5878632341765
  0
VERTEX
  8
1
  6
CONTINUOUS
 62
     7
 10
47.74944371821285
 20
117.6333221345767
  0
VERTEX
  8
1
  6
CONTINUOUS
 62
     7
 10
47.77716517589327
 20
117.6851861917761
  0
VERTEX
  8
1
  6
CONTINUOUS
 62
     7
 10
47.7942359217517
 20
117.7414624917686
  0
VERTEX
  8
1
  6
CONTINUOUS
 62
     7
 10
47.79999999999998
 20
117.7999885769193
  0
SEQEND
  8
1
  6
CONTINUOUS
 62
     7
  0
POLYLINE
  8
1
  6
CONTINUOUS
 62
     7
 66
     1
  0
VERTEX
  8
1
  6
CONTINUOUS
 62
     7
 10
47.79999999999998
 20
142.2000114230808
  0
VERTEX
  8
1
  6
CONTINUOUS
 62
     7
 10
47.79423592175169
 20
142.2585375082314
  0
VERTEX
  8
1
  6
CONTINUOUS
 62
     7
 10
47.77716517589326
 20
142.3148138082239
  0
VERTEX
  8
1
  6
CONTINUOUS
 62
     7
 10
47.74944371821284
 20
142.3666778654234
  0
VERTEX
  8
1
  6
CONTINUOUS
 62
     7
 10
47.71213676582352
 20
142.4121367658236
  0
VERTEX
  8
1
  6
CONTINUOUS
 62
     7
 10
47.66667786542333
 20
142.4494437182129
  0
VERTEX
  8
1
  6
CONTINUOUS
 62
     7
 10
47.61481380822389
 20
142.4771651758933
  0
VERTEX
  8
1
  6
CONTINUOUS
 62
     7
 10
47.55853750823135
 20
142.4942359217517
  0
VERTEX
  8
1
  6
CONTINUOUS
 62
     7
 10
47.50001142308071
 20
142.5
  0
SEQEND
  8
1
  6
CONTINUOUS
 62
     7
  0
POLYLINE
  8
1
  6
CONTINUOUS
 62
     7
 66
     1
  0
VERTEX
  8
1
  6
CONTINUOUS
 62
     7
 10
138.25
 20
129.9999999999999
  0
VERTEX
  8
1
  6
CONTINUOUS
 62
     7
 10
138.2877611811019
 20
129.2991086657738
  0
VERTEX
  8
1
  6
CONTINUOUS
 62
     7
 10
138.3997138780627
 20
128.6229193838452
  0
VERTEX
  8
1
  6
CONTINUOUS
 62
     7
 10
138.5819124558886
 20
127.9952636130859
  0
VERTEX
  8
1
  6
CONTINUOUS
 62
     7
 10
138.8279355499852
 20
127.43826230851
  0
VERTEX
  8
1
  6
CONTINUOUS
 62
     7
 10
139.1291123792488
 20
126.9715462954445
  0
VERTEX
  8
1
  6
CONTINUOUS
 62
     7
 10
139.4748283370718
 20
126.6115644052557
  0
VERTEX
  8
1
  6
CONTINUOUS
 62
     7
 10
139.8528990900875
 20
126.3710037565359
  0
VERTEX
  8
1
  6
CONTINUOUS
 62
     7
 10
140.25
 20
126.2583426132259
  0
SEQEND
  8
1
  6
CONTINUOUS
 62
     7
  0
POLYLINE
  8
1
  6
CONTINUOUS
 62
     7
 66
     1
  0
VERTEX
  8
1
  6
CONTINUOUS
 62
     7
 10
92.49998857691921
 20
122.5
  0
VERTEX
  8
1
  6
CONTINUOUS
 62
     7
 10
92.44556474505272
 20
122.4950222347113
  0
VERTEX
  8
1
  6
CONTINUOUS
 62
     7
 10
92.39294766296236
 20
122.4802541202038
  0
VERTEX
  8
1
  6
CONTINUOUS
 62
     7
 10
92.34388336739403
 20
122.4561857192019
  0
VERTEX
  8
1
  6
CONTINUOUS
 62
     7
 10
92.30000000000004
 20
122.4236157136335
  0
SEQEND
  8
1
  6
CONTINUOUS
 62
     7
  0
ARC
  8
1
  6
CONTINUOUS
 62
     7
 10
55.70000000000004
 20
61.25000000000005
 40
0.5000000000000004
 50
180.0000000000008
 51
270.0
  0
ARC
  8
1
  6
CONTINUOUS
 62
     7
 10
66.5
 20
61.25000000000003
 40
0.5000000000000004
 50
180.0
 51
205.8419327631692
  0
ARC
  8
1
  6
CONTINUOUS
 62
     7
 10
132.3
 20
120.75
 40
0.5000000000000004
 50
180.0
 51
270.0
  0
ARC
  8
1
  6
CONTINUOUS
 62
     7
 10
93.86377432953796
 20
66.55000000000004
 40
0.5000000000000004
 50
270.0
 51
359.0000000000006
  0
ARC
  8
1
  6
CONTINUOUS
 62
     7
 10
46.13622567046206
 20
66.55000000000004
 40
0.5000000000000057
 50
180.9999999999994
 51
270.0
  0
ARC
  8
1
  6
CONTINUOUS
 62
     7
 10
73.50000000000001
 20
61.25000000000003
 40
0.4999999999999964
 50
334.1580672368279
 51
0.0
  0
ARC
  8
1
  6
CONTINUOUS
 62
     7
 10
78.80000000000005
 20
61.25000000000006
 40
0.5000000000000004
 50
180.0000000000008
 51
270.0
  0
ARC
  8
1
  6
CONTINUOUS
 62
     7
 10
61.20000000000005
 20
61.25000000000005
 40
0.5000000000000004
 50
270.0
 51
0.0
  0
ARC
  8
1
  6
CONTINUOUS
 62
     7
 10
132.3
 20
139.25
 40
0.5000000000000004
 50
90.0
 51
180.0
  0
ARC
  8
1
  6
CONTINUOUS
 62
     7
 10
84.30000000000005
 20
61.25000000000006
 40
0.5000000000000004
 50
270.0
 51
359.9999999999993
  0
LINE
  8
1
  6
CONTINUOUS
 62
     7
 10
92.55497926708189
 20
114.4450207329181
 11
92.50000000000013
 21
114.4999999999998
  0
LINE
  8
1
  6
CONTINUOUS
 62
     7
 10
92.50000000000013
 20
142.5
 11
92.51752989090319
 21
142.4824701090969
  0
LINE
  8
1
  6
CONTINUOUS
 62
     7
 10
49.1
 20
125.0
 11
47.5000000000001
 21
124.9999999999999
  0
LINE
  8
1
  6
CONTINUOUS
 62
     7
 10
79.29999999999998
 20
114.4999999999998
 11
60.69999999999999
 21
114.5
  0
LINE
  8
1
  6
CONTINUOUS
 62
     7
 10
47.47381939662781
 20
136.0
 11
47.47381939662781
 21
135.0
  0
LINE
  8
1
  6
CONTINUOUS
 62
     7
 10
92.50000000000013
 20
137.5
 11
92.50000000000013
 21
136.0
  0
LINE
  8
1
  6
CONTINUOUS
 62
     7
 10
92.55497926708189
 20
136.0
 11
92.5261806033724
 21
136.0
  0
LINE
  8
1
  6
CONTINUOUS
 62
     7
 10
47.4450207329183
 20
145.5549792670817
 11
47.50000000000009
 21
145.4999999999999
  0
LINE
  8
1
  6
CONTINUOUS
 62
     7
 10
47.47381939662781
 20
121.4825081860328
 11
47.47381939662781
 21
118.5174918139673
  0
LINE
  8
1
  6
CONTINUOUS
 62
     7
 10
92.50000000000013
 20
136.0
 11
92.51745373558164
 21
136.0
  0
LINE
  8
1
  6
CONTINUOUS
 62
     7
 10
47.5000000000001
 20
135.0
 11
49.1
 21
135.0
  0
LINE
  8
1
  6
CONTINUOUS
 62
     7
 10
92.50000000000013
 20
117.5
 11
92.51752989090319
 21
117.5175298909031
  0
LINE
  8
1
  6
CONTINUOUS
 62
     7
 10
92.5261806033724
 20
121.4825081860328
 11
92.5261806033724
 21
118.5174918139673
  0
LINE
  8
1
  6
CONTINUOUS
 62
     7
 10
47.50000000000009
 20
136.0
 11
47.50000000000009
 21
137.5
  0
LINE
  8
1
  6
CONTINUOUS
 62
     7
 10
92.51752989090319
 20
142.4824701090969
 11
92.5261806033724
 21
141.4825081860328
  0
LINE
  8
1
  6
CONTINUOUS
 62
     7
 10
90.9
 20
135.0
 11
92.50000000000011
 21
135.0
  0
LINE
  8
1
  6
CONTINUOUS
 62
     7
 10
92.5261806033724
 20
118.5174918139673
 11
92.51752989090319
 21
117.5175298909031
  0
LINE
  8
1
  6
CONTINUOUS
 62
     7
 10
47.50000000000009
 20
137.5
 11
47.48247010909701
 21
137.5175298909031
  0
LINE
  8
1
  6
CONTINUOUS
 62
     7
 10
47.44502073291831
 20
136.0
 11
47.47381939662781
 21
136.0
  0
LINE
  8
1
  6
CONTINUOUS
 62
     7
 10
47.4738193966278
 20
121.4825081860328
 11
47.482470109097
 21
122.482470109097
  0
LINE
  8
1
  6
CONTINUOUS
 62
     7
 10
47.50000000000009
 20
122.5
 11
47.50000000000009
 21
124.0
  0
LINE
  8
1
  6
CONTINUOUS
 62
     7
 10
92.50000000000011
 20
129.25
 11
90.9
 21
129.25
  0
LINE
  8
1
  6
CONTINUOUS
 62
     7
 10
57.89999999999999
 20
114.4999999999998
 11
47.50000000000009
 21
114.4999999999998
  0
LINE
  8
1
  6
CONTINUOUS
 62
     7
 10
90.9
 20
129.25
 11
90.90000000000013
 21
130.75
  0
LINE
  8
1
  6
CONTINUOUS
 62
     7
 10
49.1
 20
126.5
 11
49.1
 21
125.0
  0
LINE
  8
1
  6
CONTINUOUS
 62
     7
 10
92.50000000000011
 20
145.5
 11
92.50000000000013
 21
142.5
  0
LINE
  8
1
  6
CONTINUOUS
 62
     7
 10
90.9
 20
133.5
 11
90.9
 21
135.0
  0
LINE
  8
1
  6
CONTINUOUS
 62
     7
 10
47.50000000000009
 20
130.75
 11
49.1
 21
130.75
  0
LINE
  8
1
  6
CONTINUOUS
 62
     7
 10
79.29999999999998
 20
114.4999999999998
 11
82.10000000000001
 21
114.5
  0
LINE
  8
1
  6
CONTINUOUS
 62
     7
 10
90.9
 20
129.25
 11
90.90000000000013
 21
126.5
  0
LINE
  8
1
  6
CONTINUOUS
 62
     7
 10
92.50000000000011
 20
124.0
 11
92.50000000000013
 21
122.5000000000001
  0
LINE
  8
1
  6
CONTINUOUS
 62
     7
 10
90.90000000000013
 20
130.75
 11
92.50000000000011
 21
130.75
  0
LINE
  8
1
  6
CONTINUOUS
 62
     7
 10
47.50000000000009
 20
117.5
 11
47.482470109097
 21
117.5175298909031
  0
LINE
  8
1
  6
CONTINUOUS
 62
     7
 10
47.48247010909701
 20
137.5175298909031
 11
47.47381939662781
 21
138.5174918139673
  0
LINE
  8
1
  6
CONTINUOUS
 62
     7
 10
47.44502073291831
 20
123.9999999999999
 11
47.47381939662781
 21
123.9999999999999
  0
LINE
  8
1
  6
CONTINUOUS
 62
     7
 10
60.69999999999999
 20
114.5
 11
57.89999999999999
 21
114.4999999999998
  0
LINE
  8
1
  6
CONTINUOUS
 62
     7
 10
92.50000000000013
 20
122.5000000000001
 11
92.51752989090319
 21
122.482470109097
  0
LINE
  8
1
  6
CONTINUOUS
 62
     7
 10
92.51752989090319
 20
122.482470109097
 11
92.5261806033724
 21
121.4825081860328
  0
LINE
  8
1
  6
CONTINUOUS
 62
     7
 10
92.55497926708189
 20
123.9999999999999
 11
92.5261806033724
 21
123.9999999999999
  0
LINE
  8
1
  6
CONTINUOUS
 62
     7
 10
92.5261806033724
 20
138.5174918139673
 11
92.5261806033724
 21
141.4825081860328
  0
LINE
  8
1
  6
CONTINUOUS
 62
     7
 10
92.5261806033724
 20
136.0
 11
92.5261806033724
 21
135.0
  0
LINE
  8
1
  6
CONTINUOUS
 62
     7
 10
47.50000000000009
 20
136.0
 11
47.48254626441857
 21
136.0
  0
LINE
  8
1
  6
CONTINUOUS
 62
     7
 10
47.50000000000009
 20
126.5
 11
49.1
 21
126.5
  0
LINE
  8
1
  6
CONTINUOUS
 62
     7
 10
49.10000000000008
 20
133.5
 11
47.50000000000009
 21
133.5
  0
LINE
  8
1
  6
CONTINUOUS
 62
     7
 10
49.10000000000009
 20
129.25
 11
47.50000000000009
 21
129.25
  0
LINE
  8
1
  6
CONTINUOUS
 62
     7
 10
47.50000000000009
 20
114.4999999999998
 11
47.50000000000009
 21
117.5
  0
LINE
  8
1
  6
CONTINUOUS
 62
     7
 10
47.44502073291832
 20
114.4450207329181
 11
47.50000000000009
 21
114.4999999999998
  0
LINE
  8
1
  6
CONTINUOUS
 62
     7
 10
47.50000000000009
 20
122.5
 11
47.48247010909701
 21
122.482470109097
  0
LINE
  8
1
  6
CONTINUOUS
 62
     7
 10
47.47381939662781
 20
123.9999999999999
 11
47.47381939662781
 21
124.9999999999999
  0
LINE
  8
1
  6
CONTINUOUS
 62
     7
 10
47.50000000000009
 20
142.5
 11
47.50000000000009
 21
145.4999999999999
  0
LINE
  8
1
  6
CONTINUOUS
 62
     7
 10
92.50000000000013
 20
133.5
 11
90.9
 21
133.5
  0
LINE
  8
1
  6
CONTINUOUS
 62
     7
 10
47.47381939662781
 20
141.4825081860328
 11
47.48247010909701
 21
142.4824701090969
  0
LINE
  8
1
  6
CONTINUOUS
 62
     7
 10
47.48254626441857
 20
124.0
 11
47.50000000000009
 21
124.0
  0
LINE
  8
1
  6
CONTINUOUS
 62
     7
 10
49.1
 20
135.0
 11
49.10000000000008
 21
133.5
  0
LINE
  8
1
  6
CONTINUOUS
 62
     7
 10
47.47381939662781
 20
138.5174918139673
 11
47.47381939662781
 21
141.4825081860328
  0
LINE
  8
1
  6
CONTINUOUS
 62
     7
 10
49.1
 20
130.75
 11
49.10000000000009
 21
129.25
  0
LINE
  8
1
  6
CONTINUOUS
 62
     7
 10
92.5261806033724
 20
138.5174918139673
 11
92.51752989090319
 21
137.5175298909031
  0
LINE
  8
1
  6
CONTINUOUS
 62
     7
 10
47.482470109097
 20
117.5175298909031
 11
47.4738193966278
 21
118.5174918139673
  0
LINE
  8
1
  6
CONTINUOUS
 62
     7
 10
92.55497926708189
 20
145.5549792670817
 11
92.50000000000011
 21
145.5
  0
LINE
  8
1
  6
CONTINUOUS
 62
     7
 10
47.50000000000009
 20
145.4999999999999
 11
92.50000000000011
 21
145.5
  0
LINE
  8
1
  6
CONTINUOUS
 62
     7
 10
92.50000000000013
 20
114.4999999999998
 11
82.10000000000001
 21
114.5
  0
LINE
  8
1
  6
CONTINUOUS
 62
     7
 10
92.50000000000013
 20
137.5
 11
92.51752989090319
 21
137.5175298909031
  0
LINE
  8
1
  6
CONTINUOUS
 62
     7
 10
47.50000000000009
 20
142.5
 11
47.48247010909701
 21
142.4824701090969
  0
LINE
  8
1
  6
CONTINUOUS
 62
     7
 10
92.50000000000013
 20
117.5
 11
92.50000000000013
 21
114.4999999999998
  0
LINE
  8
1
  6
CONTINUOUS
 62
     7
 10
126.95
 20
124.5
 11
126.95
 21
124.0
  0
LINE
  8
1
  6
CONTINUOUS
 62
     7
 10
136.05
 20
132.75
 11
136.05
 21
133.75
  0
LINE
  8
1
  6
CONTINUOUS
 62
     7
 10
138.25
 20
129.9999999999999
 11
138.25
 21
133.7499999999999
  0
LINE
  8
1
  6
CONTINUOUS
 62
     7
 10
125.35
 20
124.5
 11
125.35
 21
124.0
  0
LINE
  8
1
  6
CONTINUOUS
 62
     7
 10
125.35
 20
135.4999999999999
 11
126.95
 21
135.4999999999999
  0
LINE
  8
1
  6
CONTINUOUS
 62
     7
 10
82.10000000000001
 20
114.5
 11
82.10000000000001
 21
114.6
  0
LINE
  8
1
  6
CONTINUOUS
 62
     7
 10
47.79999999999998
 20
142.2000114230808
 11
47.79999999999998
 21
141.9999999999999
  0
LINE
  8
1
  6
CONTINUOUS
 62
     7
 10
47.50000000000009
 20
124.0
 11
49.29999999999987
 21
124.0
  0
LINE
  8
1
  6
CONTINUOUS
 62
     7
 10
90.69999999999996
 20
136.0
 11
92.50000000000013
 21
136.0
  0
LINE
  8
1
  6
CONTINUOUS
 62
     7
 10
49.29999999999986
 20
136.0
 11
47.50000000000009
 21
136.0
  0
LINE
  8
1
  6
CONTINUOUS
 62
     7
 10
92.50000000000011
 20
124.0
 11
90.69999999999996
 21
124.0
  0
LINE
  8
1
  6
CONTINUOUS
 62
     7
 10
92.19999999999996
 20
142.2000114230808
 11
92.19999999999996
 21
141.9999999999999
  0
LINE
  8
1
  6
CONTINUOUS
 62
     7
 10
120.35
 20
142.5
 11
120.35
 21
117.5
  0
LINE
  8
1
  6
CONTINUOUS
 62
     7
 10
49.10000000000009
 20
129.25
 11
49.1
 21
126.5
  0
LINE
  8
1
  6
CONTINUOUS
 62
     7
 10
119.75
 20
116.2
 11
120.65
 21
116.2
  0
LINE
  8
1
  6
CONTINUOUS
 62
     7
 10
119.75
 20
114.6
 11
119.75
 21
116.2
  0
LINE
  8
1
  6
CONTINUOUS
 62
     7
 10
120.65
 20
114.6
 11
119.75
 21
114.6
  0
LINE
  8
1
  6
CONTINUOUS
 62
     7
 10
120.65
 20
143.8
 11
119.75
 21
143.8
  0
LINE
  8
1
  6
CONTINUOUS
 62
     7
 10
126.95
 20
135.5
 11
126.95
 21
136.0
  0
LINE
  8
1
  6
CONTINUOUS
 62
     7
 10
49.1
 20
130.75
 11
49.10000000000008
 21
133.5
  0
LINE
  8
1
  6
CONTINUOUS
 62
     7
 10
125.35
 20
135.4999999999999
 11
125.35
 21
124.5
  0
LINE
  8
1
  6
CONTINUOUS
 62
     7
 10
119.75
 20
143.8
 11
119.75
 21
145.4
  0
LINE
  8
1
  6
CONTINUOUS
 62
     7
 10
125.35
 20
135.5
 11
125.35
 21
136.0
  0
LINE
  8
1
  6
CONTINUOUS
 62
     7
 10
128.95
 20
135.9
 11
129.25
 21
135.9
  0
LINE
  8
1
  6
CONTINUOUS
 62
     7
 10
47.79999999999998
 20
117.7999885769193
 11
47.79999999999998
 21
117.9999999999999
  0
LINE
  8
1
  6
CONTINUOUS
 62
     7
 10
119.75
 20
145.4
 11
120.65
 21
145.4
  0
LINE
  8
1
  6
CONTINUOUS
 62
     7
 10
136.05
 20
130.0000000000006
 11
136.05
 21
132.75
  0
LINE
  8
1
  6
CONTINUOUS
 62
     7
 10
57.89999999999999
 20
114.4999999999998
 11
57.89999999999999
 21
114.6
  0
LINE
  8
1
  6
CONTINUOUS
 62
     7
 10
138.25
 20
133.7499999999999
 11
137.85
 21
133.75
  0
LINE
  8
1
  6
CONTINUOUS
 62
     7
 10
128.95
 20
124.1
 11
129.25
 21
124.1
  0
LINE
  8
1
  6
CONTINUOUS
 62
     7
 10
138.25
 20
133.7499999999999
 11
140.25
 21
133.7499999999999
  0
LINE
  8
1
  6
CONTINUOUS
 62
     7
 10
120.35
 20
117.5
 11
120.65
 21
117.5
  0
LINE
  8
1
  6
CONTINUOUS
 62
     7
 10
120.35
 20
142.5
 11
120.65
 21
142.5
  0
LINE
  8
1
  6
CONTINUOUS
 62
     7
 10
137.85
 20
132.75
 11
137.85
 21
133.75
  0
LINE
  8
1
  6
CONTINUOUS
 62
     7
 10
140.25
 20
126.2499999999999
 11
136.55
 21
126.2500000000005
  0
LINE
  8
1
  6
CONTINUOUS
 62
     7
 10
126.95
 20
135.4999999999999
 11
126.95
 21
124.5
  0
LINE
  8
1
  6
CONTINUOUS
 62
     7
 10
125.35
 20
124.5
 11
126.95
 21
124.5
  0
LINE
  8
1
  6
CONTINUOUS
 62
     7
 10
140.25
 20
133.7499999999999
 11
140.25
 21
126.2583426132259
  0
LINE
  8
1
  6
CONTINUOUS
 62
     7
 10
120.65
 20
107.4385444277694
 11
120.65
 21
111.9440036771981
  0
LINE
  8
1
  6
CONTINUOUS
 62
     7
 10
120.65
 20
168.0559963228019
 11
120.65
 21
172.5614555722306
  0
LINE
  8
1
  6
CONTINUOUS
 62
     7
 10
123.15
 20
111.9660555463225
 11
123.15
 21
111.9160371171995
  0
LINE
  8
1
  6
CONTINUOUS
 62
     7
 10
128.95
 20
132.6
 11
129.25
 21
132.6
  0
LINE
  8
1
  6
CONTINUOUS
 62
     7
 10
123.15
 20
111.9160371171995
 11
123.15
 21
107.9101868962387
  0
LINE
  8
1
  6
CONTINUOUS
 62
     7
 10
120.65
 20
168.0559963228019
 11
120.65
 21
111.9440036771981
  0
LINE
  8
1
  6
CONTINUOUS
 62
     7
 10
140.25
 20
126.258342613226
 11
140.25
 21
126.2499999999999
  0
LINE
  8
1
  6
CONTINUOUS
 62
     7
 10
123.15
 20
172.0898131037613
 11
123.15
 21
168.0339444536775
  0
LINE
  8
1
  6
CONTINUOUS
 62
     7
 10
92.19999999999996
 20
117.7999885769193
 11
92.19999999999996
 21
118.0
  0
LINE
  8
1
  6
CONTINUOUS
 62
     7
 10
137.85
 20
132.75
 11
136.05
 21
132.75
  0
LINE
  8
1
  6
CONTINUOUS
 62
     7
 10
128.95
 20
127.4
 11
129.25
 21
127.4
  0
LINE
  8
1
  6
CONTINUOUS
 62
     7
 10
137.85
 20
133.75
 11
136.05
 21
133.75
  0
LINE
  8
1
  6
CONTINUOUS
 62
     7
 10
90.90000000000013
 20
130.75
 11
90.9
 21
133.5
  0
LINE
  8
1
  6
CONTINUOUS
 62
     7
 10
128.45
 20
112.4999999999999
 11
123.65
 21
112.4999999999999
  0
LINE
  8
1
  6
CONTINUOUS
 62
     7
 10
123.15
 20
168.0339444536775
 11
123.15
 21
148.0
  0
LINE
  8
1
  6
CONTINUOUS
 62
     7
 10
124.95
 20
124.0
 11
128.45
 21
124.0
  0
LINE
  8
1
  6
CONTINUOUS
 62
     7
 10
128.95
 20
123.5
 11
128.95
 21
112.9999999999999
  0
LINE
  8
1
  6
CONTINUOUS
 62
     7
 10
128.95
 20
147.0
 11
128.95
 21
136.5
  0
LINE
  8
1
  6
CONTINUOUS
 62
     7
 10
120.65
 20
107.4385444277695
 11
120.65
 21
102.5
  0
LINE
  8
1
  6
CONTINUOUS
 62
     7
 10
124.95
 20
136.0000761524218
 11
124.95
 21
123.9999238475782
  0
LINE
  8
1
  6
CONTINUOUS
 62
     7
 10
120.65
 20
177.5000000000001
 11
120.65
 21
172.5614555722306
  0
LINE
  8
1
  6
CONTINUOUS
 62
     7
 10
123.15
 20
176.9650137061217
 11
123.15
 21
172.0898131037613
  0
LINE
  8
1
  6
CONTINUOUS
 62
     7
 10
123.65
 20
147.5
 11
128.45
 21
147.5
  0
LINE
  8
1
  6
CONTINUOUS
 62
     7
 10
123.15
 20
107.9101868962386
 11
123.15
 21
103.0349862938783
  0
LINE
  8
1
  6
CONTINUOUS
 62
     7
 10
128.45
 20
136.0
 11
124.95
 21
136.0
  0
LINE
  8
1
  6
CONTINUOUS
 62
     7
 10
128.95
 20
135.5
 11
128.95
 21
136.5
  0
LINE
  8
1
  6
CONTINUOUS
 62
     7
 10
128.95
 20
123.5
 11
128.95
 21
124.5
  0
LINE
  8
1
  6
CONTINUOUS
 62
     7
 10
128.95
 20
135.5
 11
128.95
 21
124.5
  0
LINE
  8
1
  6
CONTINUOUS
 62
     7
 10
134.25
 20
119.75
 11
134.25
 21
115.4999999999999
  0
LINE
  8
1
  6
CONTINUOUS
 62
     7
 10
123.15
 20
111.9999999999999
 11
123.15
 21
111.9660555463225
  0
LINE
  8
1
  6
CONTINUOUS
 62
     7
 10
132.3
 20
120.25
 11
133.75
 21
120.25
  0
LINE
  8
1
  6
CONTINUOUS
 62
     7
 10
133.75
 20
114.9999999999999
 11
128.95
 21
114.9999999999999
  0
LINE
  8
1
  6
CONTINUOUS
 62
     7
 10
129.25
 20
120.25
 11
129.25
 21
139.75
  0
LINE
  8
1
  6
CONTINUOUS
 62
     7
 10
128.9500000000002
 20
120.25
 11
129.25
 21
120.25
  0
LINE
  8
1
  6
CONTINUOUS
 62
     7
 10
129.25
 20
139.75
 11
128.9500000000002
 21
139.75
  0
LINE
  8
1
  6
CONTINUOUS
 62
     7
 10
134.25
 20
143.8
 11
134.25
 21
140.25
  0
LINE
  8
1
  6
CONTINUOUS
 62
     7
 10
128.95
 20
144.3
 11
133.75
 21
144.3
  0
LINE
  8
1
  6
CONTINUOUS
 62
     7
 10
45.50000000000001
 20
74.35000000000002
 11
48.33285386323593
 21
74.35000000000002
  0
LINE
  8
1
  6
CONTINUOUS
 62
     7
 10
122.6587262032186
 20
177.4649375536998
 11
120.65
 21
177.5
  0
LINE
  8
1
  6
CONTINUOUS
 62
     7
 10
64.10000000000002
 20
66.05000000000003
 11
64.10000000000002
 21
63.35000000000003
  0
LINE
  8
1
  6
CONTINUOUS
 62
     7
 10
61.75000000000001
 20
58.95000000000002
 11
66.05000000000001
 21
58.95000000000003
  0
LINE
  8
1
  6
CONTINUOUS
 62
     7
 10
134.25
 20
119.75
 11
134.25
 21
120.75
  0
LINE
  8
1
  6
CONTINUOUS
 62
     7
 10
93.96501370612162
 20
71.85000000000002
 11
91.41345717810273
 21
71.85000000000002
  0
LINE
  8
1
  6
CONTINUOUS
 62
     7
 10
84.80000000000005
 20
66.05000000000004
 11
84.80000000000005
 21
61.25000000000005
  0
LINE
  8
1
  6
CONTINUOUS
 62
     7
 10
74.3
 20
58.45000000000005
 11
70.19999999999999
 21
58.45000000000005
  0
LINE
  8
1
  6
CONTINUOUS
 62
     7
 10
84.30000000000005
 20
60.75000000000006
 11
79.30000000000005
 21
60.75000000000006
  0
LINE
  8
1
  6
CONTINUOUS
 62
     7
 10
57.89999999999998
 20
65.75000000000003
 11
58.00000000000001
 21
65.75000000000003
  0
LINE
  8
1
  6
CONTINUOUS
 62
     7
 10
57.89999999999999
 20
63.25000000000003
 11
58.50000000000001
 21
63.25000000000003
  0
LINE
  8
1
  6
CONTINUOUS
 62
     7
 10
49.70000000000007
 20
75.25000000000003
 11
90.30000000000018
 21
75.25000000000003
  0
LINE
  8
1
  6
CONTINUOUS
 62
     7
 10
74.55000000000001
 20
54.75000000000003
 11
74.30000000000001
 21
54.75000000000003
  0
LINE
  8
1
  6
CONTINUOUS
 62
     7
 10
94.46419460776988
 20
72.298710452962
 11
94.46377851446326
 21
72.27487248339087
  0
LINE
  8
1
  6
CONTINUOUS
 62
     7
 10
78.05000000000003
 20
56.75000000000002
 11
74.55000000000001
 21
54.75000000000003
  0
LINE
  8
1
  6
CONTINUOUS
 62
     7
 10
73.94999999999999
 20
58.84472363180986
 11
73.94999999999999
 21
63.35000000000003
  0
LINE
  8
1
  6
CONTINUOUS
 62
     7
 10
94.46377851446326
 20
72.27487248339087
 11
94.46217354130684
 21
72.18292363284105
  0
LINE
  8
1
  6
CONTINUOUS
 62
     7
 10
94.46455623105237
 20
72.31942783694099
 11
94.46419460776988
 21
72.298710452962
  0
LINE
  8
1
  6
CONTINUOUS
 62
     7
 10
65.45000000000003
 20
54.75000000000003
 11
74.30000000000001
 21
54.75000000000003
  0
LINE
  8
1
  6
CONTINUOUS
 62
     7
 10
91.41345717810276
 20
71.85000000000002
 11
48.58654282189727
 21
71.85000000000002
  0
LINE
  8
1
  6
CONTINUOUS
 62
     7
 10
94.46493755369981
 20
72.34127379678138
 11
94.46455623105237
 21
72.31942783694099
  0
LINE
  8
1
  6
CONTINUOUS
 62
     7
 10
78.05
 20
58.95000000000003
 11
78.25
 21
58.95000000000003
  0
LINE
  8
1
  6
CONTINUOUS
 62
     7
 10
61.75000000000001
 20
57.15000000000003
 11
61.95000000000002
 21
57.15000000000003
  0
LINE
  8
1
  6
CONTINUOUS
 62
     7
 10
78.25
 20
57.15000000000003
 11
78.25
 21
58.95000000000003
  0
LINE
  8
1
  6
CONTINUOUS
 62
     7
 10
66.05000000000001
 20
58.95000000000003
 11
66.05000000000001
 21
63.35000000000003
  0
LINE
  8
1
  6
CONTINUOUS
 62
     7
 10
133.75
 20
139.75
 11
132.3
 21
139.75
  0
LINE
  8
1
  6
CONTINUOUS
 62
     7
 10
91.66714613676405
 20
74.35000000000002
 11
48.332853863236
 21
74.35000000000002
  0
LINE
  8
1
  6
CONTINUOUS
 62
     7
 10
94.50000000000001
 20
74.35000000000002
 11
94.46493755369981
 21
72.3412737967814
  0
LINE
  8
1
  6
CONTINUOUS
 62
     7
 10
91.66714613676407
 20
74.35000000000002
 11
94.50000000000001
 21
74.35000000000002
  0
LINE
  8
1
  6
CONTINUOUS
 62
     7
 10
57.89999999999999
 20
63.20000000000003
 11
60.70000000000005
 21
63.20000000000003
  0
LINE
  8
1
  6
CONTINUOUS
 62
     7
 10
78.05
 20
57.15000000000003
 11
78.25
 21
57.15000000000003
  0
LINE
  8
1
  6
CONTINUOUS
 62
     7
 10
134.25
 20
139.25
 11
134.25
 21
120.75
  0
LINE
  8
1
  6
CONTINUOUS
 62
     7
 10
75.89999999999999
 20
66.05000000000003
 11
75.89999999999999
 21
63.35000000000003
  0
LINE
  8
1
  6
CONTINUOUS
 62
     7
 10
61.95000000000002
 20
56.75000000000002
 11
65.45000000000003
 21
54.75000000000003
  0
LINE
  8
1
  6
CONTINUOUS
 62
     7
 10
73.94999999999999
 20
58.84472363180986
 11
73.4467375879228
 21
58.7136634858666
  0
LINE
  8
1
  6
CONTINUOUS
 62
     7
 10
45.5350624463002
 20
72.34127379678138
 11
45.50000000000001
 21
74.35000000000002
  0
LINE
  8
1
  6
CONTINUOUS
 62
     7
 10
45.55251751122842
 20
71.34127379678135
 11
45.5350624463002
 21
72.34127379678137
  0
LINE
  8
1
  6
CONTINUOUS
 62
     7
 10
94.46217354130684
 20
72.18292363284105
 11
94.4474824887716
 21
71.34127379678137
  0
LINE
  8
1
  6
CONTINUOUS
 62
     7
 10
93.86377432953796
 20
66.05000000000004
 11
46.13622567046206
 21
66.05000000000004
  0
LINE
  8
1
  6
CONTINUOUS
 62
     7
 10
78.05000000000004
 20
58.95000000000005
 11
78.05000000000003
 21
56.75000000000002
  0
LINE
  8
1
  6
CONTINUOUS
 62
     7
 10
45.63630182288386
 20
66.5412737967814
 11
45.55251751122842
 21
71.34127379678135
  0
LINE
  8
1
  6
CONTINUOUS
 62
     7
 10
61.95000000000002
 20
56.75000000000002
 11
61.95000000000002
 21
57.15000000000003
  0
LINE
  8
1
  6
CONTINUOUS
 62
     7
 10
94.4474824887716
 20
71.34127379678137
 11
94.36369817711615
 21
66.5412737967814
  0
LINE
  8
1
  6
CONTINUOUS
 62
     7
 10
57.89999999999999
 20
66.04999999999984
 11
57.89999999999999
 21
63.20000000000003
  0
LINE
  8
1
  6
CONTINUOUS
 62
     7
 10
120.65
 20
102.5
 11
122.6587262032186
 21
102.5350624463002
  0
LINE
  8
1
  6
CONTINUOUS
 62
     7
 10
72.60000000000002
 20
66.05000000000003
 11
72.60000000000002
 21
63.35000000000003
  0
LINE
  8
1
  6
CONTINUOUS
 62
     7
 10
48.58654282189732
 20
71.85000000000002
 11
46.03498629387839
 21
71.85000000000002
  0
LINE
  8
1
  6
CONTINUOUS
 62
     7
 10
78.05000000000004
 20
58.95000000000005
 11
73.94999999999999
 21
58.9500000000001
  0
LINE
  8
1
  6
CONTINUOUS
 62
     7
 10
60.70000000000005
 20
60.75000000000005
 11
55.70000000000004
 21
60.75000000000005
  0
LINE
  8
1
  6
CONTINUOUS
 62
     7
 10
61.70000000000005
 20
63.20000000000003
 11
61.70000000000005
 21
61.25000000000005
  0
LINE
  8
1
  6
CONTINUOUS
 62
     7
 10
61.75000000000001
 20
57.15000000000003
 11
61.75000000000001
 21
58.95000000000002
  0
LINE
  8
1
  6
CONTINUOUS
 62
     7
 10
60.70000000000005
 20
63.20000000000003
 11
61.70000000000005
 21
63.20000000000003
  0
LINE
  8
1
  6
CONTINUOUS
 62
     7
 10
55.20000000000004
 20
61.25000000000005
 11
55.20000000000004
 21
66.05000000000004
  0
LINE
  8
1
  6
CONTINUOUS
 62
     7
 10
134.25
 20
139.25
 11
134.25
 21
140.25
  0
LINE
  8
1
  6
CONTINUOUS
 62
     7
 10
67.39999999999999
 20
66.05000000000003
 11
67.39999999999999
 21
63.35000000000003
  0
LINE
  8
1
  6
CONTINUOUS
 62
     7
 10
79.30000000000005
 20
60.75000000000006
 11
78.80000000000005
 21
60.75000000000006
  0
LINE
  8
1
  6
CONTINUOUS
 62
     7
 10
79.30000000000005
 20
63.20000000000003
 11
82.09999999999998
 21
63.20000000000003
  0
LINE
  8
1
  6
CONTINUOUS
 62
     7
 10
61.20000000000005
 20
60.75000000000005
 11
60.70000000000005
 21
60.75000000000005
  0
LINE
  8
1
  6
CONTINUOUS
 62
     7
 10
82.09999999999998
 20
63.20000000000003
 11
82.09999999999998
 21
66.04999999999984
  0
LINE
  8
1
  6
CONTINUOUS
 62
     7
 10
78.30000000000005
 20
63.20000000000003
 11
79.30000000000005
 21
63.20000000000003
  0
LINE
  8
1
  6
CONTINUOUS
 62
     7
 10
78.30000000000005
 20
61.25000000000005
 11
78.30000000000005
 21
63.20000000000003
  0
LINE
  8
1
  6
CONTINUOUS
 62
     7
 10
82.09999999999998
 20
65.75000000000003
 11
82.0
 21
65.75000000000003
  0
LINE
  8
1
  6
CONTINUOUS
 62
     7
 10
64.71421356237312
 20
63.20000000000003
 11
64.00710678118656
 21
63.20000000000003
  0
LINE
  8
1
  6
CONTINUOUS
 62
     7
 10
75.99289321881345
 20
63.20000000000003
 11
75.2857864376269
 21
63.20000000000003
  0
LINE
  8
1
  6
CONTINUOUS
 62
     7
 10
75.2857864376269
 20
63.20000000000003
 11
74.50000000000001
 21
63.20000000000003
  0
LINE
  8
1
  6
CONTINUOUS
 62
     7
 10
63.7
 20
63.20000000000003
 11
63.7
 21
63.35000000000003
  0
LINE
  8
1
  6
CONTINUOUS
 62
     7
 10
65.5
 20
63.20000000000003
 11
65.5
 21
63.35000000000003
  0
LINE
  8
1
  6
CONTINUOUS
 62
     7
 10
74.50000000000001
 20
63.20000000000003
 11
74.50000000000001
 21
63.35000000000003
  0
LINE
  8
1
  6
CONTINUOUS
 62
     7
 10
74.00000000000001
 20
63.20000000000003
 11
74.00000000000001
 21
61.25000000000003
  0
LINE
  8
1
  6
CONTINUOUS
 62
     7
 10
82.09999999999998
 20
63.25000000000003
 11
81.5
 21
63.25000000000003
  0
LINE
  8
1
  6
CONTINUOUS
 62
     7
 10
66.0
 20
61.25000000000003
 11
66.0
 21
63.20000000000003
  0
LINE
  8
1
  6
CONTINUOUS
 62
     7
 10
66.0
 20
63.20000000000003
 11
66.05000000000001
 21
63.20000000000003
  0
LINE
  8
1
  6
CONTINUOUS
 62
     7
 10
73.94999999999999
 20
63.20000000000003
 11
74.00000000000001
 21
63.20000000000003
  0
LINE
  8
1
  6
CONTINUOUS
 62
     7
 10
64.71421356237312
 20
63.20000000000003
 11
65.5
 21
63.20000000000003
  0
LINE
  8
1
  6
CONTINUOUS
 62
     7
 10
90.69999999999995
 20
121.5
 11
90.69999999999995
 21
122.5
  0
LINE
  8
1
  6
CONTINUOUS
 62
     7
 10
92.29999999999995
 20
137.4999999999999
 11
90.69999999999996
 21
137.5
  0
LINE
  8
1
  6
CONTINUOUS
 62
     7
 10
92.30000000000003
 20
138.4999999999999
 11
92.30000000000003
 21
137.4999999999999
  0
LINE
  8
1
  6
CONTINUOUS
 62
     7
 10
49.29999999999987
 20
141.9999999999999
 11
49.29999999999987
 21
140.9999999999999
  0
LINE
  8
1
  6
CONTINUOUS
 62
     7
 10
47.70000000000006
 20
114.6
 11
47.69999999999988
 21
116.1999999999999
  0
LINE
  8
1
  6
CONTINUOUS
 62
     7
 10
92.29999999999995
 20
118.0
 11
90.69999999999995
 21
117.9999999999999
  0
LINE
  8
1
  6
CONTINUOUS
 62
     7
 10
47.70000000000006
 20
140.9999999999999
 11
47.70000000000006
 21
141.9999999999999
  0
LINE
  8
1
  6
CONTINUOUS
 62
     7
 10
90.30000000000001
 20
143.8
 11
49.69999999999991
 21
143.8
  0
LINE
  8
1
  6
CONTINUOUS
 62
     7
 10
90.69999999999995
 20
138.4999999999999
 11
90.69999999999995
 21
141.0
  0
LINE
  8
1
  6
CONTINUOUS
 62
     7
 10
90.69999999999996
 20
122.5
 11
92.29999999999995
 21
122.5
  0
LINE
  8
1
  6
CONTINUOUS
 62
     7
 10
90.69999999999995
 20
121.5
 11
90.69999999999995
 21
119.0
  0
LINE
  8
1
  6
CONTINUOUS
 62
     7
 10
49.29999999999987
 20
119.0
 11
49.29999999999987
 21
117.9999999999999
  0
LINE
  8
1
  6
CONTINUOUS
 62
     7
 10
49.70000000000007
 20
114.6
 11
47.70000000000006
 21
114.6
  0
LINE
  8
1
  6
CONTINUOUS
 62
     7
 10
47.70000000000006
 20
116.1999999999999
 11
49.69999999999991
 21
116.2
  0
LINE
  8
1
  6
CONTINUOUS
 62
     7
 10
49.29999999999987
 20
117.9999999999999
 11
47.69999999999988
 21
117.9999999999999
  0
LINE
  8
1
  6
CONTINUOUS
 62
     7
 10
47.69999999999987
 20
122.5
 11
49.29999999999987
 21
122.5
  0
LINE
  8
1
  6
CONTINUOUS
 62
     7
 10
49.29999999999987
 20
122.5
 11
49.29999999999987
 21
121.5
  0
LINE
  8
1
  6
CONTINUOUS
 62
     7
 10
47.69999999999987
 20
141.9999999999999
 11
49.29999999999987
 21
141.9999999999999
  0
LINE
  8
1
  6
CONTINUOUS
 62
     7
 10
47.70000000000006
 20
121.5
 11
47.70000000000006
 21
122.5
  0
LINE
  8
1
  6
CONTINUOUS
 62
     7
 10
49.69999999999991
 20
143.8
 11
47.70000000000006
 21
143.8
  0
LINE
  8
1
  6
CONTINUOUS
 62
     7
 10
49.70000000000006
 20
145.4
 11
90.30000000000018
 21
145.4
  0
LINE
  8
1
  6
CONTINUOUS
 62
     7
 10
90.69999999999996
 20
137.4999999999999
 11
90.69999999999995
 21
138.4999999999999
  0
LINE
  8
1
  6
CONTINUOUS
 62
     7
 10
90.69999999999995
 20
118.0
 11
90.69999999999995
 21
119.0
  0
LINE
  8
1
  6
CONTINUOUS
 62
     7
 10
47.69999999999988
 20
143.8
 11
47.70000000000006
 21
145.4
  0
LINE
  8
1
  6
CONTINUOUS
 62
     7
 10
92.29999999999995
 20
140.9999999999999
 11
92.29999999999995
 21
138.4999999999999
  0
LINE
  8
1
  6
CONTINUOUS
 62
     7
 10
92.29999999999995
 20
141.9999999999999
 11
92.30000000000003
 21
140.9999999999999
  0
LINE
  8
1
  6
CONTINUOUS
 62
     7
 10
92.29999999999995
 20
119.0
 11
92.29999999999995
 21
121.5
  0
LINE
  8
1
  6
CONTINUOUS
 62
     7
 10
49.70000000000007
 20
114.6
 11
90.30000000000018
 21
114.6
  0
LINE
  8
1
  6
CONTINUOUS
 62
     7
 10
90.69999999999995
 20
141.0
 11
90.69999999999995
 21
141.9999999999999
  0
LINE
  8
1
  6
CONTINUOUS
 62
     7
 10
92.30000000000003
 20
119.0
 11
92.30000000000003
 21
118.0
  0
LINE
  8
1
  6
CONTINUOUS
 62
     7
 10
47.70000000000005
 20
145.4
 11
49.70000000000006
 21
145.4
  0
LINE
  8
1
  6
CONTINUOUS
 62
     7
 10
47.69999999999987
 20
140.9999999999999
 11
47.69999999999987
 21
138.4999999999999
  0
LINE
  8
1
  6
CONTINUOUS
 62
     7
 10
49.29999999999987
 20
138.4999999999999
 11
49.29999999999987
 21
140.9999999999999
  0
LINE
  8
1
  6
CONTINUOUS
 62
     7
 10
90.30000000000001
 20
116.2
 11
49.69999999999991
 21
116.2
  0
LINE
  8
1
  6
CONTINUOUS
 62
     7
 10
90.69999999999995
 20
141.9999999999999
 11
92.29999999999995
 21
141.9999999999999
  0
LINE
  8
1
  6
CONTINUOUS
 62
     7
 10
92.30000000000004
 20
114.6
 11
90.30000000000018
 21
114.6
  0
LINE
  8
1
  6
CONTINUOUS
 62
     7
 10
92.29999999999995
 20
122.5
 11
92.30000000000003
 21
121.5
  0
LINE
  8
1
  6
CONTINUOUS
 62
     7
 10
47.69999999999988
 20
117.9999999999999
 11
47.70000000000006
 21
119.0
  0
LINE
  8
1
  6
CONTINUOUS
 62
     7
 10
94.5
 20
168.0559963228019
 11
94.50000000000001
 21
111.9440036771981
  0
LINE
  8
1
  6
CONTINUOUS
 62
     7
 10
45.50000000000001
 20
111.9440036771981
 11
45.50000000000001
 21
168.0559963228019
  0
LINE
  8
1
  6
CONTINUOUS
 62
     7
 10
92.29999999999995
 20
116.1999999999999
 11
92.30000000000004
 21
114.6
  0
LINE
  8
1
  6
CONTINUOUS
 62
     7
 10
90.00000000000001
 20
142.5
 11
90.0
 21
117.5
  0
LINE
  8
1
  6
CONTINUOUS
 62
     7
 10
92.51745373558164
 20
125.0
 11
92.51745373558164
 21
124.0
  0
LINE
  8
1
  6
CONTINUOUS
 62
     7
 10
90.0
 20
117.5
 11
50.0
 21
117.5
  0
LINE
  8
1
  6
CONTINUOUS
 62
     7
 10
92.30000000000003
 20
145.4
 11
92.29999999999995
 21
143.8
  0
LINE
  8
1
  6
CONTINUOUS
 62
     7
 10
50.0
 20
142.5
 11
90.00000000000001
 21
142.5
  0
LINE
  8
1
  6
CONTINUOUS
 62
     7
 10
50.0
 20
117.5
 11
50.0
 21
142.5
  0
LINE
  8
1
  6
CONTINUOUS
 62
     7
 10
92.30000000000003
 20
143.8
 11
90.30000000000001
 21
143.8
  0
LINE
  8
1
  6
CONTINUOUS
 62
     7
 10
90.30000000000018
 20
145.4
 11
92.30000000000003
 21
145.4
  0
LINE
  8
1
  6
CONTINUOUS
 62
     7
 10
90.30000000000001
 20
116.2
 11
92.30000000000003
 21
116.2
  0
LINE
  8
1
  6
CONTINUOUS
 62
     7
 10
47.48254626441857
 20
136.0
 11
47.48254626441857
 21
135.0
  0
LINE
  8
1
  6
CONTINUOUS
 62
     7
 10
47.48254626441857
 20
125.0
 11
47.48254626441857
 21
124.0
  0
LINE
  8
1
  6
CONTINUOUS
 62
     7
 10
92.51745373558164
 20
136.0
 11
92.51745373558164
 21
135.0
  0
ENDSEC
  0
EOF
