  0
SECTION
  2
HEADER
  9
$ACADVER
  1
AC1004
  9
$INSBASE
 10
0.0
 20
0.0
  9
$EXTMIN
 10
-312.5000000000458
 20
33.67045454545457
  9
$EXTMAX
 10
-204.9
 20
175.5
  9
$LIMMIN
 10
0.0
 20
0.0
  9
$LIMMAX
 10
12.0
 20
9.0
  9
$ORTHOMODE
 70
     0
  9
$REGENMODE
 70
     1
  9
$FILLMODE
 70
     1
  9
$QTEXTMODE
 70
     0
  9
$DRAGMODE
 70
     2
  9
$LTSCALE
 40
1.0
  9
$OSMODE
 70
    37
  9
$ATTMODE
 70
     1
  9
$TEXTSIZE
 40
0.2
  9
$TRACEWID
 40
0.05
  9
$TEXTSTYLE
  7
STANDARD
  9
$CLAYER
  8
0
  9
$CELTYPE
  6
BYLAYER
  9
$CECOLOR
 62
   256
  9
$DIMSCALE
 40
1.0
  9
$DIMASZ
 40
3.0
  9
$DIMEXO
 40
0.0625
  9
$DIMDLI
 40
0.38
  9
$DIMRND
 40
0.0
  9
$DIMDLE
 40
0.0
  9
$DIMEXE
 40
1.5
  9
$DIMTP
 40
0.0
  9
$DIMTM
 40
0.0
  9
$DIMTXT
 40
3.0
  9
$DIMCEN
 40
0.09
  9
$DIMTSZ
 40
0.0
  9
$DIMTOL
 70
     0
  9
$DIMLIM
 70
     0
  9
$DIMTIH
 70
     1
  9
$DIMTOH
 70
     1
  9
$DIMSE1
 70
     0
  9
$DIMSE2
 70
     0
  9
$DIMTAD
 70
     1
  9
$DIMZIN
 70
     0
  9
$DIMBLK
  1

  9
$DIMASO
 70
     1
  9
$DIMSHO
 70
     1
  9
$DIMPOST
  1

  9
$DIMAPOST
  1

  9
$DIMALT
 70
     0
  9
$DIMALTD
 70
     2
  9
$DIMALTF
 40
25.4
  9
$DIMLFAC
 40
1.0
  9
$DIMTOFL
 70
     0
  9
$DIMTVP
 40
0.0
  9
$DIMTIX
 70
     0
  9
$DIMSOXD
 70
     0
  9
$DIMSAH
 70
     0
  9
$DIMBLK1
  1

  9
$DIMBLK2
  1

  9
$LUNITS
 70
     2
  9
$LUPREC
 70
     4
  9
$SKETCHINC
 40
0.1
  9
$FILLETRAD
 40
0.5
  9
$AUNITS
 70
     0
  9
$AUPREC
 70
     0
  9
$MENU
  1
.
  9
$ELEVATION
 40
0.0
  9
$THICKNESS
 40
0.0
  9
$LIMCHECK
 70
     0
  9
$CHAMFERA
 40
0.0
  9
$CHAMFERB
 40
0.0
  9
$SKPOLY
 70
     0
  9
$TDCREATE
 40
2459695.733537292
  9
$TDUPDATE
 40
2459695.733537951
  9
$TDINDWG
 40
0.0000000116
  9
$TDUSRTIMER
 40
0.0000000116
  9
$USRTIMER
 70
     1
  9
$ANGBASE
 50
0.0
  9
$ANGDIR
 70
     0
  9
$PDMODE
 70
     0
  9
$PDSIZE
 40
0.0
  9
$PLINEWID
 40
0.0
  9
$COORDS
 70
     1
  9
$SPLFRAME
 70
     0
  9
$SPLINETYPE
 70
     6
  9
$SPLINESEGS
 70
     8
  9
$ATTDIA
 70
     0
  9
$ATTREQ
 70
     1
  9
$SURFTAB1
 70
     6
  9
$SURFTAB2
 70
     6
  9
$SURFTYPE
 70
     6
  9
$SURFU
 70
     6
  9
$SURFV
 70
     6
  9
$UCSNAME
  2

  9
$UCSORG
 10
0.0
 20
0.0
 30
0.0
  9
$UCSXDIR
 10
1.0
 20
0.0
 30
0.0
  9
$UCSYDIR
 10
0.0
 20
1.0
 30
0.0
  9
$USERI1
 70
     0
  9
$USERI2
 70
     0
  9
$USERI3
 70
     0
  9
$USERI4
 70
     0
  9
$USERI5
 70
     0
  9
$USERR1
 40
0.0
  9
$USERR2
 40
0.0
  9
$USERR3
 40
0.0
  9
$USERR4
 40
0.0
  9
$USERR5
 40
0.0
  9
$WORLDVIEW
 70
     1
  0
ENDSEC
  0
SECTION
  2
TABLES
  0
TABLE
  2
LTYPE
 70
     2
  0
LTYPE
  2
CONTINUOUS
 70
     0
  3
Solid line
 72
    65
 73
     0
 40
0.0
  0
LTYPE
  2
CENTER
 70
     0
  3

 72
    65
 73
     0
 40
0.0
  0
ENDTAB
  0
TABLE
  2
LAYER
 70
     2
  0
LAYER
  2
0
 70
     0
 62
     7
  6
CONTINUOUS
  0
LAYER
  2
1
 70
     0
 62
     7
  6
CONTINUOUS
  0
ENDTAB
  0
TABLE
  2
STYLE
 70
     2
  0
STYLE
  2
STANDARD
 70
     0
 40
0.0
 41
1.0
 50
0.0
 71
     0
 42
0.2
  3
txt
  4

  0
STYLE
  2
ＭＳ_ゴシック
 70
     0
 40
0.0
 41
1.0
 50
0.0
 71
     0
 42
0.2
  3
ＭＳ ゴシック.shx
  4

  0
ENDTAB
  0
TABLE
  2
VIEW
 70
     0
  0
ENDTAB
  0
ENDSEC
  0
SECTION
  2
BLOCKS
  0
ENDSEC
  0
SECTION
  2
ENTITIES
  0
LINE
  8
1
  6
CONTINUOUS
 62
     7
 10
-228.7
 20
142.9999999999999
 11
-228.6993977281026
 21
142.9754661628362
  0
LINE
  8
1
  6
CONTINUOUS
 62
     7
 10
-228.6993977281026
 20
142.9754661628362
 11
-228.6975923633361
 21
142.9509914298352
  0
LINE
  8
1
  6
CONTINUOUS
 62
     7
 10
-228.6975923633361
 20
142.9509914298352
 11
-228.6945882549824
 21
142.9266347627723
  0
LINE
  8
1
  6
CONTINUOUS
 62
     7
 10
-228.6945882549824
 20
142.9266347627723
 11
-228.6903926402016
 21
142.9024548389919
  0
LINE
  8
1
  6
CONTINUOUS
 62
     7
 10
-228.6903926402016
 20
142.9024548389919
 11
-228.6850156265973
 21
142.8785099100483
  0
LINE
  8
1
  6
CONTINUOUS
 62
     7
 10
-228.6850156265973
 20
142.8785099100483
 11
-228.6784701678661
 21
142.8548576613727
  0
LINE
  8
1
  6
CONTINUOUS
 62
     7
 10
-228.6784701678661
 20
142.8548576613727
 11
-228.6707720325915
 21
142.8315550733038
  0
LINE
  8
1
  6
CONTINUOUS
 62
     7
 10
-228.6707720325915
 20
142.8315550733038
 11
-228.6619397662557
 21
142.8086582838174
  0
LINE
  8
1
  6
CONTINUOUS
 62
     7
 10
-228.6619397662557
 20
142.8086582838174
 11
-228.6519946465617
 21
142.7862224532848
  0
LINE
  8
1
  6
CONTINUOUS
 62
     7
 10
-228.6519946465617
 20
142.7862224532848
 11
-228.6409606321742
 21
142.7643016315869
  0
LINE
  8
1
  6
CONTINUOUS
 62
     7
 10
-228.6409606321742
 20
142.7643016315869
 11
-228.6288643050001
 21
142.7429486279033
  0
LINE
  8
1
  6
CONTINUOUS
 62
     7
 10
-228.6288643050001
 20
142.7429486279033
 11
-228.6157348061513
 21
142.7222148834901
  0
LINE
  8
1
  6
CONTINUOUS
 62
     7
 10
-228.6157348061513
 20
142.7222148834901
 11
-228.6016037657404
 21
142.7021503477537
  0
LINE
  8
1
  6
CONTINUOUS
 62
     7
 10
-228.6016037657404
 20
142.7021503477537
 11
-228.5865052266814
 21
142.6828033579181
  0
LINE
  8
1
  6
CONTINUOUS
 62
     7
 10
-228.5865052266814
 20
142.6828033579181
 11
-228.5704755626775
 21
142.6642205225764
  0
LINE
  8
1
  6
CONTINUOUS
 62
     7
 10
-228.5704755626775
 20
142.6642205225764
 11
-228.5535533905933
 21
142.6464466094067
  0
LINE
  8
1
  6
CONTINUOUS
 62
     7
 10
-228.5535533905933
 20
142.6464466094067
 11
-228.5357794774235
 21
142.6295244373225
  0
LINE
  8
1
  6
CONTINUOUS
 62
     7
 10
-228.5357794774235
 20
142.6295244373225
 11
-228.5171966420818
 21
142.6134947733186
  0
LINE
  8
1
  6
CONTINUOUS
 62
     7
 10
-228.5171966420818
 20
142.6134947733186
 11
-228.4978496522462
 21
142.5983962342596
  0
LINE
  8
1
  6
CONTINUOUS
 62
     7
 10
-228.4978496522462
 20
142.5983962342596
 11
-228.4777851165098
 21
142.5842651938487
  0
LINE
  8
1
  6
CONTINUOUS
 62
     7
 10
-228.4777851165098
 20
142.5842651938487
 11
-228.4570513720967
 21
142.5711356949998
  0
LINE
  8
1
  6
CONTINUOUS
 62
     7
 10
-228.4570513720967
 20
142.5711356949998
 11
-228.435698368413
 21
142.5590393678258
  0
LINE
  8
1
  6
CONTINUOUS
 62
     7
 10
-228.435698368413
 20
142.5590393678258
 11
-228.4137775467152
 21
142.5480053534382
  0
LINE
  8
1
  6
CONTINUOUS
 62
     7
 10
-228.4137775467152
 20
142.5480053534382
 11
-228.3913417161826
 21
142.5380602337443
  0
LINE
  8
1
  6
CONTINUOUS
 62
     7
 10
-228.3913417161826
 20
142.5380602337443
 11
-228.3684449266961
 21
142.5292279674084
  0
LINE
  8
1
  6
CONTINUOUS
 62
     7
 10
-228.3684449266961
 20
142.5292279674084
 11
-228.3451423386273
 21
142.5215298321338
  0
LINE
  8
1
  6
CONTINUOUS
 62
     7
 10
-228.3451423386273
 20
142.5215298321338
 11
-228.3214900899517
 21
142.5149843734027
  0
LINE
  8
1
  6
CONTINUOUS
 62
     7
 10
-228.3214900899517
 20
142.5149843734027
 11
-228.2975451610081
 21
142.5096073597983
  0
LINE
  8
1
  6
CONTINUOUS
 62
     7
 10
-228.2975451610081
 20
142.5096073597983
 11
-228.2733652372277
 21
142.5054117450175
  0
LINE
  8
1
  6
CONTINUOUS
 62
     7
 10
-228.2733652372277
 20
142.5054117450175
 11
-228.2490085701648
 21
142.5024076366638
  0
LINE
  8
1
  6
CONTINUOUS
 62
     7
 10
-228.2490085701648
 20
142.5024076366638
 11
-228.2245338371637
 21
142.5006022718973
  0
LINE
  8
1
  6
CONTINUOUS
 62
     7
 10
-228.2245338371637
 20
142.5006022718973
 11
-228.2
 21
142.4999999999999
  0
LINE
  8
1
  6
CONTINUOUS
 62
     7
 10
-228.2
 20
107.4999999999998
 11
-228.2245338371637
 21
107.4993977281024
  0
LINE
  8
1
  6
CONTINUOUS
 62
     7
 10
-228.2245338371637
 20
107.4993977281024
 11
-228.2490085701648
 21
107.4975923633359
  0
LINE
  8
1
  6
CONTINUOUS
 62
     7
 10
-228.2490085701648
 20
107.4975923633359
 11
-228.2733652372277
 21
107.4945882549822
  0
LINE
  8
1
  6
CONTINUOUS
 62
     7
 10
-228.2733652372277
 20
107.4945882549822
 11
-228.2975451610081
 21
107.4903926402015
  0
LINE
  8
1
  6
CONTINUOUS
 62
     7
 10
-228.2975451610081
 20
107.4903926402015
 11
-228.3214900899517
 21
107.4850156265971
  0
LINE
  8
1
  6
CONTINUOUS
 62
     7
 10
-228.3214900899517
 20
107.4850156265971
 11
-228.3451423386273
 21
107.478470167866
  0
LINE
  8
1
  6
CONTINUOUS
 62
     7
 10
-228.3451423386273
 20
107.478470167866
 11
-228.3684449266961
 21
107.4707720325914
  0
LINE
  8
1
  6
CONTINUOUS
 62
     7
 10
-228.3684449266961
 20
107.4707720325914
 11
-228.3913417161826
 21
107.4619397662555
  0
LINE
  8
1
  6
CONTINUOUS
 62
     7
 10
-228.3913417161826
 20
107.4619397662555
 11
-228.4137775467152
 21
107.4519946465616
  0
LINE
  8
1
  6
CONTINUOUS
 62
     7
 10
-228.4137775467152
 20
107.4519946465616
 11
-228.435698368413
 21
107.440960632174
  0
LINE
  8
1
  6
CONTINUOUS
 62
     7
 10
-228.435698368413
 20
107.440960632174
 11
-228.4570513720967
 21
107.428864305
  0
LINE
  8
1
  6
CONTINUOUS
 62
     7
 10
-228.4570513720967
 20
107.428864305
 11
-228.4777851165098
 21
107.4157348061511
  0
LINE
  8
1
  6
CONTINUOUS
 62
     7
 10
-228.4777851165098
 20
107.4157348061511
 11
-228.4978496522463
 21
107.4016037657402
  0
LINE
  8
1
  6
CONTINUOUS
 62
     7
 10
-228.4978496522463
 20
107.4016037657402
 11
-228.5171966420819
 21
107.3865052266812
  0
LINE
  8
1
  6
CONTINUOUS
 62
     7
 10
-228.5171966420819
 20
107.3865052266812
 11
-228.5357794774235
 21
107.3704755626773
  0
LINE
  8
1
  6
CONTINUOUS
 62
     7
 10
-228.5357794774235
 20
107.3704755626773
 11
-228.5535533905933
 21
107.3535533905931
  0
LINE
  8
1
  6
CONTINUOUS
 62
     7
 10
-228.5535533905933
 20
107.3535533905931
 11
-228.5704755626775
 21
107.3357794774234
  0
LINE
  8
1
  6
CONTINUOUS
 62
     7
 10
-228.5704755626775
 20
107.3357794774234
 11
-228.5865052266814
 21
107.3171966420817
  0
LINE
  8
1
  6
CONTINUOUS
 62
     7
 10
-228.5865052266814
 20
107.3171966420817
 11
-228.6016037657404
 21
107.2978496522461
  0
LINE
  8
1
  6
CONTINUOUS
 62
     7
 10
-228.6016037657404
 20
107.2978496522461
 11
-228.6157348061513
 21
107.2777851165096
  0
LINE
  8
1
  6
CONTINUOUS
 62
     7
 10
-228.6157348061513
 20
107.2777851165096
 11
-228.6288643050001
 21
107.2570513720965
  0
LINE
  8
1
  6
CONTINUOUS
 62
     7
 10
-228.6288643050001
 20
107.2570513720965
 11
-228.6409606321742
 21
107.2356983684128
  0
LINE
  8
1
  6
CONTINUOUS
 62
     7
 10
-228.6409606321742
 20
107.2356983684128
 11
-228.6519946465617
 21
107.213777546715
  0
LINE
  8
1
  6
CONTINUOUS
 62
     7
 10
-228.6519946465617
 20
107.213777546715
 11
-228.6619397662557
 21
107.1913417161824
  0
LINE
  8
1
  6
CONTINUOUS
 62
     7
 10
-228.6619397662557
 20
107.1913417161824
 11
-228.6707720325915
 21
107.168444926696
  0
LINE
  8
1
  6
CONTINUOUS
 62
     7
 10
-228.6707720325915
 20
107.168444926696
 11
-228.6784701678661
 21
107.1451423386271
  0
LINE
  8
1
  6
CONTINUOUS
 62
     7
 10
-228.6784701678661
 20
107.1451423386271
 11
-228.6850156265973
 21
107.1214900899515
  0
LINE
  8
1
  6
CONTINUOUS
 62
     7
 10
-228.6850156265973
 20
107.1214900899515
 11
-228.6903926402016
 21
107.0975451610079
  0
LINE
  8
1
  6
CONTINUOUS
 62
     7
 10
-228.6903926402016
 20
107.0975451610079
 11
-228.6945882549824
 21
107.0733652372275
  0
LINE
  8
1
  6
CONTINUOUS
 62
     7
 10
-228.6945882549824
 20
107.0733652372275
 11
-228.6975923633361
 21
107.0490085701646
  0
LINE
  8
1
  6
CONTINUOUS
 62
     7
 10
-228.6975923633361
 20
107.0490085701646
 11
-228.6993977281026
 21
107.0245338371636
  0
LINE
  8
1
  6
CONTINUOUS
 62
     7
 10
-228.6993977281026
 20
107.0245338371636
 11
-228.7
 21
106.9999999999998
  0
TEXT
  8
1
  6
CONTINUOUS
 62
     7
 10
-264.4427316493686
 20
33.32842003251221
 40
3.0
  1
AFP-TH40MSY
  0
LINE
  8
1
  6
CONTINUOUS
 62
     7
 10
-265.0
 20
112.5
 11
-305.0
 21
112.5
  0
LINE
  8
1
  6
CONTINUOUS
 62
     7
 10
-305.0000000000001
 20
137.5
 11
-265.0
 21
137.5
  0
LINE
  8
1
  6
CONTINUOUS
 62
     7
 10
-305.0000000000001
 20
112.5
 11
-305.0000000000001
 21
137.5
  0
LINE
  8
1
  6
CONTINUOUS
 62
     7
 10
-262.7
 20
140.4
 11
-262.7
 21
138.8
  0
LINE
  8
1
  6
CONTINUOUS
 62
     7
 10
-262.7
 20
138.8
 11
-264.7
 21
138.8
  0
LINE
  8
1
  6
CONTINUOUS
 62
     7
 10
-264.6999999999998
 20
140.4
 11
-262.7
 21
140.4
  0
LINE
  8
1
  6
CONTINUOUS
 62
     7
 10
-262.7
 20
109.6
 11
-264.6999999999998
 21
109.6
  0
LINE
  8
1
  6
CONTINUOUS
 62
     7
 10
-264.7
 20
111.1999999999999
 11
-262.7
 21
111.1999999999999
  0
LINE
  8
1
  6
CONTINUOUS
 62
     7
 10
-305.3
 20
140.3999999999999
 11
-264.6999999999998
 21
140.3999999999999
  0
LINE
  8
1
  6
CONTINUOUS
 62
     7
 10
-264.7
 20
138.8
 11
-305.3000000000001
 21
138.8
  0
LINE
  8
1
  6
CONTINUOUS
 62
     7
 10
-305.3
 20
109.5999999999999
 11
-264.6999999999998
 21
109.5999999999999
  0
LINE
  8
1
  6
CONTINUOUS
 62
     7
 10
-262.7000000000001
 20
111.1999999999999
 11
-262.7
 21
109.6
  0
LINE
  8
1
  6
CONTINUOUS
 62
     7
 10
-264.7
 20
111.1999999999999
 11
-305.3000000000001
 21
111.1999999999999
  0
LINE
  8
1
  6
CONTINUOUS
 62
     7
 10
-265.0
 20
137.5
 11
-265.0
 21
112.5
  0
LINE
  8
1
  6
CONTINUOUS
 62
     7
 10
-262.7
 20
133.4999999999999
 11
-262.7
 21
132.4999999999999
  0
LINE
  8
1
  6
CONTINUOUS
 62
     7
 10
-264.3000000000001
 20
136.9999999999999
 11
-262.7000000000001
 21
136.9999999999999
  0
LINE
  8
1
  6
CONTINUOUS
 62
     7
 10
-307.3000000000001
 20
138.8
 11
-307.3
 21
140.4
  0
LINE
  8
1
  6
CONTINUOUS
 62
     7
 10
-307.3000000000001
 20
113.9999999999999
 11
-307.3000000000001
 21
116.4999999999999
  0
LINE
  8
1
  6
CONTINUOUS
 62
     7
 10
-305.3
 20
109.6
 11
-307.3
 21
109.6
  0
LINE
  8
1
  6
CONTINUOUS
 62
     7
 10
-264.3000000000001
 20
116.4999999999999
 11
-264.3000000000001
 21
113.9999999999999
  0
LINE
  8
1
  6
CONTINUOUS
 62
     7
 10
-307.3000000000002
 20
136.9999999999999
 11
-305.7000000000002
 21
136.9999999999999
  0
LINE
  8
1
  6
CONTINUOUS
 62
     7
 10
-307.3
 20
135.9999999999999
 11
-307.3
 21
136.9999999999999
  0
LINE
  8
1
  6
CONTINUOUS
 62
     7
 10
-264.3000000000001
 20
112.9999999999999
 11
-264.3000000000001
 21
113.9999999999999
  0
LINE
  8
1
  6
CONTINUOUS
 62
     7
 10
-307.3
 20
111.1999999999999
 11
-305.3000000000001
 21
111.1999999999999
  0
LINE
  8
1
  6
CONTINUOUS
 62
     7
 10
-262.7000000000001
 20
132.4999999999999
 11
-264.3000000000001
 21
132.5
  0
LINE
  8
1
  6
CONTINUOUS
 62
     7
 10
-264.3000000000001
 20
116.4999999999999
 11
-264.3000000000001
 21
117.4999999999999
  0
LINE
  8
1
  6
CONTINUOUS
 62
     7
 10
-262.7000000000001
 20
135.9999999999999
 11
-262.7000000000001
 21
133.4999999999999
  0
LINE
  8
1
  6
CONTINUOUS
 62
     7
 10
-262.7000000000001
 20
112.9999999999999
 11
-264.3000000000001
 21
112.9999999999999
  0
LINE
  8
1
  6
CONTINUOUS
 62
     7
 10
-305.3000000000001
 20
138.8
 11
-307.3
 21
138.8
  0
LINE
  8
1
  6
CONTINUOUS
 62
     7
 10
-307.3
 20
109.6
 11
-307.3000000000001
 21
111.1999999999999
  0
LINE
  8
1
  6
CONTINUOUS
 62
     7
 10
-264.3000000000001
 20
133.4999999999999
 11
-264.3000000000001
 21
135.9999999999999
  0
LINE
  8
1
  6
CONTINUOUS
 62
     7
 10
-262.7
 20
113.9999999999999
 11
-262.7
 21
112.9999999999999
  0
LINE
  8
1
  6
CONTINUOUS
 62
     7
 10
-262.7000000000001
 20
136.9999999999999
 11
-262.7
 21
135.9999999999999
  0
LINE
  8
1
  6
CONTINUOUS
 62
     7
 10
-264.3000000000001
 20
135.9999999999999
 11
-264.3000000000001
 21
136.9999999999999
  0
LINE
  8
1
  6
CONTINUOUS
 62
     7
 10
-264.3000000000001
 20
117.4999999999999
 11
-262.7000000000001
 21
117.4999999999999
  0
LINE
  8
1
  6
CONTINUOUS
 62
     7
 10
-264.3000000000001
 20
132.4999999999999
 11
-264.3000000000001
 21
133.4999999999999
  0
LINE
  8
1
  6
CONTINUOUS
 62
     7
 10
-305.7000000000002
 20
116.4999999999999
 11
-305.7000000000002
 21
113.9999999999999
  0
LINE
  8
1
  6
CONTINUOUS
 62
     7
 10
-262.7000000000001
 20
117.4999999999999
 11
-262.7
 21
116.4999999999999
  0
LINE
  8
1
  6
CONTINUOUS
 62
     7
 10
-307.3
 20
140.4
 11
-305.3
 21
140.4
  0
LINE
  8
1
  6
CONTINUOUS
 62
     7
 10
-262.7000000000001
 20
113.9999999999999
 11
-262.7000000000001
 21
116.4999999999999
  0
LINE
  8
1
  6
CONTINUOUS
 62
     7
 10
-280.4975006940589
 20
51.87746252043291
 11
-280.8413212198582
 21
51.85794278818643
  0
POLYLINE
  8
1
  6
CONTINUOUS
 62
     7
 66
     1
  0
VERTEX
  8
1
  6
CONTINUOUS
 62
     7
 10
-307.4999885769193
 20
112.5
  0
VERTEX
  8
1
  6
CONTINUOUS
 62
     7
 10
-307.4414624917687
 20
112.5057640782483
  0
VERTEX
  8
1
  6
CONTINUOUS
 62
     7
 10
-307.3851861917761
 20
112.5228348241067
  0
VERTEX
  8
1
  6
CONTINUOUS
 62
     7
 10
-307.3333221345767
 20
112.5505562817872
  0
VERTEX
  8
1
  6
CONTINUOUS
 62
     7
 10
-307.2878632341765
 20
112.5878632341765
  0
VERTEX
  8
1
  6
CONTINUOUS
 62
     7
 10
-307.2505562817872
 20
112.6333221345767
  0
VERTEX
  8
1
  6
CONTINUOUS
 62
     7
 10
-307.2228348241068
 20
112.6851861917761
  0
VERTEX
  8
1
  6
CONTINUOUS
 62
     7
 10
-307.2057640782483
 20
112.7414624917686
  0
VERTEX
  8
1
  6
CONTINUOUS
 62
     7
 10
-307.2000000000001
 20
112.7999885769193
  0
SEQEND
  8
1
  6
CONTINUOUS
 62
     7
  0
POLYLINE
  8
1
  6
CONTINUOUS
 62
     7
 66
     1
  0
VERTEX
  8
1
  6
CONTINUOUS
 62
     7
 10
-307.4999885769193
 20
132.5
  0
VERTEX
  8
1
  6
CONTINUOUS
 62
     7
 10
-307.4455647450528
 20
132.5049777652887
  0
VERTEX
  8
1
  6
CONTINUOUS
 62
     7
 10
-307.3929476629623
 20
132.5197458797962
  0
VERTEX
  8
1
  6
CONTINUOUS
 62
     7
 10
-307.343883367394
 20
132.5438142807982
  0
VERTEX
  8
1
  6
CONTINUOUS
 62
     7
 10
-307.3
 20
132.5763842863667
  0
SEQEND
  8
1
  6
CONTINUOUS
 62
     7
  0
POLYLINE
  8
1
  6
CONTINUOUS
 62
     7
 66
     1
  0
VERTEX
  8
1
  6
CONTINUOUS
 62
     7
 10
-262.5000114230808
 20
137.5
  0
VERTEX
  8
1
  6
CONTINUOUS
 62
     7
 10
-262.5585375082315
 20
137.4942359217517
  0
VERTEX
  8
1
  6
CONTINUOUS
 62
     7
 10
-262.614813808224
 20
137.4771651758933
  0
VERTEX
  8
1
  6
CONTINUOUS
 62
     7
 10
-262.6666778654235
 20
137.4494437182128
  0
VERTEX
  8
1
  6
CONTINUOUS
 62
     7
 10
-262.7121367658236
 20
137.4121367658235
  0
VERTEX
  8
1
  6
CONTINUOUS
 62
     7
 10
-262.749443718213
 20
137.3666778654233
  0
VERTEX
  8
1
  6
CONTINUOUS
 62
     7
 10
-262.7771651758934
 20
137.3148138082239
  0
VERTEX
  8
1
  6
CONTINUOUS
 62
     7
 10
-262.7942359217519
 20
137.2585375082314
  0
VERTEX
  8
1
  6
CONTINUOUS
 62
     7
 10
-262.8000000000001
 20
137.2000114230807
  0
SEQEND
  8
1
  6
CONTINUOUS
 62
     7
  0
POLYLINE
  8
1
  6
CONTINUOUS
 62
     7
 66
     1
  0
VERTEX
  8
1
  6
CONTINUOUS
 62
     7
 10
-209.9000000000001
 20
124.9999999999998
  0
VERTEX
  8
1
  6
CONTINUOUS
 62
     7
 10
-209.853003887179
 20
124.1199168038611
  0
VERTEX
  8
1
  6
CONTINUOUS
 62
     7
 10
-209.7136429636992
 20
123.2703097576429
  0
VERTEX
  8
1
  6
CONTINUOUS
 62
     7
 10
-209.4867431192215
 20
122.4805996613644
  0
VERTEX
  8
1
  6
CONTINUOUS
 62
     7
 10
-209.1801616037283
 20
121.7781331606534
  0
VERTEX
  8
1
  6
CONTINUOUS
 62
     7
 10
-208.8045149410549
 20
121.1872357675565
  0
VERTEX
  8
1
  6
CONTINUOUS
 62
     7
 10
-208.372811292315
 20
120.7283694993224
  0
VERTEX
  8
1
  6
CONTINUOUS
 62
     7
 10
-207.9000000000001
 20
120.4174243050439
  0
SEQEND
  8
1
  6
CONTINUOUS
 62
     7
  0
POLYLINE
  8
1
  6
CONTINUOUS
 62
     7
 66
     1
  0
VERTEX
  8
1
  6
CONTINUOUS
 62
     7
 10
-307.2
 20
137.2000114230807
  0
VERTEX
  8
1
  6
CONTINUOUS
 62
     7
 10
-307.2057640782483
 20
137.2585375082313
  0
VERTEX
  8
1
  6
CONTINUOUS
 62
     7
 10
-307.2228348241068
 20
137.3148138082239
  0
VERTEX
  8
1
  6
CONTINUOUS
 62
     7
 10
-307.2505562817872
 20
137.3666778654233
  0
VERTEX
  8
1
  6
CONTINUOUS
 62
     7
 10
-307.2878632341765
 20
137.4121367658235
  0
VERTEX
  8
1
  6
CONTINUOUS
 62
     7
 10
-307.3333221345767
 20
137.4494437182128
  0
VERTEX
  8
1
  6
CONTINUOUS
 62
     7
 10
-307.3851861917762
 20
137.4771651758933
  0
VERTEX
  8
1
  6
CONTINUOUS
 62
     7
 10
-307.4414624917687
 20
137.4942359217517
  0
VERTEX
  8
1
  6
CONTINUOUS
 62
     7
 10
-307.4999885769193
 20
137.5
  0
SEQEND
  8
1
  6
CONTINUOUS
 62
     7
  0
POLYLINE
  8
1
  6
CONTINUOUS
 62
     7
 66
     1
  0
VERTEX
  8
1
  6
CONTINUOUS
 62
     7
 10
-262.7
 20
132.5763842863666
  0
VERTEX
  8
1
  6
CONTINUOUS
 62
     7
 10
-262.656116632606
 20
132.5438142807981
  0
VERTEX
  8
1
  6
CONTINUOUS
 62
     7
 10
-262.6070523370377
 20
132.5197458797962
  0
VERTEX
  8
1
  6
CONTINUOUS
 62
     7
 10
-262.5544352549474
 20
132.5049777652887
  0
VERTEX
  8
1
  6
CONTINUOUS
 62
     7
 10
-262.5000114230809
 20
132.5
  0
SEQEND
  8
1
  6
CONTINUOUS
 62
     7
  0
POLYLINE
  8
1
  6
CONTINUOUS
 62
     7
 66
     1
  0
VERTEX
  8
1
  6
CONTINUOUS
 62
     7
 10
-307.3
 20
117.4236157136333
  0
VERTEX
  8
1
  6
CONTINUOUS
 62
     7
 10
-307.343883367394
 20
117.4561857192018
  0
VERTEX
  8
1
  6
CONTINUOUS
 62
     7
 10
-307.3929476629624
 20
117.4802541202038
  0
VERTEX
  8
1
  6
CONTINUOUS
 62
     7
 10
-307.4455647450528
 20
117.4950222347113
  0
VERTEX
  8
1
  6
CONTINUOUS
 62
     7
 10
-307.4999885769193
 20
117.5
  0
SEQEND
  8
1
  6
CONTINUOUS
 62
     7
  0
POLYLINE
  8
1
  6
CONTINUOUS
 62
     7
 66
     1
  0
VERTEX
  8
1
  6
CONTINUOUS
 62
     7
 10
-262.8000000000001
 20
112.7999885769193
  0
VERTEX
  8
1
  6
CONTINUOUS
 62
     7
 10
-262.7942359217519
 20
112.7414624917687
  0
VERTEX
  8
1
  6
CONTINUOUS
 62
     7
 10
-262.7771651758934
 20
112.6851861917761
  0
VERTEX
  8
1
  6
CONTINUOUS
 62
     7
 10
-262.749443718213
 20
112.6333221345767
  0
VERTEX
  8
1
  6
CONTINUOUS
 62
     7
 10
-262.7121367658236
 20
112.5878632341765
  0
VERTEX
  8
1
  6
CONTINUOUS
 62
     7
 10
-262.6666778654235
 20
112.5505562817872
  0
VERTEX
  8
1
  6
CONTINUOUS
 62
     7
 10
-262.614813808224
 20
112.5228348241068
  0
VERTEX
  8
1
  6
CONTINUOUS
 62
     7
 10
-262.5585375082315
 20
112.5057640782483
  0
VERTEX
  8
1
  6
CONTINUOUS
 62
     7
 10
-262.5000114230808
 20
112.5
  0
SEQEND
  8
1
  6
CONTINUOUS
 62
     7
  0
POLYLINE
  8
1
  6
CONTINUOUS
 62
     7
 66
     1
  0
VERTEX
  8
1
  6
CONTINUOUS
 62
     7
 10
-262.5000114230808
 20
117.5
  0
VERTEX
  8
1
  6
CONTINUOUS
 62
     7
 10
-262.5544352549474
 20
117.4950222347113
  0
VERTEX
  8
1
  6
CONTINUOUS
 62
     7
 10
-262.6070523370377
 20
117.4802541202038
  0
VERTEX
  8
1
  6
CONTINUOUS
 62
     7
 10
-262.656116632606
 20
117.4561857192019
  0
VERTEX
  8
1
  6
CONTINUOUS
 62
     7
 10
-262.7
 20
117.4236157136334
  0
SEQEND
  8
1
  6
CONTINUOUS
 62
     7
  0
LINE
  8
1
  6
CONTINUOUS
 62
     7
 10
-231.2000000000001
 20
106.8038475772934
 11
-231.4
 21
106.8038475772934
  0
LINE
  8
1
  6
CONTINUOUS
 62
     7
 10
-222.9000000000001
 20
118.4999999999999
 11
-222.9000000000001
 21
119.5
  0
LINE
  8
1
  6
CONTINUOUS
 62
     7
 10
-222.9000000000001
 20
130.5
 11
-222.9000000000001
 21
119.5
  0
LINE
  8
1
  6
CONTINUOUS
 62
     7
 10
-222.9000000000001
 20
130.5
 11
-222.9000000000001
 21
131.5
  0
LINE
  8
1
  6
CONTINUOUS
 62
     7
 10
-222.6000000000001
 20
115.25
 11
-222.6000000000001
 21
134.75
  0
LINE
  8
1
  6
CONTINUOUS
 62
     7
 10
-218.1000000000001
 20
134.75
 11
-219.5500000000001
 21
134.75
  0
LINE
  8
1
  6
CONTINUOUS
 62
     7
 10
-226.9000000000001
 20
131.0000761524218
 11
-226.9000000000001
 21
118.9999238475781
  0
LINE
  8
1
  6
CONTINUOUS
 62
     7
 10
-228.7
 20
102.9101868962386
 11
-228.7
 21
98.03498629387825
  0
LINE
  8
1
  6
CONTINUOUS
 62
     7
 10
-219.5500000000001
 20
115.25
 11
-218.1000000000001
 21
115.25
  0
LINE
  8
1
  6
CONTINUOUS
 62
     7
 10
-222.8999999999999
 20
115.25
 11
-222.6000000000001
 21
115.25
  0
LINE
  8
1
  6
CONTINUOUS
 62
     7
 10
-217.6000000000001
 20
138.8
 11
-217.6000000000001
 21
135.25
  0
LINE
  8
1
  6
CONTINUOUS
 62
     7
 10
-217.6000000000001
 20
134.25
 11
-217.6000000000001
 21
135.25
  0
LINE
  8
1
  6
CONTINUOUS
 62
     7
 10
-217.6000000000001
 20
134.25
 11
-217.6000000000001
 21
115.75
  0
LINE
  8
1
  6
CONTINUOUS
 62
     7
 10
-222.9000000000001
 20
118.4999999999999
 11
-222.9000000000001
 21
107.9999999999998
  0
LINE
  8
1
  6
CONTINUOUS
 62
     7
 10
-218.1000000000001
 20
109.9999999999999
 11
-222.9000000000001
 21
109.9999999999999
  0
LINE
  8
1
  6
CONTINUOUS
 62
     7
 10
-223.4000000000001
 20
107.4999999999998
 11
-228.2
 21
107.4999999999998
  0
LINE
  8
1
  6
CONTINUOUS
 62
     7
 10
-231.2
 20
102.4385444277694
 11
-231.2
 21
97.50000000000003
  0
LINE
  8
1
  6
CONTINUOUS
 62
     7
 10
-231.2
 20
172.5
 11
-231.2
 21
167.5614555722306
  0
LINE
  8
1
  6
CONTINUOUS
 62
     7
 10
-228.7
 20
171.9650137061216
 11
-228.7
 21
167.0898131037613
  0
LINE
  8
1
  6
CONTINUOUS
 62
     7
 10
-222.9000000000001
 20
139.3
 11
-218.1000000000001
 21
139.3
  0
LINE
  8
1
  6
CONTINUOUS
 62
     7
 10
-228.2
 20
142.4999999999999
 11
-223.4000000000001
 21
142.4999999999999
  0
LINE
  8
1
  6
CONTINUOUS
 62
     7
 10
-223.4000000000001
 20
131.0
 11
-226.9000000000001
 21
131.0
  0
LINE
  8
1
  6
CONTINUOUS
 62
     7
 10
-226.9000000000001
 20
119.0
 11
-223.4000000000001
 21
119.0
  0
LINE
  8
1
  6
CONTINUOUS
 62
     7
 10
-222.9000000000001
 20
141.9999999999999
 11
-222.9000000000001
 21
131.5
  0
LINE
  8
1
  6
CONTINUOUS
 62
     7
 10
-220.0500000000001
 20
134.25
 11
-220.0500000000001
 21
115.75
  0
LINE
  8
1
  6
CONTINUOUS
 62
     7
 10
-217.6000000000001
 20
114.75
 11
-217.6000000000001
 21
110.4999999999999
  0
LINE
  8
1
  6
CONTINUOUS
 62
     7
 10
-231.4
 20
105.3977272726297
 11
-231.4
 21
102.6022727276215
  0
LINE
  8
1
  6
CONTINUOUS
 62
     7
 10
-217.6000000000001
 20
114.75
 11
-217.6000000000001
 21
115.75
  0
LINE
  8
1
  6
CONTINUOUS
 62
     7
 10
-231.2
 20
106.6091496454809
 11
-231.4
 21
106.6091496454809
  0
LINE
  8
1
  6
CONTINUOUS
 62
     7
 10
-231.4
 20
106.6091496454809
 11
-231.4
 21
106.8038475772934
  0
LINE
  8
1
  6
CONTINUOUS
 62
     7
 10
-222.6000000000001
 20
134.75
 11
-222.8999999999999
 21
134.75
  0
LINE
  8
1
  6
CONTINUOUS
 62
     7
 10
-231.2000000000001
 20
105.3977272727273
 11
-231.4
 21
105.3977272727273
  0
LINE
  8
1
  6
CONTINUOUS
 62
     7
 10
-307.4999999999999
 20
119.9999999999999
 11
-308.1999999999999
 21
119.9999999999999
  0
LINE
  8
1
  6
CONTINUOUS
 62
     7
 10
-307.3000000000002
 20
119.4999999999999
 11
-305.7000000000002
 21
119.4999999999999
  0
LINE
  8
1
  6
CONTINUOUS
 62
     7
 10
-262.4999999999999
 20
162.4999999999999
 11
-262.4999999999999
 21
142.4999999999999
  0
LINE
  8
1
  6
CONTINUOUS
 62
     7
 10
-307.3
 20
116.4999999999999
 11
-307.3
 21
117.4999999999999
  0
LINE
  8
1
  6
CONTINUOUS
 62
     7
 10
-305.7000000000002
 20
130.4999999999999
 11
-305.7000000000002
 21
132.4999999999999
  0
LINE
  8
1
  6
CONTINUOUS
 62
     7
 10
-307.4999999999999
 20
142.4999999999998
 11
-307.4999999999999
 21
162.4999999999999
  0
LINE
  8
1
  6
CONTINUOUS
 62
     7
 10
-264.3000000000001
 20
112.9999999999999
 11
-264.3000000000001
 21
111.2
  0
LINE
  8
1
  6
CONTINUOUS
 62
     7
 10
-262.4999999999999
 20
142.4999999999998
 11
-307.4999999999999
 21
142.4999999999998
  0
LINE
  8
1
  6
CONTINUOUS
 62
     7
 10
-262.4999999999999
 20
121.5
 11
-262.4999999999999
 21
124.25
  0
LINE
  8
1
  6
CONTINUOUS
 62
     7
 10
-307.3000000000001
 20
112.9999999999999
 11
-307.3
 21
113.9999999999999
  0
LINE
  8
1
  6
CONTINUOUS
 62
     7
 10
-262.7000000000001
 20
130.4999999999999
 11
-264.3000000000001
 21
130.4999999999999
  0
LINE
  8
1
  6
CONTINUOUS
 62
     7
 10
-309.5
 20
106.9440036771981
 11
-309.5
 21
163.0559963228019
  0
LINE
  8
1
  6
CONTINUOUS
 62
     7
 10
-262.4450207329181
 20
118.9999999999999
 11
-262.4450207329181
 21
109.4450207329181
  0
LINE
  8
1
  6
CONTINUOUS
 62
     7
 10
-307.5549792670818
 20
130.9999999999999
 11
-307.5549792670818
 21
140.5549792670817
  0
LINE
  8
1
  6
CONTINUOUS
 62
     7
 10
-305.7000000000002
 20
112.9999999999999
 11
-307.3000000000002
 21
112.9999999999999
  0
LINE
  8
1
  6
CONTINUOUS
 62
     7
 10
-305.7000000000002
 20
132.4999999999999
 11
-307.3000000000002
 21
132.4999999999999
  0
LINE
  8
1
  6
CONTINUOUS
 62
     7
 10
-262.7000000000001
 20
119.9999999999999
 11
-262.7000000000001
 21
119.4999999999999
  0
LINE
  8
1
  6
CONTINUOUS
 62
     7
 10
-262.7000000000001
 20
119.4999999999999
 11
-264.3000000000001
 21
119.4999999999999
  0
LINE
  8
1
  6
CONTINUOUS
 62
     7
 10
-262.4999999999999
 20
130.0
 11
-261.7999999999998
 21
130.0
  0
LINE
  8
1
  6
CONTINUOUS
 62
     7
 10
-307.3000000000002
 20
117.4999999999999
 11
-305.7000000000002
 21
117.4999999999999
  0
LINE
  8
1
  6
CONTINUOUS
 62
     7
 10
-262.4999999999999
 20
125.75
 11
-262.4999999999999
 21
124.25
  0
LINE
  8
1
  6
CONTINUOUS
 62
     7
 10
-262.4999999999999
 20
130.0
 11
-262.4999999999999
 21
128.5
  0
LINE
  8
1
  6
CONTINUOUS
 62
     7
 10
-308.1999999999999
 20
130.9999999999999
 11
-307.5549792670817
 21
130.9999999999999
  0
LINE
  8
1
  6
CONTINUOUS
 62
     7
 10
-307.4999999999999
 20
130.0
 11
-308.1999999999999
 21
129.9999999999999
  0
LINE
  8
1
  6
CONTINUOUS
 62
     7
 10
-261.7999999999999
 20
119.9999999999999
 11
-261.7999999999999
 21
118.9999999999999
  0
LINE
  8
1
  6
CONTINUOUS
 62
     7
 10
-307.4999999999999
 20
128.5
 11
-307.4999999999999
 21
130.0
  0
LINE
  8
1
  6
CONTINUOUS
 62
     7
 10
-305.7000000000002
 20
113.9999999999999
 11
-305.7000000000002
 21
112.9999999999999
  0
LINE
  8
1
  6
CONTINUOUS
 62
     7
 10
-305.7000000000002
 20
119.4999999999999
 11
-305.7000000000002
 21
117.4999999999999
  0
LINE
  8
1
  6
CONTINUOUS
 62
     7
 10
-262.4450207329181
 20
109.4450207329181
 11
-307.5549792670818
 21
109.4450207329181
  0
LINE
  8
1
  6
CONTINUOUS
 62
     7
 10
-307.4999999999999
 20
162.4999999999999
 11
-262.4999999999999
 21
162.4999999999999
  0
LINE
  8
1
  6
CONTINUOUS
 62
     7
 10
-307.4999999999999
 20
121.5
 11
-307.4999999999999
 21
124.25
  0
LINE
  8
1
  6
CONTINUOUS
 62
     7
 10
-261.7999999999999
 20
118.9999999999999
 11
-262.4450207329181
 21
118.9999999999999
  0
LINE
  8
1
  6
CONTINUOUS
 62
     7
 10
-308.1999999999999
 20
119.9999999999999
 11
-308.1999999999999
 21
118.9999999999999
  0
LINE
  8
1
  6
CONTINUOUS
 62
     7
 10
-261.7999999999999
 20
129.9999999999999
 11
-261.7999999999999
 21
130.9999999999999
  0
LINE
  8
1
  6
CONTINUOUS
 62
     7
 10
-305.7000000000002
 20
117.4999999999999
 11
-305.7000000000002
 21
116.4999999999999
  0
LINE
  8
1
  6
CONTINUOUS
 62
     7
 10
-307.4999999999999
 20
128.5
 11
-307.4999999999999
 21
125.75
  0
LINE
  8
1
  6
CONTINUOUS
 62
     7
 10
-307.3000000000002
 20
130.4999999999999
 11
-305.7000000000002
 21
130.4999999999999
  0
LINE
  8
1
  6
CONTINUOUS
 62
     7
 10
-307.4999999999999
 20
119.9999999999999
 11
-307.4999999999999
 21
121.4999999999999
  0
LINE
  8
1
  6
CONTINUOUS
 62
     7
 10
-305.7000000000002
 20
136.9999999999999
 11
-305.7000000000002
 21
135.9999999999999
  0
LINE
  8
1
  6
CONTINUOUS
 62
     7
 10
-305.7000000000002
 20
133.4999999999999
 11
-305.7000000000002
 21
135.9999999999999
  0
LINE
  8
1
  6
CONTINUOUS
 62
     7
 10
-308.1999999999999
 20
118.9999999999999
 11
-307.5549792670817
 21
118.9999999999999
  0
LINE
  8
1
  6
CONTINUOUS
 62
     7
 10
-264.1
 20
120.0
 11
-264.0999999999999
 21
121.4999999999999
  0
LINE
  8
1
  6
CONTINUOUS
 62
     7
 10
-264.0999999999999
 20
121.5
 11
-262.4999999999999
 21
121.5
  0
LINE
  8
1
  6
CONTINUOUS
 62
     7
 10
-261.7999999999999
 20
131.0
 11
-262.4450207329181
 21
131.0
  0
LINE
  8
1
  6
CONTINUOUS
 62
     7
 10
-264.3000000000001
 20
136.9999999999999
 11
-264.3000000000001
 21
138.8
  0
LINE
  8
1
  6
CONTINUOUS
 62
     7
 10
-262.4999999999999
 20
121.5
 11
-262.4999999999999
 21
119.9999999999999
  0
LINE
  8
1
  6
CONTINUOUS
 62
     7
 10
-307.3000000000002
 20
135.9999999999999
 11
-307.3000000000002
 21
133.4999999999999
  0
LINE
  8
1
  6
CONTINUOUS
 62
     7
 10
-305.7000000000002
 20
136.9999999999999
 11
-305.7000000000001
 21
138.8
  0
LINE
  8
1
  6
CONTINUOUS
 62
     7
 10
-262.7000000000001
 20
130.4999999999999
 11
-262.7000000000001
 21
130.0
  0
LINE
  8
1
  6
CONTINUOUS
 62
     7
 10
-307.5549792670818
 20
109.4450207329181
 11
-307.5549792670818
 21
118.9999999999999
  0
LINE
  8
1
  6
CONTINUOUS
 62
     7
 10
-307.3000000000002
 20
132.4999999999999
 11
-307.3
 21
133.4999999999999
  0
LINE
  8
1
  6
CONTINUOUS
 62
     7
 10
-307.3000000000002
 20
119.4999999999999
 11
-307.3000000000002
 21
119.9999999999999
  0
LINE
  8
1
  6
CONTINUOUS
 62
     7
 10
-307.3000000000002
 20
130.0
 11
-307.3000000000002
 21
130.4999999999999
  0
LINE
  8
1
  6
CONTINUOUS
 62
     7
 10
-260.5
 20
163.0559963228019
 11
-260.5
 21
106.9440036771981
  0
LINE
  8
1
  6
CONTINUOUS
 62
     7
 10
-262.4999999999999
 20
119.9999999999999
 11
-261.7999999999998
 21
119.9999999999999
  0
LINE
  8
1
  6
CONTINUOUS
 62
     7
 10
-262.4999999999999
 20
128.5
 11
-262.4999999999999
 21
125.75
  0
LINE
  8
1
  6
CONTINUOUS
 62
     7
 10
-262.4450207329181
 20
140.5549792670817
 11
-262.4450207329181
 21
131.0
  0
LINE
  8
1
  6
CONTINUOUS
 62
     7
 10
-307.5549792670818
 20
140.5549792670817
 11
-262.4450207329181
 21
140.5549792670817
  0
LINE
  8
1
  6
CONTINUOUS
 62
     7
 10
-308.1999999999999
 20
129.9999999999999
 11
-308.1999999999999
 21
130.9999999999999
  0
LINE
  8
1
  6
CONTINUOUS
 62
     7
 10
-264.3000000000001
 20
130.4999999999999
 11
-264.3000000000001
 21
132.4999999999999
  0
LINE
  8
1
  6
CONTINUOUS
 62
     7
 10
-305.7000000000002
 20
112.9999999999999
 11
-305.7000000000002
 21
111.1999999999999
  0
LINE
  8
1
  6
CONTINUOUS
 62
     7
 10
-264.3000000000001
 20
119.5
 11
-264.3000000000001
 21
117.4999999999999
  0
LINE
  8
1
  6
CONTINUOUS
 62
     7
 10
-307.4999999999999
 20
124.2499999999999
 11
-307.4999999999999
 21
125.7499999999999
  0
LINE
  8
1
  6
CONTINUOUS
 62
     7
 10
-305.7000000000002
 20
133.4999999999999
 11
-305.7000000000002
 21
132.4999999999999
  0
LINE
  8
1
  6
CONTINUOUS
 62
     7
 10
-305.9
 20
121.5
 11
-305.9
 21
120.0
  0
LINE
  8
1
  6
CONTINUOUS
 62
     7
 10
-307.5174537355815
 20
119.0
 11
-307.4999999999999
 21
119.0
  0
LINE
  8
1
  6
CONTINUOUS
 62
     7
 10
-262.4738193966276
 20
116.4825081860328
 11
-262.4738193966276
 21
113.5174918139673
  0
LINE
  8
1
  6
CONTINUOUS
 62
     7
 10
-262.4999999999999
 20
112.5
 11
-262.4824701090968
 21
112.5175298909031
  0
LINE
  8
1
  6
CONTINUOUS
 62
     7
 10
-307.4999999999999
 20
109.4999999999998
 11
-307.4999999999999
 21
112.5
  0
LINE
  8
1
  6
CONTINUOUS
 62
     7
 10
-307.5549792670818
 20
140.5549792670817
 11
-307.5
 21
140.4999999999999
  0
LINE
  8
1
  6
CONTINUOUS
 62
     7
 10
-262.4999999999999
 20
112.5
 11
-262.4999999999999
 21
109.4999999999998
  0
LINE
  8
1
  6
CONTINUOUS
 62
     7
 10
-262.4738193966276
 20
113.5174918139673
 11
-262.4824701090968
 21
112.5175298909031
  0
LINE
  8
1
  6
CONTINUOUS
 62
     7
 10
-262.4450207329181
 20
140.5549792670817
 11
-262.4999999999999
 21
140.4999999999999
  0
LINE
  8
1
  6
CONTINUOUS
 62
     7
 10
-262.4999999999999
 20
131.0
 11
-262.4825462644184
 21
131.0
  0
LINE
  8
1
  6
CONTINUOUS
 62
     7
 10
-262.4999999999999
 20
119.9999999999999
 11
-264.1
 21
120.0
  0
LINE
  8
1
  6
CONTINUOUS
 62
     7
 10
-262.4450207329181
 20
118.9999999999999
 11
-262.4738193966277
 21
118.9999999999999
  0
LINE
  8
1
  6
CONTINUOUS
 62
     7
 10
-307.4999999999999
 20
112.5
 11
-307.517529890903
 21
112.5175298909031
  0
LINE
  8
1
  6
CONTINUOUS
 62
     7
 10
-307.5261806033722
 20
133.5174918139673
 11
-307.5261806033722
 21
136.4825081860327
  0
LINE
  8
1
  6
CONTINUOUS
 62
     7
 10
-307.4999999999999
 20
132.5
 11
-307.517529890903
 21
132.5175298909031
  0
LINE
  8
1
  6
CONTINUOUS
 62
     7
 10
-307.5174537355815
 20
120.0
 11
-307.5174537355815
 21
119.0
  0
LINE
  8
1
  6
CONTINUOUS
 62
     7
 10
-305.9
 20
125.75
 11
-305.8999999999999
 21
124.25
  0
LINE
  8
1
  6
CONTINUOUS
 62
     7
 10
-262.4738193966276
 20
118.9999999999999
 11
-262.4738193966276
 21
119.9999999999999
  0
LINE
  8
1
  6
CONTINUOUS
 62
     7
 10
-307.4999999999999
 20
130.0
 11
-305.9
 21
130.0
  0
LINE
  8
1
  6
CONTINUOUS
 62
     7
 10
-264.0999999999999
 20
125.75
 11
-262.4999999999999
 21
125.75
  0
LINE
  8
1
  6
CONTINUOUS
 62
     7
 10
-307.5549792670818
 20
118.9999999999999
 11
-307.5261806033722
 21
118.9999999999999
  0
LINE
  8
1
  6
CONTINUOUS
 62
     7
 10
-307.4999999999999
 20
137.5
 11
-307.4999999999999
 21
140.4999999999999
  0
LINE
  8
1
  6
CONTINUOUS
 62
     7
 10
-307.5261806033722
 20
136.4825081860327
 11
-307.517529890903
 21
137.4824701090969
  0
LINE
  8
1
  6
CONTINUOUS
 62
     7
 10
-307.517529890903
 20
132.5175298909031
 11
-307.5261806033722
 21
133.5174918139673
  0
LINE
  8
1
  6
CONTINUOUS
 62
     7
 10
-307.5261806033722
 20
116.4825081860328
 11
-307.5261806033722
 21
113.5174918139673
  0
LINE
  8
1
  6
CONTINUOUS
 62
     7
 10
-307.4999999999999
 20
117.5
 11
-307.517529890903
 21
117.4824701090969
  0
LINE
  8
1
  6
CONTINUOUS
 62
     7
 10
-262.4825462644184
 20
119.0
 11
-262.4999999999999
 21
119.0
  0
LINE
  8
1
  6
CONTINUOUS
 62
     7
 10
-307.4999999999999
 20
131.0
 11
-307.5174537355815
 21
131.0
  0
LINE
  8
1
  6
CONTINUOUS
 62
     7
 10
-264.1
 20
130.0
 11
-262.4999999999999
 21
130.0
  0
LINE
  8
1
  6
CONTINUOUS
 62
     7
 10
-262.4824701090969
 20
117.4824701090969
 11
-262.4738193966277
 21
116.4825081860328
  0
LINE
  8
1
  6
CONTINUOUS
 62
     7
 10
-307.4999999999999
 20
131.0
 11
-307.4999999999999
 21
132.5
  0
LINE
  8
1
  6
CONTINUOUS
 62
     7
 10
-262.4738193966276
 20
133.5174918139673
 11
-262.4824701090968
 21
132.5175298909031
  0
LINE
  8
1
  6
CONTINUOUS
 62
     7
 10
-262.4999999999999
 20
137.5
 11
-262.4824701090968
 21
137.4824701090969
  0
LINE
  8
1
  6
CONTINUOUS
 62
     7
 10
-307.5549792670818
 20
109.4450207329181
 11
-307.5
 21
109.4999999999998
  0
LINE
  8
1
  6
CONTINUOUS
 62
     7
 10
-262.4999999999999
 20
140.4999999999999
 11
-262.4999999999999
 21
137.5
  0
LINE
  8
1
  6
CONTINUOUS
 62
     7
 10
-307.4999999999999
 20
117.5
 11
-307.4999999999999
 21
118.9999999999999
  0
LINE
  8
1
  6
CONTINUOUS
 62
     7
 10
-262.4738193966276
 20
133.5174918139673
 11
-262.4738193966276
 21
136.4825081860327
  0
LINE
  8
1
  6
CONTINUOUS
 62
     7
 10
-264.1
 20
128.5
 11
-264.1
 21
130.0
  0
LINE
  8
1
  6
CONTINUOUS
 62
     7
 10
-307.5549792670818
 20
130.9999999999999
 11
-307.5261806033722
 21
130.9999999999999
  0
LINE
  8
1
  6
CONTINUOUS
 62
     7
 10
-307.5261806033722
 20
116.4825081860328
 11
-307.517529890903
 21
117.4824701090969
  0
LINE
  8
1
  6
CONTINUOUS
 62
     7
 10
-307.4999999999999
 20
125.75
 11
-305.9
 21
125.75
  0
LINE
  8
1
  6
CONTINUOUS
 62
     7
 10
-262.4738193966276
 20
131.0
 11
-262.4738193966276
 21
130.0
  0
LINE
  8
1
  6
CONTINUOUS
 62
     7
 10
-262.4825462644184
 20
120.0
 11
-262.4825462644184
 21
119.0
  0
LINE
  8
1
  6
CONTINUOUS
 62
     7
 10
-262.4999999999999
 20
117.5
 11
-262.4824701090968
 21
117.4824701090969
  0
LINE
  8
1
  6
CONTINUOUS
 62
     7
 10
-307.5261806033722
 20
130.9999999999999
 11
-307.5261806033722
 21
129.9999999999999
  0
LINE
  8
1
  6
CONTINUOUS
 62
     7
 10
-262.4999999999999
 20
128.5
 11
-264.1
 21
128.5
  0
LINE
  8
1
  6
CONTINUOUS
 62
     7
 10
-262.4999999999999
 20
124.25
 11
-264.1
 21
124.25
  0
LINE
  8
1
  6
CONTINUOUS
 62
     7
 10
-307.4999999999999
 20
137.5
 11
-307.517529890903
 21
137.4824701090969
  0
LINE
  8
1
  6
CONTINUOUS
 62
     7
 10
-305.8999999999999
 20
124.25
 11
-307.4999999999999
 21
124.2499999999999
  0
LINE
  8
1
  6
CONTINUOUS
 62
     7
 10
-305.9
 20
130.0
 11
-305.8999999999999
 21
128.5
  0
LINE
  8
1
  6
CONTINUOUS
 62
     7
 10
-305.8999999999999
 20
128.5
 11
-307.4999999999999
 21
128.5
  0
LINE
  8
1
  6
CONTINUOUS
 62
     7
 10
-262.4999999999999
 20
132.5
 11
-262.4999999999999
 21
131.0
  0
LINE
  8
1
  6
CONTINUOUS
 62
     7
 10
-262.4999999999999
 20
119.0
 11
-262.4999999999999
 21
117.5
  0
LINE
  8
1
  6
CONTINUOUS
 62
     7
 10
-264.1
 20
124.25
 11
-264.0999999999999
 21
125.75
  0
LINE
  8
1
  6
CONTINUOUS
 62
     7
 10
-307.4999999999999
 20
121.5
 11
-305.9
 21
121.5
  0
LINE
  8
1
  6
CONTINUOUS
 62
     7
 10
-307.517529890903
 20
112.5175298909031
 11
-307.5261806033722
 21
113.5174918139673
  0
LINE
  8
1
  6
CONTINUOUS
 62
     7
 10
-307.5261806033722
 20
118.9999999999999
 11
-307.5261806033722
 21
119.9999999999999
  0
LINE
  8
1
  6
CONTINUOUS
 62
     7
 10
-307.5174537355815
 20
131.0
 11
-307.5174537355815
 21
130.0
  0
LINE
  8
1
  6
CONTINUOUS
 62
     7
 10
-262.4450207329181
 20
131.0
 11
-262.4738193966277
 21
131.0
  0
LINE
  8
1
  6
CONTINUOUS
 62
     7
 10
-262.4999999999999
 20
132.5
 11
-262.4824701090968
 21
132.5175298909031
  0
LINE
  8
1
  6
CONTINUOUS
 62
     7
 10
-305.9
 20
120.0
 11
-307.4999999999999
 21
119.9999999999999
  0
LINE
  8
1
  6
CONTINUOUS
 62
     7
 10
-262.4450207329181
 20
109.4450207329181
 11
-262.4999999999999
 21
109.4999999999998
  0
LINE
  8
1
  6
CONTINUOUS
 62
     7
 10
-262.4825462644184
 20
131.0
 11
-262.4825462644184
 21
130.0
  0
LINE
  8
1
  6
CONTINUOUS
 62
     7
 10
-262.4824701090968
 20
137.4824701090969
 11
-262.4738193966276
 21
136.4825081860327
  0
LINE
  8
1
  6
CONTINUOUS
 62
     7
 10
-210.0142857142858
 20
129.75
 11
-207.9
 21
129.75
  0
LINE
  8
1
  6
CONTINUOUS
 62
     7
 10
-307.2
 20
112.7999885769193
 11
-307.2
 21
112.9999999999999
  0
LINE
  8
1
  6
CONTINUOUS
 62
     7
 10
-209.9
 20
124.9999999999998
 11
-209.9
 21
128.75
  0
LINE
  8
1
  6
CONTINUOUS
 62
     7
 10
-212.1
 20
129.75
 11
-217.6000000000001
 21
129.7499999999998
  0
LINE
  8
1
  6
CONTINUOUS
 62
     7
 10
-228.7
 20
106.9999999999998
 11
-228.7
 21
106.9660555463225
  0
LINE
  8
1
  6
CONTINUOUS
 62
     7
 10
-275.7
 20
109.4999999999998
 11
-272.9
 21
109.5
  0
LINE
  8
1
  6
CONTINUOUS
 62
     7
 10
-297.1
 20
109.4999999999998
 11
-307.4999999999999
 21
109.4999999999998
  0
LINE
  8
1
  6
CONTINUOUS
 62
     7
 10
-264.3000000000001
 20
131.0
 11
-262.4999999999999
 21
131.0
  0
LINE
  8
1
  6
CONTINUOUS
 62
     7
 10
-275.7
 20
109.4999999999998
 11
-294.3000000000001
 21
109.5
  0
LINE
  8
1
  6
CONTINUOUS
 62
     7
 10
-207.9
 20
120.25
 11
-211.4
 21
120.25
  0
LINE
  8
1
  6
CONTINUOUS
 62
     7
 10
-231.5000000000001
 20
112.5
 11
-231.2
 21
112.5
  0
LINE
  8
1
  6
CONTINUOUS
 62
     7
 10
-231.5000000000001
 20
137.5
 11
-231.2
 21
137.5
  0
LINE
  8
1
  6
CONTINUOUS
 62
     7
 10
-232.1000000000001
 20
138.8
 11
-232.1000000000001
 21
140.3999999999999
  0
LINE
  8
1
  6
CONTINUOUS
 62
     7
 10
-305.8999999999999
 20
124.25
 11
-305.9
 21
121.5
  0
LINE
  8
1
  6
CONTINUOUS
 62
     7
 10
-224.9
 20
130.4999999999999
 11
-224.9
 21
119.4999999999999
  0
LINE
  8
1
  6
CONTINUOUS
 62
     7
 10
-226.5000000000001
 20
130.4999999999999
 11
-226.5000000000001
 21
131.0
  0
LINE
  8
1
  6
CONTINUOUS
 62
     7
 10
-264.1
 20
124.25
 11
-264.0999999999999
 21
121.5
  0
LINE
  8
1
  6
CONTINUOUS
 62
     7
 10
-307.2
 20
137.2000114230808
 11
-307.2
 21
136.9999999999999
  0
LINE
  8
1
  6
CONTINUOUS
 62
     7
 10
-212.1
 20
128.75
 11
-212.1
 21
129.75
  0
LINE
  8
1
  6
CONTINUOUS
 62
     7
 10
-224.9
 20
119.4999999999999
 11
-224.9
 21
119.0
  0
LINE
  8
1
  6
CONTINUOUS
 62
     7
 10
-226.5000000000001
 20
119.4999999999999
 11
-224.9
 21
119.4999999999999
  0
LINE
  8
1
  6
CONTINUOUS
 62
     7
 10
-305.9
 20
125.75
 11
-305.8999999999999
 21
128.5
  0
LINE
  8
1
  6
CONTINUOUS
 62
     7
 10
-307.4999999999999
 20
140.4999999999999
 11
-262.4999999999999
 21
140.4999999999999
  0
LINE
  8
1
  6
CONTINUOUS
 62
     7
 10
-226.5000000000001
 20
130.4999999999999
 11
-226.5000000000001
 21
119.4999999999999
  0
LINE
  8
1
  6
CONTINUOUS
 62
     7
 10
-207.9
 20
129.75
 11
-207.9
 21
120.4174243050439
  0
LINE
  8
1
  6
CONTINUOUS
 62
     7
 10
-207.9
 20
120.4174243050439
 11
-207.9
 21
120.2499999999998
  0
LINE
  8
1
  6
CONTINUOUS
 62
     7
 10
-231.5000000000001
 20
137.5
 11
-231.5000000000001
 21
112.5
  0
LINE
  8
1
  6
CONTINUOUS
 62
     7
 10
-224.9
 20
130.4999999999999
 11
-224.9
 21
131.0
  0
LINE
  8
1
  6
CONTINUOUS
 62
     7
 10
-226.5000000000001
 20
119.5
 11
-226.5000000000001
 21
119.0
  0
LINE
  8
1
  6
CONTINUOUS
 62
     7
 10
-294.3000000000001
 20
109.5
 11
-297.1
 21
109.4999999999998
  0
LINE
  8
1
  6
CONTINUOUS
 62
     7
 10
-226.5000000000001
 20
130.4999999999999
 11
-224.9
 21
130.4999999999999
  0
LINE
  8
1
  6
CONTINUOUS
 62
     7
 10
-210.0142857142858
 20
129.75
 11
-212.1
 21
129.75
  0
LINE
  8
1
  6
CONTINUOUS
 62
     7
 10
-231.2
 20
102.4385444277694
 11
-231.2
 21
106.9440036771981
  0
LINE
  8
1
  6
CONTINUOUS
 62
     7
 10
-231.2
 20
163.0559963228019
 11
-231.2
 21
167.5614555722306
  0
LINE
  8
1
  6
CONTINUOUS
 62
     7
 10
-262.4999999999999
 20
119.0
 11
-264.3
 21
119.0
  0
LINE
  8
1
  6
CONTINUOUS
 62
     7
 10
-209.9
 20
128.75
 11
-212.1
 21
128.75
  0
LINE
  8
1
  6
CONTINUOUS
 62
     7
 10
-232.1000000000001
 20
109.5999999999999
 11
-232.1000000000001
 21
111.1999999999999
  0
LINE
  8
1
  6
CONTINUOUS
 62
     7
 10
-211.4
 20
120.25
 11
-217.6000000000001
 21
120.2499999999998
  0
LINE
  8
1
  6
CONTINUOUS
 62
     7
 10
-232.1
 20
111.1999999999999
 11
-231.2
 21
111.1999999999999
  0
LINE
  8
1
  6
CONTINUOUS
 62
     7
 10
-264.0999999999999
 20
125.75
 11
-264.1
 21
128.5
  0
LINE
  8
1
  6
CONTINUOUS
 62
     7
 10
-231.2
 20
109.6
 11
-232.1000000000001
 21
109.6
  0
LINE
  8
1
  6
CONTINUOUS
 62
     7
 10
-262.8000000000001
 20
137.2000114230808
 11
-262.8000000000001
 21
136.9999999999999
  0
LINE
  8
1
  6
CONTINUOUS
 62
     7
 10
-232.1000000000001
 20
140.3999999999999
 11
-231.2
 21
140.4
  0
LINE
  8
1
  6
CONTINUOUS
 62
     7
 10
-272.9
 20
109.5
 11
-272.9
 21
109.6
  0
LINE
  8
1
  6
CONTINUOUS
 62
     7
 10
-209.9
 20
128.75
 11
-210.0142857142858
 21
129.75
  0
LINE
  8
1
  6
CONTINUOUS
 62
     7
 10
-231.2
 20
138.8
 11
-232.1
 21
138.8
  0
LINE
  8
1
  6
CONTINUOUS
 62
     7
 10
-305.7000000000002
 20
131.0
 11
-307.5
 21
131.0
  0
LINE
  8
1
  6
CONTINUOUS
 62
     7
 10
-228.7
 20
167.0898131037613
 11
-228.7
 21
163.0339444536774
  0
LINE
  8
1
  6
CONTINUOUS
 62
     7
 10
-307.4999999999999
 20
119.0
 11
-305.7000000000002
 21
119.0
  0
LINE
  8
1
  6
CONTINUOUS
 62
     7
 10
-262.8000000000001
 20
112.7999885769193
 11
-262.8000000000001
 21
112.9999999999999
  0
LINE
  8
1
  6
CONTINUOUS
 62
     7
 10
-212.1
 20
124.9999999999995
 11
-212.1
 21
128.75
  0
LINE
  8
1
  6
CONTINUOUS
 62
     7
 10
-228.7
 20
106.9660555463225
 11
-228.7
 21
106.9160371320231
  0
LINE
  8
1
  6
CONTINUOUS
 62
     7
 10
-228.7
 20
106.9160371320231
 11
-228.7
 21
102.9101868962386
  0
LINE
  8
1
  6
CONTINUOUS
 62
     7
 10
-231.2
 20
163.0559963228019
 11
-231.2
 21
106.9440036771981
  0
LINE
  8
1
  6
CONTINUOUS
 62
     7
 10
-262.4999999999999
 20
109.4999999999998
 11
-272.9
 21
109.5
  0
LINE
  8
1
  6
CONTINUOUS
 62
     7
 10
-228.7
 20
163.0339444536774
 11
-228.7
 21
142.9999999999999
  0
LINE
  8
1
  6
CONTINUOUS
 62
     7
 10
-231.2
 20
102.0
 11
-231.4
 21
102.0
  0
LINE
  8
1
  6
CONTINUOUS
 62
     7
 10
-231.4
 20
106.0386578692378
 11
-231.4
 21
106.0433566499244
  0
LINE
  8
1
  6
CONTINUOUS
 62
     7
 10
-229.1912737967814
 20
172.4649375536998
 11
-231.2
 21
172.5
  0
LINE
  8
1
  6
CONTINUOUS
 62
     7
 10
-231.2000000000001
 20
105.9853589838486
 11
-231.4000000000001
 21
105.9853589838486
  0
LINE
  8
1
  6
CONTINUOUS
 62
     7
 10
-231.4
 20
106.0433566499244
 11
-231.4
 21
106.0925893997454
  0
LINE
  8
1
  6
CONTINUOUS
 62
     7
 10
-291.8313708498985
 20
62.75000000000003
 11
-291.2656854249493
 21
62.75000000000003
  0
LINE
  8
1
  6
CONTINUOUS
 62
     7
 10
-286.1689839338075
 20
60.05000000000002
 11
-286.4387494569938
 21
60.05000000000002
  0
LINE
  8
1
  6
CONTINUOUS
 62
     7
 10
-283.8310160661925
 20
62.75000000000003
 11
-283.5612505430062
 21
62.75000000000003
  0
LINE
  8
1
  6
CONTINUOUS
 62
     7
 10
-231.4
 20
106.3396201540886
 11
-231.4
 21
106.441906801789
  0
LINE
  8
1
  6
CONTINUOUS
 62
     7
 10
-231.2000000000001
 20
106.0386578692378
 11
-231.4
 21
106.0386578692378
  0
LINE
  8
1
  6
CONTINUOUS
 62
     7
 10
-231.4
 20
106.0133481811617
 11
-231.4
 21
106.0386578692378
  0
LINE
  8
1
  6
CONTINUOUS
 62
     7
 10
-231.2000000000001
 20
106.0433566499244
 11
-231.4
 21
106.0433566499244
  0
LINE
  8
1
  6
CONTINUOUS
 62
     7
 10
-231.2000000000001
 20
100.0066740905808
 11
-231.4
 21
100.0066740905808
  0
LINE
  8
1
  6
CONTINUOUS
 62
     7
 10
-286.4387494569938
 20
62.75000000000003
 11
-286.6686291501015
 21
62.75000000000003
  0
LINE
  8
1
  6
CONTINUOUS
 62
     7
 10
-231.4
 20
102.0
 11
-231.4
 21
102.6003299782636
  0
LINE
  8
1
  6
CONTINUOUS
 62
     7
 10
-278.7343145750507
 20
62.75000000000003
 11
-278.1686291501015
 21
62.75000000000003
  0
LINE
  8
1
  6
CONTINUOUS
 62
     7
 10
-231.2000000000001
 20
108.0
 11
-231.4
 21
108.0
  0
LINE
  8
1
  6
CONTINUOUS
 62
     7
 10
-231.2000000000001
 20
106.3396201540886
 11
-231.4
 21
106.3396201540886
  0
LINE
  8
1
  6
CONTINUOUS
 62
     7
 10
-231.2000000000001
 20
106.0000335567655
 11
-231.4
 21
106.0000335567655
  0
LINE
  8
1
  6
CONTINUOUS
 62
     7
 10
-231.4
 20
100.0
 11
-231.4
 21
100.0066740905808
  0
LINE
  8
1
  6
CONTINUOUS
 62
     7
 10
-287.2343145750507
 20
62.75000000000003
 11
-286.6686291501015
 21
62.75000000000003
  0
LINE
  8
1
  6
CONTINUOUS
 62
     7
 10
-231.2000000000001
 20
106.0133481811617
 11
-231.4
 21
106.0133481811617
  0
LINE
  8
1
  6
CONTINUOUS
 62
     7
 10
-291.2656854249493
 20
60.05000000000002
 11
-291.8313708498985
 21
60.05000000000002
  0
LINE
  8
1
  6
CONTINUOUS
 62
     7
 10
-283.5612505430062
 20
60.05000000000002
 11
-283.8310160661925
 21
60.05000000000002
  0
LINE
  8
1
  6
CONTINUOUS
 62
     7
 10
-295.8464466094068
 20
62.75000000000003
 11
-295.4928932188135
 21
62.75000000000003
  0
LINE
  8
1
  6
CONTINUOUS
 62
     7
 10
-231.4
 20
100.0066740905808
 11
-231.4
 21
102.0
  0
LINE
  8
1
  6
CONTINUOUS
 62
     7
 10
-231.4
 20
105.4061731175872
 11
-231.4
 21
105.9769059892324
  0
LINE
  8
1
  6
CONTINUOUS
 62
     7
 10
-276.7
 20
60.05000000000002
 11
-278.1686291501015
 21
60.05000000000002
  0
LINE
  8
1
  6
CONTINUOUS
 62
     7
 10
-231.2000000000001
 20
106.0925893997454
 11
-231.4
 21
106.0925893997454
  0
LINE
  8
1
  6
CONTINUOUS
 62
     7
 10
-231.4
 20
106.0000334449096
 11
-231.4
 21
106.0133481811617
  0
LINE
  8
1
  6
CONTINUOUS
 62
     7
 10
-283.3313708498985
 20
60.05000000000002
 11
-283.5612505430062
 21
60.05000000000002
  0
LINE
  8
1
  6
CONTINUOUS
 62
     7
 10
-274.5071067811866
 20
62.75000000000003
 11
-274.1535533905933
 21
62.75000000000003
  0
LINE
  8
1
  6
CONTINUOUS
 62
     7
 10
-291.8313708498985
 20
62.75000000000003
 11
-295.4928932188135
 21
62.75000000000003
  0
LINE
  8
1
  6
CONTINUOUS
 62
     7
 10
-283.3313708498985
 20
62.75000000000003
 11
-283.5612505430062
 21
62.75000000000003
  0
LINE
  8
1
  6
CONTINUOUS
 62
     7
 10
-283.3313708498985
 20
62.75000000000003
 11
-282.7656854249493
 21
62.75000000000003
  0
LINE
  8
1
  6
CONTINUOUS
 62
     7
 10
-291.8313708498985
 20
60.05000000000002
 11
-293.3
 21
60.05000000000002
  0
LINE
  8
1
  6
CONTINUOUS
 62
     7
 10
-273.1464466094067
 20
62.75000000000003
 11
-274.1535533905933
 21
62.75000000000003
  0
LINE
  8
1
  6
CONTINUOUS
 62
     7
 10
-278.1686291501015
 20
60.05000000000002
 11
-278.7343145750507
 21
60.05000000000002
  0
LINE
  8
1
  6
CONTINUOUS
 62
     7
 10
-286.6686291501015
 20
60.05000000000002
 11
-287.2343145750507
 21
60.05000000000002
  0
LINE
  8
1
  6
CONTINUOUS
 62
     7
 10
-286.1689839338075
 20
62.75000000000003
 11
-283.8310160661925
 21
62.75000000000003
  0
LINE
  8
1
  6
CONTINUOUS
 62
     7
 10
-231.4
 20
106.4419068017889
 11
-231.4
 21
106.6091496454809
  0
LINE
  8
1
  6
CONTINUOUS
 62
     7
 10
-231.4
 20
102.6022727272727
 11
-231.2000000000001
 21
102.6022727272727
  0
LINE
  8
1
  6
CONTINUOUS
 62
     7
 10
-231.4
 20
105.9769059892324
 11
-231.4
 21
105.9853589838486
  0
LINE
  8
1
  6
CONTINUOUS
 62
     7
 10
-282.7656854249493
 20
60.05000000000002
 11
-283.3313708498985
 21
60.05000000000002
  0
LINE
  8
1
  6
CONTINUOUS
 62
     7
 10
-286.1689839338075
 20
60.05000000000002
 11
-283.8310160661925
 21
60.05000000000002
  0
LINE
  8
1
  6
CONTINUOUS
 62
     7
 10
-231.2
 20
97.49999999999997
 11
-229.1912737967814
 21
97.53506244630017
  0
LINE
  8
1
  6
CONTINUOUS
 62
     7
 10
-231.2000000000001
 20
105.3977272727273
 11
-231.4
 21
105.3977272727273
  0
LINE
  8
1
  6
CONTINUOUS
 62
     7
 10
-286.4387494569938
 20
60.05000000000002
 11
-286.6686291501015
 21
60.05000000000002
  0
LINE
  8
1
  6
CONTINUOUS
 62
     7
 10
-274.5071067811866
 20
62.75000000000003
 11
-278.1686291501015
 21
62.75000000000003
  0
LINE
  8
1
  6
CONTINUOUS
 62
     7
 10
-295.8464466094067
 20
62.75000000000003
 11
-296.8535533905933
 21
62.75000000000003
  0
LINE
  8
1
  6
CONTINUOUS
 62
     7
 10
-279.1
 20
62.75000000000003
 11
-279.1
 21
60.05000000000002
  0
LINE
  8
1
  6
CONTINUOUS
 62
     7
 10
-286.4387494569938
 20
62.75000000000003
 11
-286.1689839338075
 21
62.75000000000003
  0
LINE
  8
1
  6
CONTINUOUS
 62
     7
 10
-278.7343145750507
 20
62.75000000000003
 11
-279.1
 21
62.75000000000003
  0
LINE
  8
1
  6
CONTINUOUS
 62
     7
 10
-231.4
 20
106.0925893997454
 11
-231.4
 21
106.3396201540886
  0
LINE
  8
1
  6
CONTINUOUS
 62
     7
 10
-278.7343145750507
 20
60.05000000000002
 11
-279.1
 21
60.05000000000002
  0
LINE
  8
1
  6
CONTINUOUS
 62
     7
 10
-290.9
 20
62.75000000000003
 11
-290.9
 21
60.05000000000002
  0
LINE
  8
1
  6
CONTINUOUS
 62
     7
 10
-290.9
 20
62.75000000000003
 11
-291.2656854249493
 21
62.75000000000003
  0
LINE
  8
1
  6
CONTINUOUS
 62
     7
 10
-290.9
 20
60.05000000000002
 11
-291.2656854249493
 21
60.05000000000002
  0
LINE
  8
1
  6
CONTINUOUS
 62
     7
 10
-287.6
 20
62.75000000000003
 11
-287.6
 21
60.05000000000002
  0
LINE
  8
1
  6
CONTINUOUS
 62
     7
 10
-287.2343145750507
 20
62.75000000000003
 11
-287.6
 21
62.75000000000003
  0
LINE
  8
1
  6
CONTINUOUS
 62
     7
 10
-231.2
 20
106.4419068017889
 11
-231.4
 21
106.4419068017889
  0
LINE
  8
1
  6
CONTINUOUS
 62
     7
 10
-287.2343145750507
 20
60.05000000000002
 11
-287.6
 21
60.05000000000002
  0
LINE
  8
1
  6
CONTINUOUS
 62
     7
 10
-231.4000000000001
 20
100.0
 11
-231.2000000000001
 21
100.0
  0
LINE
  8
1
  6
CONTINUOUS
 62
     7
 10
-231.4
 20
106.8038475772934
 11
-231.4
 21
108.0
  0
LINE
  8
1
  6
CONTINUOUS
 62
     7
 10
-260.5358053922301
 20
69.148710452962
 11
-260.5362214855368
 21
69.12487248339087
  0
LINE
  8
1
  6
CONTINUOUS
 62
     7
 10
-260.5350624463002
 20
69.19127379678137
 11
-260.5354437689476
 21
69.169427836941
  0
LINE
  8
1
  6
CONTINUOUS
 62
     7
 10
-263.332853863236
 20
71.20000000000003
 11
-260.5
 21
71.20000000000003
  0
LINE
  8
1
  6
CONTINUOUS
 62
     7
 10
-261.1362256704621
 20
62.90000000000004
 11
-308.863774329538
 21
62.90000000000004
  0
LINE
  8
1
  6
CONTINUOUS
 62
     7
 10
-299.8
 20
58.10000000000005
 11
-299.8
 21
62.90000000000004
  0
LINE
  8
1
  6
CONTINUOUS
 62
     7
 10
-293.8
 20
57.60000000000005
 11
-294.3
 21
57.60000000000005
  0
LINE
  8
1
  6
CONTINUOUS
 62
     7
 10
-297.1
 20
60.10000000000003
 11
-297.0000000000001
 21
60.10000000000003
  0
LINE
  8
1
  6
CONTINUOUS
 62
     7
 10
-297.1
 20
62.60000000000003
 11
-297.0000000000001
 21
62.60000000000003
  0
LINE
  8
1
  6
CONTINUOUS
 62
     7
 10
-282.4
 20
62.75000000000003
 11
-282.4
 21
60.05000000000002
  0
LINE
  8
1
  6
CONTINUOUS
 62
     7
 10
-279.1
 20
62.75000000000003
 11
-282.4
 21
62.75000000000003
  0
LINE
  8
1
  6
CONTINUOUS
 62
     7
 10
-278.7
 20
47.90000000000003
 11
-279.95
 21
47.90000000000003
  0
LINE
  8
1
  6
CONTINUOUS
 62
     7
 10
-275.7
 20
60.05000000000003
 11
-272.9
 21
60.05000000000003
  0
LINE
  8
1
  6
CONTINUOUS
 62
     7
 10
-272.9
 20
60.10000000000003
 11
-273.0
 21
60.10000000000003
  0
LINE
  8
1
  6
CONTINUOUS
 62
     7
 10
-272.9
 20
62.60000000000003
 11
-273.0
 21
62.60000000000003
  0
LINE
  8
1
  6
CONTINUOUS
 62
     7
 10
-272.9
 20
60.05000000000003
 11
-272.9
 21
62.89999999999984
  0
LINE
  8
1
  6
CONTINUOUS
 62
     7
 10
-289.5000000000001
 20
62.75000000000003
 11
-289.5000000000001
 21
62.90000000000003
  0
LINE
  8
1
  6
CONTINUOUS
 62
     7
 10
-309.4649375536998
 20
69.19127379678139
 11
-309.5
 21
71.20000000000003
  0
LINE
  8
1
  6
CONTINUOUS
 62
     7
 10
-297.0000000000001
 20
60.05000000000002
 11
-297.0000000000001
 21
62.75000000000003
  0
LINE
  8
1
  6
CONTINUOUS
 62
     7
 10
-294.3
 20
57.60000000000005
 11
-299.3
 21
57.60000000000005
  0
LINE
  8
1
  6
CONTINUOUS
 62
     7
 10
-279.95
 20
51.4
 11
-284.8
 21
51.4
  0
LINE
  8
1
  6
CONTINUOUS
 62
     7
 10
-263.332853863236
 20
71.20000000000003
 11
-306.667146136764
 21
71.20000000000003
  0
LINE
  8
1
  6
CONTINUOUS
 62
     7
 10
-306.4134571781027
 20
68.70000000000002
 11
-308.9650137061216
 21
68.70000000000002
  0
LINE
  8
1
  6
CONTINUOUS
 62
     7
 10
-260.5525175112284
 20
68.19127379678137
 11
-260.6363018228839
 21
63.3912737967814
  0
LINE
  8
1
  6
CONTINUOUS
 62
     7
 10
-275.2
 20
49.90000000000003
 11
-278.7
 21
47.90000000000003
  0
LINE
  8
1
  6
CONTINUOUS
 62
     7
 10
-275.0
 20
50.01428571428573
 11
-275.0
 21
52.10000000000002
  0
LINE
  8
1
  6
CONTINUOUS
 62
     7
 10
-276.7
 20
58.10000000000005
 11
-276.7
 21
60.05000000000003
  0
LINE
  8
1
  6
CONTINUOUS
 62
     7
 10
-273.0
 20
62.75000000000003
 11
-273.0
 21
60.05000000000002
  0
LINE
  8
1
  6
CONTINUOUS
 62
     7
 10
-260.5378264586932
 20
69.03292363284105
 11
-260.5525175112284
 21
68.19127379678137
  0
LINE
  8
1
  6
CONTINUOUS
 62
     7
 10
-275.2337247357254
 20
52.07731358139317
 11
-275.2
 21
52.10000000000002
  0
LINE
  8
1
  6
CONTINUOUS
 62
     7
 10
-295.0000000000001
 20
52.10000000000004
 11
-289.95
 21
52.10000000000004
  0
LINE
  8
1
  6
CONTINUOUS
 62
     7
 10
-309.5
 20
71.20000000000003
 11
-306.6671461367641
 21
71.20000000000003
  0
LINE
  8
1
  6
CONTINUOUS
 62
     7
 10
-275.2
 20
52.10000000000002
 11
-275.2
 21
49.90000000000003
  0
LINE
  8
1
  6
CONTINUOUS
 62
     7
 10
-295.0000000000001
 20
50.01428571428573
 11
-291.3000000000001
 21
47.90000000000003
  0
LINE
  8
1
  6
CONTINUOUS
 62
     7
 10
-295.0000000000001
 20
50.01428571428573
 11
-295.0000000000001
 21
52.10000000000004
  0
LINE
  8
1
  6
CONTINUOUS
 62
     7
 10
-275.2
 20
52.10000000000002
 11
-280.05
 21
52.10000000000004
  0
LINE
  8
1
  6
CONTINUOUS
 62
     7
 10
-260.5362214855368
 20
69.12487248339087
 11
-260.5378264586932
 21
69.03292363284105
  0
LINE
  8
1
  6
CONTINUOUS
 62
     7
 10
-273.1464466094067
 20
62.75000000000003
 11
-273.0
 21
62.75000000000003
  0
LINE
  8
1
  6
CONTINUOUS
 62
     7
 10
-289.95
 20
52.10000000000004
 11
-289.95
 21
60.05000000000002
  0
LINE
  8
1
  6
CONTINUOUS
 62
     7
 10
-294.3
 20
60.05000000000003
 11
-293.3
 21
60.05000000000003
  0
LINE
  8
1
  6
CONTINUOUS
 62
     7
 10
-280.05
 20
52.01233998665183
 11
-280.05
 21
60.05000000000002
  0
LINE
  8
1
  6
CONTINUOUS
 62
     7
 10
-297.1
 20
62.89999999999984
 11
-297.1
 21
60.05000000000003
  0
LINE
  8
1
  6
CONTINUOUS
 62
     7
 10
-282.4
 20
62.75000000000003
 11
-282.7656854249493
 21
62.75000000000003
  0
LINE
  8
1
  6
CONTINUOUS
 62
     7
 10
-263.5865428218973
 20
68.70000000000002
 11
-306.4134571781028
 21
68.70000000000002
  0
LINE
  8
1
  6
CONTINUOUS
 62
     7
 10
-293.3
 20
60.05000000000003
 11
-293.3
 21
58.10000000000005
  0
LINE
  8
1
  6
CONTINUOUS
 62
     7
 10
-275.2
 20
49.90000000000003
 11
-275.0
 21
50.01428571428573
  0
LINE
  8
1
  6
CONTINUOUS
 62
     7
 10
-260.5
 20
71.20000000000003
 11
-260.5350624463002
 21
69.19127379678139
  0
LINE
  8
1
  6
CONTINUOUS
 62
     7
 10
-309.4474824887716
 20
68.19127379678136
 11
-309.4649375536998
 21
69.19127379678136
  0
LINE
  8
1
  6
CONTINUOUS
 62
     7
 10
-309.3636981771162
 20
63.3912737967814
 11
-309.4474824887716
 21
68.19127379678136
  0
LINE
  8
1
  6
CONTINUOUS
 62
     7
 10
-291.3000000000001
 20
47.90000000000003
 11
-279.95
 21
47.90000000000003
  0
LINE
  8
1
  6
CONTINUOUS
 62
     7
 10
-276.7
 20
60.05000000000003
 11
-275.7
 21
60.05000000000003
  0
LINE
  8
1
  6
CONTINUOUS
 62
     7
 10
-270.7
 20
57.60000000000005
 11
-275.7
 21
57.60000000000005
  0
LINE
  8
1
  6
CONTINUOUS
 62
     7
 10
-279.1
 20
60.05000000000002
 11
-282.4
 21
60.05000000000002
  0
LINE
  8
1
  6
CONTINUOUS
 62
     7
 10
-280.4975006940589
 20
51.8774625204329
 11
-280.05
 21
52.01233998665183
  0
LINE
  8
1
  6
CONTINUOUS
 62
     7
 10
-261.0349862938784
 20
68.70000000000002
 11
-263.5865428218973
 21
68.70000000000002
  0
LINE
  8
1
  6
CONTINUOUS
 62
     7
 10
-260.5354437689476
 20
69.169427836941
 11
-260.5358053922301
 21
69.148710452962
  0
LINE
  8
1
  6
CONTINUOUS
 62
     7
 10
-275.2
 20
52.10000000000002
 11
-275.0
 21
52.10000000000002
  0
LINE
  8
1
  6
CONTINUOUS
 62
     7
 10
-297.1
 20
60.05000000000003
 11
-294.3
 21
60.05000000000003
  0
LINE
  8
1
  6
CONTINUOUS
 62
     7
 10
-270.2
 20
62.90000000000004
 11
-270.2
 21
58.10000000000005
  0
LINE
  8
1
  6
CONTINUOUS
 62
     7
 10
-287.6
 20
60.05000000000002
 11
-290.9
 21
60.05000000000002
  0
LINE
  8
1
  6
CONTINUOUS
 62
     7
 10
-287.6
 20
62.75000000000003
 11
-290.9
 21
62.75000000000003
  0
LINE
  8
1
  6
CONTINUOUS
 62
     7
 10
-275.7
 20
57.60000000000005
 11
-276.2
 21
57.60000000000005
  0
LINE
  8
1
  6
CONTINUOUS
 62
     7
 10
-297.0000000000001
 20
62.75000000000003
 11
-296.8535533905933
 21
62.75000000000003
  0
LINE
  8
1
  6
CONTINUOUS
 62
     7
 10
-282.4
 20
60.05000000000002
 11
-282.7656854249493
 21
60.05000000000002
  0
LINE
  8
1
  6
CONTINUOUS
 62
     7
 10
-305.3
 20
72.10000000000002
 11
-264.6999999999998
 21
72.10000000000002
  0
LINE
  8
1
  6
CONTINUOUS
 62
     7
 10
-260.5371261259237
 20
69.1382910122768
 11
-260.6873064586124
 21
68.8405981622067
  0
LINE
  8
1
  6
CONTINUOUS
 62
     7
 10
-260.5378274194869
 20
69.03286858912608
 11
-260.536276396163
 21
69.12378837136258
  0
LINE
  8
1
  6
CONTINUOUS
 62
     7
 10
-260.5358754508123
 20
69.14849778935472
 11
-260.5371261259237
 21
69.1382910122768
  0
LINE
  8
1
  6
CENTER
 62
     1
 10
-285.0
 20
94.49999999999999
 11
-285.0
 21
175.5
  0
LINE
  8
1
  6
CONTINUOUS
 62
     7
 10
-291.3000000000001
 20
62.75000000000003
 11
-291.3000000000001
 21
62.90000000000003
  0
LINE
  8
1
  6
CENTER
 62
     1
 10
-235.1000000000001
 20
135.0
 11
-204.9
 21
135.0
  0
LINE
  8
1
  6
CONTINUOUS
 62
     7
 10
-278.7
 20
62.75000000000003
 11
-278.7
 21
62.90000000000003
  0
LINE
  8
1
  6
CONTINUOUS
 62
     7
 10
-280.5
 20
62.75000000000003
 11
-280.5
 21
62.90000000000004
  0
LINE
  8
1
  6
CENTER
 62
     1
 10
-312.5000000000458
 20
135.0
 11
-257.4999999999542
 21
135.0
  0
LINE
  8
1
  6
CENTER
 62
     1
 10
-285.0
 20
44.90000000000002
 11
-285.0
 21
75.10000000000002
  0
LINE
  8
1
  6
CONTINUOUS
 62
     7
 10
-260.536276396163
 20
69.12378837136258
 11
-260.5358367449104
 21
69.14798076102969
  0
LINE
  8
1
  6
CONTINUOUS
 62
     7
 10
-260.5358367449104
 20
69.14798076102969
 11
-260.5358754508123
 21
69.14849778935472
  0
ARC
  8
1
  6
CONTINUOUS
 62
     7
 10
-223.4000000000001
 20
107.9999999999998
 40
0.5000000000000004
 50
270.0
 51
0.0
  0
ARC
  8
1
  6
CONTINUOUS
 62
     7
 10
-261.0349862938784
 20
69.20000000000002
 40
0.5000000000000004
 50
270.0
 51
273.4999999999974
  0
ARC
  8
1
  6
CONTINUOUS
 62
     7
 10
-308.9650137061216
 20
69.20000000000002
 40
0.4999999999999918
 50
180.9999999999994
 51
270.0
  0
ARC
  8
1
  6
CONTINUOUS
 62
     7
 10
-304.5007955498477
 20
106.9439822832333
 40
4.999204450198061
 50
179.9997548042094
 51
244.3203469301878
  0
ARC
  8
1
  6
CONTINUOUS
 62
     7
 10
-275.7
 20
111.0
 40
1.499999999999992
 50
248.9605302186937
 51
270.0
  0
ARC
  8
1
  6
CONTINUOUS
 62
     7
 10
-218.1000000000001
 20
114.75
 40
0.5000000000000004
 50
0.0
 51
90.0
  0
ARC
  8
1
  6
CONTINUOUS
 62
     7
 10
-223.4000000000001
 20
141.9999999999999
 40
0.5000000000000004
 50
0.0
 51
90.0
  0
ARC
  8
1
  6
CONTINUOUS
 62
     7
 10
-218.1000000000001
 20
135.25
 40
0.5000000000000004
 50
270.0
 51
0.0
  0
ARC
  8
1
  6
CONTINUOUS
 62
     7
 10
-218.1000000000001
 20
110.4999999999999
 40
0.5000000000000004
 50
270.0
 51
0.0
  0
ARC
  8
1
  6
CONTINUOUS
 62
     7
 10
-219.5500000000001
 20
134.25
 40
0.5000000000000004
 50
90.0
 51
180.0
  0
ARC
  8
1
  6
CONTINUOUS
 62
     7
 10
-261.0349862938784
 20
69.20000000000002
 40
0.5000000000000407
 50
273.4999999999973
 51
358.9999999999991
  0
ARC
  8
1
  6
CONTINUOUS
 62
     7
 10
-304.5007955497958
 20
163.056017716734
 40
4.999204450249993
 50
115.679653070186
 51
180.0002451954166
  0
ARC
  8
1
  6
CONTINUOUS
 62
     7
 10
-285.0
 20
122.5
 40
50.00000000000001
 50
64.32010173439747
 51
115.6798982656026
  0
ARC
  8
1
  6
CONTINUOUS
 62
     7
 10
-223.4000000000001
 20
118.4999999999999
 40
0.5000000000000004
 50
0.0
 51
90.0
  0
ARC
  8
1
  6
CONTINUOUS
 62
     7
 10
-265.4992044501524
 20
163.0560177167666
 40
4.999204450198117
 50
359.9997548042099
 51
64.32034693018748
  0
ARC
  8
1
  6
CONTINUOUS
 62
     7
 10
-192.1062396657742
 20
125.5198699439912
 40
20.00051791982213
 50
181.4894468684757
 51
195.2770500933846
  0
ARC
  8
1
  6
CONTINUOUS
 62
     7
 10
-265.4992044502042
 20
106.943982283266
 40
4.999204450249993
 50
295.6796530701861
 51
0.0002451954166531
  0
ARC
  8
1
  6
CONTINUOUS
 62
     7
 10
-223.4000000000001
 20
131.5
 40
0.5000000000000004
 50
270.0
 51
0.0
  0
ARC
  8
1
  6
CONTINUOUS
 62
     7
 10
-218.1000000000001
 20
138.8
 40
0.5000000000000004
 50
0.0
 51
90.0
  0
ARC
  8
1
  6
CONTINUOUS
 62
     7
 10
-219.5500000000001
 20
115.75
 40
0.5000000000000004
 50
180.0
 51
270.0
  0
ARC
  8
1
  6
CONTINUOUS
 62
     7
 10
-229.2
 20
171.9650137061217
 40
0.5000000000000004
 50
0.0000000000063611
 51
88.99999999999895
  0
ARC
  8
1
  6
CONTINUOUS
 62
     7
 10
-229.2
 20
98.03498629387828
 40
0.4999999999999921
 50
271.0000000000011
 51
359.9999999999952
  0
ARC
  8
1
  6
CONTINUOUS
 62
     7
 10
-284.7906863172458
 20
68.65882570138264
 40
17.25882821443543
 50
269.9690804767968
 51
283.2282923162376
  0
ARC
  8
1
  6
CONTINUOUS
 62
     7
 10
-279.8321044732568
 20
67.33792826244864
 40
15.9383643029699
 50
269.5761812455606
 51
286.7687813643008
  0
ARC
  8
1
  6
CONTINUOUS
 62
     7
 10
-305.3
 20
70.10000000000002
 40
2.000000000000002
 50
90.0
 51
146.6272466980936
  0
ARC
  8
1
  6
CONTINUOUS
 62
     7
 10
-264.7
 20
70.10000000000002
 40
1.999999999999983
 50
33.37275330190607
 51
89.99999999999527
  0
ARC
  8
1
  6
CONTINUOUS
 62
     7
 10
-285.0
 20
147.5
 40
49.99999999999999
 50
244.3201017343975
 51
295.6798982656026
  0
ARC
  8
1
  6
CONTINUOUS
 62
     7
 10
-293.8
 20
58.10000000000005
 40
0.5000000000000004
 50
270.0
 51
0.0
  0
ARC
  8
1
  6
CONTINUOUS
 62
     7
 10
-261.1362256704621
 20
63.40000000000004
 40
0.5000000000000004
 50
270.0
 51
359.0000000000006
  0
ARC
  8
1
  6
CONTINUOUS
 62
     7
 10
-276.2
 20
58.10000000000005
 40
0.5000000000000004
 50
180.0000000000008
 51
270.0
  0
ARC
  8
1
  6
CONTINUOUS
 62
     7
 10
-299.3
 20
58.10000000000005
 40
0.5000000000000004
 50
180.0000000000008
 51
270.0
  0
ARC
  8
1
  6
CONTINUOUS
 62
     7
 10
-270.7
 20
58.10000000000005
 40
0.5000000000000004
 50
270.0
 51
359.9999999999993
  0
ARC
  8
1
  6
CONTINUOUS
 62
     7
 10
-308.863774329538
 20
63.40000000000004
 40
0.4999999999999918
 50
180.9999999999994
 51
270.0
  0
ENDSEC
  0
EOF
