  0
SECTION
  2
HEADER
  9
$ACADVER
  1
AC1006
  9
$DWGCODEPAGE
  3
ansi_932
  9
$INSBASE
 10
0.0
 20
0.0
 30
0.0
  9
$EXTMIN
 10
-558.5
 20
-58.99999999999999
  9
$EXTMAX
 10
-211.0
 20
746.0000000000001
  9
$LIMMIN
 10
0.0
 20
0.0
  9
$LIMMAX
 10
12.0
 20
9.0
  9
$ORTHOMODE
 70
     0
  9
$REGENMODE
 70
     1
  9
$FILLMODE
 70
     1
  9
$QTEXTMODE
 70
     0
  9
$MIRRTEXT
 70
     1
  9
$DRAGMODE
 70
     2
  9
$LTSCALE
 40
1.0
  9
$OSMODE
 70
    37
  9
$ATTMODE
 70
     1
  9
$TEXTSIZE
 40
0.2
  9
$TRACEWID
 40
0.05
  9
$TEXTSTYLE
  7
STANDARD
  9
$CLAYER
  8
0
  9
$CELTYPE
  6
BYLAYER
  9
$CECOLOR
 62
   256
  9
$DIMSCALE
 40
1.0
  9
$DIMASZ
 40
3.0
  9
$DIMEXO
 40
0.0625
  9
$DIMDLI
 40
0.38
  9
$DIMRND
 40
0.0
  9
$DIMDLE
 40
0.0
  9
$DIMEXE
 40
1.5
  9
$DIMTP
 40
0.0
  9
$DIMTM
 40
0.0
  9
$DIMTXT
 40
3.0
  9
$DIMCEN
 40
0.09
  9
$DIMTSZ
 40
0.0
  9
$DIMTOL
 70
     0
  9
$DIMLIM
 70
     0
  9
$DIMTIH
 70
     1
  9
$DIMTOH
 70
     1
  9
$DIMSE1
 70
     0
  9
$DIMSE2
 70
     0
  9
$DIMTAD
 70
     1
  9
$DIMZIN
 70
     0
  9
$DIMBLK
  1

  9
$DIMASO
 70
     1
  9
$DIMSHO
 70
     1
  9
$DIMPOST
  1

  9
$DIMAPOST
  1

  9
$DIMALT
 70
     0
  9
$DIMALTD
 70
     2
  9
$DIMALTF
 40
25.4
  9
$DIMLFAC
 40
1.0
  9
$DIMTOFL
 70
     0
  9
$DIMTVP
 40
0.0
  9
$DIMTIX
 70
     0
  9
$DIMSOXD
 70
     0
  9
$DIMSAH
 70
     0
  9
$DIMBLK1
  1

  9
$DIMBLK2
  1

  9
$LUNITS
 70
     2
  9
$LUPREC
 70
     4
  9
$SKETCHINC
 40
0.1
  9
$FILLETRAD
 40
0.5
  9
$AUNITS
 70
     0
  9
$AUPREC
 70
     0
  9
$MENU
  1
.
  9
$ELEVATION
 40
0.0
  9
$THICKNESS
 40
0.0
  9
$LIMCHECK
 70
     0
  9
$CHAMFERA
 40
0.0
  9
$CHAMFERB
 40
0.0
  9
$SKPOLY
 70
     0
  9
$TDCREATE
 40
2460578.75261669
  9
$TDUPDATE
 40
2460578.753126725
  9
$TDINDWG
 40
0.0000000116
  9
$TDUSRTIMER
 40
0.0000000116
  9
$USRTIMER
 70
     1
  9
$ANGBASE
 50
0.0
  9
$ANGDIR
 70
     0
  9
$PDMODE
 70
     0
  9
$PDSIZE
 40
0.0
  9
$PLINEWID
 40
0.0
  9
$COORDS
 70
     1
  9
$SPLFRAME
 70
     0
  9
$SPLINETYPE
 70
     6
  9
$SPLINESEGS
 70
     8
  9
$ATTDIA
 70
     0
  9
$ATTREQ
 70
     1
  9
$HANDLING
 70
     1
  9
$HANDSEED
  5
779
  9
$SURFTAB1
 70
     6
  9
$SURFTAB2
 70
     6
  9
$SURFTYPE
 70
     6
  9
$SURFU
 70
     6
  9
$SURFV
 70
     6
  9
$UCSNAME
  2

  9
$UCSORG
 10
0.0
 20
0.0
 30
0.0
  9
$UCSXDIR
 10
1.0
 20
0.0
 30
0.0
  9
$UCSYDIR
 10
0.0
 20
1.0
 30
0.0
  9
$USERI1
 70
     0
  9
$USERI2
 70
     0
  9
$USERI3
 70
     0
  9
$USERI4
 70
     0
  9
$USERI5
 70
     0
  9
$USERR1
 40
0.0
  9
$USERR2
 40
0.0
  9
$USERR3
 40
0.0
  9
$USERR4
 40
0.0
  9
$USERR5
 40
0.0
  9
$WORLDVIEW
 70
     1
  0
ENDSEC
  0
SECTION
  2
TABLES
  0
TABLE
  2
VPORT
 70
     1
  0
VPORT
  2
*ACTIVE
 70
     0
 10
0.0
 20
0.0
 11
1.0
 21
1.0
 12
-384.75
 22
343.5000000000001
 13
0.0
 23
0.0
 14
0.5
 24
0.5
 15
0.5
 25
0.5
 16
0.0
 26
0.0
 36
1.0
 17
0.0
 27
0.0
 37
0.0
 40
805.0000000000001
 41
1.6
 42
50.0
 43
0.0
 44
0.0
 50
0.0
 51
0.0
 71
     0
 72
   100
 73
     1
 74
     3
 75
     0
 76
     0
 77
     0
 78
     0
  0
ENDTAB
  0
TABLE
  2
LTYPE
 70
     2
  0
LTYPE
  2
CONTINUOUS
 70
     0
  3
Solid line
 72
    65
 73
     0
 40
0.0
  0
LTYPE
  2
CENTER
 70
     0
  3

 72
    65
 73
     0
 40
0.0
  0
ENDTAB
  0
TABLE
  2
LAYER
 70
     1
  0
LAYER
  2
0
 70
     0
 62
     7
  6
CONTINUOUS
  0
ENDTAB
  0
TABLE
  2
STYLE
 70
     2
  0
STYLE
  2
STANDARD
 70
     0
 40
0.0
 41
1.0
 50
0.0
 71
     0
 42
0.2
  3
txt
  4

  0
STYLE
  2
ＭＳ_ゴシック
 70
     0
 40
0.0
 41
1.0
 50
0.0
 71
     0
 42
0.2
  3
ＭＳ ゴシック.shx
  4

  0
ENDTAB
  0
TABLE
  2
VIEW
 70
     0
  0
ENDTAB
  0
TABLE
  2
UCS
 70
     0
  0
ENDTAB
  0
ENDSEC
  0
SECTION
  2
BLOCKS
  0
ENDSEC
  0
SECTION
  2
ENTITIES
  0
POINT
  5
6F
  8
0
 62
     7
 10
-236.0
 20
126.0
 30
0.0
  0
TEXT
  5
70
  8
0
  6
CONTINUOUS
 62
     2
 10
-279.4400087532825
 20
-40.9863417531574
 30
0.0
 40
3.0
  1
AGD-AV150A
  0
TEXT
  5
71
  8
0
  6
CONTINUOUS
 62
     4
 10
-224.8365918469426
 20
139.0136582468426
 30
0.0
 40
3.0
  1
2
  0
CIRCLE
  5
72
  8
0
  6
CONTINUOUS
 62
   253
 10
-224.0
 20
141.0
 30
0.0
 40
2.357592170014123
  0
LINE
  5
73
  8
0
  6
CENTER
 62
     1
 10
-461.0
 20
746.0000000000001
 30
0.0
 11
-461.0
 21
641.0
 31
0.0
  0
LINE
  5
75
  8
0
  6
CENTER
 62
     1
 10
-461.0000000000001
 20
-58.99999999999999
 30
0.0
 11
-461.0000000000001
 21
606.0000000000001
 31
0.0
  0
LINE
  5
76
  8
0
  6
CENTER
 62
     1
 10
-211.0
 20
57.99999999999999
 30
0.0
 11
-331.0000000000001
 21
57.99999999999999
 31
0.0
  0
LINE
  5
77
  8
0
  6
CONTINUOUS
 62
   253
 10
-236.0
 20
126.0
 30
0.0
 11
-225.4727761527609
 21
139.1590298090489
 31
0.0
  0
LINE
  5
78
  8
0
  6
CENTER
 62
     1
 10
-488.0000000000001
 20
17.00000000000004
 30
0.0
 11
-434.0000000000001
 21
17.00000000000004
 31
0.0
  0
LINE
  5
79
  8
0
  6
CONTINUOUS
 62
     7
 10
-232.4
 20
-15.49999999999996
 30
0.0
 11
-232.4
 21
57.00000000000005
 31
0.0
  0
LINE
  5
7A
  8
0
  6
CONTINUOUS
 62
     7
 10
-232.4
 20
57.00000000000004
 30
0.0
 11
-232.4
 21
129.5
 31
0.0
  0
LINE
  5
7B
  8
0
  6
CONTINUOUS
 62
     7
 10
-234.4
 20
-15.49999999999996
 30
0.0
 11
-234.4
 21
57.00000000000005
 31
0.0
  0
LINE
  5
7C
  8
0
  6
CONTINUOUS
 62
     7
 10
-234.4
 20
57.00000000000004
 30
0.0
 11
-234.4
 21
129.5
 31
0.0
  0
LINE
  5
7D
  8
0
  6
CONTINUOUS
 62
     7
 10
-240.4
 20
-15.49999999999996
 30
0.0
 11
-240.4
 21
57.00000000000005
 31
0.0
  0
LINE
  5
7E
  8
0
  6
CONTINUOUS
 62
     7
 10
-240.4
 20
57.00000000000004
 30
0.0
 11
-240.4
 21
129.5
 31
0.0
  0
LINE
  5
7F
  8
0
  6
CONTINUOUS
 62
     7
 10
-238.4
 20
-15.49999999999996
 30
0.0
 11
-238.4
 21
57.00000000000005
 31
0.0
  0
LINE
  5
80
  8
0
  6
CONTINUOUS
 62
     7
 10
-238.4
 20
57.00000000000004
 30
0.0
 11
-238.4
 21
129.5
 31
0.0
  0
LINE
  5
81
  8
0
  6
CONTINUOUS
 62
     7
 10
-230.4
 20
-15.49999999999996
 30
0.0
 11
-230.4
 21
57.00000000000005
 31
0.0
  0
LINE
  5
82
  8
0
  6
CONTINUOUS
 62
     7
 10
-230.4
 20
57.00000000000004
 30
0.0
 11
-230.4
 21
129.5
 31
0.0
  0
LINE
  5
83
  8
0
  6
CONTINUOUS
 62
     7
 10
-242.4
 20
-15.49999999999996
 30
0.0
 11
-242.4
 21
57.00000000000005
 31
0.0
  0
LINE
  5
84
  8
0
  6
CONTINUOUS
 62
     7
 10
-242.4
 20
57.00000000000004
 30
0.0
 11
-242.4
 21
129.5
 31
0.0
  0
LINE
  5
85
  8
0
  6
CONTINUOUS
 62
     7
 10
-265.9
 20
582.0000000000001
 30
0.0
 11
-295.9
 21
582.0000000000001
 31
0.0
  0
LINE
  5
86
  8
0
  6
CONTINUOUS
 62
     7
 10
-265.9
 20
532.9999999999999
 30
0.0
 11
-295.9
 21
532.9999999999999
 31
0.0
  0
LINE
  5
87
  8
0
  6
CONTINUOUS
 62
     7
 10
-305.9
 20
532.9999999999999
 30
0.0
 11
-305.9
 21
582.0000000000001
 31
0.0
  0
LINE
  5
88
  8
0
  6
CONTINUOUS
 62
     7
 10
-295.9
 20
532.9999999999999
 30
0.0
 11
-305.9
 21
532.9999999999999
 31
0.0
  0
LINE
  5
89
  8
0
  6
CONTINUOUS
 62
     7
 10
-305.9
 20
582.0000000000001
 30
0.0
 11
-295.9
 21
582.0000000000001
 31
0.0
  0
LINE
  5
8A
  8
0
  6
CONTINUOUS
 62
     7
 10
-255.9
 20
582.0000000000001
 30
0.0
 11
-255.9
 21
532.9999999999999
 31
0.0
  0
LINE
  5
8B
  8
0
  6
CONTINUOUS
 62
     7
 10
-255.9
 20
532.9999999999999
 30
0.0
 11
-265.9
 21
532.9999999999999
 31
0.0
  0
LINE
  5
8C
  8
0
  6
CONTINUOUS
 62
     7
 10
-265.9
 20
582.0000000000001
 30
0.0
 11
-255.9
 21
582.0000000000001
 31
0.0
  0
LINE
  5
8D
  8
0
  6
CONTINUOUS
 62
     7
 10
-305.9
 20
433.0
 30
0.0
 11
-305.9
 21
481.0
 31
0.0
  0
LINE
  5
8E
  8
0
  6
CONTINUOUS
 62
     7
 10
-305.9
 20
481.0
 30
0.0
 11
-295.9
 21
481.0
 31
0.0
  0
LINE
  5
8F
  8
0
  6
CONTINUOUS
 62
     7
 10
-295.9
 20
433.0
 30
0.0
 11
-305.9
 21
433.0
 31
0.0
  0
LINE
  5
90
  8
0
  6
CONTINUOUS
 62
     7
 10
-255.9
 20
433.0
 30
0.0
 11
-265.9
 21
433.0
 31
0.0
  0
ARC
  5
91
  8
0
  6
CONTINUOUS
 62
     7
 10
-255.9
 20
432.0
 30
0.0
 40
1.000000000000001
 50
90.0
 51
180.0
  0
LINE
  5
92
  8
0
  6
CONTINUOUS
 62
     7
 10
-265.9
 20
431.0
 30
0.0
 11
-295.9
 21
431.0
 31
0.0
  0
ARC
  5
93
  8
0
  6
CONTINUOUS
 62
     7
 10
-305.9
 20
481.9999999999999
 30
0.0
 40
1.000000000000001
 50
0.0000000000031806
 51
90.0
  0
LINE
  5
94
  8
0
  6
CONTINUOUS
 62
     7
 10
-295.9
 20
482.9999999999999
 30
0.0
 11
-305.9
 21
482.9999999999999
 31
0.0
  0
ARC
  5
95
  8
0
  6
CONTINUOUS
 62
     7
 10
-305.9
 20
432.0
 30
0.0
 40
1.000000000000001
 50
0.0
 51
90.0
  0
LINE
  5
96
  8
0
  6
CONTINUOUS
 62
     7
 10
-265.9
 20
431.0
 30
0.0
 11
-255.9
 21
431.0
 31
0.0
  0
LINE
  5
97
  8
0
  6
CONTINUOUS
 62
     7
 10
-255.9
 20
431.0
 30
0.0
 11
-255.9
 21
383.0
 31
0.0
  0
LINE
  5
98
  8
0
  6
CONTINUOUS
 62
     7
 10
-255.9
 20
383.0
 30
0.0
 11
-265.9
 21
383.0
 31
0.0
  0
ARC
  5
99
  8
0
  6
CONTINUOUS
 62
     7
 10
-255.9
 20
532.0
 30
0.0
 40
1.000000000000001
 50
180.0
 51
270.0
  0
LINE
  5
9A
  8
0
  6
CONTINUOUS
 62
     7
 10
-265.9
 20
530.9999999999999
 30
0.0
 11
-255.9
 21
530.9999999999999
 31
0.0
  0
ARC
  5
9B
  8
0
  6
CONTINUOUS
 62
     7
 10
-305.9
 20
532.0
 30
0.0
 40
1.000000000000112
 50
270.0
 51
0.0
  0
LINE
  5
9C
  8
0
  6
CONTINUOUS
 62
     7
 10
-305.9
 20
530.9999999999999
 30
0.0
 11
-295.9
 21
530.9999999999999
 31
0.0
  0
LINE
  5
9D
  8
0
  6
CONTINUOUS
 62
     7
 10
-265.9
 20
481.0
 30
0.0
 11
-295.9
 21
481.0
 31
0.0
  0
LINE
  5
9E
  8
0
  6
CONTINUOUS
 62
     7
 10
-295.9
 20
530.9999999999999
 30
0.0
 11
-265.9
 21
530.9999999999999
 31
0.0
  0
ARC
  5
9F
  8
0
  6
CONTINUOUS
 62
     7
 10
-305.9
 20
532.0
 30
0.0
 40
1.000000000000001
 50
0.0
 51
90.0
  0
LINE
  5
A0
  8
0
  6
CONTINUOUS
 62
     7
 10
-295.9
 20
482.9999999999999
 30
0.0
 11
-265.9
 21
482.9999999999999
 31
0.0
  0
ARC
  5
A1
  8
0
  6
CONTINUOUS
 62
     7
 10
-255.9
 20
481.9999999999999
 30
0.0
 40
1.000000000000001
 50
90.0
 51
179.9999999999968
  0
LINE
  5
A2
  8
0
  6
CONTINUOUS
 62
     7
 10
-255.9
 20
482.9999999999999
 30
0.0
 11
-265.9
 21
482.9999999999999
 31
0.0
  0
LINE
  5
A3
  8
0
  6
CONTINUOUS
 62
     7
 10
-255.9
 20
530.9999999999999
 30
0.0
 11
-255.9
 21
482.9999999999999
 31
0.0
  0
LINE
  5
A4
  8
0
  6
CONTINUOUS
 62
     7
 10
-305.9
 20
482.9999999999999
 30
0.0
 11
-305.9
 21
530.9999999999999
 31
0.0
  0
ARC
  5
A5
  8
0
  6
CONTINUOUS
 62
     7
 10
-255.9
 20
482.0
 30
0.0
 40
1.000000000000001
 50
180.0
 51
270.0
  0
LINE
  5
A6
  8
0
  6
CONTINUOUS
 62
     7
 10
-265.9
 20
481.0
 30
0.0
 11
-255.9
 21
481.0
 31
0.0
  0
LINE
  5
A7
  8
0
  6
CONTINUOUS
 62
     7
 10
-295.9
 20
433.0
 30
0.0
 11
-265.9
 21
433.0
 31
0.0
  0
LINE
  5
A8
  8
0
  6
CONTINUOUS
 62
     7
 10
-255.9
 20
481.0
 30
0.0
 11
-255.9
 21
433.0
 31
0.0
  0
ARC
  5
A9
  8
0
  6
CONTINUOUS
 62
     7
 10
-305.9
 20
482.0
 30
0.0
 40
1.000000000000001
 50
270.0
 51
0.0
  0
ARC
  5
AA
  8
0
  6
CONTINUOUS
 62
     7
 10
-255.9
 20
432.0
 30
0.0
 40
1.000000000000001
 50
180.0
 51
270.0
  0
LINE
  5
AB
  8
0
  6
CONTINUOUS
 62
     7
 10
-305.9
 20
383.0
 30
0.0
 11
-305.9
 21
431.0
 31
0.0
  0
LINE
  5
AC
  8
0
  6
CONTINUOUS
 62
     7
 10
-305.9
 20
431.0
 30
0.0
 11
-295.9
 21
431.0
 31
0.0
  0
LINE
  5
AD
  8
0
  6
CONTINUOUS
 62
     7
 10
-295.9
 20
383.0
 30
0.0
 11
-305.9
 21
383.0
 31
0.0
  0
LINE
  5
AE
  8
0
  6
CONTINUOUS
 62
     7
 10
-295.9
 20
383.0
 30
0.0
 11
-265.9
 21
383.0
 31
0.0
  0
ARC
  5
AF
  8
0
  6
CONTINUOUS
 62
     7
 10
-255.9
 20
532.0
 30
0.0
 40
0.9999999999998899
 50
90.0
 51
180.0
  0
ARC
  5
B0
  8
0
  6
CONTINUOUS
 62
     7
 10
-305.9
 20
432.0
 30
0.0
 40
1.000000000000001
 50
270.0
 51
0.0
  0
LINE
  5
B1
  8
0
  6
CONTINUOUS
 62
     7
 10
-305.9
 20
333.0
 30
0.0
 11
-305.9
 21
381.0
 31
0.0
  0
LINE
  5
B2
  8
0
  6
CONTINUOUS
 62
     7
 10
-305.9
 20
381.0
 30
0.0
 11
-295.9
 21
381.0
 31
0.0
  0
LINE
  5
B3
  8
0
  6
CONTINUOUS
 62
     7
 10
-295.9
 20
333.0
 30
0.0
 11
-305.9
 21
333.0
 31
0.0
  0
LINE
  5
B4
  8
0
  6
CONTINUOUS
 62
     7
 10
-295.9
 20
283.0
 30
0.0
 11
-265.9
 21
283.0
 31
0.0
  0
ARC
  5
B5
  8
0
  6
CONTINUOUS
 62
     7
 10
-305.9
 20
382.0
 30
0.0
 40
1.000000000000001
 50
0.0
 51
90.0
  0
LINE
  5
B6
  8
0
  6
CONTINUOUS
 62
     7
 10
-295.9
 20
233.0
 30
0.0
 11
-265.9
 21
233.0
 31
0.0
  0
LINE
  5
B7
  8
0
  6
CONTINUOUS
 62
     7
 10
-265.9
 20
281.0
 30
0.0
 11
-295.9
 21
281.0
 31
0.0
  0
ARC
  5
B8
  8
0
  6
CONTINUOUS
 62
     7
 10
-305.9
 20
382.0
 30
0.0
 40
1.000000000000001
 50
270.0
 51
0.0
  0
LINE
  5
B9
  8
0
  6
CONTINUOUS
 62
     7
 10
-265.9
 20
331.0
 30
0.0
 11
-255.9
 21
331.0
 31
0.0
  0
LINE
  5
BA
  8
0
  6
CONTINUOUS
 62
     7
 10
-255.9
 20
331.0
 30
0.0
 11
-255.9
 21
283.0
 31
0.0
  0
LINE
  5
BB
  8
0
  6
CONTINUOUS
 62
     7
 10
-255.9
 20
283.0
 30
0.0
 11
-265.9
 21
283.0
 31
0.0
  0
LINE
  5
BC
  8
0
  6
CONTINUOUS
 62
     7
 10
-265.9
 20
381.0
 30
0.0
 11
-295.9
 21
381.0
 31
0.0
  0
LINE
  5
BD
  8
0
  6
CONTINUOUS
 62
     7
 10
-305.9
 20
283.0
 30
0.0
 11
-305.9
 21
331.0
 31
0.0
  0
LINE
  5
BE
  8
0
  6
CONTINUOUS
 62
     7
 10
-305.9
 20
331.0
 30
0.0
 11
-295.9
 21
331.0
 31
0.0
  0
LINE
  5
BF
  8
0
  6
CONTINUOUS
 62
     7
 10
-295.9
 20
283.0
 30
0.0
 11
-305.9
 21
283.0
 31
0.0
  0
LINE
  5
C0
  8
0
  6
CONTINUOUS
 62
     7
 10
-255.9
 20
231.0
 30
0.0
 11
-255.9
 21
86.14213562373097
 31
0.0
  0
LINE
  5
C1
  8
0
  6
CONTINUOUS
 62
     7
 10
-265.9
 20
231.0
 30
0.0
 11
-255.9
 21
231.0
 31
0.0
  0
LINE
  5
C2
  8
0
  6
CONTINUOUS
 62
     7
 10
-295.9
 20
333.0
 30
0.0
 11
-265.9
 21
333.0
 31
0.0
  0
LINE
  5
C3
  8
0
  6
CONTINUOUS
 62
     7
 10
-265.9
 20
331.0
 30
0.0
 11
-295.9
 21
331.0
 31
0.0
  0
LINE
  5
C4
  8
0
  6
CONTINUOUS
 62
     7
 10
-255.9
 20
333.0
 30
0.0
 11
-265.9
 21
333.0
 31
0.0
  0
ARC
  5
C5
  8
0
  6
CONTINUOUS
 62
     7
 10
-255.9
 20
332.0
 30
0.0
 40
1.000000000000001
 50
90.0
 51
180.0
  0
ARC
  5
C6
  8
0
  6
CONTINUOUS
 62
     7
 10
-255.9
 20
382.0
 30
0.0
 40
1.000000000000001
 50
90.0
 51
180.0
  0
LINE
  5
C7
  8
0
  6
CONTINUOUS
 62
     7
 10
-255.9
 20
233.0
 30
0.0
 11
-265.9
 21
233.0
 31
0.0
  0
ARC
  5
C8
  8
0
  6
CONTINUOUS
 62
     7
 10
-255.9
 20
232.0
 30
0.0
 40
1.000000000000001
 50
90.0
 51
180.0
  0
LINE
  5
C9
  8
0
  6
CONTINUOUS
 62
     7
 10
-265.9
 20
231.0
 30
0.0
 11
-295.9
 21
231.0
 31
0.0
  0
ARC
  5
CA
  8
0
  6
CONTINUOUS
 62
     7
 10
-305.9
 20
282.0
 30
0.0
 40
1.000000000000001
 50
0.0
 51
90.0
  0
ARC
  5
CB
  8
0
  6
CONTINUOUS
 62
     7
 10
-305.9
 20
332.0
 30
0.0
 40
1.000000000000001
 50
0.0
 51
90.0
  0
ARC
  5
CC
  8
0
  6
CONTINUOUS
 62
     7
 10
-255.9
 20
332.0
 30
0.0
 40
1.000000000000001
 50
180.0
 51
270.0
  0
ARC
  5
CD
  8
0
  6
CONTINUOUS
 62
     7
 10
-255.9
 20
282.0
 30
0.0
 40
1.000000000000001
 50
180.0
 51
270.0
  0
LINE
  5
CE
  8
0
  6
CONTINUOUS
 62
     7
 10
-265.9
 20
281.0
 30
0.0
 11
-255.9
 21
281.0
 31
0.0
  0
LINE
  5
CF
  8
0
  6
CONTINUOUS
 62
     7
 10
-265.9
 20
381.0
 30
0.0
 11
-255.9
 21
381.0
 31
0.0
  0
LINE
  5
D0
  8
0
  6
CONTINUOUS
 62
     7
 10
-255.9
 20
381.0
 30
0.0
 11
-255.9
 21
333.0
 31
0.0
  0
ARC
  5
D1
  8
0
  6
CONTINUOUS
 62
     7
 10
-305.9
 20
232.0
 30
0.0
 40
1.000000000000001
 50
0.0
 51
90.0
  0
LINE
  5
D2
  8
0
  6
CONTINUOUS
 62
     7
 10
-295.9
 20
233.0
 30
0.0
 11
-305.9
 21
233.0
 31
0.0
  0
LINE
  5
D3
  8
0
  6
CONTINUOUS
 62
     7
 10
-305.9
 20
281.0
 30
0.0
 11
-295.9
 21
281.0
 31
0.0
  0
ARC
  5
D4
  8
0
  6
CONTINUOUS
 62
     7
 10
-305.9
 20
282.0
 30
0.0
 40
1.000000000000001
 50
270.0
 51
0.0
  0
LINE
  5
D5
  8
0
  6
CONTINUOUS
 62
     7
 10
-305.9
 20
233.0
 30
0.0
 11
-305.9
 21
281.0
 31
0.0
  0
LINE
  5
D6
  8
0
  6
CONTINUOUS
 62
     7
 10
-255.9
 20
281.0
 30
0.0
 11
-255.9
 21
233.0
 31
0.0
  0
ARC
  5
D7
  8
0
  6
CONTINUOUS
 62
     7
 10
-255.9
 20
382.0
 30
0.0
 40
1.000000000000001
 50
180.0
 51
270.0
  0
ARC
  5
D8
  8
0
  6
CONTINUOUS
 62
     7
 10
-255.9
 20
232.0
 30
0.0
 40
1.000000000000001
 50
180.0
 51
270.0
  0
ARC
  5
D9
  8
0
  6
CONTINUOUS
 62
     7
 10
-255.9
 20
282.0
 30
0.0
 40
1.000000000000001
 50
90.0
 51
180.0
  0
ARC
  5
DA
  8
0
  6
CONTINUOUS
 62
     7
 10
-305.9
 20
232.0
 30
0.0
 40
1.000000000000001
 50
270.0
 51
0.0
  0
LINE
  5
DB
  8
0
  6
CONTINUOUS
 62
     7
 10
-305.9
 20
231.0
 30
0.0
 11
-295.9
 21
231.0
 31
0.0
  0
ARC
  5
DC
  8
0
  6
CONTINUOUS
 62
     7
 10
-305.9
 20
332.0
 30
0.0
 40
1.000000000000001
 50
270.0
 51
0.0
  0
LINE
  5
DD
  8
0
  6
CONTINUOUS
 62
     7
 10
-305.9
 20
86.14213562373095
 30
0.0
 11
-305.9
 21
231.0
 31
0.0
  0
LINE
  5
DE
  8
0
  6
CONTINUOUS
 62
     7
 10
-255.9
 20
86.14213562373095
 30
0.0
 11
-255.9
 21
77.3074024795268
 31
0.0
  0
LINE
  5
DF
  8
0
  6
CONTINUOUS
 62
     7
 10
-305.9
 20
70.48401381695261
 30
0.0
 11
-305.9
 21
86.14213562373095
 31
0.0
  0
LINE
  5
E0
  8
0
  6
CONTINUOUS
 62
     7
 10
-305.9
 20
70.48401381695263
 30
0.0
 11
-305.9
 21
56.72748791572826
 31
0.0
  0
LINE
  5
E1
  8
0
  6
CONTINUOUS
 62
     7
 10
-242.9
 20
134.0
 30
0.0
 11
-242.9
 21
-17.99999999999996
 31
0.0
  0
LINE
  5
E2
  8
0
  6
CONTINUOUS
 62
     7
 10
-225.9
 20
134.0
 30
0.0
 11
-225.9
 21
-18.00000000000001
 31
0.0
  0
LINE
  5
E3
  8
0
  6
CONTINUOUS
 62
     7
 10
-229.9
 20
134.0
 30
0.0
 11
-229.9
 21
-17.99999999999996
 31
0.0
  0
LINE
  5
E4
  8
0
  6
CONTINUOUS
 62
     7
 10
-305.9
 20
-8.000000000000076
 30
0.0
 11
-305.9
 21
56.72748791572828
 31
0.0
  0
LINE
  5
E5
  8
0
  6
CONTINUOUS
 62
     7
 10
-306.1
 20
109.9630681818181
 30
0.0
 11
-306.1
 21
108.8267045454545
 31
0.0
  0
LINE
  5
E6
  8
0
  6
CONTINUOUS
 62
     7
 10
-306.1
 20
108.8267045454545
 30
0.0
 11
-306.1
 21
100.6448863636363
 31
0.0
  0
LINE
  5
E7
  8
0
  6
CONTINUOUS
 62
     7
 10
-306.1
 20
188.5432852445502
 30
0.0
 11
-306.1
 21
202.0000000000001
 31
0.0
  0
LINE
  5
E8
  8
0
  6
CONTINUOUS
 62
     7
 10
-305.9
 20
202.0000000000001
 30
0.0
 11
-306.1
 21
202.0000000000001
 31
0.0
  0
LINE
  5
E9
  8
0
  6
CONTINUOUS
 62
     7
 10
-305.8999999999997
 20
188.5432852445502
 30
0.0
 11
-306.1
 21
188.5432852445502
 31
0.0
  0
LINE
  5
EA
  8
0
  6
CONTINUOUS
 62
     7
 10
-305.9
 20
186.35293351166
 30
0.0
 11
-306.1
 21
186.3529335116602
 31
0.0
  0
LINE
  5
EB
  8
0
  6
CONTINUOUS
 62
     7
 10
-306.1
 20
186.3529335116599
 30
0.0
 11
-306.1
 21
188.54328524455
 31
0.0
  0
LINE
  5
EC
  8
0
  6
CONTINUOUS
 62
     7
 10
-306.1
 20
134.5000000000002
 30
0.0
 11
-306.1
 21
179.2401923788648
 31
0.0
  0
LINE
  5
ED
  8
0
  6
CONTINUOUS
 62
     7
 10
-305.9
 20
134.5000000000002
 30
0.0
 11
-306.1
 21
134.5000000000002
 31
0.0
  0
LINE
  5
EE
  8
0
  6
CONTINUOUS
 62
     7
 10
-305.8999999999997
 20
109.9630681818181
 30
0.0
 11
-306.1
 21
109.9630681818181
 31
0.0
  0
LINE
  5
EF
  8
0
  6
CONTINUOUS
 62
     7
 10
-306.1
 20
184.4714515201254
 30
0.0
 11
-306.1
 21
186.3529335116599
 31
0.0
  0
LINE
  5
F0
  8
0
  6
CONTINUOUS
 62
     7
 10
-305.9
 20
184.4714515201254
 30
0.0
 11
-306.1
 21
184.4714515201254
 31
0.0
  0
LINE
  5
F1
  8
0
  6
CONTINUOUS
 62
     7
 10
-306.1
 20
183.3207267334965
 30
0.0
 11
-306.1
 21
184.4714515201254
 31
0.0
  0
LINE
  5
F2
  8
0
  6
CONTINUOUS
 62
     7
 10
-305.9
 20
183.3207267334965
 30
0.0
 11
-306.1
 21
183.3207267334967
 31
0.0
  0
LINE
  5
F3
  8
0
  6
CONTINUOUS
 62
     7
 10
-305.9
 20
180.5416307471359
 30
0.0
 11
-306.1
 21
180.5416307471359
 31
0.0
  0
LINE
  5
F4
  8
0
  6
CONTINUOUS
 62
     7
 10
-306.1
 20
180.5416307471359
 30
0.0
 11
-306.1
 21
183.3207267334967
 31
0.0
  0
LINE
  5
F5
  8
0
  6
CONTINUOUS
 62
     7
 10
-305.9
 20
179.9877623116491
 30
0.0
 11
-306.1
 21
179.9877623116493
 31
0.0
  0
LINE
  5
F6
  8
0
  6
CONTINUOUS
 62
     7
 10
-306.1
 20
179.9877623116491
 30
0.0
 11
-306.1
 21
180.5416307471359
 31
0.0
  0
LINE
  5
F7
  8
0
  6
CONTINUOUS
 62
     7
 10
-306.1
 20
179.6501670380688
 30
0.0
 11
-306.1
 21
179.9349010289253
 31
0.0
  0
LINE
  5
F8
  8
0
  6
CONTINUOUS
 62
     7
 10
-305.9
 20
179.9349010289254
 30
0.0
 11
-306.1
 21
179.9349010289254
 31
0.0
  0
LINE
  5
F9
  8
0
  6
CONTINUOUS
 62
     7
 10
-305.9
 20
179.6501670380688
 30
0.0
 11
-306.1
 21
179.6501670380691
 31
0.0
  0
LINE
  5
FA
  8
0
  6
CONTINUOUS
 62
     7
 10
-306.1
 20
179.9349010289254
 30
0.0
 11
-306.1
 21
179.9877623116493
 31
0.0
  0
LINE
  5
FB
  8
0
  6
CONTINUOUS
 62
     7
 10
-306.1
 20
134.5
 30
0.0
 11
-306.1
 21
133.7499999999999
 31
0.0
  0
LINE
  5
FC
  8
0
  6
CONTINUOUS
 62
     7
 10
-305.9
 20
112.0750835190347
 30
0.0
 11
-306.1
 21
112.0750835190347
 31
0.0
  0
LINE
  5
FD
  8
0
  6
CONTINUOUS
 62
     7
 10
-306.1
 20
112.0750835190347
 30
0.0
 11
-306.1
 21
133.7499999999999
 31
0.0
  0
LINE
  5
FE
  8
0
  6
CONTINUOUS
 62
     7
 10
-306.1
 20
112.0000000000002
 30
0.0
 11
-306.1
 21
112.0750835190347
 31
0.0
  0
LINE
  5
FF
  8
0
  6
CONTINUOUS
 62
     7
 10
-306.1
 20
179.2401923788648
 30
0.0
 11
-306.1
 21
179.3352885682972
 31
0.0
  0
LINE
  5
100
  8
0
  6
CONTINUOUS
 62
     7
 10
-305.9
 20
179.5003775136115
 30
0.0
 11
-306.1
 21
179.5003775136112
 31
0.0
  0
LINE
  5
101
  8
0
  6
CONTINUOUS
 62
     7
 10
-306.1
 20
179.5003762552328
 30
0.0
 11
-306.1
 21
179.6501670380691
 31
0.0
  0
ARC
  5
102
  8
0
  6
CONTINUOUS
 62
     7
 10
-233.4524786034368
 20
133.5
 30
0.0
 40
0.5000000000000004
 50
90.0
 51
173.6598082540887
  0
ARC
  5
103
  8
0
  6
CONTINUOUS
 62
     7
 10
-233.4524786034368
 20
-19.49999999999996
 30
0.0
 40
0.5000000000000322
 50
186.3401917459097
 51
270.0
  0
ARC
  5
104
  8
0
  6
CONTINUOUS
 62
     7
 10
-239.4524786034368
 20
133.5
 30
0.0
 40
0.5000000000000004
 50
89.99999999999841
 51
173.6598082540887
  0
ARC
  5
105
  8
0
  6
CONTINUOUS
 62
     7
 10
-239.4524786034368
 20
-19.49999999999996
 30
0.0
 40
0.499999999999977
 50
186.3401917459097
 51
270.0000000000015
  0
ARC
  5
106
  8
0
  6
CONTINUOUS
 62
     7
 10
-239.3475213965632
 20
133.5
 30
0.0
 40
0.5000000000000338
 50
6.340191745911348
 51
90.00000000000162
  0
ARC
  5
107
  8
0
  6
CONTINUOUS
 62
     7
 10
-239.3475213965632
 20
-19.49999999999996
 30
0.0
 40
0.5000000000000004
 50
269.9999999999984
 51
353.6598082540903
  0
LINE
  5
108
  8
0
  6
CONTINUOUS
 62
     7
 10
-233.4524786034368
 20
-19.99999999999996
 30
0.0
 11
-233.3475213965632
 21
-19.99999999999996
 31
0.0
  0
LINE
  5
109
  8
0
  6
CONTINUOUS
 62
     7
 10
-233.3475213965632
 20
134.0
 30
0.0
 11
-233.4524786034368
 21
134.0
 31
0.0
  0
ARC
  5
10A
  8
0
  6
CONTINUOUS
 62
     7
 10
-233.3475213965632
 20
133.5
 30
0.0
 40
0.4999999999999785
 50
6.340191745911348
 51
90.00000000000001
  0
ARC
  5
10B
  8
0
  6
CONTINUOUS
 62
     7
 10
-233.3475213965632
 20
-19.49999999999996
 30
0.0
 40
0.5000000000000004
 50
270.0
 51
353.6598082540903
  0
LINE
  5
10C
  8
0
  6
CONTINUOUS
 62
     7
 10
-239.4524786034368
 20
-19.99999999999996
 30
0.0
 11
-239.3475213965632
 21
-19.99999999999996
 31
0.0
  0
LINE
  5
10D
  8
0
  6
CONTINUOUS
 62
     7
 10
-239.3475213965632
 20
134.0
 30
0.0
 11
-239.4524786034368
 21
134.0
 31
0.0
  0
LINE
  5
10E
  8
0
  6
CONTINUOUS
 62
     7
 10
-232.8505795292264
 20
-19.55521576303738
 30
0.0
 11
-232.4
 21
-15.49999999999996
 31
0.0
  0
LINE
  5
10F
  8
0
  6
CONTINUOUS
 62
     7
 10
-232.4
 20
129.5
 30
0.0
 11
-232.8505795292264
 21
133.5552157630375
 31
0.0
  0
LINE
  5
110
  8
0
  6
CONTINUOUS
 62
     7
 10
-233.9494204707736
 20
133.5552157630374
 30
0.0
 11
-234.4
 21
129.5
 31
0.0
  0
LINE
  5
111
  8
0
  6
CONTINUOUS
 62
     7
 10
-234.4
 20
-15.49999999999996
 30
0.0
 11
-233.9494204707736
 21
-19.55521576303737
 31
0.0
  0
LINE
  5
112
  8
0
  6
CONTINUOUS
 62
     7
 10
-239.9494204707736
 20
133.5552157630375
 30
0.0
 11
-240.4
 21
129.5
 31
0.0
  0
LINE
  5
113
  8
0
  6
CONTINUOUS
 62
     7
 10
-240.4
 20
-15.49999999999996
 30
0.0
 11
-239.9494204707736
 21
-19.55521576303738
 31
0.0
  0
LINE
  5
114
  8
0
  6
CONTINUOUS
 62
     7
 10
-238.8505795292264
 20
-19.55521576303738
 30
0.0
 11
-238.4
 21
-15.49999999999996
 31
0.0
  0
LINE
  5
115
  8
0
  6
CONTINUOUS
 62
     7
 10
-238.4
 20
129.5
 30
0.0
 11
-238.8505795292264
 21
133.5552157630375
 31
0.0
  0
LINE
  5
116
  8
0
  6
CONTINUOUS
 62
     7
 10
-238.4
 20
-15.49999999999996
 30
0.0
 11
-234.4
 21
-15.49999999999996
 31
0.0
  0
LINE
  5
117
  8
0
  6
CONTINUOUS
 62
     7
 10
-234.4
 20
129.5
 30
0.0
 11
-238.4
 21
129.5
 31
0.0
  0
LINE
  5
118
  8
0
  6
CONTINUOUS
 62
     7
 10
-232.4
 20
-15.49999999999996
 30
0.0
 11
-230.4
 21
-15.49999999999996
 31
0.0
  0
LINE
  5
119
  8
0
  6
CONTINUOUS
 62
     7
 10
-230.4
 20
129.5
 30
0.0
 11
-232.4
 21
129.5
 31
0.0
  0
LINE
  5
11A
  8
0
  6
CONTINUOUS
 62
     7
 10
-242.4
 20
-15.49999999999996
 30
0.0
 11
-240.4
 21
-15.49999999999996
 31
0.0
  0
LINE
  5
11B
  8
0
  6
CONTINUOUS
 62
     7
 10
-240.4
 20
129.5
 30
0.0
 11
-242.4
 21
129.5
 31
0.0
  0
ARC
  5
11C
  8
0
  6
CONTINUOUS
 62
     7
 10
-250.9
 20
139.0000000000001
 30
0.0
 40
5.000000000000004
 50
180.0
 51
270.0
  0
LINE
  5
11D
  8
0
  6
CONTINUOUS
 62
     7
 10
-295.9
 20
-18.00000000000007
 30
0.0
 11
-242.9
 21
-18.00000000000007
 31
0.0
  0
LINE
  5
11E
  8
0
  6
CONTINUOUS
 62
     7
 10
-242.9
 20
134.0000000000001
 30
0.0
 11
-250.9
 21
134.0000000000001
 31
0.0
  0
LINE
  5
11F
  8
0
  6
CONTINUOUS
 62
     7
 10
-229.9
 20
-18.00000000000007
 30
0.0
 11
-225.9
 21
-18.00000000000007
 31
0.0
  0
LINE
  5
120
  8
0
  6
CONTINUOUS
 62
     7
 10
-225.9
 20
134.0000000000001
 30
0.0
 11
-229.9
 21
134.0000000000001
 31
0.0
  0
ARC
  5
121
  8
0
  6
CONTINUOUS
 62
     7
 10
-295.9
 20
-8.000000000000076
 30
0.0
 40
10.00000000000001
 50
180.0000000000001
 51
270.0
  0
LINE
  5
122
  8
0
  6
CONTINUOUS
 62
     7
 10
-229.9
 20
128.5000000000001
 30
0.0
 11
-230.4
 21
128.5000000000001
 31
0.0
  0
LINE
  5
123
  8
0
  6
CONTINUOUS
 62
     7
 10
-242.4
 20
128.5000000000001
 30
0.0
 11
-242.9
 21
128.5000000000001
 31
0.0
  0
LINE
  5
124
  8
0
  6
CONTINUOUS
 62
     7
 10
-242.9
 20
-12.49999999999997
 30
0.0
 11
-242.4
 21
-12.49999999999997
 31
0.0
  0
LINE
  5
125
  8
0
  6
CONTINUOUS
 62
     7
 10
-230.4
 20
-12.49999999999997
 30
0.0
 11
-229.9
 21
-12.49999999999997
 31
0.0
  0
LINE
  5
126
  8
0
  6
CONTINUOUS
 62
     7
 10
-305.8999999999997
 20
109.9630681818181
 30
0.0
 11
-306.1
 21
109.9630681818181
 31
0.0
  0
LINE
  5
127
  8
0
  6
CONTINUOUS
 62
     7
 10
-306.1
 20
100.6448863636363
 30
0.0
 11
-305.8999999999997
 21
100.6448863636363
 31
0.0
  0
LINE
  5
128
  8
0
  6
CONTINUOUS
 62
     7
 10
-306.1250000000001
 20
100.6448863636363
 30
0.0
 11
-306.1
 21
100.6448863636363
 31
0.0
  0
LINE
  5
129
  8
0
  6
CONTINUOUS
 62
     7
 10
-305.9
 20
109.9860583473626
 30
0.0
 11
-306.1
 21
109.9860583473626
 31
0.0
  0
LINE
  5
12A
  8
0
  6
CONTINUOUS
 62
     7
 10
-306.1
 20
109.9860583473626
 30
0.0
 11
-306.1250000000001
 21
109.9860583473626
 31
0.0
  0
LINE
  5
12B
  8
0
  6
CONTINUOUS
 62
     7
 10
-306.0999999999995
 20
112.0000000000002
 30
0.0
 11
-305.8999999999996
 21
112.0000000000002
 31
0.0
  0
LINE
  5
12C
  8
0
  6
CONTINUOUS
 62
     7
 10
-305.8999999999994
 20
179.3352885682972
 30
0.0
 11
-306.0999999999995
 21
179.3352885682972
 31
0.0
  0
LINE
  5
12D
  8
0
  6
CONTINUOUS
 62
     7
 10
-306.1250000000001
 20
100.6717634186363
 30
0.0
 11
-306.1
 21
100.6717634186363
 31
0.0
  0
POLYLINE
  5
12E
  8
0
 62
   253
 66
     1
 10
0.0
 20
0.0
 30
0.0
 70
    64
 71
     4
 72
     2
  0
VERTEX
  5
28F
  8
0
 62
   253
 10
-236.7497948365096
 20
125.9824585307418
 30
0.0
 70
   192
  0
VERTEX
  5
290
  8
0
 62
   253
 10
-236.7491326585395
 20
126.0151663689772
 30
0.0
 70
   192
  0
VERTEX
  5
291
  8
0
 62
   253
 10
-236.7484704805695
 20
125.96272869593
 30
0.0
 70
   192
  0
VERTEX
  5
292
  8
0
 62
   253
 10
-236.7484704805695
 20
126.0478742072126
 30
0.0
 70
   192
  0
VERTEX
  5
293
  8
0
 62
   253
 10
0.0
 20
0.0
 30
0.0
 70
   128
 71
     1
 72
    -2
 73
    -3
  0
VERTEX
  5
294
  8
0
 62
   253
 10
0.0
 20
0.0
 30
0.0
 70
   128
 71
     2
 72
     4
 73
    -3
  0
SEQEND
  5
6ED
  8
0
 62
   253
  0
POLYLINE
  5
12F
  8
0
 62
   253
 66
     1
 10
0.0
 20
0.0
 30
0.0
 70
    64
 71
     5
 72
     3
  0
VERTEX
  5
295
  8
0
 62
   253
 10
-236.7469416407872
 20
125.9825252813283
 30
0.0
 70
   192
  0
VERTEX
  5
296
  8
0
 62
   253
 10
-236.745412801005
 20
125.917176355444
 30
0.0
 70
   192
  0
VERTEX
  5
297
  8
0
 62
   253
 10
-236.7469416407872
 20
125.939952525687
 30
0.0
 70
   192
  0
VERTEX
  5
298
  8
0
 62
   253
 10
-236.7484704805692
 20
125.96272869593
 30
0.0
 70
   192
  0
VERTEX
  5
299
  8
0
 62
   253
 10
-236.7484704805695
 20
126.0478742072126
 30
0.0
 70
   192
  0
VERTEX
  5
29A
  8
0
 62
   253
 10
0.0
 20
0.0
 30
0.0
 70
   128
 71
     1
 72
     2
 73
    -3
  0
VERTEX
  5
29B
  8
0
 62
   253
 10
0.0
 20
0.0
 30
0.0
 70
   128
 71
     3
 72
    -4
 73
    -1
  0
VERTEX
  5
29C
  8
0
 62
   253
 10
0.0
 20
0.0
 30
0.0
 70
   128
 71
     4
 72
     5
 73
    -1
  0
SEQEND
  5
6EE
  8
0
 62
   253
  0
POLYLINE
  5
130
  8
0
 62
   253
 66
     1
 10
0.0
 20
0.0
 30
0.0
 70
    64
 71
     5
 72
     3
  0
VERTEX
  5
29D
  8
0
 62
   253
 10
-236.7469416407872
 20
126.0620399603801
 30
0.0
 70
   192
  0
VERTEX
  5
29E
  8
0
 62
   253
 10
-236.745412801005
 20
126.0762057135476
 30
0.0
 70
   192
  0
VERTEX
  5
29F
  8
0
 62
   253
 10
-236.7469416407872
 20
125.9825252813283
 30
0.0
 70
   192
  0
VERTEX
  5
2A0
  8
0
 62
   253
 10
-236.7484704805692
 20
126.0478742072126
 30
0.0
 70
   192
  0
VERTEX
  5
2A1
  8
0
 62
   253
 10
-236.745412801005
 20
125.917176355444
 30
0.0
 70
   192
  0
VERTEX
  5
2A2
  8
0
 62
   253
 10
0.0
 20
0.0
 30
0.0
 70
   128
 71
     1
 72
    -2
 73
    -3
  0
VERTEX
  5
2A3
  8
0
 62
   253
 10
0.0
 20
0.0
 30
0.0
 70
   128
 71
     3
 72
     4
 73
    -1
  0
VERTEX
  5
2A4
  8
0
 62
   253
 10
0.0
 20
0.0
 30
0.0
 70
   128
 71
     2
 72
     5
 73
    -3
  0
SEQEND
  5
6EF
  8
0
 62
   253
  0
POLYLINE
  5
131
  8
0
 62
   253
 66
     1
 10
0.0
 20
0.0
 30
0.0
 70
    64
 71
     5
 72
     3
  0
VERTEX
  5
2A5
  8
0
 62
   253
 10
-236.7434313066692
 20
125.9839504807075
 30
0.0
 70
   192
  0
VERTEX
  5
2A6
  8
0
 62
   253
 10
-236.7414498123335
 20
125.8916952478674
 30
0.0
 70
   192
  0
VERTEX
  5
2A7
  8
0
 62
   253
 10
-236.7434313066692
 20
125.9044358016557
 30
0.0
 70
   192
  0
VERTEX
  5
2A8
  8
0
 62
   253
 10
-236.7454128010054
 20
125.9171763554439
 30
0.0
 70
   192
  0
VERTEX
  5
2A9
  8
0
 62
   253
 10
-236.745412801005
 20
126.0762057135476
 30
0.0
 70
   192
  0
VERTEX
  5
2AA
  8
0
 62
   253
 10
0.0
 20
0.0
 30
0.0
 70
   128
 71
     1
 72
     2
 73
    -3
  0
VERTEX
  5
2AB
  8
0
 62
   253
 10
0.0
 20
0.0
 30
0.0
 70
   128
 71
     4
 72
     5
 73
    -1
  0
VERTEX
  5
2AC
  8
0
 62
   253
 10
0.0
 20
0.0
 30
0.0
 70
   128
 71
    -1
 72
     3
 73
    -4
  0
SEQEND
  5
6F0
  8
0
 62
   253
  0
POLYLINE
  5
132
  8
0
 62
   253
 66
     1
 10
0.0
 20
0.0
 30
0.0
 70
    64
 71
     5
 72
     3
  0
VERTEX
  5
2AD
  8
0
 62
   253
 10
-236.7434313066692
 20
126.0945656228034
 30
0.0
 70
   192
  0
VERTEX
  5
2AE
  8
0
 62
   253
 10
-236.7414498123335
 20
126.1129255320592
 30
0.0
 70
   192
  0
VERTEX
  5
2AF
  8
0
 62
   253
 10
-236.7434313066692
 20
125.9839504807075
 30
0.0
 70
   192
  0
VERTEX
  5
2B0
  8
0
 62
   253
 10
-236.7454128010054
 20
126.0762057135476
 30
0.0
 70
   192
  0
VERTEX
  5
2B1
  8
0
 62
   253
 10
-236.7414498123335
 20
125.8916952478674
 30
0.0
 70
   192
  0
VERTEX
  5
2B2
  8
0
 62
   253
 10
0.0
 20
0.0
 30
0.0
 70
   128
 71
     1
 72
    -2
 73
    -3
  0
VERTEX
  5
2B3
  8
0
 62
   253
 10
0.0
 20
0.0
 30
0.0
 70
   128
 71
     3
 72
     4
 73
    -1
  0
VERTEX
  5
2B4
  8
0
 62
   253
 10
0.0
 20
0.0
 30
0.0
 70
   128
 71
     2
 72
     5
 73
    -3
  0
SEQEND
  5
6F1
  8
0
 62
   253
  0
POLYLINE
  5
133
  8
0
 62
   253
 66
     1
 10
0.0
 20
0.0
 30
0.0
 70
    64
 71
     5
 72
     3
  0
VERTEX
  5
2B5
  8
0
 62
   253
 10
-236.738403768163
 20
125.9827250250752
 30
0.0
 70
   192
  0
VERTEX
  5
2B6
  8
0
 62
   253
 10
-236.7353577239925
 20
125.8525245180912
 30
0.0
 70
   192
  0
VERTEX
  5
2B7
  8
0
 62
   253
 10
-236.738403768163
 20
125.8721098829793
 30
0.0
 70
   192
  0
VERTEX
  5
2B8
  8
0
 62
   253
 10
-236.7414498123331
 20
125.8916952478674
 30
0.0
 70
   192
  0
VERTEX
  5
2B9
  8
0
 62
   253
 10
-236.7414498123335
 20
126.1129255320592
 30
0.0
 70
   192
  0
VERTEX
  5
2BA
  8
0
 62
   253
 10
0.0
 20
0.0
 30
0.0
 70
   128
 71
     1
 72
     2
 73
    -3
  0
VERTEX
  5
2BB
  8
0
 62
   253
 10
0.0
 20
0.0
 30
0.0
 70
   128
 71
     4
 72
     5
 73
    -1
  0
VERTEX
  5
2BC
  8
0
 62
   253
 10
0.0
 20
0.0
 30
0.0
 70
   128
 71
    -1
 72
     3
 73
    -4
  0
SEQEND
  5
6F2
  8
0
 62
   253
  0
POLYLINE
  5
134
  8
0
 62
   253
 66
     1
 10
0.0
 20
0.0
 30
0.0
 70
    64
 71
     5
 72
     3
  0
VERTEX
  5
2BD
  8
0
 62
   253
 10
-236.738403768163
 20
126.1283660173794
 30
0.0
 70
   192
  0
VERTEX
  5
2BE
  8
0
 62
   253
 10
-236.7353577239925
 20
126.1438065026996
 30
0.0
 70
   192
  0
VERTEX
  5
2BF
  8
0
 62
   253
 10
-236.738403768163
 20
125.9827250250752
 30
0.0
 70
   192
  0
VERTEX
  5
2C0
  8
0
 62
   253
 10
-236.7414498123331
 20
126.1129255320592
 30
0.0
 70
   192
  0
VERTEX
  5
2C1
  8
0
 62
   253
 10
-236.7353577239925
 20
125.8525245180912
 30
0.0
 70
   192
  0
VERTEX
  5
2C2
  8
0
 62
   253
 10
0.0
 20
0.0
 30
0.0
 70
   128
 71
     1
 72
    -2
 73
    -3
  0
VERTEX
  5
2C3
  8
0
 62
   253
 10
0.0
 20
0.0
 30
0.0
 70
   128
 71
     3
 72
     4
 73
    -1
  0
VERTEX
  5
2C4
  8
0
 62
   253
 10
0.0
 20
0.0
 30
0.0
 70
   128
 71
     2
 72
     5
 73
    -3
  0
SEQEND
  5
6F3
  8
0
 62
   253
  0
POLYLINE
  5
135
  8
0
 62
   253
 66
     1
 10
0.0
 20
0.0
 30
0.0
 70
    64
 71
     5
 72
     3
  0
VERTEX
  5
2C5
  8
0
 62
   253
 10
-236.7320719936592
 20
125.9848288059945
 30
0.0
 70
   192
  0
VERTEX
  5
2C6
  8
0
 62
   253
 10
-236.728786263326
 20
125.8258511092894
 30
0.0
 70
   192
  0
VERTEX
  5
2C7
  8
0
 62
   253
 10
-236.7320719936592
 20
125.8391878136902
 30
0.0
 70
   192
  0
VERTEX
  5
2C8
  8
0
 62
   253
 10
-236.7353577239929
 20
125.8525245180911
 30
0.0
 70
   192
  0
VERTEX
  5
2C9
  8
0
 62
   253
 10
-236.7353577239925
 20
126.1438065026996
 30
0.0
 70
   192
  0
VERTEX
  5
2CA
  8
0
 62
   253
 10
0.0
 20
0.0
 30
0.0
 70
   128
 71
     1
 72
     2
 73
    -3
  0
VERTEX
  5
2CB
  8
0
 62
   253
 10
0.0
 20
0.0
 30
0.0
 70
   128
 71
     4
 72
     5
 73
    -1
  0
VERTEX
  5
2CC
  8
0
 62
   253
 10
0.0
 20
0.0
 30
0.0
 70
   128
 71
    -1
 72
     3
 73
    -4
  0
SEQEND
  5
6F4
  8
0
 62
   253
  0
POLYLINE
  5
136
  8
0
 62
   253
 66
     1
 10
0.0
 20
0.0
 30
0.0
 70
    64
 71
     5
 72
     3
  0
VERTEX
  5
2CD
  8
0
 62
   253
 10
-236.7320719936592
 20
126.1604619640601
 30
0.0
 70
   192
  0
VERTEX
  5
2CE
  8
0
 62
   253
 10
-236.728786263326
 20
126.1771174254206
 30
0.0
 70
   192
  0
VERTEX
  5
2CF
  8
0
 62
   253
 10
-236.7320719936592
 20
125.9848288059945
 30
0.0
 70
   192
  0
VERTEX
  5
2D0
  8
0
 62
   253
 10
-236.7353577239929
 20
126.1438065026996
 30
0.0
 70
   192
  0
VERTEX
  5
2D1
  8
0
 62
   253
 10
-236.728786263326
 20
125.8258511092894
 30
0.0
 70
   192
  0
VERTEX
  5
2D2
  8
0
 62
   253
 10
0.0
 20
0.0
 30
0.0
 70
   128
 71
     1
 72
    -2
 73
    -3
  0
VERTEX
  5
2D3
  8
0
 62
   253
 10
0.0
 20
0.0
 30
0.0
 70
   128
 71
     3
 72
     4
 73
    -1
  0
VERTEX
  5
2D4
  8
0
 62
   253
 10
0.0
 20
0.0
 30
0.0
 70
   128
 71
     2
 72
     5
 73
    -3
  0
SEQEND
  5
6F5
  8
0
 62
   253
  0
POLYLINE
  5
137
  8
0
 62
   253
 66
     1
 10
0.0
 20
0.0
 30
0.0
 70
    64
 71
     5
 72
     3
  0
VERTEX
  5
2D5
  8
0
 62
   253
 10
-236.7242461970027
 20
125.9830562418124
 30
0.0
 70
   192
  0
VERTEX
  5
2D6
  8
0
 62
   253
 10
-236.7197061306795
 20
125.7889950582042
 30
0.0
 70
   192
  0
VERTEX
  5
2D7
  8
0
 62
   253
 10
-236.7242461970027
 20
125.8074230837468
 30
0.0
 70
   192
  0
VERTEX
  5
2D8
  8
0
 62
   253
 10
-236.7287862633257
 20
125.8258511092895
 30
0.0
 70
   192
  0
VERTEX
  5
2D9
  8
0
 62
   253
 10
-236.728786263326
 20
126.1771174254206
 30
0.0
 70
   192
  0
VERTEX
  5
2DA
  8
0
 62
   253
 10
0.0
 20
0.0
 30
0.0
 70
   128
 71
     1
 72
     2
 73
    -3
  0
VERTEX
  5
2DB
  8
0
 62
   253
 10
0.0
 20
0.0
 30
0.0
 70
   128
 71
     4
 72
     5
 73
    -1
  0
VERTEX
  5
2DC
  8
0
 62
   253
 10
0.0
 20
0.0
 30
0.0
 70
   128
 71
    -1
 72
     3
 73
    -4
  0
SEQEND
  5
6F6
  8
0
 62
   253
  0
POLYLINE
  5
138
  8
0
 62
   253
 66
     1
 10
0.0
 20
0.0
 30
0.0
 70
    64
 71
     5
 72
     3
  0
VERTEX
  5
2DD
  8
0
 62
   253
 10
-236.7242461970027
 20
126.1927854514828
 30
0.0
 70
   192
  0
VERTEX
  5
2DE
  8
0
 62
   253
 10
-236.7197061306795
 20
126.208453477545
 30
0.0
 70
   192
  0
VERTEX
  5
2DF
  8
0
 62
   253
 10
-236.7242461970027
 20
125.9830562418124
 30
0.0
 70
   192
  0
VERTEX
  5
2E0
  8
0
 62
   253
 10
-236.7287862633257
 20
126.1771174254206
 30
0.0
 70
   192
  0
VERTEX
  5
2E1
  8
0
 62
   253
 10
-236.7197061306795
 20
125.7889950582042
 30
0.0
 70
   192
  0
VERTEX
  5
2E2
  8
0
 62
   253
 10
0.0
 20
0.0
 30
0.0
 70
   128
 71
     1
 72
    -2
 73
    -3
  0
VERTEX
  5
2E3
  8
0
 62
   253
 10
0.0
 20
0.0
 30
0.0
 70
   128
 71
     3
 72
     4
 73
    -1
  0
VERTEX
  5
2E4
  8
0
 62
   253
 10
0.0
 20
0.0
 30
0.0
 70
   128
 71
     2
 72
     5
 73
    -3
  0
SEQEND
  5
6F7
  8
0
 62
   253
  0
POLYLINE
  5
139
  8
0
 62
   253
 66
     1
 10
0.0
 20
0.0
 30
0.0
 70
    64
 71
     5
 72
     3
  0
VERTEX
  5
2E5
  8
0
 62
   253
 10
-236.7151411707402
 20
125.9853455562725
 30
0.0
 70
   192
  0
VERTEX
  5
2E6
  8
0
 62
   253
 10
-236.710576210801
 20
125.762237635
 30
0.0
 70
   192
  0
VERTEX
  5
2E7
  8
0
 62
   253
 10
-236.7151411707402
 20
125.7756163466021
 30
0.0
 70
   192
  0
VERTEX
  5
2E8
  8
0
 62
   253
 10
-236.7197061306794
 20
125.7889950582042
 30
0.0
 70
   192
  0
VERTEX
  5
2E9
  8
0
 62
   253
 10
-236.7197061306795
 20
126.208453477545
 30
0.0
 70
   192
  0
VERTEX
  5
2EA
  8
0
 62
   253
 10
0.0
 20
0.0
 30
0.0
 70
   128
 71
     1
 72
     2
 73
    -3
  0
VERTEX
  5
2EB
  8
0
 62
   253
 10
0.0
 20
0.0
 30
0.0
 70
   128
 71
     4
 72
     5
 73
    -1
  0
VERTEX
  5
2EC
  8
0
 62
   253
 10
0.0
 20
0.0
 30
0.0
 70
   128
 71
    -1
 72
     3
 73
    -4
  0
SEQEND
  5
6F8
  8
0
 62
   253
  0
POLYLINE
  5
13A
  8
0
 62
   253
 66
     1
 10
0.0
 20
0.0
 30
0.0
 70
    64
 71
     5
 72
     3
  0
VERTEX
  5
2ED
  8
0
 62
   253
 10
-236.7151411707402
 20
126.2242074128865
 30
0.0
 70
   192
  0
VERTEX
  5
2EE
  8
0
 62
   253
 10
-236.710576210801
 20
126.239961348228
 30
0.0
 70
   192
  0
VERTEX
  5
2EF
  8
0
 62
   253
 10
-236.7151411707402
 20
125.9853455562725
 30
0.0
 70
   192
  0
VERTEX
  5
2F0
  8
0
 62
   253
 10
-236.7197061306794
 20
126.208453477545
 30
0.0
 70
   192
  0
VERTEX
  5
2F1
  8
0
 62
   253
 10
-236.710576210801
 20
125.762237635
 30
0.0
 70
   192
  0
VERTEX
  5
2F2
  8
0
 62
   253
 10
0.0
 20
0.0
 30
0.0
 70
   128
 71
     1
 72
    -2
 73
    -3
  0
VERTEX
  5
2F3
  8
0
 62
   253
 10
0.0
 20
0.0
 30
0.0
 70
   128
 71
     3
 72
     4
 73
    -1
  0
VERTEX
  5
2F4
  8
0
 62
   253
 10
0.0
 20
0.0
 30
0.0
 70
   128
 71
     2
 72
     5
 73
    -3
  0
SEQEND
  5
6F9
  8
0
 62
   253
  0
POLYLINE
  5
13B
  8
0
 62
   253
 66
     1
 10
0.0
 20
0.0
 30
0.0
 70
    64
 71
     5
 72
     3
  0
VERTEX
  5
2F5
  8
0
 62
   253
 10
-236.7045766749712
 20
125.9835164107802
 30
0.0
 70
   192
  0
VERTEX
  5
2F6
  8
0
 62
   253
 10
-236.6985771391415
 20
125.7270714733324
 30
0.0
 70
   192
  0
VERTEX
  5
2F7
  8
0
 62
   253
 10
-236.7045766749712
 20
125.7446545541662
 30
0.0
 70
   192
  0
VERTEX
  5
2F8
  8
0
 62
   253
 10
-236.7105762108012
 20
125.7622376349999
 30
0.0
 70
   192
  0
VERTEX
  5
2F9
  8
0
 62
   253
 10
-236.710576210801
 20
126.239961348228
 30
0.0
 70
   192
  0
VERTEX
  5
2FA
  8
0
 62
   253
 10
0.0
 20
0.0
 30
0.0
 70
   128
 71
     1
 72
     2
 73
    -3
  0
VERTEX
  5
2FB
  8
0
 62
   253
 10
0.0
 20
0.0
 30
0.0
 70
   128
 71
     4
 72
     5
 73
    -1
  0
VERTEX
  5
2FC
  8
0
 62
   253
 10
0.0
 20
0.0
 30
0.0
 70
   128
 71
    -1
 72
     3
 73
    -4
  0
SEQEND
  5
6FA
  8
0
 62
   253
  0
POLYLINE
  5
13C
  8
0
 62
   253
 66
     1
 10
0.0
 20
0.0
 30
0.0
 70
    64
 71
     5
 72
     3
  0
VERTEX
  5
2FD
  8
0
 62
   253
 10
-236.7045766749712
 20
126.2554613155528
 30
0.0
 70
   192
  0
VERTEX
  5
2FE
  8
0
 62
   253
 10
-236.6985771391415
 20
126.2709612828776
 30
0.0
 70
   192
  0
VERTEX
  5
2FF
  8
0
 62
   253
 10
-236.7045766749712
 20
125.9835164107802
 30
0.0
 70
   192
  0
VERTEX
  5
300
  8
0
 62
   253
 10
-236.7105762108012
 20
126.239961348228
 30
0.0
 70
   192
  0
VERTEX
  5
301
  8
0
 62
   253
 10
-236.6985771391415
 20
125.7270714733324
 30
0.0
 70
   192
  0
VERTEX
  5
302
  8
0
 62
   253
 10
0.0
 20
0.0
 30
0.0
 70
   128
 71
     1
 72
    -2
 73
    -3
  0
VERTEX
  5
303
  8
0
 62
   253
 10
0.0
 20
0.0
 30
0.0
 70
   128
 71
     3
 72
     4
 73
    -1
  0
VERTEX
  5
304
  8
0
 62
   253
 10
0.0
 20
0.0
 30
0.0
 70
   128
 71
     2
 72
     5
 73
    -3
  0
SEQEND
  5
6FB
  8
0
 62
   253
  0
POLYLINE
  5
13D
  8
0
 62
   253
 66
     1
 10
0.0
 20
0.0
 30
0.0
 70
    64
 71
     5
 72
     3
  0
VERTEX
  5
305
  8
0
 62
   253
 10
-236.692767691698
 20
125.985869582225
 30
0.0
 70
   192
  0
VERTEX
  5
306
  8
0
 62
   253
 10
-236.6869582442545
 20
125.7007778815724
 30
0.0
 70
   192
  0
VERTEX
  5
307
  8
0
 62
   253
 10
-236.692767691698
 20
125.7139246774524
 30
0.0
 70
   192
  0
VERTEX
  5
308
  8
0
 62
   253
 10
-236.6985771391413
 20
125.7270714733325
 30
0.0
 70
   192
  0
VERTEX
  5
309
  8
0
 62
   253
 10
-236.6985771391415
 20
126.2709612828776
 30
0.0
 70
   192
  0
VERTEX
  5
30A
  8
0
 62
   253
 10
0.0
 20
0.0
 30
0.0
 70
   128
 71
     1
 72
     2
 73
    -3
  0
VERTEX
  5
30B
  8
0
 62
   253
 10
0.0
 20
0.0
 30
0.0
 70
   128
 71
     4
 72
     5
 73
    -1
  0
VERTEX
  5
30C
  8
0
 62
   253
 10
0.0
 20
0.0
 30
0.0
 70
   128
 71
    -1
 72
     3
 73
    -4
  0
SEQEND
  5
6FC
  8
0
 62
   253
  0
POLYLINE
  5
13E
  8
0
 62
   253
 66
     1
 10
0.0
 20
0.0
 30
0.0
 70
    64
 71
     5
 72
     3
  0
VERTEX
  5
30D
  8
0
 62
   253
 10
-236.692767691698
 20
126.2859701515803
 30
0.0
 70
   192
  0
VERTEX
  5
30E
  8
0
 62
   253
 10
-236.6869582442545
 20
126.300979020283
 30
0.0
 70
   192
  0
VERTEX
  5
30F
  8
0
 62
   253
 10
-236.692767691698
 20
125.985869582225
 30
0.0
 70
   192
  0
VERTEX
  5
310
  8
0
 62
   253
 10
-236.6985771391413
 20
126.2709612828776
 30
0.0
 70
   192
  0
VERTEX
  5
311
  8
0
 62
   253
 10
-236.6869582442545
 20
125.7007778815724
 30
0.0
 70
   192
  0
VERTEX
  5
312
  8
0
 62
   253
 10
0.0
 20
0.0
 30
0.0
 70
   128
 71
     1
 72
    -2
 73
    -3
  0
VERTEX
  5
313
  8
0
 62
   253
 10
0.0
 20
0.0
 30
0.0
 70
   128
 71
     3
 72
     4
 73
    -1
  0
VERTEX
  5
314
  8
0
 62
   253
 10
0.0
 20
0.0
 30
0.0
 70
   128
 71
     2
 72
     5
 73
    -3
  0
SEQEND
  5
6FD
  8
0
 62
   253
  0
POLYLINE
  5
13F
  8
0
 62
   253
 66
     1
 10
0.0
 20
0.0
 30
0.0
 70
    64
 71
     5
 72
     3
  0
VERTEX
  5
315
  8
0
 62
   253
 10
-236.6795448990083
 20
125.9841020298152
 30
0.0
 70
   192
  0
VERTEX
  5
316
  8
0
 62
   253
 10
-236.672131553762
 20
125.6672250393474
 30
0.0
 70
   192
  0
VERTEX
  5
317
  8
0
 62
   253
 10
-236.6795448990083
 20
125.6840014604599
 30
0.0
 70
   192
  0
VERTEX
  5
318
  8
0
 62
   253
 10
-236.6869582442546
 20
125.7007778815723
 30
0.0
 70
   192
  0
VERTEX
  5
319
  8
0
 62
   253
 10
-236.6869582442545
 20
126.300979020283
 30
0.0
 70
   192
  0
VERTEX
  5
31A
  8
0
 62
   253
 10
0.0
 20
0.0
 30
0.0
 70
   128
 71
     1
 72
     2
 73
    -3
  0
VERTEX
  5
31B
  8
0
 62
   253
 10
0.0
 20
0.0
 30
0.0
 70
   128
 71
     4
 72
     5
 73
    -1
  0
VERTEX
  5
31C
  8
0
 62
   253
 10
0.0
 20
0.0
 30
0.0
 70
   128
 71
    -1
 72
     3
 73
    -4
  0
SEQEND
  5
6FE
  8
0
 62
   253
  0
POLYLINE
  5
140
  8
0
 62
   253
 66
     1
 10
0.0
 20
0.0
 30
0.0
 70
    64
 71
     5
 72
     3
  0
VERTEX
  5
31D
  8
0
 62
   253
 10
-236.6795448990083
 20
126.316071643403
 30
0.0
 70
   192
  0
VERTEX
  5
31E
  8
0
 62
   253
 10
-236.672131553762
 20
126.331164266523
 30
0.0
 70
   192
  0
VERTEX
  5
31F
  8
0
 62
   253
 10
-236.6795448990083
 20
125.9841020298152
 30
0.0
 70
   192
  0
VERTEX
  5
320
  8
0
 62
   253
 10
-236.6869582442546
 20
126.300979020283
 30
0.0
 70
   192
  0
VERTEX
  5
321
  8
0
 62
   253
 10
-236.672131553762
 20
125.6672250393474
 30
0.0
 70
   192
  0
VERTEX
  5
322
  8
0
 62
   253
 10
0.0
 20
0.0
 30
0.0
 70
   128
 71
     1
 72
    -2
 73
    -3
  0
VERTEX
  5
323
  8
0
 62
   253
 10
0.0
 20
0.0
 30
0.0
 70
   128
 71
     3
 72
     4
 73
    -1
  0
VERTEX
  5
324
  8
0
 62
   253
 10
0.0
 20
0.0
 30
0.0
 70
   128
 71
     2
 72
     5
 73
    -3
  0
SEQEND
  5
6FF
  8
0
 62
   253
  0
POLYLINE
  5
141
  8
0
 62
   253
 66
     1
 10
0.0
 20
0.0
 30
0.0
 70
    64
 71
     5
 72
     3
  0
VERTEX
  5
325
  8
0
 62
   253
 10
-236.6651218322173
 20
125.986465176563
 30
0.0
 70
   192
  0
VERTEX
  5
326
  8
0
 62
   253
 10
-236.6581121106725
 20
125.641766086603
 30
0.0
 70
   192
  0
VERTEX
  5
327
  8
0
 62
   253
 10
-236.6651218322173
 20
125.6544955629752
 30
0.0
 70
   192
  0
VERTEX
  5
328
  8
0
 62
   253
 10
-236.6721315537619
 20
125.6672250393474
 30
0.0
 70
   192
  0
VERTEX
  5
329
  8
0
 62
   253
 10
-236.672131553762
 20
126.331164266523
 30
0.0
 70
   192
  0
VERTEX
  5
32A
  8
0
 62
   253
 10
0.0
 20
0.0
 30
0.0
 70
   128
 71
     1
 72
     2
 73
    -3
  0
VERTEX
  5
32B
  8
0
 62
   253
 10
0.0
 20
0.0
 30
0.0
 70
   128
 71
     4
 72
     5
 73
    -1
  0
VERTEX
  5
32C
  8
0
 62
   253
 10
0.0
 20
0.0
 30
0.0
 70
   128
 71
    -1
 72
     3
 73
    -4
  0
SEQEND
  5
700
  8
0
 62
   253
  0
POLYLINE
  5
142
  8
0
 62
   253
 66
     1
 10
0.0
 20
0.0
 30
0.0
 70
    64
 71
     5
 72
     3
  0
VERTEX
  5
32D
  8
0
 62
   253
 10
-236.6651218322173
 20
126.3454351633902
 30
0.0
 70
   192
  0
VERTEX
  5
32E
  8
0
 62
   253
 10
-236.6581121106725
 20
126.3597060602574
 30
0.0
 70
   192
  0
VERTEX
  5
32F
  8
0
 62
   253
 10
-236.6651218322173
 20
125.986465176563
 30
0.0
 70
   192
  0
VERTEX
  5
330
  8
0
 62
   253
 10
-236.6721315537619
 20
126.331164266523
 30
0.0
 70
   192
  0
VERTEX
  5
331
  8
0
 62
   253
 10
-236.6581121106725
 20
125.641766086603
 30
0.0
 70
   192
  0
VERTEX
  5
332
  8
0
 62
   253
 10
0.0
 20
0.0
 30
0.0
 70
   128
 71
     1
 72
    -2
 73
    -3
  0
VERTEX
  5
333
  8
0
 62
   253
 10
0.0
 20
0.0
 30
0.0
 70
   128
 71
     3
 72
     4
 73
    -1
  0
VERTEX
  5
334
  8
0
 62
   253
 10
0.0
 20
0.0
 30
0.0
 70
   128
 71
     2
 72
     5
 73
    -3
  0
SEQEND
  5
701
  8
0
 62
   253
  0
POLYLINE
  5
143
  8
0
 62
   253
 66
     1
 10
0.0
 20
0.0
 30
0.0
 70
    64
 71
     5
 72
     3
  0
VERTEX
  5
335
  8
0
 62
   253
 10
-236.6493413760435
 20
125.9848086420027
 30
0.0
 70
   192
  0
VERTEX
  5
336
  8
0
 62
   253
 10
-236.6405706414145
 20
125.609911223748
 30
0.0
 70
   192
  0
VERTEX
  5
337
  8
0
 62
   253
 10
-236.6493413760435
 20
125.6258386551755
 30
0.0
 70
   192
  0
VERTEX
  5
338
  8
0
 62
   253
 10
-236.6581121106726
 20
125.6417660866029
 30
0.0
 70
   192
  0
VERTEX
  5
339
  8
0
 62
   253
 10
-236.6581121106725
 20
126.3597060602574
 30
0.0
 70
   192
  0
VERTEX
  5
33A
  8
0
 62
   253
 10
0.0
 20
0.0
 30
0.0
 70
   128
 71
     1
 72
     2
 73
    -3
  0
VERTEX
  5
33B
  8
0
 62
   253
 10
0.0
 20
0.0
 30
0.0
 70
   128
 71
     4
 72
     5
 73
    -1
  0
VERTEX
  5
33C
  8
0
 62
   253
 10
0.0
 20
0.0
 30
0.0
 70
   128
 71
    -1
 72
     3
 73
    -4
  0
SEQEND
  5
702
  8
0
 62
   253
  0
POLYLINE
  5
144
  8
0
 62
   253
 66
     1
 10
0.0
 20
0.0
 30
0.0
 70
    64
 71
     5
 72
     3
  0
VERTEX
  5
33D
  8
0
 62
   253
 10
-236.6493413760435
 20
126.3742112179632
 30
0.0
 70
   192
  0
VERTEX
  5
33E
  8
0
 62
   253
 10
-236.6405706414145
 20
126.388716375669
 30
0.0
 70
   192
  0
VERTEX
  5
33F
  8
0
 62
   253
 10
-236.6493413760435
 20
125.9848086420027
 30
0.0
 70
   192
  0
VERTEX
  5
340
  8
0
 62
   253
 10
-236.6581121106727
 20
126.3597060602574
 30
0.0
 70
   192
  0
VERTEX
  5
341
  8
0
 62
   253
 10
-236.6405706414145
 20
125.609911223748
 30
0.0
 70
   192
  0
VERTEX
  5
342
  8
0
 62
   253
 10
0.0
 20
0.0
 30
0.0
 70
   128
 71
     1
 72
    -2
 73
    -3
  0
VERTEX
  5
343
  8
0
 62
   253
 10
0.0
 20
0.0
 30
0.0
 70
   128
 71
     3
 72
     4
 73
    -1
  0
VERTEX
  5
344
  8
0
 62
   253
 10
0.0
 20
0.0
 30
0.0
 70
   128
 71
     2
 72
     5
 73
    -3
  0
SEQEND
  5
703
  8
0
 62
   253
  0
POLYLINE
  5
145
  8
0
 62
   253
 66
     1
 10
0.0
 20
0.0
 30
0.0
 70
    64
 71
     5
 72
     3
  0
VERTEX
  5
345
  8
0
 62
   253
 10
-236.632413993982
 20
125.9871480149442
 30
0.0
 70
   192
  0
VERTEX
  5
346
  8
0
 62
   253
 10
-236.6242573465495
 20
125.5855796542194
 30
0.0
 70
   192
  0
VERTEX
  5
347
  8
0
 62
   253
 10
-236.632413993982
 20
125.5977454389837
 30
0.0
 70
   192
  0
VERTEX
  5
348
  8
0
 62
   253
 10
-236.6405706414145
 20
125.609911223748
 30
0.0
 70
   192
  0
VERTEX
  5
349
  8
0
 62
   253
 10
-236.6405706414145
 20
126.388716375669
 30
0.0
 70
   192
  0
VERTEX
  5
34A
  8
0
 62
   253
 10
0.0
 20
0.0
 30
0.0
 70
   128
 71
     1
 72
     2
 73
    -3
  0
VERTEX
  5
34B
  8
0
 62
   253
 10
0.0
 20
0.0
 30
0.0
 70
   128
 71
     4
 72
     5
 73
    -1
  0
VERTEX
  5
34C
  8
0
 62
   253
 10
0.0
 20
0.0
 30
0.0
 70
   128
 71
    -1
 72
     3
 73
    -4
  0
SEQEND
  5
704
  8
0
 62
   253
  0
POLYLINE
  5
146
  8
0
 62
   253
 66
     1
 10
0.0
 20
0.0
 30
0.0
 70
    64
 71
     5
 72
     3
  0
VERTEX
  5
34D
  8
0
 62
   253
 10
-236.632413993982
 20
126.4022059477929
 30
0.0
 70
   192
  0
VERTEX
  5
34E
  8
0
 62
   253
 10
-236.6242573465495
 20
126.4156955199168
 30
0.0
 70
   192
  0
VERTEX
  5
34F
  8
0
 62
   253
 10
-236.632413993982
 20
125.9871480149442
 30
0.0
 70
   192
  0
VERTEX
  5
350
  8
0
 62
   253
 10
-236.6405706414144
 20
126.388716375669
 30
0.0
 70
   192
  0
VERTEX
  5
351
  8
0
 62
   253
 10
-236.6242573465495
 20
125.5855796542194
 30
0.0
 70
   192
  0
VERTEX
  5
352
  8
0
 62
   253
 10
0.0
 20
0.0
 30
0.0
 70
   128
 71
     1
 72
    -2
 73
    -3
  0
VERTEX
  5
353
  8
0
 62
   253
 10
0.0
 20
0.0
 30
0.0
 70
   128
 71
     3
 72
     4
 73
    -1
  0
VERTEX
  5
354
  8
0
 62
   253
 10
0.0
 20
0.0
 30
0.0
 70
   128
 71
     2
 72
     5
 73
    -3
  0
SEQEND
  5
705
  8
0
 62
   253
  0
POLYLINE
  5
147
  8
0
 62
   253
 66
     1
 10
0.0
 20
0.0
 30
0.0
 70
    64
 71
     5
 72
     3
  0
VERTEX
  5
355
  8
0
 62
   253
 10
-236.614195973124
 20
125.9856308695973
 30
0.0
 70
   192
  0
VERTEX
  5
356
  8
0
 62
   253
 10
-236.6041345996985
 20
125.5555662192778
 30
0.0
 70
   192
  0
VERTEX
  5
357
  8
0
 62
   253
 10
-236.614195973124
 20
125.5705729367486
 30
0.0
 70
   192
  0
VERTEX
  5
358
  8
0
 62
   253
 10
-236.6242573465496
 20
125.5855796542194
 30
0.0
 70
   192
  0
VERTEX
  5
359
  8
0
 62
   253
 10
-236.6242573465495
 20
126.4156955199168
 30
0.0
 70
   192
  0
VERTEX
  5
35A
  8
0
 62
   253
 10
0.0
 20
0.0
 30
0.0
 70
   128
 71
     1
 72
     2
 73
    -3
  0
VERTEX
  5
35B
  8
0
 62
   253
 10
0.0
 20
0.0
 30
0.0
 70
   128
 71
     4
 72
     5
 73
    -1
  0
VERTEX
  5
35C
  8
0
 62
   253
 10
0.0
 20
0.0
 30
0.0
 70
   128
 71
    -1
 72
     3
 73
    -4
  0
SEQEND
  5
706
  8
0
 62
   253
  0
POLYLINE
  5
148
  8
0
 62
   253
 66
     1
 10
0.0
 20
0.0
 30
0.0
 70
    64
 71
     5
 72
     3
  0
VERTEX
  5
35D
  8
0
 62
   253
 10
-236.614195973124
 20
126.4294628965562
 30
0.0
 70
   192
  0
VERTEX
  5
35E
  8
0
 62
   253
 10
-236.6041345996985
 20
126.4432302731956
 30
0.0
 70
   192
  0
VERTEX
  5
35F
  8
0
 62
   253
 10
-236.614195973124
 20
125.9856308695973
 30
0.0
 70
   192
  0
VERTEX
  5
360
  8
0
 62
   253
 10
-236.6242573465496
 20
126.4156955199168
 30
0.0
 70
   192
  0
VERTEX
  5
361
  8
0
 62
   253
 10
-236.6041345996985
 20
125.5555662192778
 30
0.0
 70
   192
  0
VERTEX
  5
362
  8
0
 62
   253
 10
0.0
 20
0.0
 30
0.0
 70
   128
 71
     1
 72
    -2
 73
    -3
  0
VERTEX
  5
363
  8
0
 62
   253
 10
0.0
 20
0.0
 30
0.0
 70
   128
 71
     3
 72
     4
 73
    -1
  0
VERTEX
  5
364
  8
0
 62
   253
 10
0.0
 20
0.0
 30
0.0
 70
   128
 71
     2
 72
     5
 73
    -3
  0
SEQEND
  5
707
  8
0
 62
   253
  0
POLYLINE
  5
149
  8
0
 62
   253
 66
     1
 10
0.0
 20
0.0
 30
0.0
 70
    64
 71
     5
 72
     3
  0
VERTEX
  5
365
  8
0
 62
   253
 10
-236.5948931033905
 20
125.9879206394526
 30
0.0
 70
   192
  0
VERTEX
  5
366
  8
0
 62
   253
 10
-236.5856516070825
 20
125.5326110057096
 30
0.0
 70
   192
  0
VERTEX
  5
367
  8
0
 62
   253
 10
-236.5948931033905
 20
125.5440886124936
 30
0.0
 70
   192
  0
VERTEX
  5
368
  8
0
 62
   253
 10
-236.6041345996987
 20
125.5555662192776
 30
0.0
 70
   192
  0
VERTEX
  5
369
  8
0
 62
   253
 10
-236.6041345996985
 20
126.4432302731956
 30
0.0
 70
   192
  0
VERTEX
  5
36A
  8
0
 62
   253
 10
0.0
 20
0.0
 30
0.0
 70
   128
 71
     1
 72
     2
 73
    -3
  0
VERTEX
  5
36B
  8
0
 62
   253
 10
0.0
 20
0.0
 30
0.0
 70
   128
 71
     4
 72
     5
 73
    -1
  0
VERTEX
  5
36C
  8
0
 62
   253
 10
0.0
 20
0.0
 30
0.0
 70
   128
 71
    -1
 72
     3
 73
    -4
  0
SEQEND
  5
708
  8
0
 62
   253
  0
POLYLINE
  5
14A
  8
0
 62
   253
 66
     1
 10
0.0
 20
0.0
 30
0.0
 70
    64
 71
     5
 72
     3
  0
VERTEX
  5
36D
  8
0
 62
   253
 10
-236.5948931033905
 20
126.4558757794307
 30
0.0
 70
   192
  0
VERTEX
  5
36E
  8
0
 62
   253
 10
-236.5856516070825
 20
126.4685212856658
 30
0.0
 70
   192
  0
VERTEX
  5
36F
  8
0
 62
   253
 10
-236.5948931033905
 20
125.9879206394526
 30
0.0
 70
   192
  0
VERTEX
  5
370
  8
0
 62
   253
 10
-236.6041345996988
 20
126.4432302731956
 30
0.0
 70
   192
  0
VERTEX
  5
371
  8
0
 62
   253
 10
-236.5856516070825
 20
125.5326110057096
 30
0.0
 70
   192
  0
VERTEX
  5
372
  8
0
 62
   253
 10
0.0
 20
0.0
 30
0.0
 70
   128
 71
     1
 72
    -2
 73
    -3
  0
VERTEX
  5
373
  8
0
 62
   253
 10
0.0
 20
0.0
 30
0.0
 70
   128
 71
     3
 72
     4
 73
    -1
  0
VERTEX
  5
374
  8
0
 62
   253
 10
0.0
 20
0.0
 30
0.0
 70
   128
 71
     2
 72
     5
 73
    -3
  0
SEQEND
  5
709
  8
0
 62
   253
  0
POLYLINE
  5
14B
  8
0
 62
   253
 66
     1
 10
0.0
 20
0.0
 30
0.0
 70
    64
 71
     5
 72
     3
  0
VERTEX
  5
375
  8
0
 62
   253
 10
-236.5743761679875
 20
125.9865624549505
 30
0.0
 70
   192
  0
VERTEX
  5
376
  8
0
 62
   253
 10
-236.5631007288925
 20
125.5046036242352
 30
0.0
 70
   192
  0
VERTEX
  5
377
  8
0
 62
   253
 10
-236.5743761679875
 20
125.5186073149724
 30
0.0
 70
   192
  0
VERTEX
  5
378
  8
0
 62
   253
 10
-236.5856516070823
 20
125.5326110057097
 30
0.0
 70
   192
  0
VERTEX
  5
379
  8
0
 62
   253
 10
-236.5856516070825
 20
126.4685212856658
 30
0.0
 70
   192
  0
VERTEX
  5
37A
  8
0
 62
   253
 10
0.0
 20
0.0
 30
0.0
 70
   128
 71
     1
 72
     2
 73
    -3
  0
VERTEX
  5
37B
  8
0
 62
   253
 10
0.0
 20
0.0
 30
0.0
 70
   128
 71
     4
 72
     5
 73
    -1
  0
VERTEX
  5
37C
  8
0
 62
   253
 10
0.0
 20
0.0
 30
0.0
 70
   128
 71
    -1
 72
     3
 73
    -4
  0
SEQEND
  5
70A
  8
0
 62
   253
  0
POLYLINE
  5
14C
  8
0
 62
   253
 66
     1
 10
0.0
 20
0.0
 30
0.0
 70
    64
 71
     5
 72
     3
  0
VERTEX
  5
37D
  8
0
 62
   253
 10
-236.5743761679875
 20
126.4814193605906
 30
0.0
 70
   192
  0
VERTEX
  5
37E
  8
0
 62
   253
 10
-236.5631007288925
 20
126.4943174355154
 30
0.0
 70
   192
  0
VERTEX
  5
37F
  8
0
 62
   253
 10
-236.5743761679875
 20
125.9865624549505
 30
0.0
 70
   192
  0
VERTEX
  5
380
  8
0
 62
   253
 10
-236.5856516070822
 20
126.4685212856658
 30
0.0
 70
   192
  0
VERTEX
  5
381
  8
0
 62
   253
 10
-236.5631007288925
 20
125.5046036242352
 30
0.0
 70
   192
  0
VERTEX
  5
382
  8
0
 62
   253
 10
0.0
 20
0.0
 30
0.0
 70
   128
 71
     1
 72
    -2
 73
    -3
  0
VERTEX
  5
383
  8
0
 62
   253
 10
0.0
 20
0.0
 30
0.0
 70
   128
 71
     3
 72
     4
 73
    -1
  0
VERTEX
  5
384
  8
0
 62
   253
 10
0.0
 20
0.0
 30
0.0
 70
   128
 71
     2
 72
     5
 73
    -3
  0
SEQEND
  5
70B
  8
0
 62
   253
  0
POLYLINE
  5
14D
  8
0
 62
   253
 66
     1
 10
0.0
 20
0.0
 30
0.0
 70
    64
 71
     5
 72
     3
  0
VERTEX
  5
385
  8
0
 62
   253
 10
-236.5528447170757
 20
125.9887806662778
 30
0.0
 70
   192
  0
VERTEX
  5
386
  8
0
 62
   253
 10
-236.542588705259
 20
125.4832438970402
 30
0.0
 70
   192
  0
VERTEX
  5
387
  8
0
 62
   253
 10
-236.5528447170757
 20
125.4939237606377
 30
0.0
 70
   192
  0
VERTEX
  5
388
  8
0
 62
   253
 10
-236.5631007288924
 20
125.5046036242352
 30
0.0
 70
   192
  0
VERTEX
  5
389
  8
0
 62
   253
 10
-236.5631007288925
 20
126.4943174355154
 30
0.0
 70
   192
  0
VERTEX
  5
38A
  8
0
 62
   253
 10
0.0
 20
0.0
 30
0.0
 70
   128
 71
     1
 72
     2
 73
    -3
  0
VERTEX
  5
38B
  8
0
 62
   253
 10
0.0
 20
0.0
 30
0.0
 70
   128
 71
     4
 72
     5
 73
    -1
  0
VERTEX
  5
38C
  8
0
 62
   253
 10
0.0
 20
0.0
 30
0.0
 70
   128
 71
    -1
 72
     3
 73
    -4
  0
SEQEND
  5
70C
  8
0
 62
   253
  0
POLYLINE
  5
14E
  8
0
 62
   253
 66
     1
 10
0.0
 20
0.0
 30
0.0
 70
    64
 71
     5
 72
     3
  0
VERTEX
  5
38D
  8
0
 62
   253
 10
-236.5528447170757
 20
126.5060493785227
 30
0.0
 70
   192
  0
VERTEX
  5
38E
  8
0
 62
   253
 10
-236.542588705259
 20
126.51778132153
 30
0.0
 70
   192
  0
VERTEX
  5
38F
  8
0
 62
   253
 10
-236.5528447170757
 20
125.9887806662778
 30
0.0
 70
   192
  0
VERTEX
  5
390
  8
0
 62
   253
 10
-236.5631007288925
 20
126.4943174355154
 30
0.0
 70
   192
  0
VERTEX
  5
391
  8
0
 62
   253
 10
-236.542588705259
 20
125.4832438970402
 30
0.0
 70
   192
  0
VERTEX
  5
392
  8
0
 62
   253
 10
0.0
 20
0.0
 30
0.0
 70
   128
 71
     1
 72
    -2
 73
    -3
  0
VERTEX
  5
393
  8
0
 62
   253
 10
0.0
 20
0.0
 30
0.0
 70
   128
 71
     3
 72
     4
 73
    -1
  0
VERTEX
  5
394
  8
0
 62
   253
 10
0.0
 20
0.0
 30
0.0
 70
   128
 71
     2
 72
     5
 73
    -3
  0
SEQEND
  5
70D
  8
0
 62
   253
  0
POLYLINE
  5
14F
  8
0
 62
   253
 66
     1
 10
0.0
 20
0.0
 30
0.0
 70
    64
 71
     5
 72
     3
  0
VERTEX
  5
395
  8
0
 62
   253
 10
-236.5301850133945
 20
125.9875963081355
 30
0.0
 70
   192
  0
VERTEX
  5
396
  8
0
 62
   253
 10
-236.51778132153
 20
125.457411294741
 30
0.0
 70
   192
  0
VERTEX
  5
397
  8
0
 62
   253
 10
-236.5301850133945
 20
125.4703275958906
 30
0.0
 70
   192
  0
VERTEX
  5
398
  8
0
 62
   253
 10
-236.542588705259
 20
125.4832438970402
 30
0.0
 70
   192
  0
VERTEX
  5
399
  8
0
 62
   253
 10
-236.542588705259
 20
126.51778132153
 30
0.0
 70
   192
  0
VERTEX
  5
39A
  8
0
 62
   253
 10
0.0
 20
0.0
 30
0.0
 70
   128
 71
     1
 72
     2
 73
    -3
  0
VERTEX
  5
39B
  8
0
 62
   253
 10
0.0
 20
0.0
 30
0.0
 70
   128
 71
     4
 72
     5
 73
    -1
  0
VERTEX
  5
39C
  8
0
 62
   253
 10
0.0
 20
0.0
 30
0.0
 70
   128
 71
    -1
 72
     3
 73
    -4
  0
SEQEND
  5
70E
  8
0
 62
   253
  0
POLYLINE
  5
150
  8
0
 62
   253
 66
     1
 10
0.0
 20
0.0
 30
0.0
 70
    64
 71
     5
 72
     3
  0
VERTEX
  5
39D
  8
0
 62
   253
 10
-236.5301850133945
 20
126.5296927480357
 30
0.0
 70
   192
  0
VERTEX
  5
39E
  8
0
 62
   253
 10
-236.51778132153
 20
126.5416041745414
 30
0.0
 70
   192
  0
VERTEX
  5
39F
  8
0
 62
   253
 10
-236.5301850133945
 20
125.9875963081355
 30
0.0
 70
   192
  0
VERTEX
  5
3A0
  8
0
 62
   253
 10
-236.542588705259
 20
126.51778132153
 30
0.0
 70
   192
  0
VERTEX
  5
3A1
  8
0
 62
   253
 10
-236.51778132153
 20
125.457411294741
 30
0.0
 70
   192
  0
VERTEX
  5
3A2
  8
0
 62
   253
 10
0.0
 20
0.0
 30
0.0
 70
   128
 71
     1
 72
    -2
 73
    -3
  0
VERTEX
  5
3A3
  8
0
 62
   253
 10
0.0
 20
0.0
 30
0.0
 70
   128
 71
     3
 72
     4
 73
    -1
  0
VERTEX
  5
3A4
  8
0
 62
   253
 10
0.0
 20
0.0
 30
0.0
 70
   128
 71
     2
 72
     5
 73
    -3
  0
SEQEND
  5
70F
  8
0
 62
   253
  0
POLYLINE
  5
151
  8
0
 62
   253
 66
     1
 10
0.0
 20
0.0
 30
0.0
 70
    64
 71
     5
 72
     3
  0
VERTEX
  5
3A5
  8
0
 62
   253
 10
-236.5065888486473
 20
125.9897233251812
 30
0.0
 70
   192
  0
VERTEX
  5
3A6
  8
0
 62
   253
 10
-236.4953963757645
 20
125.437842475821
 30
0.0
 70
   192
  0
VERTEX
  5
3A7
  8
0
 62
   253
 10
-236.5065888486473
 20
125.447626885281
 30
0.0
 70
   192
  0
VERTEX
  5
3A8
  8
0
 62
   253
 10
-236.51778132153
 20
125.457411294741
 30
0.0
 70
   192
  0
VERTEX
  5
3A9
  8
0
 62
   253
 10
-236.51778132153
 20
126.5416041745414
 30
0.0
 70
   192
  0
VERTEX
  5
3AA
  8
0
 62
   253
 10
0.0
 20
0.0
 30
0.0
 70
   128
 71
     1
 72
     2
 73
    -3
  0
VERTEX
  5
3AB
  8
0
 62
   253
 10
0.0
 20
0.0
 30
0.0
 70
   128
 71
     4
 72
     5
 73
    -1
  0
VERTEX
  5
3AC
  8
0
 62
   253
 10
0.0
 20
0.0
 30
0.0
 70
   128
 71
    -1
 72
     3
 73
    -4
  0
SEQEND
  5
710
  8
0
 62
   253
  0
POLYLINE
  5
152
  8
0
 62
   253
 66
     1
 10
0.0
 20
0.0
 30
0.0
 70
    64
 71
     5
 72
     3
  0
VERTEX
  5
3AD
  8
0
 62
   253
 10
-236.5065888486473
 20
126.5523524517169
 30
0.0
 70
   192
  0
VERTEX
  5
3AE
  8
0
 62
   253
 10
-236.4953963757645
 20
126.5631007288924
 30
0.0
 70
   192
  0
VERTEX
  5
3AF
  8
0
 62
   253
 10
-236.5065888486473
 20
125.9897233251812
 30
0.0
 70
   192
  0
VERTEX
  5
3B0
  8
0
 62
   253
 10
-236.5177813215299
 20
126.5416041745414
 30
0.0
 70
   192
  0
VERTEX
  5
3B1
  8
0
 62
   253
 10
-236.4953963757645
 20
125.437842475821
 30
0.0
 70
   192
  0
VERTEX
  5
3B2
  8
0
 62
   253
 10
0.0
 20
0.0
 30
0.0
 70
   128
 71
     1
 72
    -2
 73
    -3
  0
VERTEX
  5
3B3
  8
0
 62
   253
 10
0.0
 20
0.0
 30
0.0
 70
   128
 71
     3
 72
     4
 73
    -1
  0
VERTEX
  5
3B4
  8
0
 62
   253
 10
0.0
 20
0.0
 30
0.0
 70
   128
 71
     2
 72
     5
 73
    -3
  0
SEQEND
  5
711
  8
0
 62
   253
  0
POLYLINE
  5
153
  8
0
 62
   253
 66
     1
 10
0.0
 20
0.0
 30
0.0
 70
    64
 71
     5
 72
     3
  0
VERTEX
  5
3B5
  8
0
 62
   253
 10
-236.4819588307152
 20
125.988724560905
 30
0.0
 70
   192
  0
VERTEX
  5
3B6
  8
0
 62
   253
 10
-236.468521285666
 20
125.4143483929176
 30
0.0
 70
   192
  0
VERTEX
  5
3B7
  8
0
 62
   253
 10
-236.4819588307152
 20
125.4260954343692
 30
0.0
 70
   192
  0
VERTEX
  5
3B8
  8
0
 62
   253
 10
-236.4953963757646
 20
125.4378424758208
 30
0.0
 70
   192
  0
VERTEX
  5
3B9
  8
0
 62
   253
 10
-236.4953963757645
 20
126.5631007288924
 30
0.0
 70
   192
  0
VERTEX
  5
3BA
  8
0
 62
   253
 10
0.0
 20
0.0
 30
0.0
 70
   128
 71
     1
 72
     2
 73
    -3
  0
VERTEX
  5
3BB
  8
0
 62
   253
 10
0.0
 20
0.0
 30
0.0
 70
   128
 71
     4
 72
     5
 73
    -1
  0
VERTEX
  5
3BC
  8
0
 62
   253
 10
0.0
 20
0.0
 30
0.0
 70
   128
 71
    -1
 72
     3
 73
    -4
  0
SEQEND
  5
712
  8
0
 62
   253
  0
POLYLINE
  5
154
  8
0
 62
   253
 66
     1
 10
0.0
 20
0.0
 30
0.0
 70
    64
 71
     5
 72
     3
  0
VERTEX
  5
3BD
  8
0
 62
   253
 10
-236.4819588307152
 20
126.5739203209295
 30
0.0
 70
   192
  0
VERTEX
  5
3BE
  8
0
 62
   253
 10
-236.468521285666
 20
126.5847399129666
 30
0.0
 70
   192
  0
VERTEX
  5
3BF
  8
0
 62
   253
 10
-236.4819588307152
 20
125.988724560905
 30
0.0
 70
   192
  0
VERTEX
  5
3C0
  8
0
 62
   253
 10
-236.4953963757648
 20
126.5631007288924
 30
0.0
 70
   192
  0
VERTEX
  5
3C1
  8
0
 62
   253
 10
-236.468521285666
 20
125.4143483929176
 30
0.0
 70
   192
  0
VERTEX
  5
3C2
  8
0
 62
   253
 10
0.0
 20
0.0
 30
0.0
 70
   128
 71
     1
 72
    -2
 73
    -3
  0
VERTEX
  5
3C3
  8
0
 62
   253
 10
0.0
 20
0.0
 30
0.0
 70
   128
 71
     3
 72
     4
 73
    -1
  0
VERTEX
  5
3C4
  8
0
 62
   253
 10
0.0
 20
0.0
 30
0.0
 70
   128
 71
     2
 72
     5
 73
    -3
  0
SEQEND
  5
713
  8
0
 62
   253
  0
POLYLINE
  5
155
  8
0
 62
   253
 66
     1
 10
0.0
 20
0.0
 30
0.0
 70
    64
 71
     5
 72
     3
  0
VERTEX
  5
3C5
  8
0
 62
   253
 10
-236.456477533194
 20
125.9907424259148
 30
0.0
 70
   192
  0
VERTEX
  5
3C6
  8
0
 62
   253
 10
-236.444433780722
 20
125.396744938863
 30
0.0
 70
   192
  0
VERTEX
  5
3C7
  8
0
 62
   253
 10
-236.456477533194
 20
125.4055466658904
 30
0.0
 70
   192
  0
VERTEX
  5
3C8
  8
0
 62
   253
 10
-236.4685212856658
 20
125.4143483929179
 30
0.0
 70
   192
  0
VERTEX
  5
3C9
  8
0
 62
   253
 10
-236.468521285666
 20
126.5847399129666
 30
0.0
 70
   192
  0
VERTEX
  5
3CA
  8
0
 62
   253
 10
0.0
 20
0.0
 30
0.0
 70
   128
 71
     1
 72
     2
 73
    -3
  0
VERTEX
  5
3CB
  8
0
 62
   253
 10
0.0
 20
0.0
 30
0.0
 70
   128
 71
     4
 72
     5
 73
    -1
  0
VERTEX
  5
3CC
  8
0
 62
   253
 10
0.0
 20
0.0
 30
0.0
 70
   128
 71
    -1
 72
     3
 73
    -4
  0
SEQEND
  5
714
  8
0
 62
   253
  0
POLYLINE
  5
156
  8
0
 62
   253
 66
     1
 10
0.0
 20
0.0
 30
0.0
 70
    64
 71
     5
 72
     3
  0
VERTEX
  5
3CD
  8
0
 62
   253
 10
-236.456477533194
 20
126.5944372563325
 30
0.0
 70
   192
  0
VERTEX
  5
3CE
  8
0
 62
   253
 10
-236.444433780722
 20
126.6041345996984
 30
0.0
 70
   192
  0
VERTEX
  5
3CF
  8
0
 62
   253
 10
-236.456477533194
 20
125.9907424259148
 30
0.0
 70
   192
  0
VERTEX
  5
3D0
  8
0
 62
   253
 10
-236.4685212856656
 20
126.5847399129666
 30
0.0
 70
   192
  0
VERTEX
  5
3D1
  8
0
 62
   253
 10
-236.444433780722
 20
125.396744938863
 30
0.0
 70
   192
  0
VERTEX
  5
3D2
  8
0
 62
   253
 10
0.0
 20
0.0
 30
0.0
 70
   128
 71
     1
 72
    -2
 73
    -3
  0
VERTEX
  5
3D3
  8
0
 62
   253
 10
0.0
 20
0.0
 30
0.0
 70
   128
 71
     3
 72
     4
 73
    -1
  0
VERTEX
  5
3D4
  8
0
 62
   253
 10
0.0
 20
0.0
 30
0.0
 70
   128
 71
     2
 72
     5
 73
    -3
  0
SEQEND
  5
715
  8
0
 62
   253
  0
POLYLINE
  5
157
  8
0
 62
   253
 66
     1
 10
0.0
 20
0.0
 30
0.0
 70
    64
 71
     5
 72
     3
  0
VERTEX
  5
3D5
  8
0
 62
   253
 10
-236.4300646503195
 20
125.9899386265744
 30
0.0
 70
   192
  0
VERTEX
  5
3D6
  8
0
 62
   253
 10
-236.415695519917
 20
125.3757426534504
 30
0.0
 70
   192
  0
VERTEX
  5
3D7
  8
0
 62
   253
 10
-236.4300646503195
 20
125.3862437961566
 30
0.0
 70
   192
  0
VERTEX
  5
3D8
  8
0
 62
   253
 10
-236.4444337807221
 20
125.3967449388628
 30
0.0
 70
   192
  0
VERTEX
  5
3D9
  8
0
 62
   253
 10
-236.444433780722
 20
126.6041345996984
 30
0.0
 70
   192
  0
VERTEX
  5
3DA
  8
0
 62
   253
 10
0.0
 20
0.0
 30
0.0
 70
   128
 71
     1
 72
     2
 73
    -3
  0
VERTEX
  5
3DB
  8
0
 62
   253
 10
0.0
 20
0.0
 30
0.0
 70
   128
 71
     4
 72
     5
 73
    -1
  0
VERTEX
  5
3DC
  8
0
 62
   253
 10
0.0
 20
0.0
 30
0.0
 70
   128
 71
    -1
 72
     3
 73
    -4
  0
SEQEND
  5
716
  8
0
 62
   253
  0
POLYLINE
  5
158
  8
0
 62
   253
 66
     1
 10
0.0
 20
0.0
 30
0.0
 70
    64
 71
     5
 72
     3
  0
VERTEX
  5
3DD
  8
0
 62
   253
 10
-236.4300646503195
 20
126.6137684977887
 30
0.0
 70
   192
  0
VERTEX
  5
3DE
  8
0
 62
   253
 10
-236.415695519917
 20
126.623402395879
 30
0.0
 70
   192
  0
VERTEX
  5
3DF
  8
0
 62
   253
 10
-236.4300646503195
 20
125.9899386265744
 30
0.0
 70
   192
  0
VERTEX
  5
3E0
  8
0
 62
   253
 10
-236.4444337807224
 20
126.6041345996984
 30
0.0
 70
   192
  0
VERTEX
  5
3E1
  8
0
 62
   253
 10
-236.415695519917
 20
125.3757426534504
 30
0.0
 70
   192
  0
VERTEX
  5
3E2
  8
0
 62
   253
 10
0.0
 20
0.0
 30
0.0
 70
   128
 71
     1
 72
    -2
 73
    -3
  0
VERTEX
  5
3E3
  8
0
 62
   253
 10
0.0
 20
0.0
 30
0.0
 70
   128
 71
     3
 72
     4
 73
    -1
  0
VERTEX
  5
3E4
  8
0
 62
   253
 10
0.0
 20
0.0
 30
0.0
 70
   128
 71
     2
 72
     5
 73
    -3
  0
SEQEND
  5
717
  8
0
 62
   253
  0
POLYLINE
  5
159
  8
0
 62
   253
 66
     1
 10
0.0
 20
0.0
 30
0.0
 70
    64
 71
     5
 72
     3
  0
VERTEX
  5
3E5
  8
0
 62
   253
 10
-236.4028921480845
 20
125.9918307972752
 30
0.0
 70
   192
  0
VERTEX
  5
3E6
  8
0
 62
   253
 10
-236.390088776252
 20
125.3602591986714
 30
0.0
 70
   192
  0
VERTEX
  5
3E7
  8
0
 62
   253
 10
-236.4028921480845
 20
125.3680009260609
 30
0.0
 70
   192
  0
VERTEX
  5
3E8
  8
0
 62
   253
 10
-236.415695519917
 20
125.3757426534504
 30
0.0
 70
   192
  0
VERTEX
  5
3E9
  8
0
 62
   253
 10
-236.415695519917
 20
126.623402395879
 30
0.0
 70
   192
  0
VERTEX
  5
3EA
  8
0
 62
   253
 10
0.0
 20
0.0
 30
0.0
 70
   128
 71
     1
 72
     2
 73
    -3
  0
VERTEX
  5
3EB
  8
0
 62
   253
 10
0.0
 20
0.0
 30
0.0
 70
   128
 71
     4
 72
     5
 73
    -1
  0
VERTEX
  5
3EC
  8
0
 62
   253
 10
0.0
 20
0.0
 30
0.0
 70
   128
 71
    -1
 72
     3
 73
    -4
  0
SEQEND
  5
718
  8
0
 62
   253
  0
POLYLINE
  5
15A
  8
0
 62
   253
 66
     1
 10
0.0
 20
0.0
 30
0.0
 70
    64
 71
     5
 72
     3
  0
VERTEX
  5
3ED
  8
0
 62
   253
 10
-236.4028921480845
 20
126.6319865186467
 30
0.0
 70
   192
  0
VERTEX
  5
3EE
  8
0
 62
   253
 10
-236.390088776252
 20
126.6405706414144
 30
0.0
 70
   192
  0
VERTEX
  5
3EF
  8
0
 62
   253
 10
-236.4028921480845
 20
125.9918307972752
 30
0.0
 70
   192
  0
VERTEX
  5
3F0
  8
0
 62
   253
 10
-236.4156955199169
 20
126.623402395879
 30
0.0
 70
   192
  0
VERTEX
  5
3F1
  8
0
 62
   253
 10
-236.390088776252
 20
125.3602591986714
 30
0.0
 70
   192
  0
VERTEX
  5
3F2
  8
0
 62
   253
 10
0.0
 20
0.0
 30
0.0
 70
   128
 71
     1
 72
    -2
 73
    -3
  0
VERTEX
  5
3F3
  8
0
 62
   253
 10
0.0
 20
0.0
 30
0.0
 70
   128
 71
     3
 72
     4
 73
    -1
  0
VERTEX
  5
3F4
  8
0
 62
   253
 10
0.0
 20
0.0
 30
0.0
 70
   128
 71
     2
 72
     5
 73
    -3
  0
SEQEND
  5
719
  8
0
 62
   253
  0
POLYLINE
  5
15B
  8
0
 62
   253
 66
     1
 10
0.0
 20
0.0
 30
0.0
 70
    64
 71
     5
 72
     3
  0
VERTEX
  5
3F5
  8
0
 62
   253
 10
-236.3748974182547
 20
125.9912292653708
 30
0.0
 70
   192
  0
VERTEX
  5
3F6
  8
0
 62
   253
 10
-236.3597060602575
 20
125.3418878893272
 30
0.0
 70
   192
  0
VERTEX
  5
3F7
  8
0
 62
   253
 10
-236.3748974182547
 20
125.3510735439993
 30
0.0
 70
   192
  0
VERTEX
  5
3F8
  8
0
 62
   253
 10
-236.390088776252
 20
125.3602591986714
 30
0.0
 70
   192
  0
VERTEX
  5
3F9
  8
0
 62
   253
 10
-236.390088776252
 20
126.6405706414144
 30
0.0
 70
   192
  0
VERTEX
  5
3FA
  8
0
 62
   253
 10
0.0
 20
0.0
 30
0.0
 70
   128
 71
     1
 72
     2
 73
    -3
  0
VERTEX
  5
3FB
  8
0
 62
   253
 10
0.0
 20
0.0
 30
0.0
 70
   128
 71
     4
 72
     5
 73
    -1
  0
VERTEX
  5
3FC
  8
0
 62
   253
 10
0.0
 20
0.0
 30
0.0
 70
   128
 71
    -1
 72
     3
 73
    -4
  0
SEQEND
  5
71A
  8
0
 62
   253
  0
POLYLINE
  5
15C
  8
0
 62
   253
 66
     1
 10
0.0
 20
0.0
 30
0.0
 70
    64
 71
     5
 72
     3
  0
VERTEX
  5
3FD
  8
0
 62
   253
 10
-236.3748974182547
 20
126.6489360435985
 30
0.0
 70
   192
  0
VERTEX
  5
3FE
  8
0
 62
   253
 10
-236.3597060602575
 20
126.6573014457826
 30
0.0
 70
   192
  0
VERTEX
  5
3FF
  8
0
 62
   253
 10
-236.3748974182547
 20
125.9912292653708
 30
0.0
 70
   192
  0
VERTEX
  5
400
  8
0
 62
   253
 10
-236.3900887762521
 20
126.6405706414144
 30
0.0
 70
   192
  0
VERTEX
  5
401
  8
0
 62
   253
 10
-236.3597060602575
 20
125.3418878893272
 30
0.0
 70
   192
  0
VERTEX
  5
402
  8
0
 62
   253
 10
0.0
 20
0.0
 30
0.0
 70
   128
 71
     1
 72
    -2
 73
    -3
  0
VERTEX
  5
403
  8
0
 62
   253
 10
0.0
 20
0.0
 30
0.0
 70
   128
 71
     3
 72
     4
 73
    -1
  0
VERTEX
  5
404
  8
0
 62
   253
 10
0.0
 20
0.0
 30
0.0
 70
   128
 71
     2
 72
     5
 73
    -3
  0
SEQEND
  5
71B
  8
0
 62
   253
  0
POLYLINE
  5
15D
  8
0
 62
   253
 66
     1
 10
0.0
 20
0.0
 30
0.0
 70
    64
 71
     5
 72
     3
  0
VERTEX
  5
405
  8
0
 62
   253
 10
-236.346240510455
 20
125.9929805244188
 30
0.0
 70
   192
  0
VERTEX
  5
406
  8
0
 62
   253
 10
-236.3327749606525
 20
125.328659603055
 30
0.0
 70
   192
  0
VERTEX
  5
407
  8
0
 62
   253
 10
-236.346240510455
 20
125.3352737461912
 30
0.0
 70
   192
  0
VERTEX
  5
408
  8
0
 62
   253
 10
-236.3597060602574
 20
125.3418878893274
 30
0.0
 70
   192
  0
VERTEX
  5
409
  8
0
 62
   253
 10
-236.3597060602575
 20
126.6573014457826
 30
0.0
 70
   192
  0
VERTEX
  5
40A
  8
0
 62
   253
 10
0.0
 20
0.0
 30
0.0
 70
   128
 71
     1
 72
     2
 73
    -3
  0
VERTEX
  5
40B
  8
0
 62
   253
 10
0.0
 20
0.0
 30
0.0
 70
   128
 71
     4
 72
     5
 73
    -1
  0
VERTEX
  5
40C
  8
0
 62
   253
 10
0.0
 20
0.0
 30
0.0
 70
   128
 71
    -1
 72
     3
 73
    -4
  0
SEQEND
  5
71C
  8
0
 62
   253
  0
POLYLINE
  5
15E
  8
0
 62
   253
 66
     1
 10
0.0
 20
0.0
 30
0.0
 70
    64
 71
     5
 72
     3
  0
VERTEX
  5
40D
  8
0
 62
   253
 10
-236.346240510455
 20
126.6647164997723
 30
0.0
 70
   192
  0
VERTEX
  5
40E
  8
0
 62
   253
 10
-236.3327749606525
 20
126.672131553762
 30
0.0
 70
   192
  0
VERTEX
  5
40F
  8
0
 62
   253
 10
-236.346240510455
 20
125.9929805244188
 30
0.0
 70
   192
  0
VERTEX
  5
410
  8
0
 62
   253
 10
-236.3597060602573
 20
126.6573014457826
 30
0.0
 70
   192
  0
VERTEX
  5
411
  8
0
 62
   253
 10
-236.3327749606525
 20
125.328659603055
 30
0.0
 70
   192
  0
VERTEX
  5
412
  8
0
 62
   253
 10
0.0
 20
0.0
 30
0.0
 70
   128
 71
     1
 72
    -2
 73
    -3
  0
VERTEX
  5
413
  8
0
 62
   253
 10
0.0
 20
0.0
 30
0.0
 70
   128
 71
     3
 72
     4
 73
    -1
  0
VERTEX
  5
414
  8
0
 62
   253
 10
0.0
 20
0.0
 30
0.0
 70
   128
 71
     2
 72
     5
 73
    -3
  0
SEQEND
  5
71D
  8
0
 62
   253
  0
POLYLINE
  5
15F
  8
0
 62
   253
 66
     1
 10
0.0
 20
0.0
 30
0.0
 70
    64
 71
     5
 72
     3
  0
VERTEX
  5
415
  8
0
 62
   253
 10
-236.3168769904677
 20
125.9925866547536
 30
0.0
 70
   192
  0
VERTEX
  5
416
  8
0
 62
   253
 10
-236.300979020283
 20
125.3130417557452
 30
0.0
 70
   192
  0
VERTEX
  5
417
  8
0
 62
   253
 10
-236.3168769904677
 20
125.3208506794
 30
0.0
 70
   192
  0
VERTEX
  5
418
  8
0
 62
   253
 10
-236.3327749606526
 20
125.3286596030548
 30
0.0
 70
   192
  0
VERTEX
  5
419
  8
0
 62
   253
 10
-236.3327749606525
 20
126.672131553762
 30
0.0
 70
   192
  0
VERTEX
  5
41A
  8
0
 62
   253
 10
0.0
 20
0.0
 30
0.0
 70
   128
 71
     1
 72
     2
 73
    -3
  0
VERTEX
  5
41B
  8
0
 62
   253
 10
0.0
 20
0.0
 30
0.0
 70
   128
 71
     4
 72
     5
 73
    -1
  0
VERTEX
  5
41C
  8
0
 62
   253
 10
0.0
 20
0.0
 30
0.0
 70
   128
 71
    -1
 72
     3
 73
    -4
  0
SEQEND
  5
71E
  8
0
 62
   253
  0
POLYLINE
  5
160
  8
0
 62
   253
 66
     1
 10
0.0
 20
0.0
 30
0.0
 70
    64
 71
     5
 72
     3
  0
VERTEX
  5
41D
  8
0
 62
   253
 10
-236.3168769904677
 20
126.6791567196723
 30
0.0
 70
   192
  0
VERTEX
  5
41E
  8
0
 62
   253
 10
-236.300979020283
 20
126.6861818855826
 30
0.0
 70
   192
  0
VERTEX
  5
41F
  8
0
 62
   253
 10
-236.3168769904677
 20
125.9925866547536
 30
0.0
 70
   192
  0
VERTEX
  5
420
  8
0
 62
   253
 10
-236.3327749606526
 20
126.672131553762
 30
0.0
 70
   192
  0
VERTEX
  5
421
  8
0
 62
   253
 10
-236.300979020283
 20
125.3130417557452
 30
0.0
 70
   192
  0
VERTEX
  5
422
  8
0
 62
   253
 10
0.0
 20
0.0
 30
0.0
 70
   128
 71
     1
 72
    -2
 73
    -3
  0
VERTEX
  5
423
  8
0
 62
   253
 10
0.0
 20
0.0
 30
0.0
 70
   128
 71
     3
 72
     4
 73
    -1
  0
VERTEX
  5
424
  8
0
 62
   253
 10
0.0
 20
0.0
 30
0.0
 70
   128
 71
     2
 72
     5
 73
    -3
  0
SEQEND
  5
71F
  8
0
 62
   253
  0
POLYLINE
  5
161
  8
0
 62
   253
 66
     1
 10
0.0
 20
0.0
 30
0.0
 70
    64
 71
     5
 72
     3
  0
VERTEX
  5
425
  8
0
 62
   253
 10
-236.2869537734753
 20
125.9941831014298
 30
0.0
 70
   192
  0
VERTEX
  5
426
  8
0
 62
   253
 10
-236.2729285266675
 20
125.302184317277
 30
0.0
 70
   192
  0
VERTEX
  5
427
  8
0
 62
   253
 10
-236.2869537734753
 20
125.3076130365112
 30
0.0
 70
   192
  0
VERTEX
  5
428
  8
0
 62
   253
 10
-236.3009790202829
 20
125.3130417557454
 30
0.0
 70
   192
  0
VERTEX
  5
429
  8
0
 62
   253
 10
-236.300979020283
 20
126.6861818855826
 30
0.0
 70
   192
  0
VERTEX
  5
42A
  8
0
 62
   253
 10
0.0
 20
0.0
 30
0.0
 70
   128
 71
     1
 72
     2
 73
    -3
  0
VERTEX
  5
42B
  8
0
 62
   253
 10
0.0
 20
0.0
 30
0.0
 70
   128
 71
     4
 72
     5
 73
    -1
  0
VERTEX
  5
42C
  8
0
 62
   253
 10
0.0
 20
0.0
 30
0.0
 70
   128
 71
    -1
 72
     3
 73
    -4
  0
SEQEND
  5
720
  8
0
 62
   253
  0
POLYLINE
  5
162
  8
0
 62
   253
 66
     1
 10
0.0
 20
0.0
 30
0.0
 70
    64
 71
     5
 72
     3
  0
VERTEX
  5
42D
  8
0
 62
   253
 10
-236.2869537734753
 20
126.692379512362
 30
0.0
 70
   192
  0
VERTEX
  5
42E
  8
0
 62
   253
 10
-236.2729285266675
 20
126.6985771391414
 30
0.0
 70
   192
  0
VERTEX
  5
42F
  8
0
 62
   253
 10
-236.2869537734753
 20
125.9941831014298
 30
0.0
 70
   192
  0
VERTEX
  5
430
  8
0
 62
   253
 10
-236.3009790202829
 20
126.6861818855826
 30
0.0
 70
   192
  0
VERTEX
  5
431
  8
0
 62
   253
 10
-236.2729285266675
 20
125.302184317277
 30
0.0
 70
   192
  0
VERTEX
  5
432
  8
0
 62
   253
 10
0.0
 20
0.0
 30
0.0
 70
   128
 71
     1
 72
    -2
 73
    -3
  0
VERTEX
  5
433
  8
0
 62
   253
 10
0.0
 20
0.0
 30
0.0
 70
   128
 71
     3
 72
     4
 73
    -1
  0
VERTEX
  5
434
  8
0
 62
   253
 10
0.0
 20
0.0
 30
0.0
 70
   128
 71
     2
 72
     5
 73
    -3
  0
SEQEND
  5
721
  8
0
 62
   253
  0
POLYLINE
  5
163
  8
0
 62
   253
 66
     1
 10
0.0
 20
0.0
 30
0.0
 70
    64
 71
     5
 72
     3
  0
VERTEX
  5
435
  8
0
 62
   253
 10
-236.2564449374478
 20
125.9940004641701
 30
0.0
 70
   192
  0
VERTEX
  5
436
  8
0
 62
   253
 10
-236.239961348228
 20
125.2894237891988
 30
0.0
 70
   192
  0
VERTEX
  5
437
  8
0
 62
   253
 10
-236.2564449374478
 20
125.2958040532379
 30
0.0
 70
   192
  0
VERTEX
  5
438
  8
0
 62
   253
 10
-236.2729285266675
 20
125.302184317277
 30
0.0
 70
   192
  0
VERTEX
  5
439
  8
0
 62
   253
 10
-236.2729285266675
 20
126.6985771391414
 30
0.0
 70
   192
  0
VERTEX
  5
43A
  8
0
 62
   253
 10
0.0
 20
0.0
 30
0.0
 70
   128
 71
     1
 72
     2
 73
    -3
  0
VERTEX
  5
43B
  8
0
 62
   253
 10
0.0
 20
0.0
 30
0.0
 70
   128
 71
     4
 72
     5
 73
    -1
  0
VERTEX
  5
43C
  8
0
 62
   253
 10
0.0
 20
0.0
 30
0.0
 70
   128
 71
    -1
 72
     3
 73
    -4
  0
SEQEND
  5
722
  8
0
 62
   253
  0
POLYLINE
  5
164
  8
0
 62
   253
 66
     1
 10
0.0
 20
0.0
 30
0.0
 70
    64
 71
     5
 72
     3
  0
VERTEX
  5
43D
  8
0
 62
   253
 10
-236.2564449374478
 20
126.7042015166361
 30
0.0
 70
   192
  0
VERTEX
  5
43E
  8
0
 62
   253
 10
-236.239961348228
 20
126.7098258941308
 30
0.0
 70
   192
  0
VERTEX
  5
43F
  8
0
 62
   253
 10
-236.2564449374478
 20
125.9940004641701
 30
0.0
 70
   192
  0
VERTEX
  5
440
  8
0
 62
   253
 10
-236.2729285266674
 20
126.6985771391414
 30
0.0
 70
   192
  0
VERTEX
  5
441
  8
0
 62
   253
 10
-236.239961348228
 20
125.2894237891988
 30
0.0
 70
   192
  0
VERTEX
  5
442
  8
0
 62
   253
 10
0.0
 20
0.0
 30
0.0
 70
   128
 71
     1
 72
    -2
 73
    -3
  0
VERTEX
  5
443
  8
0
 62
   253
 10
0.0
 20
0.0
 30
0.0
 70
   128
 71
     3
 72
     4
 73
    -1
  0
VERTEX
  5
444
  8
0
 62
   253
 10
0.0
 20
0.0
 30
0.0
 70
   128
 71
     2
 72
     5
 73
    -3
  0
SEQEND
  5
723
  8
0
 62
   253
  0
POLYLINE
  5
165
  8
0
 62
   253
 66
     1
 10
0.0
 20
0.0
 30
0.0
 70
    64
 71
     5
 72
     3
  0
VERTEX
  5
445
  8
0
 62
   253
 10
-236.2254831450117
 20
125.9954295459345
 30
0.0
 70
   192
  0
VERTEX
  5
446
  8
0
 62
   253
 10
-236.2110049417955
 20
125.2810331977382
 30
0.0
 70
   192
  0
VERTEX
  5
447
  8
0
 62
   253
 10
-236.2254831450117
 20
125.2852284934685
 30
0.0
 70
   192
  0
VERTEX
  5
448
  8
0
 62
   253
 10
-236.239961348228
 20
125.2894237891987
 30
0.0
 70
   192
  0
VERTEX
  5
449
  8
0
 62
   253
 10
-236.239961348228
 20
126.7098258941308
 30
0.0
 70
   192
  0
VERTEX
  5
44A
  8
0
 62
   253
 10
0.0
 20
0.0
 30
0.0
 70
   128
 71
     1
 72
     2
 73
    -3
  0
VERTEX
  5
44B
  8
0
 62
   253
 10
0.0
 20
0.0
 30
0.0
 70
   128
 71
     4
 72
     5
 73
    -1
  0
VERTEX
  5
44C
  8
0
 62
   253
 10
0.0
 20
0.0
 30
0.0
 70
   128
 71
    -1
 72
     3
 73
    -4
  0
SEQEND
  5
724
  8
0
 62
   253
  0
POLYLINE
  5
166
  8
0
 62
   253
 66
     1
 10
0.0
 20
0.0
 30
0.0
 70
    64
 71
     5
 72
     3
  0
VERTEX
  5
44D
  8
0
 62
   253
 10
-236.2254831450117
 20
126.7147660124052
 30
0.0
 70
   192
  0
VERTEX
  5
44E
  8
0
 62
   253
 10
-236.2110049417955
 20
126.7197061306796
 30
0.0
 70
   192
  0
VERTEX
  5
44F
  8
0
 62
   253
 10
-236.2254831450117
 20
125.9954295459345
 30
0.0
 70
   192
  0
VERTEX
  5
450
  8
0
 62
   253
 10
-236.2399613482279
 20
126.7098258941308
 30
0.0
 70
   192
  0
VERTEX
  5
451
  8
0
 62
   253
 10
-236.2110049417955
 20
125.2810331977382
 30
0.0
 70
   192
  0
VERTEX
  5
452
  8
0
 62
   253
 10
0.0
 20
0.0
 30
0.0
 70
   128
 71
     1
 72
    -2
 73
    -3
  0
VERTEX
  5
453
  8
0
 62
   253
 10
0.0
 20
0.0
 30
0.0
 70
   128
 71
     3
 72
     4
 73
    -1
  0
VERTEX
  5
454
  8
0
 62
   253
 10
0.0
 20
0.0
 30
0.0
 70
   128
 71
     2
 72
     5
 73
    -3
  0
SEQEND
  5
725
  8
0
 62
   253
  0
POLYLINE
  5
167
  8
0
 62
   253
 66
     1
 10
0.0
 20
0.0
 30
0.0
 70
    64
 71
     5
 72
     3
  0
VERTEX
  5
455
  8
0
 62
   253
 10
-236.194061183608
 20
125.9954599336769
 30
0.0
 70
   192
  0
VERTEX
  5
456
  8
0
 62
   253
 10
-236.1771174254205
 20
125.2712137366742
 30
0.0
 70
   192
  0
VERTEX
  5
457
  8
0
 62
   253
 10
-236.194061183608
 20
125.2761234672062
 30
0.0
 70
   192
  0
VERTEX
  5
458
  8
0
 62
   253
 10
-236.2110049417955
 20
125.2810331977383
 30
0.0
 70
   192
  0
VERTEX
  5
459
  8
0
 62
   253
 10
-236.2110049417955
 20
126.7197061306796
 30
0.0
 70
   192
  0
VERTEX
  5
45A
  8
0
 62
   253
 10
0.0
 20
0.0
 30
0.0
 70
   128
 71
     1
 72
     2
 73
    -3
  0
VERTEX
  5
45B
  8
0
 62
   253
 10
0.0
 20
0.0
 30
0.0
 70
   128
 71
     4
 72
     5
 73
    -1
  0
VERTEX
  5
45C
  8
0
 62
   253
 10
0.0
 20
0.0
 30
0.0
 70
   128
 71
    -1
 72
     3
 73
    -4
  0
SEQEND
  5
726
  8
0
 62
   253
  0
POLYLINE
  5
168
  8
0
 62
   253
 66
     1
 10
0.0
 20
0.0
 30
0.0
 70
    64
 71
     5
 72
     3
  0
VERTEX
  5
45D
  8
0
 62
   253
 10
-236.194061183608
 20
126.723880521786
 30
0.0
 70
   192
  0
VERTEX
  5
45E
  8
0
 62
   253
 10
-236.1771174254205
 20
126.7280549128924
 30
0.0
 70
   192
  0
VERTEX
  5
45F
  8
0
 62
   253
 10
-236.194061183608
 20
125.9954599336769
 30
0.0
 70
   192
  0
VERTEX
  5
460
  8
0
 62
   253
 10
-236.2110049417956
 20
126.7197061306796
 30
0.0
 70
   192
  0
VERTEX
  5
461
  8
0
 62
   253
 10
-236.1771174254205
 20
125.2712137366742
 30
0.0
 70
   192
  0
VERTEX
  5
462
  8
0
 62
   253
 10
0.0
 20
0.0
 30
0.0
 70
   128
 71
     1
 72
    -2
 73
    -3
  0
VERTEX
  5
463
  8
0
 62
   253
 10
0.0
 20
0.0
 30
0.0
 70
   128
 71
     3
 72
     4
 73
    -1
  0
VERTEX
  5
464
  8
0
 62
   253
 10
0.0
 20
0.0
 30
0.0
 70
   128
 71
     2
 72
     5
 73
    -3
  0
SEQEND
  5
727
  8
0
 62
   253
  0
POLYLINE
  5
169
  8
0
 62
   253
 66
     1
 10
0.0
 20
0.0
 30
0.0
 70
    64
 71
     5
 72
     3
  0
VERTEX
  5
465
  8
0
 62
   253
 10
-236.1622964536645
 20
125.9967104960513
 30
0.0
 70
   192
  0
VERTEX
  5
466
  8
0
 62
   253
 10
-236.1474754819085
 20
125.2653660792102
 30
0.0
 70
   192
  0
VERTEX
  5
467
  8
0
 62
   253
 10
-236.1622964536645
 20
125.2682899079422
 30
0.0
 70
   192
  0
VERTEX
  5
468
  8
0
 62
   253
 10
-236.1771174254205
 20
125.2712137366742
 30
0.0
 70
   192
  0
VERTEX
  5
469
  8
0
 62
   253
 10
-236.1771174254205
 20
126.7280549128924
 30
0.0
 70
   192
  0
VERTEX
  5
46A
  8
0
 62
   253
 10
0.0
 20
0.0
 30
0.0
 70
   128
 71
     1
 72
     2
 73
    -3
  0
VERTEX
  5
46B
  8
0
 62
   253
 10
0.0
 20
0.0
 30
0.0
 70
   128
 71
     4
 72
     5
 73
    -1
  0
VERTEX
  5
46C
  8
0
 62
   253
 10
0.0
 20
0.0
 30
0.0
 70
   128
 71
    -1
 72
     3
 73
    -4
  0
SEQEND
  5
728
  8
0
 62
   253
  0
POLYLINE
  5
16A
  8
0
 62
   253
 66
     1
 10
0.0
 20
0.0
 30
0.0
 70
    64
 71
     5
 72
     3
  0
VERTEX
  5
46D
  8
0
 62
   253
 10
-236.1622964536645
 20
126.7317063184425
 30
0.0
 70
   192
  0
VERTEX
  5
46E
  8
0
 62
   253
 10
-236.1474754819085
 20
126.7353577239926
 30
0.0
 70
   192
  0
VERTEX
  5
46F
  8
0
 62
   253
 10
-236.1622964536645
 20
125.9967104960513
 30
0.0
 70
   192
  0
VERTEX
  5
470
  8
0
 62
   253
 10
-236.1771174254205
 20
126.7280549128924
 30
0.0
 70
   192
  0
VERTEX
  5
471
  8
0
 62
   253
 10
-236.1474754819085
 20
125.2653660792102
 30
0.0
 70
   192
  0
VERTEX
  5
472
  8
0
 62
   253
 10
0.0
 20
0.0
 30
0.0
 70
   128
 71
     1
 72
    -2
 73
    -3
  0
VERTEX
  5
473
  8
0
 62
   253
 10
0.0
 20
0.0
 30
0.0
 70
   128
 71
     3
 72
     4
 73
    -1
  0
VERTEX
  5
474
  8
0
 62
   253
 10
0.0
 20
0.0
 30
0.0
 70
   128
 71
     2
 72
     5
 73
    -3
  0
SEQEND
  5
729
  8
0
 62
   253
  0
POLYLINE
  5
16B
  8
0
 62
   253
 66
     1
 10
0.0
 20
0.0
 30
0.0
 70
    64
 71
     5
 72
     3
  0
VERTEX
  5
475
  8
0
 62
   253
 10
-236.1302005069838
 20
125.9969539558296
 30
0.0
 70
   192
  0
VERTEX
  5
476
  8
0
 62
   253
 10
-236.112925532059
 20
125.2585501876666
 30
0.0
 70
   192
  0
VERTEX
  5
477
  8
0
 62
   253
 10
-236.1302005069838
 20
125.2619581334384
 30
0.0
 70
   192
  0
VERTEX
  5
478
  8
0
 62
   253
 10
-236.1474754819085
 20
125.2653660792101
 30
0.0
 70
   192
  0
VERTEX
  5
479
  8
0
 62
   253
 10
-236.1474754819085
 20
126.7353577239926
 30
0.0
 70
   192
  0
VERTEX
  5
47A
  8
0
 62
   253
 10
0.0
 20
0.0
 30
0.0
 70
   128
 71
     1
 72
     2
 73
    -3
  0
VERTEX
  5
47B
  8
0
 62
   253
 10
0.0
 20
0.0
 30
0.0
 70
   128
 71
     4
 72
     5
 73
    -1
  0
VERTEX
  5
47C
  8
0
 62
   253
 10
0.0
 20
0.0
 30
0.0
 70
   128
 71
    -1
 72
     3
 73
    -4
  0
SEQEND
  5
72A
  8
0
 62
   253
  0
POLYLINE
  5
16C
  8
0
 62
   253
 66
     1
 10
0.0
 20
0.0
 30
0.0
 70
    64
 71
     5
 72
     3
  0
VERTEX
  5
47D
  8
0
 62
   253
 10
-236.1302005069838
 20
126.73804444119
 30
0.0
 70
   192
  0
VERTEX
  5
47E
  8
0
 62
   253
 10
-236.112925532059
 20
126.7407311583874
 30
0.0
 70
   192
  0
VERTEX
  5
47F
  8
0
 62
   253
 10
-236.1302005069838
 20
125.9969539558296
 30
0.0
 70
   192
  0
VERTEX
  5
480
  8
0
 62
   253
 10
-236.1474754819084
 20
126.7353577239926
 30
0.0
 70
   192
  0
VERTEX
  5
481
  8
0
 62
   253
 10
-236.112925532059
 20
125.2585501876666
 30
0.0
 70
   192
  0
VERTEX
  5
482
  8
0
 62
   253
 10
0.0
 20
0.0
 30
0.0
 70
   128
 71
     1
 72
    -2
 73
    -3
  0
VERTEX
  5
483
  8
0
 62
   253
 10
0.0
 20
0.0
 30
0.0
 70
   128
 71
     3
 72
     4
 73
    -1
  0
VERTEX
  5
484
  8
0
 62
   253
 10
0.0
 20
0.0
 30
0.0
 70
   128
 71
     2
 72
     5
 73
    -3
  0
SEQEND
  5
72B
  8
0
 62
   253
  0
POLYLINE
  5
16D
  8
0
 62
   253
 66
     1
 10
0.0
 20
0.0
 30
0.0
 70
    64
 71
     5
 72
     3
  0
VERTEX
  5
485
  8
0
 62
   253
 10
-236.0978745883075
 20
125.9980162989967
 30
0.0
 70
   192
  0
VERTEX
  5
486
  8
0
 62
   253
 10
-236.082823644556
 20
125.255301439606
 30
0.0
 70
   192
  0
VERTEX
  5
487
  8
0
 62
   253
 10
-236.0978745883075
 20
125.2569258136363
 30
0.0
 70
   192
  0
VERTEX
  5
488
  8
0
 62
   253
 10
-236.112925532059
 20
125.2585501876667
 30
0.0
 70
   192
  0
VERTEX
  5
489
  8
0
 62
   253
 10
-236.112925532059
 20
126.7407311583874
 30
0.0
 70
   192
  0
VERTEX
  5
48A
  8
0
 62
   253
 10
0.0
 20
0.0
 30
0.0
 70
   128
 71
     1
 72
     2
 73
    -3
  0
VERTEX
  5
48B
  8
0
 62
   253
 10
0.0
 20
0.0
 30
0.0
 70
   128
 71
     4
 72
     5
 73
    -1
  0
VERTEX
  5
48C
  8
0
 62
   253
 10
0.0
 20
0.0
 30
0.0
 70
   128
 71
    -1
 72
     3
 73
    -4
  0
SEQEND
  5
72C
  8
0
 62
   253
  0
POLYLINE
  5
16E
  8
0
 62
   253
 66
     1
 10
0.0
 20
0.0
 30
0.0
 70
    64
 71
     5
 72
     3
  0
VERTEX
  5
48D
  8
0
 62
   253
 10
-236.0978745883075
 20
126.7430719796963
 30
0.0
 70
   192
  0
VERTEX
  5
48E
  8
0
 62
   253
 10
-236.082823644556
 20
126.7454128010052
 30
0.0
 70
   192
  0
VERTEX
  5
48F
  8
0
 62
   253
 10
-236.0978745883075
 20
125.9980162989967
 30
0.0
 70
   192
  0
VERTEX
  5
490
  8
0
 62
   253
 10
-236.1129255320591
 20
126.7407311583874
 30
0.0
 70
   192
  0
VERTEX
  5
491
  8
0
 62
   253
 10
-236.082823644556
 20
125.255301439606
 30
0.0
 70
   192
  0
VERTEX
  5
492
  8
0
 62
   253
 10
0.0
 20
0.0
 30
0.0
 70
   128
 71
     1
 72
    -2
 73
    -3
  0
VERTEX
  5
493
  8
0
 62
   253
 10
0.0
 20
0.0
 30
0.0
 70
   128
 71
     3
 72
     4
 73
    -1
  0
VERTEX
  5
494
  8
0
 62
   253
 10
0.0
 20
0.0
 30
0.0
 70
   128
 71
     2
 72
     5
 73
    -3
  0
SEQEND
  5
72D
  8
0
 62
   253
  0
POLYLINE
  5
16F
  8
0
 62
   253
 66
     1
 10
0.0
 20
0.0
 30
0.0
 70
    64
 71
     5
 72
     3
  0
VERTEX
  5
495
  8
0
 62
   253
 10
-236.0653489258842
 20
125.9984711602179
 30
0.0
 70
   192
  0
VERTEX
  5
496
  8
0
 62
   253
 10
-236.0478742072125
 20
125.2515295194306
 30
0.0
 70
   192
  0
VERTEX
  5
497
  8
0
 62
   253
 10
-236.0653489258842
 20
125.2534154795183
 30
0.0
 70
   192
  0
VERTEX
  5
498
  8
0
 62
   253
 10
-236.082823644556
 20
125.255301439606
 30
0.0
 70
   192
  0
VERTEX
  5
499
  8
0
 62
   253
 10
-236.082823644556
 20
126.7454128010052
 30
0.0
 70
   192
  0
VERTEX
  5
49A
  8
0
 62
   253
 10
0.0
 20
0.0
 30
0.0
 70
   128
 71
     1
 72
     2
 73
    -3
  0
VERTEX
  5
49B
  8
0
 62
   253
 10
0.0
 20
0.0
 30
0.0
 70
   128
 71
     4
 72
     5
 73
    -1
  0
VERTEX
  5
49C
  8
0
 62
   253
 10
0.0
 20
0.0
 30
0.0
 70
   128
 71
    -1
 72
     3
 73
    -4
  0
SEQEND
  5
72E
  8
0
 62
   253
  0
POLYLINE
  5
170
  8
0
 62
   253
 66
     1
 10
0.0
 20
0.0
 30
0.0
 70
    64
 71
     5
 72
     3
  0
VERTEX
  5
49D
  8
0
 62
   253
 10
-236.0653489258842
 20
126.7465857833284
 30
0.0
 70
   192
  0
VERTEX
  5
49E
  8
0
 62
   253
 10
-236.0478742072125
 20
126.7477587656516
 30
0.0
 70
   192
  0
VERTEX
  5
49F
  8
0
 62
   253
 10
-236.0653489258842
 20
125.9984711602179
 30
0.0
 70
   192
  0
VERTEX
  5
4A0
  8
0
 62
   253
 10
-236.0828236445561
 20
126.7454128010052
 30
0.0
 70
   192
  0
VERTEX
  5
4A1
  8
0
 62
   253
 10
-236.0478742072125
 20
125.2515295194306
 30
0.0
 70
   192
  0
VERTEX
  5
4A2
  8
0
 62
   253
 10
0.0
 20
0.0
 30
0.0
 70
   128
 71
     1
 72
    -2
 73
    -3
  0
VERTEX
  5
4A3
  8
0
 62
   253
 10
0.0
 20
0.0
 30
0.0
 70
   128
 71
     3
 72
     4
 73
    -1
  0
VERTEX
  5
4A4
  8
0
 62
   253
 10
0.0
 20
0.0
 30
0.0
 70
   128
 71
     2
 72
     5
 73
    -3
  0
SEQEND
  5
72F
  8
0
 62
   253
  0
POLYLINE
  5
171
  8
0
 62
   253
 66
     1
 10
0.0
 20
0.0
 30
0.0
 70
    64
 71
     5
 72
     3
  0
VERTEX
  5
4A5
  8
0
 62
   253
 10
-236.0327078382352
 20
125.9993370957913
 30
0.0
 70
   192
  0
VERTEX
  5
4A6
  8
0
 62
   253
 10
-236.017541469258
 20
125.250915425931
 30
0.0
 70
   192
  0
VERTEX
  5
4A7
  8
0
 62
   253
 10
-236.0327078382352
 20
125.2512224726808
 30
0.0
 70
   192
  0
VERTEX
  5
4A8
  8
0
 62
   253
 10
-236.0478742072125
 20
125.2515295194305
 30
0.0
 70
   192
  0
VERTEX
  5
4A9
  8
0
 62
   253
 10
-236.0478742072125
 20
126.7477587656516
 30
0.0
 70
   192
  0
VERTEX
  5
4AA
  8
0
 62
   253
 10
0.0
 20
0.0
 30
0.0
 70
   128
 71
     1
 72
     2
 73
    -3
  0
VERTEX
  5
4AB
  8
0
 62
   253
 10
0.0
 20
0.0
 30
0.0
 70
   128
 71
     4
 72
     5
 73
    -1
  0
VERTEX
  5
4AC
  8
0
 62
   253
 10
0.0
 20
0.0
 30
0.0
 70
   128
 71
    -1
 72
     3
 73
    -4
  0
SEQEND
  5
730
  8
0
 62
   253
  0
POLYLINE
  5
172
  8
0
 62
   253
 66
     1
 10
0.0
 20
0.0
 30
0.0
 70
    64
 71
     5
 72
     3
  0
VERTEX
  5
4AD
  8
0
 62
   253
 10
-236.0327078382352
 20
126.7487768010805
 30
0.0
 70
   192
  0
VERTEX
  5
4AE
  8
0
 62
   253
 10
-236.017541469258
 20
126.7497948365094
 30
0.0
 70
   192
  0
VERTEX
  5
4AF
  8
0
 62
   253
 10
-236.0327078382352
 20
125.9993370957913
 30
0.0
 70
   192
  0
VERTEX
  5
4B0
  8
0
 62
   253
 10
-236.0478742072123
 20
126.7477587656516
 30
0.0
 70
   192
  0
VERTEX
  5
4B1
  8
0
 62
   253
 10
-236.017541469258
 20
125.250915425931
 30
0.0
 70
   192
  0
VERTEX
  5
4B2
  8
0
 62
   253
 10
0.0
 20
0.0
 30
0.0
 70
   128
 71
     1
 72
    -2
 73
    -3
  0
VERTEX
  5
4B3
  8
0
 62
   253
 10
0.0
 20
0.0
 30
0.0
 70
   128
 71
     3
 72
     4
 73
    -1
  0
VERTEX
  5
4B4
  8
0
 62
   253
 10
0.0
 20
0.0
 30
0.0
 70
   128
 71
     2
 72
     5
 73
    -3
  0
SEQEND
  5
731
  8
0
 62
   253
  0
POLYLINE
  5
173
  8
0
 62
   253
 66
     1
 10
0.0
 20
0.0
 30
0.0
 70
    64
 71
     5
 72
     3
  0
VERTEX
  5
4B5
  8
0
 62
   253
 10
-235.9999999999998
 20
125.9999999999999
 30
0.0
 70
   192
  0
VERTEX
  5
4B6
  8
0
 62
   253
 10
-235.9824585307415
 20
125.2502051634904
 30
0.0
 70
   192
  0
VERTEX
  5
4B7
  8
0
 62
   253
 10
-235.9999999999998
 20
125.2505602947107
 30
0.0
 70
   192
  0
VERTEX
  5
4B8
  8
0
 62
   253
 10
-236.017541469258
 20
125.250915425931
 30
0.0
 70
   192
  0
VERTEX
  5
4B9
  8
0
 62
   253
 10
-236.017541469258
 20
126.7497948365094
 30
0.0
 70
   192
  0
VERTEX
  5
4BA
  8
0
 62
   253
 10
0.0
 20
0.0
 30
0.0
 70
   128
 71
     1
 72
     2
 73
    -3
  0
VERTEX
  5
4BB
  8
0
 62
   253
 10
0.0
 20
0.0
 30
0.0
 70
   128
 71
     4
 72
     5
 73
    -1
  0
VERTEX
  5
4BC
  8
0
 62
   253
 10
0.0
 20
0.0
 30
0.0
 70
   128
 71
    -1
 72
     3
 73
    -4
  0
SEQEND
  5
732
  8
0
 62
   253
  0
POLYLINE
  5
174
  8
0
 62
   253
 66
     1
 10
0.0
 20
0.0
 30
0.0
 70
    64
 71
     5
 72
     3
  0
VERTEX
  5
4BD
  8
0
 62
   253
 10
-235.9999999999998
 20
126.7494397052892
 30
0.0
 70
   192
  0
VERTEX
  5
4BE
  8
0
 62
   253
 10
-235.9824585307415
 20
126.749084574069
 30
0.0
 70
   192
  0
VERTEX
  5
4BF
  8
0
 62
   253
 10
-235.9999999999998
 20
125.9999999999999
 30
0.0
 70
   192
  0
VERTEX
  5
4C0
  8
0
 62
   253
 10
-236.017541469258
 20
126.7497948365094
 30
0.0
 70
   192
  0
VERTEX
  5
4C1
  8
0
 62
   253
 10
-235.9824585307415
 20
125.2502051634904
 30
0.0
 70
   192
  0
VERTEX
  5
4C2
  8
0
 62
   253
 10
0.0
 20
0.0
 30
0.0
 70
   128
 71
     1
 72
    -2
 73
    -3
  0
VERTEX
  5
4C3
  8
0
 62
   253
 10
0.0
 20
0.0
 30
0.0
 70
   128
 71
     3
 72
     4
 73
    -1
  0
VERTEX
  5
4C4
  8
0
 62
   253
 10
0.0
 20
0.0
 30
0.0
 70
   128
 71
     2
 72
     5
 73
    -3
  0
SEQEND
  5
733
  8
0
 62
   253
  0
POLYLINE
  5
175
  8
0
 62
   253
 66
     1
 10
0.0
 20
0.0
 30
0.0
 70
    64
 71
     5
 72
     3
  0
VERTEX
  5
4C5
  8
0
 62
   253
 10
-235.9672921617645
 20
125.2512231989193
 30
0.0
 70
   192
  0
VERTEX
  5
4C6
  8
0
 62
   253
 10
-235.9824585307415
 20
125.2502051634904
 30
0.0
 70
   192
  0
VERTEX
  5
4C7
  8
0
 62
   253
 10
-235.9672921617645
 20
126.0006629042086
 30
0.0
 70
   192
  0
VERTEX
  5
4C8
  8
0
 62
   253
 10
-235.9521257927875
 20
125.2522412343482
 30
0.0
 70
   192
  0
VERTEX
  5
4C9
  8
0
 62
   253
 10
-235.9824585307415
 20
126.749084574069
 30
0.0
 70
   192
  0
VERTEX
  5
4CA
  8
0
 62
   253
 10
0.0
 20
0.0
 30
0.0
 70
   128
 71
     1
 72
    -2
 73
    -3
  0
VERTEX
  5
4CB
  8
0
 62
   253
 10
0.0
 20
0.0
 30
0.0
 70
   128
 71
     3
 72
     4
 73
    -1
  0
VERTEX
  5
4CC
  8
0
 62
   253
 10
0.0
 20
0.0
 30
0.0
 70
   128
 71
     2
 72
     5
 73
    -3
  0
SEQEND
  5
734
  8
0
 62
   253
  0
POLYLINE
  5
176
  8
0
 62
   253
 66
     1
 10
0.0
 20
0.0
 30
0.0
 70
    64
 71
     5
 72
     3
  0
VERTEX
  5
4CD
  8
0
 62
   253
 10
-235.9672921617645
 20
126.7487775273192
 30
0.0
 70
   192
  0
VERTEX
  5
4CE
  8
0
 62
   253
 10
-235.9521257927875
 20
126.7484704805694
 30
0.0
 70
   192
  0
VERTEX
  5
4CF
  8
0
 62
   253
 10
-235.9672921617645
 20
126.0006629042086
 30
0.0
 70
   192
  0
VERTEX
  5
4D0
  8
0
 62
   253
 10
-235.9824585307418
 20
126.749084574069
 30
0.0
 70
   192
  0
VERTEX
  5
4D1
  8
0
 62
   253
 10
-235.9521257927875
 20
125.2522412343482
 30
0.0
 70
   192
  0
VERTEX
  5
4D2
  8
0
 62
   253
 10
0.0
 20
0.0
 30
0.0
 70
   128
 71
     1
 72
    -2
 73
    -3
  0
VERTEX
  5
4D3
  8
0
 62
   253
 10
0.0
 20
0.0
 30
0.0
 70
   128
 71
     3
 72
     4
 73
    -1
  0
VERTEX
  5
4D4
  8
0
 62
   253
 10
0.0
 20
0.0
 30
0.0
 70
   128
 71
     2
 72
     5
 73
    -3
  0
SEQEND
  5
735
  8
0
 62
   253
  0
POLYLINE
  5
177
  8
0
 62
   253
 66
     1
 10
0.0
 20
0.0
 30
0.0
 70
    64
 71
     5
 72
     3
  0
VERTEX
  5
4D5
  8
0
 62
   253
 10
-235.9346510741158
 20
125.2534142166716
 30
0.0
 70
   192
  0
VERTEX
  5
4D6
  8
0
 62
   253
 10
-235.9521257927875
 20
125.2522412343483
 30
0.0
 70
   192
  0
VERTEX
  5
4D7
  8
0
 62
   253
 10
-235.9346510741158
 20
126.0015288397821
 30
0.0
 70
   192
  0
VERTEX
  5
4D8
  8
0
 62
   253
 10
-235.917176355444
 20
125.2545871989948
 30
0.0
 70
   192
  0
VERTEX
  5
4D9
  8
0
 62
   253
 10
-235.9521257927875
 20
126.7484704805694
 30
0.0
 70
   192
  0
VERTEX
  5
4DA
  8
0
 62
   253
 10
0.0
 20
0.0
 30
0.0
 70
   128
 71
     1
 72
    -2
 73
    -3
  0
VERTEX
  5
4DB
  8
0
 62
   253
 10
0.0
 20
0.0
 30
0.0
 70
   128
 71
     3
 72
     4
 73
    -1
  0
VERTEX
  5
4DC
  8
0
 62
   253
 10
0.0
 20
0.0
 30
0.0
 70
   128
 71
     2
 72
     5
 73
    -3
  0
SEQEND
  5
736
  8
0
 62
   253
  0
POLYLINE
  5
178
  8
0
 62
   253
 66
     1
 10
0.0
 20
0.0
 30
0.0
 70
    64
 71
     5
 72
     3
  0
VERTEX
  5
4DD
  8
0
 62
   253
 10
-235.9346510741158
 20
126.7465845204817
 30
0.0
 70
   192
  0
VERTEX
  5
4DE
  8
0
 62
   253
 10
-235.917176355444
 20
126.744698560394
 30
0.0
 70
   192
  0
VERTEX
  5
4DF
  8
0
 62
   253
 10
-235.9346510741158
 20
126.0015288397821
 30
0.0
 70
   192
  0
VERTEX
  5
4E0
  8
0
 62
   253
 10
-235.9521257927876
 20
126.7484704805694
 30
0.0
 70
   192
  0
VERTEX
  5
4E1
  8
0
 62
   253
 10
-235.917176355444
 20
125.2545871989948
 30
0.0
 70
   192
  0
VERTEX
  5
4E2
  8
0
 62
   253
 10
0.0
 20
0.0
 30
0.0
 70
   128
 71
     1
 72
    -2
 73
    -3
  0
VERTEX
  5
4E3
  8
0
 62
   253
 10
0.0
 20
0.0
 30
0.0
 70
   128
 71
     3
 72
     4
 73
    -1
  0
VERTEX
  5
4E4
  8
0
 62
   253
 10
0.0
 20
0.0
 30
0.0
 70
   128
 71
     2
 72
     5
 73
    -3
  0
SEQEND
  5
737
  8
0
 62
   253
  0
POLYLINE
  5
179
  8
0
 62
   253
 66
     1
 10
0.0
 20
0.0
 30
0.0
 70
    64
 71
     5
 72
     3
  0
VERTEX
  5
4E5
  8
0
 62
   253
 10
-235.9021254116925
 20
125.2569280203035
 30
0.0
 70
   192
  0
VERTEX
  5
4E6
  8
0
 62
   253
 10
-235.917176355444
 20
125.2545871989947
 30
0.0
 70
   192
  0
VERTEX
  5
4E7
  8
0
 62
   253
 10
-235.9021254116925
 20
126.0019837010032
 30
0.0
 70
   192
  0
VERTEX
  5
4E8
  8
0
 62
   253
 10
-235.887074467941
 20
125.2592688416124
 30
0.0
 70
   192
  0
VERTEX
  5
4E9
  8
0
 62
   253
 10
-235.917176355444
 20
126.744698560394
 30
0.0
 70
   192
  0
VERTEX
  5
4EA
  8
0
 62
   253
 10
0.0
 20
0.0
 30
0.0
 70
   128
 71
     1
 72
    -2
 73
    -3
  0
VERTEX
  5
4EB
  8
0
 62
   253
 10
0.0
 20
0.0
 30
0.0
 70
   128
 71
     3
 72
     4
 73
    -1
  0
VERTEX
  5
4EC
  8
0
 62
   253
 10
0.0
 20
0.0
 30
0.0
 70
   128
 71
     2
 72
     5
 73
    -3
  0
SEQEND
  5
738
  8
0
 62
   253
  0
POLYLINE
  5
17A
  8
0
 62
   253
 66
     1
 10
0.0
 20
0.0
 30
0.0
 70
    64
 71
     5
 72
     3
  0
VERTEX
  5
4ED
  8
0
 62
   253
 10
-235.9021254116925
 20
126.7430741863636
 30
0.0
 70
   192
  0
VERTEX
  5
4EE
  8
0
 62
   253
 10
-235.887074467941
 20
126.7414498123332
 30
0.0
 70
   192
  0
VERTEX
  5
4EF
  8
0
 62
   253
 10
-235.9021254116925
 20
126.0019837010032
 30
0.0
 70
   192
  0
VERTEX
  5
4F0
  8
0
 62
   253
 10
-235.917176355444
 20
126.744698560394
 30
0.0
 70
   192
  0
VERTEX
  5
4F1
  8
0
 62
   253
 10
-235.887074467941
 20
125.2592688416124
 30
0.0
 70
   192
  0
VERTEX
  5
4F2
  8
0
 62
   253
 10
0.0
 20
0.0
 30
0.0
 70
   128
 71
     1
 72
    -2
 73
    -3
  0
VERTEX
  5
4F3
  8
0
 62
   253
 10
0.0
 20
0.0
 30
0.0
 70
   128
 71
     3
 72
     4
 73
    -1
  0
VERTEX
  5
4F4
  8
0
 62
   253
 10
0.0
 20
0.0
 30
0.0
 70
   128
 71
     2
 72
     5
 73
    -3
  0
SEQEND
  5
739
  8
0
 62
   253
  0
POLYLINE
  5
17B
  8
0
 62
   253
 66
     1
 10
0.0
 20
0.0
 30
0.0
 70
    64
 71
     5
 72
     3
  0
VERTEX
  5
4F5
  8
0
 62
   253
 10
-235.8697994930162
 20
125.2619555588098
 30
0.0
 70
   192
  0
VERTEX
  5
4F6
  8
0
 62
   253
 10
-235.887074467941
 20
125.2592688416124
 30
0.0
 70
   192
  0
VERTEX
  5
4F7
  8
0
 62
   253
 10
-235.8697994930162
 20
126.0030460441702
 30
0.0
 70
   192
  0
VERTEX
  5
4F8
  8
0
 62
   253
 10
-235.8525245180915
 20
125.2646422760072
 30
0.0
 70
   192
  0
VERTEX
  5
4F9
  8
0
 62
   253
 10
-235.887074467941
 20
126.7414498123332
 30
0.0
 70
   192
  0
VERTEX
  5
4FA
  8
0
 62
   253
 10
0.0
 20
0.0
 30
0.0
 70
   128
 71
     1
 72
    -2
 73
    -3
  0
VERTEX
  5
4FB
  8
0
 62
   253
 10
0.0
 20
0.0
 30
0.0
 70
   128
 71
     3
 72
     4
 73
    -1
  0
VERTEX
  5
4FC
  8
0
 62
   253
 10
0.0
 20
0.0
 30
0.0
 70
   128
 71
     2
 72
     5
 73
    -3
  0
SEQEND
  5
73A
  8
0
 62
   253
  0
POLYLINE
  5
17C
  8
0
 62
   253
 66
     1
 10
0.0
 20
0.0
 30
0.0
 70
    64
 71
     5
 72
     3
  0
VERTEX
  5
4FD
  8
0
 62
   253
 10
-235.8697994930162
 20
126.7380418665615
 30
0.0
 70
   192
  0
VERTEX
  5
4FE
  8
0
 62
   253
 10
-235.8525245180915
 20
126.7346339207898
 30
0.0
 70
   192
  0
VERTEX
  5
4FF
  8
0
 62
   253
 10
-235.8697994930162
 20
126.0030460441702
 30
0.0
 70
   192
  0
VERTEX
  5
500
  8
0
 62
   253
 10
-235.887074467941
 20
126.7414498123332
 30
0.0
 70
   192
  0
VERTEX
  5
501
  8
0
 62
   253
 10
-235.8525245180915
 20
125.2646422760072
 30
0.0
 70
   192
  0
VERTEX
  5
502
  8
0
 62
   253
 10
0.0
 20
0.0
 30
0.0
 70
   128
 71
     1
 72
    -2
 73
    -3
  0
VERTEX
  5
503
  8
0
 62
   253
 10
0.0
 20
0.0
 30
0.0
 70
   128
 71
     3
 72
     4
 73
    -1
  0
VERTEX
  5
504
  8
0
 62
   253
 10
0.0
 20
0.0
 30
0.0
 70
   128
 71
     2
 72
     5
 73
    -3
  0
SEQEND
  5
73B
  8
0
 62
   253
  0
POLYLINE
  5
17D
  8
0
 62
   253
 66
     1
 10
0.0
 20
0.0
 30
0.0
 70
    64
 71
     5
 72
     3
  0
VERTEX
  5
505
  8
0
 62
   253
 10
-235.8377035463355
 20
125.2682936815575
 30
0.0
 70
   192
  0
VERTEX
  5
506
  8
0
 62
   253
 10
-235.8525245180915
 20
125.2646422760073
 30
0.0
 70
   192
  0
VERTEX
  5
507
  8
0
 62
   253
 10
-235.8377035463355
 20
126.0032895039487
 30
0.0
 70
   192
  0
VERTEX
  5
508
  8
0
 62
   253
 10
-235.8228825745795
 20
125.2719450871076
 30
0.0
 70
   192
  0
VERTEX
  5
509
  8
0
 62
   253
 10
-235.8525245180915
 20
126.7346339207898
 30
0.0
 70
   192
  0
VERTEX
  5
50A
  8
0
 62
   253
 10
0.0
 20
0.0
 30
0.0
 70
   128
 71
     1
 72
    -2
 73
    -3
  0
VERTEX
  5
50B
  8
0
 62
   253
 10
0.0
 20
0.0
 30
0.0
 70
   128
 71
     3
 72
     4
 73
    -1
  0
VERTEX
  5
50C
  8
0
 62
   253
 10
0.0
 20
0.0
 30
0.0
 70
   128
 71
     2
 72
     5
 73
    -3
  0
SEQEND
  5
73C
  8
0
 62
   253
  0
POLYLINE
  5
17E
  8
0
 62
   253
 66
     1
 10
0.0
 20
0.0
 30
0.0
 70
    64
 71
     5
 72
     3
  0
VERTEX
  5
50D
  8
0
 62
   253
 10
-235.8377035463355
 20
126.7317100920578
 30
0.0
 70
   192
  0
VERTEX
  5
50E
  8
0
 62
   253
 10
-235.8228825745795
 20
126.7287862633258
 30
0.0
 70
   192
  0
VERTEX
  5
50F
  8
0
 62
   253
 10
-235.8377035463355
 20
126.0032895039487
 30
0.0
 70
   192
  0
VERTEX
  5
510
  8
0
 62
   253
 10
-235.8525245180914
 20
126.7346339207898
 30
0.0
 70
   192
  0
VERTEX
  5
511
  8
0
 62
   253
 10
-235.8228825745795
 20
125.2719450871076
 30
0.0
 70
   192
  0
VERTEX
  5
512
  8
0
 62
   253
 10
0.0
 20
0.0
 30
0.0
 70
   128
 71
     1
 72
    -2
 73
    -3
  0
VERTEX
  5
513
  8
0
 62
   253
 10
0.0
 20
0.0
 30
0.0
 70
   128
 71
     3
 72
     4
 73
    -1
  0
VERTEX
  5
514
  8
0
 62
   253
 10
0.0
 20
0.0
 30
0.0
 70
   128
 71
     2
 72
     5
 73
    -3
  0
SEQEND
  5
73D
  8
0
 62
   253
  0
POLYLINE
  5
17F
  8
0
 62
   253
 66
     1
 10
0.0
 20
0.0
 30
0.0
 70
    64
 71
     5
 72
     3
  0
VERTEX
  5
515
  8
0
 62
   253
 10
-235.8059388163917
 20
125.276119478214
 30
0.0
 70
   192
  0
VERTEX
  5
516
  8
0
 62
   253
 10
-235.8228825745795
 20
125.2719450871075
 30
0.0
 70
   192
  0
VERTEX
  5
517
  8
0
 62
   253
 10
-235.8059388163917
 20
126.0045400663231
 30
0.0
 70
   192
  0
VERTEX
  5
518
  8
0
 62
   253
 10
-235.788995058204
 20
125.2802938693204
 30
0.0
 70
   192
  0
VERTEX
  5
519
  8
0
 62
   253
 10
-235.8228825745795
 20
126.7287862633258
 30
0.0
 70
   192
  0
VERTEX
  5
51A
  8
0
 62
   253
 10
0.0
 20
0.0
 30
0.0
 70
   128
 71
     1
 72
    -2
 73
    -3
  0
VERTEX
  5
51B
  8
0
 62
   253
 10
0.0
 20
0.0
 30
0.0
 70
   128
 71
     3
 72
     4
 73
    -1
  0
VERTEX
  5
51C
  8
0
 62
   253
 10
0.0
 20
0.0
 30
0.0
 70
   128
 71
     2
 72
     5
 73
    -3
  0
SEQEND
  5
73E
  8
0
 62
   253
  0
POLYLINE
  5
180
  8
0
 62
   253
 66
     1
 10
0.0
 20
0.0
 30
0.0
 70
    64
 71
     5
 72
     3
  0
VERTEX
  5
51D
  8
0
 62
   253
 10
-235.8059388163917
 20
126.7238765327937
 30
0.0
 70
   192
  0
VERTEX
  5
51E
  8
0
 62
   253
 10
-235.788995058204
 20
126.7189668022616
 30
0.0
 70
   192
  0
VERTEX
  5
51F
  8
0
 62
   253
 10
-235.8059388163917
 20
126.0045400663231
 30
0.0
 70
   192
  0
VERTEX
  5
520
  8
0
 62
   253
 10
-235.8228825745792
 20
126.7287862633258
 30
0.0
 70
   192
  0
VERTEX
  5
521
  8
0
 62
   253
 10
-235.788995058204
 20
125.2802938693204
 30
0.0
 70
   192
  0
VERTEX
  5
522
  8
0
 62
   253
 10
0.0
 20
0.0
 30
0.0
 70
   128
 71
     1
 72
    -2
 73
    -3
  0
VERTEX
  5
523
  8
0
 62
   253
 10
0.0
 20
0.0
 30
0.0
 70
   128
 71
     3
 72
     4
 73
    -1
  0
VERTEX
  5
524
  8
0
 62
   253
 10
0.0
 20
0.0
 30
0.0
 70
   128
 71
     2
 72
     5
 73
    -3
  0
SEQEND
  5
73F
  8
0
 62
   253
  0
POLYLINE
  5
181
  8
0
 62
   253
 66
     1
 10
0.0
 20
0.0
 30
0.0
 70
    64
 71
     5
 72
     3
  0
VERTEX
  5
525
  8
0
 62
   253
 10
-235.774516854988
 20
125.2852339875949
 30
0.0
 70
   192
  0
VERTEX
  5
526
  8
0
 62
   253
 10
-235.788995058204
 20
125.2802938693205
 30
0.0
 70
   192
  0
VERTEX
  5
527
  8
0
 62
   253
 10
-235.774516854988
 20
126.0045704540654
 30
0.0
 70
   192
  0
VERTEX
  5
528
  8
0
 62
   253
 10
-235.760038651772
 20
125.2901741058692
 30
0.0
 70
   192
  0
VERTEX
  5
529
  8
0
 62
   253
 10
-235.788995058204
 20
126.7189668022616
 30
0.0
 70
   192
  0
VERTEX
  5
52A
  8
0
 62
   253
 10
0.0
 20
0.0
 30
0.0
 70
   128
 71
     1
 72
    -2
 73
    -3
  0
VERTEX
  5
52B
  8
0
 62
   253
 10
0.0
 20
0.0
 30
0.0
 70
   128
 71
     3
 72
     4
 73
    -1
  0
VERTEX
  5
52C
  8
0
 62
   253
 10
0.0
 20
0.0
 30
0.0
 70
   128
 71
     2
 72
     5
 73
    -3
  0
SEQEND
  5
740
  8
0
 62
   253
  0
POLYLINE
  5
182
  8
0
 62
   253
 66
     1
 10
0.0
 20
0.0
 30
0.0
 70
    64
 71
     5
 72
     3
  0
VERTEX
  5
52D
  8
0
 62
   253
 10
-235.774516854988
 20
126.7147715065314
 30
0.0
 70
   192
  0
VERTEX
  5
52E
  8
0
 62
   253
 10
-235.760038651772
 20
126.7105762108012
 30
0.0
 70
   192
  0
VERTEX
  5
52F
  8
0
 62
   253
 10
-235.774516854988
 20
126.0045704540654
 30
0.0
 70
   192
  0
VERTEX
  5
530
  8
0
 62
   253
 10
-235.7889950582043
 20
126.7189668022616
 30
0.0
 70
   192
  0
VERTEX
  5
531
  8
0
 62
   253
 10
-235.760038651772
 20
125.2901741058692
 30
0.0
 70
   192
  0
VERTEX
  5
532
  8
0
 62
   253
 10
0.0
 20
0.0
 30
0.0
 70
   128
 71
     1
 72
    -2
 73
    -3
  0
VERTEX
  5
533
  8
0
 62
   253
 10
0.0
 20
0.0
 30
0.0
 70
   128
 71
     3
 72
     4
 73
    -1
  0
VERTEX
  5
534
  8
0
 62
   253
 10
0.0
 20
0.0
 30
0.0
 70
   128
 71
     2
 72
     5
 73
    -3
  0
SEQEND
  5
741
  8
0
 62
   253
  0
POLYLINE
  5
183
  8
0
 62
   253
 66
     1
 10
0.0
 20
0.0
 30
0.0
 70
    64
 71
     5
 72
     3
  0
VERTEX
  5
535
  8
0
 62
   253
 10
-235.7435550625523
 20
125.2957984833638
 30
0.0
 70
   192
  0
VERTEX
  5
536
  8
0
 62
   253
 10
-235.760038651772
 20
125.2901741058691
 30
0.0
 70
   192
  0
VERTEX
  5
537
  8
0
 62
   253
 10
-235.7435550625523
 20
126.0059995358298
 30
0.0
 70
   192
  0
VERTEX
  5
538
  8
0
 62
   253
 10
-235.7270714733325
 20
125.3014228608584
 30
0.0
 70
   192
  0
VERTEX
  5
539
  8
0
 62
   253
 10
-235.760038651772
 20
126.7105762108012
 30
0.0
 70
   192
  0
VERTEX
  5
53A
  8
0
 62
   253
 10
0.0
 20
0.0
 30
0.0
 70
   128
 71
     1
 72
    -2
 73
    -3
  0
VERTEX
  5
53B
  8
0
 62
   253
 10
0.0
 20
0.0
 30
0.0
 70
   128
 71
     3
 72
     4
 73
    -1
  0
VERTEX
  5
53C
  8
0
 62
   253
 10
0.0
 20
0.0
 30
0.0
 70
   128
 71
     2
 72
     5
 73
    -3
  0
SEQEND
  5
742
  8
0
 62
   253
  0
POLYLINE
  5
184
  8
0
 62
   253
 66
     1
 10
0.0
 20
0.0
 30
0.0
 70
    64
 71
     5
 72
     3
  0
VERTEX
  5
53D
  8
0
 62
   253
 10
-235.7435550625523
 20
126.7041959467621
 30
0.0
 70
   192
  0
VERTEX
  5
53E
  8
0
 62
   253
 10
-235.7270714733325
 20
126.697815682723
 30
0.0
 70
   192
  0
VERTEX
  5
53F
  8
0
 62
   253
 10
-235.7435550625523
 20
126.0059995358298
 30
0.0
 70
   192
  0
VERTEX
  5
540
  8
0
 62
   253
 10
-235.760038651772
 20
126.7105762108012
 30
0.0
 70
   192
  0
VERTEX
  5
541
  8
0
 62
   253
 10
-235.7270714733325
 20
125.3014228608584
 30
0.0
 70
   192
  0
VERTEX
  5
542
  8
0
 62
   253
 10
0.0
 20
0.0
 30
0.0
 70
   128
 71
     1
 72
    -2
 73
    -3
  0
VERTEX
  5
543
  8
0
 62
   253
 10
0.0
 20
0.0
 30
0.0
 70
   128
 71
     3
 72
     4
 73
    -1
  0
VERTEX
  5
544
  8
0
 62
   253
 10
0.0
 20
0.0
 30
0.0
 70
   128
 71
     2
 72
     5
 73
    -3
  0
SEQEND
  5
743
  8
0
 62
   253
  0
POLYLINE
  5
185
  8
0
 62
   253
 66
     1
 10
0.0
 20
0.0
 30
0.0
 70
    64
 71
     5
 72
     3
  0
VERTEX
  5
545
  8
0
 62
   253
 10
-235.7130462265247
 20
125.3076204876379
 30
0.0
 70
   192
  0
VERTEX
  5
546
  8
0
 62
   253
 10
-235.7270714733326
 20
125.3014228608585
 30
0.0
 70
   192
  0
VERTEX
  5
547
  8
0
 62
   253
 10
-235.7130462265247
 20
126.0058168985702
 30
0.0
 70
   192
  0
VERTEX
  5
548
  8
0
 62
   253
 10
-235.699020979717
 20
125.3138181144174
 30
0.0
 70
   192
  0
VERTEX
  5
549
  8
0
 62
   253
 10
-235.7270714733325
 20
126.697815682723
 30
0.0
 70
   192
  0
VERTEX
  5
54A
  8
0
 62
   253
 10
0.0
 20
0.0
 30
0.0
 70
   128
 71
     1
 72
    -2
 73
    -3
  0
VERTEX
  5
54B
  8
0
 62
   253
 10
0.0
 20
0.0
 30
0.0
 70
   128
 71
     3
 72
     4
 73
    -1
  0
VERTEX
  5
54C
  8
0
 62
   253
 10
0.0
 20
0.0
 30
0.0
 70
   128
 71
     2
 72
     5
 73
    -3
  0
SEQEND
  5
744
  8
0
 62
   253
  0
POLYLINE
  5
186
  8
0
 62
   253
 66
     1
 10
0.0
 20
0.0
 30
0.0
 70
    64
 71
     5
 72
     3
  0
VERTEX
  5
54D
  8
0
 62
   253
 10
-235.7130462265247
 20
126.6923869634888
 30
0.0
 70
   192
  0
VERTEX
  5
54E
  8
0
 62
   253
 10
-235.699020979717
 20
126.6869582442546
 30
0.0
 70
   192
  0
VERTEX
  5
54F
  8
0
 62
   253
 10
-235.7130462265247
 20
126.0058168985702
 30
0.0
 70
   192
  0
VERTEX
  5
550
  8
0
 62
   253
 10
-235.7270714733325
 20
126.697815682723
 30
0.0
 70
   192
  0
VERTEX
  5
551
  8
0
 62
   253
 10
-235.699020979717
 20
125.3138181144174
 30
0.0
 70
   192
  0
VERTEX
  5
552
  8
0
 62
   253
 10
0.0
 20
0.0
 30
0.0
 70
   128
 71
     1
 72
    -2
 73
    -3
  0
VERTEX
  5
553
  8
0
 62
   253
 10
0.0
 20
0.0
 30
0.0
 70
   128
 71
     3
 72
     4
 73
    -1
  0
VERTEX
  5
554
  8
0
 62
   253
 10
0.0
 20
0.0
 30
0.0
 70
   128
 71
     2
 72
     5
 73
    -3
  0
SEQEND
  5
745
  8
0
 62
   253
  0
POLYLINE
  5
187
  8
0
 62
   253
 66
     1
 10
0.0
 20
0.0
 30
0.0
 70
    64
 71
     5
 72
     3
  0
VERTEX
  5
555
  8
0
 62
   253
 10
-235.6831230095323
 20
125.3208432803278
 30
0.0
 70
   192
  0
VERTEX
  5
556
  8
0
 62
   253
 10
-235.6990209797171
 20
125.3138181144175
 30
0.0
 70
   192
  0
VERTEX
  5
557
  8
0
 62
   253
 10
-235.6831230095323
 20
126.0074133452463
 30
0.0
 70
   192
  0
VERTEX
  5
558
  8
0
 62
   253
 10
-235.6672250393475
 20
125.327868446238
 30
0.0
 70
   192
  0
VERTEX
  5
559
  8
0
 62
   253
 10
-235.699020979717
 20
126.6869582442546
 30
0.0
 70
   192
  0
VERTEX
  5
55A
  8
0
 62
   253
 10
0.0
 20
0.0
 30
0.0
 70
   128
 71
     1
 72
    -2
 73
    -3
  0
VERTEX
  5
55B
  8
0
 62
   253
 10
0.0
 20
0.0
 30
0.0
 70
   128
 71
     3
 72
     4
 73
    -1
  0
VERTEX
  5
55C
  8
0
 62
   253
 10
0.0
 20
0.0
 30
0.0
 70
   128
 71
     2
 72
     5
 73
    -3
  0
SEQEND
  5
746
  8
0
 62
   253
  0
POLYLINE
  5
188
  8
0
 62
   253
 66
     1
 10
0.0
 20
0.0
 30
0.0
 70
    64
 71
     5
 72
     3
  0
VERTEX
  5
55D
  8
0
 62
   253
 10
-235.6831230095323
 20
126.6791493205998
 30
0.0
 70
   192
  0
VERTEX
  5
55E
  8
0
 62
   253
 10
-235.6672250393475
 20
126.671340396945
 30
0.0
 70
   192
  0
VERTEX
  5
55F
  8
0
 62
   253
 10
-235.6831230095323
 20
126.0074133452463
 30
0.0
 70
   192
  0
VERTEX
  5
560
  8
0
 62
   253
 10
-235.6990209797171
 20
126.6869582442546
 30
0.0
 70
   192
  0
VERTEX
  5
561
  8
0
 62
   253
 10
-235.6672250393475
 20
125.327868446238
 30
0.0
 70
   192
  0
VERTEX
  5
562
  8
0
 62
   253
 10
0.0
 20
0.0
 30
0.0
 70
   128
 71
     1
 72
    -2
 73
    -3
  0
VERTEX
  5
563
  8
0
 62
   253
 10
0.0
 20
0.0
 30
0.0
 70
   128
 71
     3
 72
     4
 73
    -1
  0
VERTEX
  5
564
  8
0
 62
   253
 10
0.0
 20
0.0
 30
0.0
 70
   128
 71
     2
 72
     5
 73
    -3
  0
SEQEND
  5
747
  8
0
 62
   253
  0
POLYLINE
  5
189
  8
0
 62
   253
 66
     1
 10
0.0
 20
0.0
 30
0.0
 70
    64
 71
     5
 72
     3
  0
VERTEX
  5
565
  8
0
 62
   253
 10
-235.653759489545
 20
125.3352835002275
 30
0.0
 70
   192
  0
VERTEX
  5
566
  8
0
 62
   253
 10
-235.6672250393474
 20
125.3278684462377
 30
0.0
 70
   192
  0
VERTEX
  5
567
  8
0
 62
   253
 10
-235.653759489545
 20
126.0070194755811
 30
0.0
 70
   192
  0
VERTEX
  5
568
  8
0
 62
   253
 10
-235.6402939397425
 20
125.3426985542172
 30
0.0
 70
   192
  0
VERTEX
  5
569
  8
0
 62
   253
 10
-235.6672250393475
 20
126.671340396945
 30
0.0
 70
   192
  0
VERTEX
  5
56A
  8
0
 62
   253
 10
0.0
 20
0.0
 30
0.0
 70
   128
 71
     1
 72
    -2
 73
    -3
  0
VERTEX
  5
56B
  8
0
 62
   253
 10
0.0
 20
0.0
 30
0.0
 70
   128
 71
     3
 72
     4
 73
    -1
  0
VERTEX
  5
56C
  8
0
 62
   253
 10
0.0
 20
0.0
 30
0.0
 70
   128
 71
     2
 72
     5
 73
    -3
  0
SEQEND
  5
748
  8
0
 62
   253
  0
POLYLINE
  5
18A
  8
0
 62
   253
 66
     1
 10
0.0
 20
0.0
 30
0.0
 70
    64
 71
     5
 72
     3
  0
VERTEX
  5
56D
  8
0
 62
   253
 10
-235.653759489545
 20
126.6647262538088
 30
0.0
 70
   192
  0
VERTEX
  5
56E
  8
0
 62
   253
 10
-235.6402939397425
 20
126.6581121106726
 30
0.0
 70
   192
  0
VERTEX
  5
56F
  8
0
 62
   253
 10
-235.653759489545
 20
126.0070194755811
 30
0.0
 70
   192
  0
VERTEX
  5
570
  8
0
 62
   253
 10
-235.6672250393473
 20
126.671340396945
 30
0.0
 70
   192
  0
VERTEX
  5
571
  8
0
 62
   253
 10
-235.6402939397425
 20
125.3426985542172
 30
0.0
 70
   192
  0
VERTEX
  5
572
  8
0
 62
   253
 10
0.0
 20
0.0
 30
0.0
 70
   128
 71
     1
 72
    -2
 73
    -3
  0
VERTEX
  5
573
  8
0
 62
   253
 10
0.0
 20
0.0
 30
0.0
 70
   128
 71
     3
 72
     4
 73
    -1
  0
VERTEX
  5
574
  8
0
 62
   253
 10
0.0
 20
0.0
 30
0.0
 70
   128
 71
     2
 72
     5
 73
    -3
  0
SEQEND
  5
749
  8
0
 62
   253
  0
POLYLINE
  5
18B
  8
0
 62
   253
 66
     1
 10
0.0
 20
0.0
 30
0.0
 70
    64
 71
     5
 72
     3
  0
VERTEX
  5
575
  8
0
 62
   253
 10
-235.6251025817453
 20
125.3510639564013
 30
0.0
 70
   192
  0
VERTEX
  5
576
  8
0
 62
   253
 10
-235.6402939397425
 20
125.3426985542173
 30
0.0
 70
   192
  0
VERTEX
  5
577
  8
0
 62
   253
 10
-235.6251025817453
 20
126.008770734629
 30
0.0
 70
   192
  0
VERTEX
  5
578
  8
0
 62
   253
 10
-235.609911223748
 20
125.3594293585854
 30
0.0
 70
   192
  0
VERTEX
  5
579
  8
0
 62
   253
 10
-235.6402939397425
 20
126.6581121106726
 30
0.0
 70
   192
  0
VERTEX
  5
57A
  8
0
 62
   253
 10
0.0
 20
0.0
 30
0.0
 70
   128
 71
     1
 72
    -2
 73
    -3
  0
VERTEX
  5
57B
  8
0
 62
   253
 10
0.0
 20
0.0
 30
0.0
 70
   128
 71
     3
 72
     4
 73
    -1
  0
VERTEX
  5
57C
  8
0
 62
   253
 10
0.0
 20
0.0
 30
0.0
 70
   128
 71
     2
 72
     5
 73
    -3
  0
SEQEND
  5
74A
  8
0
 62
   253
  0
POLYLINE
  5
18C
  8
0
 62
   253
 66
     1
 10
0.0
 20
0.0
 30
0.0
 70
    64
 71
     5
 72
     3
  0
VERTEX
  5
57D
  8
0
 62
   253
 10
-235.6251025817453
 20
126.6489264560005
 30
0.0
 70
   192
  0
VERTEX
  5
57E
  8
0
 62
   253
 10
-235.609911223748
 20
126.6397408013284
 30
0.0
 70
   192
  0
VERTEX
  5
57F
  8
0
 62
   253
 10
-235.6251025817453
 20
126.008770734629
 30
0.0
 70
   192
  0
VERTEX
  5
580
  8
0
 62
   253
 10
-235.6402939397427
 20
126.6581121106726
 30
0.0
 70
   192
  0
VERTEX
  5
581
  8
0
 62
   253
 10
-235.609911223748
 20
125.3594293585854
 30
0.0
 70
   192
  0
VERTEX
  5
582
  8
0
 62
   253
 10
0.0
 20
0.0
 30
0.0
 70
   128
 71
     1
 72
    -2
 73
    -3
  0
VERTEX
  5
583
  8
0
 62
   253
 10
0.0
 20
0.0
 30
0.0
 70
   128
 71
     3
 72
     4
 73
    -1
  0
VERTEX
  5
584
  8
0
 62
   253
 10
0.0
 20
0.0
 30
0.0
 70
   128
 71
     2
 72
     5
 73
    -3
  0
SEQEND
  5
74B
  8
0
 62
   253
  0
POLYLINE
  5
18D
  8
0
 62
   253
 66
     1
 10
0.0
 20
0.0
 30
0.0
 70
    64
 71
     5
 72
     3
  0
VERTEX
  5
585
  8
0
 62
   253
 10
-235.5971078519155
 20
125.3680134813531
 30
0.0
 70
   192
  0
VERTEX
  5
586
  8
0
 62
   253
 10
-235.6099112237479
 20
125.3594293585853
 30
0.0
 70
   192
  0
VERTEX
  5
587
  8
0
 62
   253
 10
-235.5971078519155
 20
126.0081692027247
 30
0.0
 70
   192
  0
VERTEX
  5
588
  8
0
 62
   253
 10
-235.584304480083
 20
125.376597604121
 30
0.0
 70
   192
  0
VERTEX
  5
589
  8
0
 62
   253
 10
-235.609911223748
 20
126.6397408013284
 30
0.0
 70
   192
  0
VERTEX
  5
58A
  8
0
 62
   253
 10
0.0
 20
0.0
 30
0.0
 70
   128
 71
     1
 72
    -2
 73
    -3
  0
VERTEX
  5
58B
  8
0
 62
   253
 10
0.0
 20
0.0
 30
0.0
 70
   128
 71
     3
 72
     4
 73
    -1
  0
VERTEX
  5
58C
  8
0
 62
   253
 10
0.0
 20
0.0
 30
0.0
 70
   128
 71
     2
 72
     5
 73
    -3
  0
SEQEND
  5
74C
  8
0
 62
   253
  0
POLYLINE
  5
18E
  8
0
 62
   253
 66
     1
 10
0.0
 20
0.0
 30
0.0
 70
    64
 71
     5
 72
     3
  0
VERTEX
  5
58D
  8
0
 62
   253
 10
-235.5971078519155
 20
126.631999073939
 30
0.0
 70
   192
  0
VERTEX
  5
58E
  8
0
 62
   253
 10
-235.584304480083
 20
126.6242573465496
 30
0.0
 70
   192
  0
VERTEX
  5
58F
  8
0
 62
   253
 10
-235.5971078519155
 20
126.0081692027247
 30
0.0
 70
   192
  0
VERTEX
  5
590
  8
0
 62
   253
 10
-235.6099112237477
 20
126.6397408013284
 30
0.0
 70
   192
  0
VERTEX
  5
591
  8
0
 62
   253
 10
-235.584304480083
 20
125.376597604121
 30
0.0
 70
   192
  0
VERTEX
  5
592
  8
0
 62
   253
 10
0.0
 20
0.0
 30
0.0
 70
   128
 71
     1
 72
    -2
 73
    -3
  0
VERTEX
  5
593
  8
0
 62
   253
 10
0.0
 20
0.0
 30
0.0
 70
   128
 71
     3
 72
     4
 73
    -1
  0
VERTEX
  5
594
  8
0
 62
   253
 10
0.0
 20
0.0
 30
0.0
 70
   128
 71
     2
 72
     5
 73
    -3
  0
SEQEND
  5
74D
  8
0
 62
   253
  0
POLYLINE
  5
18F
  8
0
 62
   253
 66
     1
 10
0.0
 20
0.0
 30
0.0
 70
    64
 71
     5
 72
     3
  0
VERTEX
  5
595
  8
0
 62
   253
 10
-235.5699353496805
 20
125.3862315022113
 30
0.0
 70
   192
  0
VERTEX
  5
596
  8
0
 62
   253
 10
-235.5843044800832
 20
125.3765976041213
 30
0.0
 70
   192
  0
VERTEX
  5
597
  8
0
 62
   253
 10
-235.5699353496805
 20
126.0100613734255
 30
0.0
 70
   192
  0
VERTEX
  5
598
  8
0
 62
   253
 10
-235.555566219278
 20
125.3958654003014
 30
0.0
 70
   192
  0
VERTEX
  5
599
  8
0
 62
   253
 10
-235.584304480083
 20
126.6242573465496
 30
0.0
 70
   192
  0
VERTEX
  5
59A
  8
0
 62
   253
 10
0.0
 20
0.0
 30
0.0
 70
   128
 71
     1
 72
    -2
 73
    -3
  0
VERTEX
  5
59B
  8
0
 62
   253
 10
0.0
 20
0.0
 30
0.0
 70
   128
 71
     3
 72
     4
 73
    -1
  0
VERTEX
  5
59C
  8
0
 62
   253
 10
0.0
 20
0.0
 30
0.0
 70
   128
 71
     2
 72
     5
 73
    -3
  0
SEQEND
  5
74E
  8
0
 62
   253
  0
POLYLINE
  5
190
  8
0
 62
   253
 66
     1
 10
0.0
 20
0.0
 30
0.0
 70
    64
 71
     5
 72
     3
  0
VERTEX
  5
59D
  8
0
 62
   253
 10
-235.5699353496805
 20
126.6137562038433
 30
0.0
 70
   192
  0
VERTEX
  5
59E
  8
0
 62
   253
 10
-235.555566219278
 20
126.603255061137
 30
0.0
 70
   192
  0
VERTEX
  5
59F
  8
0
 62
   253
 10
-235.5699353496805
 20
126.0100613734255
 30
0.0
 70
   192
  0
VERTEX
  5
5A0
  8
0
 62
   253
 10
-235.5843044800834
 20
126.6242573465496
 30
0.0
 70
   192
  0
VERTEX
  5
5A1
  8
0
 62
   253
 10
-235.555566219278
 20
125.3958654003014
 30
0.0
 70
   192
  0
VERTEX
  5
5A2
  8
0
 62
   253
 10
0.0
 20
0.0
 30
0.0
 70
   128
 71
     1
 72
    -2
 73
    -3
  0
VERTEX
  5
5A3
  8
0
 62
   253
 10
0.0
 20
0.0
 30
0.0
 70
   128
 71
     3
 72
     4
 73
    -1
  0
VERTEX
  5
5A4
  8
0
 62
   253
 10
0.0
 20
0.0
 30
0.0
 70
   128
 71
     2
 72
     5
 73
    -3
  0
SEQEND
  5
74F
  8
0
 62
   253
  0
POLYLINE
  5
191
  8
0
 62
   253
 66
     1
 10
0.0
 20
0.0
 30
0.0
 70
    64
 71
     5
 72
     3
  0
VERTEX
  5
5A5
  8
0
 62
   253
 10
-235.543522466806
 20
125.4055627436673
 30
0.0
 70
   192
  0
VERTEX
  5
5A6
  8
0
 62
   253
 10
-235.5555662192778
 20
125.3958654003012
 30
0.0
 70
   192
  0
VERTEX
  5
5A7
  8
0
 62
   253
 10
-235.543522466806
 20
126.0092575740852
 30
0.0
 70
   192
  0
VERTEX
  5
5A8
  8
0
 62
   253
 10
-235.531478714334
 20
125.4152600870334
 30
0.0
 70
   192
  0
VERTEX
  5
5A9
  8
0
 62
   253
 10
-235.555566219278
 20
126.603255061137
 30
0.0
 70
   192
  0
VERTEX
  5
5AA
  8
0
 62
   253
 10
0.0
 20
0.0
 30
0.0
 70
   128
 71
     1
 72
    -2
 73
    -3
  0
VERTEX
  5
5AB
  8
0
 62
   253
 10
0.0
 20
0.0
 30
0.0
 70
   128
 71
     3
 72
     4
 73
    -1
  0
VERTEX
  5
5AC
  8
0
 62
   253
 10
0.0
 20
0.0
 30
0.0
 70
   128
 71
     2
 72
     5
 73
    -3
  0
SEQEND
  5
750
  8
0
 62
   253
  0
POLYLINE
  5
192
  8
0
 62
   253
 66
     1
 10
0.0
 20
0.0
 30
0.0
 70
    64
 71
     5
 72
     3
  0
VERTEX
  5
5AD
  8
0
 62
   253
 10
-235.543522466806
 20
126.5944533341096
 30
0.0
 70
   192
  0
VERTEX
  5
5AE
  8
0
 62
   253
 10
-235.531478714334
 20
126.5856516070822
 30
0.0
 70
   192
  0
VERTEX
  5
5AF
  8
0
 62
   253
 10
-235.543522466806
 20
126.0092575740852
 30
0.0
 70
   192
  0
VERTEX
  5
5B0
  8
0
 62
   253
 10
-235.5555662192776
 20
126.603255061137
 30
0.0
 70
   192
  0
VERTEX
  5
5B1
  8
0
 62
   253
 10
-235.531478714334
 20
125.4152600870334
 30
0.0
 70
   192
  0
VERTEX
  5
5B2
  8
0
 62
   253
 10
0.0
 20
0.0
 30
0.0
 70
   128
 71
     1
 72
    -2
 73
    -3
  0
VERTEX
  5
5B3
  8
0
 62
   253
 10
0.0
 20
0.0
 30
0.0
 70
   128
 71
     3
 72
     4
 73
    -1
  0
VERTEX
  5
5B4
  8
0
 62
   253
 10
0.0
 20
0.0
 30
0.0
 70
   128
 71
     2
 72
     5
 73
    -3
  0
SEQEND
  5
751
  8
0
 62
   253
  0
POLYLINE
  5
193
  8
0
 62
   253
 66
     1
 10
0.0
 20
0.0
 30
0.0
 70
    64
 71
     5
 72
     3
  0
VERTEX
  5
5B5
  8
0
 62
   253
 10
-235.5180411692847
 20
125.4260796790705
 30
0.0
 70
   192
  0
VERTEX
  5
5B6
  8
0
 62
   253
 10
-235.5314787143341
 20
125.4152600870335
 30
0.0
 70
   192
  0
VERTEX
  5
5B7
  8
0
 62
   253
 10
-235.5180411692847
 20
126.0112754390948
 30
0.0
 70
   192
  0
VERTEX
  5
5B8
  8
0
 62
   253
 10
-235.5046036242355
 20
125.4368992711074
 30
0.0
 70
   192
  0
VERTEX
  5
5B9
  8
0
 62
   253
 10
-235.531478714334
 20
126.5856516070822
 30
0.0
 70
   192
  0
VERTEX
  5
5BA
  8
0
 62
   253
 10
0.0
 20
0.0
 30
0.0
 70
   128
 71
     1
 72
    -2
 73
    -3
  0
VERTEX
  5
5BB
  8
0
 62
   253
 10
0.0
 20
0.0
 30
0.0
 70
   128
 71
     3
 72
     4
 73
    -1
  0
VERTEX
  5
5BC
  8
0
 62
   253
 10
0.0
 20
0.0
 30
0.0
 70
   128
 71
     2
 72
     5
 73
    -3
  0
SEQEND
  5
752
  8
0
 62
   253
  0
POLYLINE
  5
194
  8
0
 62
   253
 66
     1
 10
0.0
 20
0.0
 30
0.0
 70
    64
 71
     5
 72
     3
  0
VERTEX
  5
5BD
  8
0
 62
   253
 10
-235.5180411692847
 20
126.5739045656306
 30
0.0
 70
   192
  0
VERTEX
  5
5BE
  8
0
 62
   253
 10
-235.5046036242355
 20
126.562157524179
 30
0.0
 70
   192
  0
VERTEX
  5
5BF
  8
0
 62
   253
 10
-235.5180411692847
 20
126.0112754390948
 30
0.0
 70
   192
  0
VERTEX
  5
5C0
  8
0
 62
   253
 10
-235.5314787143344
 20
126.5856516070822
 30
0.0
 70
   192
  0
VERTEX
  5
5C1
  8
0
 62
   253
 10
-235.5046036242355
 20
125.4368992711074
 30
0.0
 70
   192
  0
VERTEX
  5
5C2
  8
0
 62
   253
 10
0.0
 20
0.0
 30
0.0
 70
   128
 71
     1
 72
    -2
 73
    -3
  0
VERTEX
  5
5C3
  8
0
 62
   253
 10
0.0
 20
0.0
 30
0.0
 70
   128
 71
     3
 72
     4
 73
    -1
  0
VERTEX
  5
5C4
  8
0
 62
   253
 10
0.0
 20
0.0
 30
0.0
 70
   128
 71
     2
 72
     5
 73
    -3
  0
SEQEND
  5
753
  8
0
 62
   253
  0
POLYLINE
  5
195
  8
0
 62
   253
 66
     1
 10
0.0
 20
0.0
 30
0.0
 70
    64
 71
     5
 72
     3
  0
VERTEX
  5
5C5
  8
0
 62
   253
 10
-235.4934111513527
 20
125.447647548283
 30
0.0
 70
   192
  0
VERTEX
  5
5C6
  8
0
 62
   253
 10
-235.5046036242355
 20
125.4368992711074
 30
0.0
 70
   192
  0
VERTEX
  5
5C7
  8
0
 62
   253
 10
-235.4934111513527
 20
126.0102766748188
 30
0.0
 70
   192
  0
VERTEX
  5
5C8
  8
0
 62
   253
 10
-235.48221867847
 20
125.4583958254586
 30
0.0
 70
   192
  0
VERTEX
  5
5C9
  8
0
 62
   253
 10
-235.5046036242355
 20
126.562157524179
 30
0.0
 70
   192
  0
VERTEX
  5
5CA
  8
0
 62
   253
 10
0.0
 20
0.0
 30
0.0
 70
   128
 71
     1
 72
    -2
 73
    -3
  0
VERTEX
  5
5CB
  8
0
 62
   253
 10
0.0
 20
0.0
 30
0.0
 70
   128
 71
     3
 72
     4
 73
    -1
  0
VERTEX
  5
5CC
  8
0
 62
   253
 10
0.0
 20
0.0
 30
0.0
 70
   128
 71
     2
 72
     5
 73
    -3
  0
SEQEND
  5
754
  8
0
 62
   253
  0
POLYLINE
  5
196
  8
0
 62
   253
 66
     1
 10
0.0
 20
0.0
 30
0.0
 70
    64
 71
     5
 72
     3
  0
VERTEX
  5
5CD
  8
0
 62
   253
 10
-235.4934111513527
 20
126.552373114719
 30
0.0
 70
   192
  0
VERTEX
  5
5CE
  8
0
 62
   253
 10
-235.48221867847
 20
126.542588705259
 30
0.0
 70
   192
  0
VERTEX
  5
5CF
  8
0
 62
   253
 10
-235.4934111513527
 20
126.0102766748188
 30
0.0
 70
   192
  0
VERTEX
  5
5D0
  8
0
 62
   253
 10
-235.5046036242354
 20
126.562157524179
 30
0.0
 70
   192
  0
VERTEX
  5
5D1
  8
0
 62
   253
 10
-235.48221867847
 20
125.4583958254586
 30
0.0
 70
   192
  0
VERTEX
  5
5D2
  8
0
 62
   253
 10
0.0
 20
0.0
 30
0.0
 70
   128
 71
     1
 72
    -2
 73
    -3
  0
VERTEX
  5
5D3
  8
0
 62
   253
 10
0.0
 20
0.0
 30
0.0
 70
   128
 71
     3
 72
     4
 73
    -1
  0
VERTEX
  5
5D4
  8
0
 62
   253
 10
0.0
 20
0.0
 30
0.0
 70
   128
 71
     2
 72
     5
 73
    -3
  0
SEQEND
  5
755
  8
0
 62
   253
  0
POLYLINE
  5
197
  8
0
 62
   253
 66
     1
 10
0.0
 20
0.0
 30
0.0
 70
    64
 71
     5
 72
     3
  0
VERTEX
  5
5D5
  8
0
 62
   253
 10
-235.4698149866055
 20
125.4703072519643
 30
0.0
 70
   192
  0
VERTEX
  5
5D6
  8
0
 62
   253
 10
-235.48221867847
 20
125.4583958254586
 30
0.0
 70
   192
  0
VERTEX
  5
5D7
  8
0
 62
   253
 10
-235.4698149866055
 20
126.0124036918645
 30
0.0
 70
   192
  0
VERTEX
  5
5D8
  8
0
 62
   253
 10
-235.457411294741
 20
125.48221867847
 30
0.0
 70
   192
  0
VERTEX
  5
5D9
  8
0
 62
   253
 10
-235.48221867847
 20
126.542588705259
 30
0.0
 70
   192
  0
VERTEX
  5
5DA
  8
0
 62
   253
 10
0.0
 20
0.0
 30
0.0
 70
   128
 71
     1
 72
    -2
 73
    -3
  0
VERTEX
  5
5DB
  8
0
 62
   253
 10
0.0
 20
0.0
 30
0.0
 70
   128
 71
     3
 72
     4
 73
    -1
  0
VERTEX
  5
5DC
  8
0
 62
   253
 10
0.0
 20
0.0
 30
0.0
 70
   128
 71
     2
 72
     5
 73
    -3
  0
SEQEND
  5
756
  8
0
 62
   253
  0
POLYLINE
  5
198
  8
0
 62
   253
 66
     1
 10
0.0
 20
0.0
 30
0.0
 70
    64
 71
     5
 72
     3
  0
VERTEX
  5
5DD
  8
0
 62
   253
 10
-235.4698149866055
 20
126.5296724041094
 30
0.0
 70
   192
  0
VERTEX
  5
5DE
  8
0
 62
   253
 10
-235.457411294741
 20
126.5167561029598
 30
0.0
 70
   192
  0
VERTEX
  5
5DF
  8
0
 62
   253
 10
-235.4698149866055
 20
126.0124036918645
 30
0.0
 70
   192
  0
VERTEX
  5
5E0
  8
0
 62
   253
 10
-235.4822186784699
 20
126.542588705259
 30
0.0
 70
   192
  0
VERTEX
  5
5E1
  8
0
 62
   253
 10
-235.457411294741
 20
125.48221867847
 30
0.0
 70
   192
  0
VERTEX
  5
5E2
  8
0
 62
   253
 10
0.0
 20
0.0
 30
0.0
 70
   128
 71
     1
 72
    -2
 73
    -3
  0
VERTEX
  5
5E3
  8
0
 62
   253
 10
0.0
 20
0.0
 30
0.0
 70
   128
 71
     3
 72
     4
 73
    -1
  0
VERTEX
  5
5E4
  8
0
 62
   253
 10
0.0
 20
0.0
 30
0.0
 70
   128
 71
     2
 72
     5
 73
    -3
  0
SEQEND
  5
757
  8
0
 62
   253
  0
POLYLINE
  5
199
  8
0
 62
   253
 66
     1
 10
0.0
 20
0.0
 30
0.0
 70
    64
 71
     5
 72
     3
  0
VERTEX
  5
5E5
  8
0
 62
   253
 10
-235.4471552829243
 20
125.4939506214772
 30
0.0
 70
   192
  0
VERTEX
  5
5E6
  8
0
 62
   253
 10
-235.4574112947409
 20
125.4822186784699
 30
0.0
 70
   192
  0
VERTEX
  5
5E7
  8
0
 62
   253
 10
-235.4471552829243
 20
126.0112193337221
 30
0.0
 70
   192
  0
VERTEX
  5
5E8
  8
0
 62
   253
 10
-235.4368992711075
 20
125.5056825644844
 30
0.0
 70
   192
  0
VERTEX
  5
5E9
  8
0
 62
   253
 10
-235.457411294741
 20
126.5167561029598
 30
0.0
 70
   192
  0
VERTEX
  5
5EA
  8
0
 62
   253
 10
0.0
 20
0.0
 30
0.0
 70
   128
 71
     1
 72
    -2
 73
    -3
  0
VERTEX
  5
5EB
  8
0
 62
   253
 10
0.0
 20
0.0
 30
0.0
 70
   128
 71
     3
 72
     4
 73
    -1
  0
VERTEX
  5
5EC
  8
0
 62
   253
 10
0.0
 20
0.0
 30
0.0
 70
   128
 71
     2
 72
     5
 73
    -3
  0
SEQEND
  5
758
  8
0
 62
   253
  0
POLYLINE
  5
19A
  8
0
 62
   253
 66
     1
 10
0.0
 20
0.0
 30
0.0
 70
    64
 71
     5
 72
     3
  0
VERTEX
  5
5ED
  8
0
 62
   253
 10
-235.4471552829243
 20
126.5060762393622
 30
0.0
 70
   192
  0
VERTEX
  5
5EE
  8
0
 62
   253
 10
-235.4368992711075
 20
126.4953963757646
 30
0.0
 70
   192
  0
VERTEX
  5
5EF
  8
0
 62
   253
 10
-235.4471552829243
 20
126.0112193337221
 30
0.0
 70
   192
  0
VERTEX
  5
5F0
  8
0
 62
   253
 10
-235.457411294741
 20
126.5167561029598
 30
0.0
 70
   192
  0
VERTEX
  5
5F1
  8
0
 62
   253
 10
-235.4368992711075
 20
125.5056825644844
 30
0.0
 70
   192
  0
VERTEX
  5
5F2
  8
0
 62
   253
 10
0.0
 20
0.0
 30
0.0
 70
   128
 71
     1
 72
    -2
 73
    -3
  0
VERTEX
  5
5F3
  8
0
 62
   253
 10
0.0
 20
0.0
 30
0.0
 70
   128
 71
     3
 72
     4
 73
    -1
  0
VERTEX
  5
5F4
  8
0
 62
   253
 10
0.0
 20
0.0
 30
0.0
 70
   128
 71
     2
 72
     5
 73
    -3
  0
SEQEND
  5
759
  8
0
 62
   253
  0
POLYLINE
  5
19B
  8
0
 62
   253
 66
     1
 10
0.0
 20
0.0
 30
0.0
 70
    64
 71
     5
 72
     3
  0
VERTEX
  5
5F5
  8
0
 62
   253
 10
-235.4256238320125
 20
125.5185806394093
 30
0.0
 70
   192
  0
VERTEX
  5
5F6
  8
0
 62
   253
 10
-235.4368992711074
 20
125.5056825644843
 30
0.0
 70
   192
  0
VERTEX
  5
5F7
  8
0
 62
   253
 10
-235.4256238320125
 20
126.0134375450494
 30
0.0
 70
   192
  0
VERTEX
  5
5F8
  8
0
 62
   253
 10
-235.4143483929175
 20
125.5314787143342
 30
0.0
 70
   192
  0
VERTEX
  5
5F9
  8
0
 62
   253
 10
-235.4368992711075
 20
126.4953963757646
 30
0.0
 70
   192
  0
VERTEX
  5
5FA
  8
0
 62
   253
 10
0.0
 20
0.0
 30
0.0
 70
   128
 71
     1
 72
    -2
 73
    -3
  0
VERTEX
  5
5FB
  8
0
 62
   253
 10
0.0
 20
0.0
 30
0.0
 70
   128
 71
     3
 72
     4
 73
    -1
  0
VERTEX
  5
5FC
  8
0
 62
   253
 10
0.0
 20
0.0
 30
0.0
 70
   128
 71
     2
 72
     5
 73
    -3
  0
SEQEND
  5
75A
  8
0
 62
   253
  0
POLYLINE
  5
19C
  8
0
 62
   253
 66
     1
 10
0.0
 20
0.0
 30
0.0
 70
    64
 71
     5
 72
     3
  0
VERTEX
  5
5FD
  8
0
 62
   253
 10
-235.4256238320125
 20
126.4813926850274
 30
0.0
 70
   192
  0
VERTEX
  5
5FE
  8
0
 62
   253
 10
-235.4143483929175
 20
126.4673889942902
 30
0.0
 70
   192
  0
VERTEX
  5
5FF
  8
0
 62
   253
 10
-235.4256238320125
 20
126.0134375450494
 30
0.0
 70
   192
  0
VERTEX
  5
600
  8
0
 62
   253
 10
-235.4368992711073
 20
126.4953963757646
 30
0.0
 70
   192
  0
VERTEX
  5
601
  8
0
 62
   253
 10
-235.4143483929175
 20
125.5314787143342
 30
0.0
 70
   192
  0
VERTEX
  5
602
  8
0
 62
   253
 10
0.0
 20
0.0
 30
0.0
 70
   128
 71
     1
 72
    -2
 73
    -3
  0
VERTEX
  5
603
  8
0
 62
   253
 10
0.0
 20
0.0
 30
0.0
 70
   128
 71
     3
 72
     4
 73
    -1
  0
VERTEX
  5
604
  8
0
 62
   253
 10
0.0
 20
0.0
 30
0.0
 70
   128
 71
     2
 72
     5
 73
    -3
  0
SEQEND
  5
75B
  8
0
 62
   253
  0
POLYLINE
  5
19D
  8
0
 62
   253
 66
     1
 10
0.0
 20
0.0
 30
0.0
 70
    64
 71
     5
 72
     3
  0
VERTEX
  5
605
  8
0
 62
   253
 10
-235.4051068966095
 20
125.5441242205693
 30
0.0
 70
   192
  0
VERTEX
  5
606
  8
0
 62
   253
 10
-235.4143483929177
 20
125.5314787143343
 30
0.0
 70
   192
  0
VERTEX
  5
607
  8
0
 62
   253
 10
-235.4051068966095
 20
126.0120793605473
 30
0.0
 70
   192
  0
VERTEX
  5
608
  8
0
 62
   253
 10
-235.3958654003015
 20
125.5567697268044
 30
0.0
 70
   192
  0
VERTEX
  5
609
  8
0
 62
   253
 10
-235.4143483929175
 20
126.4673889942902
 30
0.0
 70
   192
  0
VERTEX
  5
60A
  8
0
 62
   253
 10
0.0
 20
0.0
 30
0.0
 70
   128
 71
     1
 72
    -2
 73
    -3
  0
VERTEX
  5
60B
  8
0
 62
   253
 10
0.0
 20
0.0
 30
0.0
 70
   128
 71
     3
 72
     4
 73
    -1
  0
VERTEX
  5
60C
  8
0
 62
   253
 10
0.0
 20
0.0
 30
0.0
 70
   128
 71
     2
 72
     5
 73
    -3
  0
SEQEND
  5
75C
  8
0
 62
   253
  0
POLYLINE
  5
19E
  8
0
 62
   253
 66
     1
 10
0.0
 20
0.0
 30
0.0
 70
    64
 71
     5
 72
     3
  0
VERTEX
  5
60D
  8
0
 62
   253
 10
-235.4051068966095
 20
126.4559113875062
 30
0.0
 70
   192
  0
VERTEX
  5
60E
  8
0
 62
   253
 10
-235.3958654003015
 20
126.4444337807222
 30
0.0
 70
   192
  0
VERTEX
  5
60F
  8
0
 62
   253
 10
-235.4051068966095
 20
126.0120793605473
 30
0.0
 70
   192
  0
VERTEX
  5
610
  8
0
 62
   253
 10
-235.4143483929178
 20
126.4673889942902
 30
0.0
 70
   192
  0
VERTEX
  5
611
  8
0
 62
   253
 10
-235.3958654003015
 20
125.5567697268044
 30
0.0
 70
   192
  0
VERTEX
  5
612
  8
0
 62
   253
 10
0.0
 20
0.0
 30
0.0
 70
   128
 71
     1
 72
    -2
 73
    -3
  0
VERTEX
  5
613
  8
0
 62
   253
 10
0.0
 20
0.0
 30
0.0
 70
   128
 71
     3
 72
     4
 73
    -1
  0
VERTEX
  5
614
  8
0
 62
   253
 10
0.0
 20
0.0
 30
0.0
 70
   128
 71
     2
 72
     5
 73
    -3
  0
SEQEND
  5
75D
  8
0
 62
   253
  0
POLYLINE
  5
19F
  8
0
 62
   253
 66
     1
 10
0.0
 20
0.0
 30
0.0
 70
    64
 71
     5
 72
     3
  0
VERTEX
  5
615
  8
0
 62
   253
 10
-235.385804026876
 20
125.5705371034438
 30
0.0
 70
   192
  0
VERTEX
  5
616
  8
0
 62
   253
 10
-235.3958654003015
 20
125.5567697268044
 30
0.0
 70
   192
  0
VERTEX
  5
617
  8
0
 62
   253
 10
-235.385804026876
 20
126.0143691304027
 30
0.0
 70
   192
  0
VERTEX
  5
618
  8
0
 62
   253
 10
-235.3757426534505
 20
125.5843044800832
 30
0.0
 70
   192
  0
VERTEX
  5
619
  8
0
 62
   253
 10
-235.3958654003015
 20
126.4444337807222
 30
0.0
 70
   192
  0
VERTEX
  5
61A
  8
0
 62
   253
 10
0.0
 20
0.0
 30
0.0
 70
   128
 71
     1
 72
    -2
 73
    -3
  0
VERTEX
  5
61B
  8
0
 62
   253
 10
0.0
 20
0.0
 30
0.0
 70
   128
 71
     3
 72
     4
 73
    -1
  0
VERTEX
  5
61C
  8
0
 62
   253
 10
0.0
 20
0.0
 30
0.0
 70
   128
 71
     2
 72
     5
 73
    -3
  0
SEQEND
  5
75E
  8
0
 62
   253
  0
POLYLINE
  5
1A0
  8
0
 62
   253
 66
     1
 10
0.0
 20
0.0
 30
0.0
 70
    64
 71
     5
 72
     3
  0
VERTEX
  5
61D
  8
0
 62
   253
 10
-235.385804026876
 20
126.4294270632514
 30
0.0
 70
   192
  0
VERTEX
  5
61E
  8
0
 62
   253
 10
-235.3757426534505
 20
126.4144203457806
 30
0.0
 70
   192
  0
VERTEX
  5
61F
  8
0
 62
   253
 10
-235.385804026876
 20
126.0143691304027
 30
0.0
 70
   192
  0
VERTEX
  5
620
  8
0
 62
   253
 10
-235.3958654003015
 20
126.4444337807222
 30
0.0
 70
   192
  0
VERTEX
  5
621
  8
0
 62
   253
 10
-235.3757426534505
 20
125.5843044800832
 30
0.0
 70
   192
  0
VERTEX
  5
622
  8
0
 62
   253
 10
0.0
 20
0.0
 30
0.0
 70
   128
 71
     1
 72
    -2
 73
    -3
  0
VERTEX
  5
623
  8
0
 62
   253
 10
0.0
 20
0.0
 30
0.0
 70
   128
 71
     3
 72
     4
 73
    -1
  0
VERTEX
  5
624
  8
0
 62
   253
 10
0.0
 20
0.0
 30
0.0
 70
   128
 71
     2
 72
     5
 73
    -3
  0
SEQEND
  5
75F
  8
0
 62
   253
  0
POLYLINE
  5
1A1
  8
0
 62
   253
 66
     1
 10
0.0
 20
0.0
 30
0.0
 70
    64
 71
     5
 72
     3
  0
VERTEX
  5
625
  8
0
 62
   253
 10
-235.367586006018
 20
125.5977940522071
 30
0.0
 70
   192
  0
VERTEX
  5
626
  8
0
 62
   253
 10
-235.3757426534505
 20
125.5843044800832
 30
0.0
 70
   192
  0
VERTEX
  5
627
  8
0
 62
   253
 10
-235.367586006018
 20
126.0128519850558
 30
0.0
 70
   192
  0
VERTEX
  5
628
  8
0
 62
   253
 10
-235.3594293585855
 20
125.611283624331
 30
0.0
 70
   192
  0
VERTEX
  5
629
  8
0
 62
   253
 10
-235.3757426534505
 20
126.4144203457806
 30
0.0
 70
   192
  0
VERTEX
  5
62A
  8
0
 62
   253
 10
0.0
 20
0.0
 30
0.0
 70
   128
 71
     1
 72
    -2
 73
    -3
  0
VERTEX
  5
62B
  8
0
 62
   253
 10
0.0
 20
0.0
 30
0.0
 70
   128
 71
     3
 72
     4
 73
    -1
  0
VERTEX
  5
62C
  8
0
 62
   253
 10
0.0
 20
0.0
 30
0.0
 70
   128
 71
     2
 72
     5
 73
    -3
  0
SEQEND
  5
760
  8
0
 62
   253
  0
POLYLINE
  5
1A2
  8
0
 62
   253
 66
     1
 10
0.0
 20
0.0
 30
0.0
 70
    64
 71
     5
 72
     3
  0
VERTEX
  5
62D
  8
0
 62
   253
 10
-235.367586006018
 20
126.4022545610163
 30
0.0
 70
   192
  0
VERTEX
  5
62E
  8
0
 62
   253
 10
-235.3594293585855
 20
126.390088776252
 30
0.0
 70
   192
  0
VERTEX
  5
62F
  8
0
 62
   253
 10
-235.367586006018
 20
126.0128519850558
 30
0.0
 70
   192
  0
VERTEX
  5
630
  8
0
 62
   253
 10
-235.3757426534504
 20
126.4144203457806
 30
0.0
 70
   192
  0
VERTEX
  5
631
  8
0
 62
   253
 10
-235.3594293585855
 20
125.611283624331
 30
0.0
 70
   192
  0
VERTEX
  5
632
  8
0
 62
   253
 10
0.0
 20
0.0
 30
0.0
 70
   128
 71
     1
 72
    -2
 73
    -3
  0
VERTEX
  5
633
  8
0
 62
   253
 10
0.0
 20
0.0
 30
0.0
 70
   128
 71
     3
 72
     4
 73
    -1
  0
VERTEX
  5
634
  8
0
 62
   253
 10
0.0
 20
0.0
 30
0.0
 70
   128
 71
     2
 72
     5
 73
    -3
  0
SEQEND
  5
761
  8
0
 62
   253
  0
POLYLINE
  5
1A3
  8
0
 62
   253
 66
     1
 10
0.0
 20
0.0
 30
0.0
 70
    64
 71
     5
 72
     3
  0
VERTEX
  5
635
  8
0
 62
   253
 10
-235.3506586239565
 20
125.6257887820368
 30
0.0
 70
   192
  0
VERTEX
  5
636
  8
0
 62
   253
 10
-235.3594293585856
 20
125.6112836243311
 30
0.0
 70
   192
  0
VERTEX
  5
637
  8
0
 62
   253
 10
-235.3506586239565
 20
126.0151913579973
 30
0.0
 70
   192
  0
VERTEX
  5
638
  8
0
 62
   253
 10
-235.3418878893275
 20
125.6402939397426
 30
0.0
 70
   192
  0
VERTEX
  5
639
  8
0
 62
   253
 10
-235.3594293585855
 20
126.390088776252
 30
0.0
 70
   192
  0
VERTEX
  5
63A
  8
0
 62
   253
 10
0.0
 20
0.0
 30
0.0
 70
   128
 71
     1
 72
    -2
 73
    -3
  0
VERTEX
  5
63B
  8
0
 62
   253
 10
0.0
 20
0.0
 30
0.0
 70
   128
 71
     3
 72
     4
 73
    -1
  0
VERTEX
  5
63C
  8
0
 62
   253
 10
0.0
 20
0.0
 30
0.0
 70
   128
 71
     2
 72
     5
 73
    -3
  0
SEQEND
  5
762
  8
0
 62
   253
  0
POLYLINE
  5
1A4
  8
0
 62
   253
 66
     1
 10
0.0
 20
0.0
 30
0.0
 70
    64
 71
     5
 72
     3
  0
VERTEX
  5
63D
  8
0
 62
   253
 10
-235.3506586239565
 20
126.3741613448246
 30
0.0
 70
   192
  0
VERTEX
  5
63E
  8
0
 62
   253
 10
-235.3418878893275
 20
126.3582339133972
 30
0.0
 70
   192
  0
VERTEX
  5
63F
  8
0
 62
   253
 10
-235.3506586239565
 20
126.0151913579973
 30
0.0
 70
   192
  0
VERTEX
  5
640
  8
0
 62
   253
 10
-235.3594293585857
 20
126.390088776252
 30
0.0
 70
   192
  0
VERTEX
  5
641
  8
0
 62
   253
 10
-235.3418878893275
 20
125.6402939397426
 30
0.0
 70
   192
  0
VERTEX
  5
642
  8
0
 62
   253
 10
0.0
 20
0.0
 30
0.0
 70
   128
 71
     1
 72
    -2
 73
    -3
  0
VERTEX
  5
643
  8
0
 62
   253
 10
0.0
 20
0.0
 30
0.0
 70
   128
 71
     3
 72
     4
 73
    -1
  0
VERTEX
  5
644
  8
0
 62
   253
 10
0.0
 20
0.0
 30
0.0
 70
   128
 71
     2
 72
     5
 73
    -3
  0
SEQEND
  5
763
  8
0
 62
   253
  0
POLYLINE
  5
1A5
  8
0
 62
   253
 66
     1
 10
0.0
 20
0.0
 30
0.0
 70
    64
 71
     5
 72
     3
  0
VERTEX
  5
645
  8
0
 62
   253
 10
-235.3348781677827
 20
125.6545648366098
 30
0.0
 70
   192
  0
VERTEX
  5
646
  8
0
 62
   253
 10
-235.3418878893274
 20
125.6402939397426
 30
0.0
 70
   192
  0
VERTEX
  5
647
  8
0
 62
   253
 10
-235.3348781677827
 20
126.0135348234371
 30
0.0
 70
   192
  0
VERTEX
  5
648
  8
0
 62
   253
 10
-235.327868446238
 20
125.668835733477
 30
0.0
 70
   192
  0
VERTEX
  5
649
  8
0
 62
   253
 10
-235.3418878893275
 20
126.3582339133972
 30
0.0
 70
   192
  0
VERTEX
  5
64A
  8
0
 62
   253
 10
0.0
 20
0.0
 30
0.0
 70
   128
 71
     1
 72
    -2
 73
    -3
  0
VERTEX
  5
64B
  8
0
 62
   253
 10
0.0
 20
0.0
 30
0.0
 70
   128
 71
     3
 72
     4
 73
    -1
  0
VERTEX
  5
64C
  8
0
 62
   253
 10
0.0
 20
0.0
 30
0.0
 70
   128
 71
     2
 72
     5
 73
    -3
  0
SEQEND
  5
764
  8
0
 62
   253
  0
POLYLINE
  5
1A6
  8
0
 62
   253
 66
     1
 10
0.0
 20
0.0
 30
0.0
 70
    64
 71
     5
 72
     3
  0
VERTEX
  5
64D
  8
0
 62
   253
 10
-235.3348781677827
 20
126.3455044370249
 30
0.0
 70
   192
  0
VERTEX
  5
64E
  8
0
 62
   253
 10
-235.327868446238
 20
126.3327749606526
 30
0.0
 70
   192
  0
VERTEX
  5
64F
  8
0
 62
   253
 10
-235.3348781677827
 20
126.0135348234371
 30
0.0
 70
   192
  0
VERTEX
  5
650
  8
0
 62
   253
 10
-235.3418878893274
 20
126.3582339133972
 30
0.0
 70
   192
  0
VERTEX
  5
651
  8
0
 62
   253
 10
-235.327868446238
 20
125.668835733477
 30
0.0
 70
   192
  0
VERTEX
  5
652
  8
0
 62
   253
 10
0.0
 20
0.0
 30
0.0
 70
   128
 71
     1
 72
    -2
 73
    -3
  0
VERTEX
  5
653
  8
0
 62
   253
 10
0.0
 20
0.0
 30
0.0
 70
   128
 71
     3
 72
     4
 73
    -1
  0
VERTEX
  5
654
  8
0
 62
   253
 10
0.0
 20
0.0
 30
0.0
 70
   128
 71
     2
 72
     5
 73
    -3
  0
SEQEND
  5
765
  8
0
 62
   253
  0
POLYLINE
  5
1A7
  8
0
 62
   253
 66
     1
 10
0.0
 20
0.0
 30
0.0
 70
    64
 71
     5
 72
     3
  0
VERTEX
  5
655
  8
0
 62
   253
 10
-235.3204551009918
 20
125.683928356597
 30
0.0
 70
   192
  0
VERTEX
  5
656
  8
0
 62
   253
 10
-235.3278684462381
 20
125.6688357334771
 30
0.0
 70
   192
  0
VERTEX
  5
657
  8
0
 62
   253
 10
-235.3204551009918
 20
126.0158979701848
 30
0.0
 70
   192
  0
VERTEX
  5
658
  8
0
 62
   253
 10
-235.3130417557455
 20
125.699020979717
 30
0.0
 70
   192
  0
VERTEX
  5
659
  8
0
 62
   253
 10
-235.327868446238
 20
126.3327749606526
 30
0.0
 70
   192
  0
VERTEX
  5
65A
  8
0
 62
   253
 10
0.0
 20
0.0
 30
0.0
 70
   128
 71
     1
 72
    -2
 73
    -3
  0
VERTEX
  5
65B
  8
0
 62
   253
 10
0.0
 20
0.0
 30
0.0
 70
   128
 71
     3
 72
     4
 73
    -1
  0
VERTEX
  5
65C
  8
0
 62
   253
 10
0.0
 20
0.0
 30
0.0
 70
   128
 71
     2
 72
     5
 73
    -3
  0
SEQEND
  5
766
  8
0
 62
   253
  0
POLYLINE
  5
1A8
  8
0
 62
   253
 66
     1
 10
0.0
 20
0.0
 30
0.0
 70
    64
 71
     5
 72
     3
  0
VERTEX
  5
65D
  8
0
 62
   253
 10
-235.3204551009918
 20
126.3159985395401
 30
0.0
 70
   192
  0
VERTEX
  5
65E
  8
0
 62
   253
 10
-235.3130417557455
 20
126.2992221184276
 30
0.0
 70
   192
  0
VERTEX
  5
65F
  8
0
 62
   253
 10
-235.3204551009918
 20
126.0158979701848
 30
0.0
 70
   192
  0
VERTEX
  5
660
  8
0
 62
   253
 10
-235.3278684462381
 20
126.3327749606526
 30
0.0
 70
   192
  0
VERTEX
  5
661
  8
0
 62
   253
 10
-235.3130417557455
 20
125.699020979717
 30
0.0
 70
   192
  0
VERTEX
  5
662
  8
0
 62
   253
 10
0.0
 20
0.0
 30
0.0
 70
   128
 71
     1
 72
    -2
 73
    -3
  0
VERTEX
  5
663
  8
0
 62
   253
 10
0.0
 20
0.0
 30
0.0
 70
   128
 71
     3
 72
     4
 73
    -1
  0
VERTEX
  5
664
  8
0
 62
   253
 10
0.0
 20
0.0
 30
0.0
 70
   128
 71
     2
 72
     5
 73
    -3
  0
SEQEND
  5
767
  8
0
 62
   253
  0
POLYLINE
  5
1A9
  8
0
 62
   253
 66
     1
 10
0.0
 20
0.0
 30
0.0
 70
    64
 71
     5
 72
     3
  0
VERTEX
  5
665
  8
0
 62
   253
 10
-235.307232308302
 20
125.7140298484197
 30
0.0
 70
   192
  0
VERTEX
  5
666
  8
0
 62
   253
 10
-235.3130417557453
 20
125.6990209797169
 30
0.0
 70
   192
  0
VERTEX
  5
667
  8
0
 62
   253
 10
-235.307232308302
 20
126.014130417775
 30
0.0
 70
   192
  0
VERTEX
  5
668
  8
0
 62
   253
 10
-235.3014228608585
 20
125.7290387171224
 30
0.0
 70
   192
  0
VERTEX
  5
669
  8
0
 62
   253
 10
-235.3130417557455
 20
126.2992221184276
 30
0.0
 70
   192
  0
VERTEX
  5
66A
  8
0
 62
   253
 10
0.0
 20
0.0
 30
0.0
 70
   128
 71
     1
 72
    -2
 73
    -3
  0
VERTEX
  5
66B
  8
0
 62
   253
 10
0.0
 20
0.0
 30
0.0
 70
   128
 71
     3
 72
     4
 73
    -1
  0
VERTEX
  5
66C
  8
0
 62
   253
 10
0.0
 20
0.0
 30
0.0
 70
   128
 71
     2
 72
     5
 73
    -3
  0
SEQEND
  5
768
  8
0
 62
   253
  0
POLYLINE
  5
1AA
  8
0
 62
   253
 66
     1
 10
0.0
 20
0.0
 30
0.0
 70
    64
 71
     5
 72
     3
  0
VERTEX
  5
66D
  8
0
 62
   253
 10
-235.307232308302
 20
126.2860753225475
 30
0.0
 70
   192
  0
VERTEX
  5
66E
  8
0
 62
   253
 10
-235.3014228608585
 20
126.2729285266674
 30
0.0
 70
   192
  0
VERTEX
  5
66F
  8
0
 62
   253
 10
-235.307232308302
 20
126.014130417775
 30
0.0
 70
   192
  0
VERTEX
  5
670
  8
0
 62
   253
 10
-235.3130417557453
 20
126.2992221184276
 30
0.0
 70
   192
  0
VERTEX
  5
671
  8
0
 62
   253
 10
-235.3014228608585
 20
125.7290387171224
 30
0.0
 70
   192
  0
VERTEX
  5
672
  8
0
 62
   253
 10
0.0
 20
0.0
 30
0.0
 70
   128
 71
     1
 72
    -2
 73
    -3
  0
VERTEX
  5
673
  8
0
 62
   253
 10
0.0
 20
0.0
 30
0.0
 70
   128
 71
     3
 72
     4
 73
    -1
  0
VERTEX
  5
674
  8
0
 62
   253
 10
0.0
 20
0.0
 30
0.0
 70
   128
 71
     2
 72
     5
 73
    -3
  0
SEQEND
  5
769
  8
0
 62
   253
  0
POLYLINE
  5
1AB
  8
0
 62
   253
 66
     1
 10
0.0
 20
0.0
 30
0.0
 70
    64
 71
     5
 72
     3
  0
VERTEX
  5
675
  8
0
 62
   253
 10
-235.2954233250288
 20
125.7445386844472
 30
0.0
 70
   192
  0
VERTEX
  5
676
  8
0
 62
   253
 10
-235.3014228608588
 20
125.7290387171225
 30
0.0
 70
   192
  0
VERTEX
  5
677
  8
0
 62
   253
 10
-235.2954233250288
 20
126.0164835892197
 30
0.0
 70
   192
  0
VERTEX
  5
678
  8
0
 62
   253
 10
-235.289423789199
 20
125.760038651772
 30
0.0
 70
   192
  0
VERTEX
  5
679
  8
0
 62
   253
 10
-235.3014228608585
 20
126.2729285266674
 30
0.0
 70
   192
  0
VERTEX
  5
67A
  8
0
 62
   253
 10
0.0
 20
0.0
 30
0.0
 70
   128
 71
     1
 72
    -2
 73
    -3
  0
VERTEX
  5
67B
  8
0
 62
   253
 10
0.0
 20
0.0
 30
0.0
 70
   128
 71
     3
 72
     4
 73
    -1
  0
VERTEX
  5
67C
  8
0
 62
   253
 10
0.0
 20
0.0
 30
0.0
 70
   128
 71
     2
 72
     5
 73
    -3
  0
SEQEND
  5
76A
  8
0
 62
   253
  0
POLYLINE
  5
1AC
  8
0
 62
   253
 66
     1
 10
0.0
 20
0.0
 30
0.0
 70
    64
 71
     5
 72
     3
  0
VERTEX
  5
67D
  8
0
 62
   253
 10
-235.2954233250288
 20
126.2553454458337
 30
0.0
 70
   192
  0
VERTEX
  5
67E
  8
0
 62
   253
 10
-235.289423789199
 20
126.237762365
 30
0.0
 70
   192
  0
VERTEX
  5
67F
  8
0
 62
   253
 10
-235.2954233250288
 20
126.0164835892197
 30
0.0
 70
   192
  0
VERTEX
  5
680
  8
0
 62
   253
 10
-235.3014228608587
 20
126.2729285266674
 30
0.0
 70
   192
  0
VERTEX
  5
681
  8
0
 62
   253
 10
-235.289423789199
 20
125.760038651772
 30
0.0
 70
   192
  0
VERTEX
  5
682
  8
0
 62
   253
 10
0.0
 20
0.0
 30
0.0
 70
   128
 71
     1
 72
    -2
 73
    -3
  0
VERTEX
  5
683
  8
0
 62
   253
 10
0.0
 20
0.0
 30
0.0
 70
   128
 71
     3
 72
     4
 73
    -1
  0
VERTEX
  5
684
  8
0
 62
   253
 10
0.0
 20
0.0
 30
0.0
 70
   128
 71
     2
 72
     5
 73
    -3
  0
SEQEND
  5
76B
  8
0
 62
   253
  0
POLYLINE
  5
1AD
  8
0
 62
   253
 66
     1
 10
0.0
 20
0.0
 30
0.0
 70
    64
 71
     5
 72
     3
  0
VERTEX
  5
685
  8
0
 62
   253
 10
-235.2848588292597
 20
125.7757925871135
 30
0.0
 70
   192
  0
VERTEX
  5
686
  8
0
 62
   253
 10
-235.2894237891989
 20
125.760038651772
 30
0.0
 70
   192
  0
VERTEX
  5
687
  8
0
 62
   253
 10
-235.2848588292597
 20
126.0146544437275
 30
0.0
 70
   192
  0
VERTEX
  5
688
  8
0
 62
   253
 10
-235.2802938693205
 20
125.791546522455
 30
0.0
 70
   192
  0
VERTEX
  5
689
  8
0
 62
   253
 10
-235.289423789199
 20
126.237762365
 30
0.0
 70
   192
  0
VERTEX
  5
68A
  8
0
 62
   253
 10
0.0
 20
0.0
 30
0.0
 70
   128
 71
     1
 72
    -2
 73
    -3
  0
VERTEX
  5
68B
  8
0
 62
   253
 10
0.0
 20
0.0
 30
0.0
 70
   128
 71
     3
 72
     4
 73
    -1
  0
VERTEX
  5
68C
  8
0
 62
   253
 10
0.0
 20
0.0
 30
0.0
 70
   128
 71
     2
 72
     5
 73
    -3
  0
SEQEND
  5
76C
  8
0
 62
   253
  0
POLYLINE
  5
1AE
  8
0
 62
   253
 66
     1
 10
0.0
 20
0.0
 30
0.0
 70
    64
 71
     5
 72
     3
  0
VERTEX
  5
68D
  8
0
 62
   253
 10
-235.2848588292597
 20
126.2243836533979
 30
0.0
 70
   192
  0
VERTEX
  5
68E
  8
0
 62
   253
 10
-235.2802938693205
 20
126.2110049417958
 30
0.0
 70
   192
  0
VERTEX
  5
68F
  8
0
 62
   253
 10
-235.2848588292597
 20
126.0146544437275
 30
0.0
 70
   192
  0
VERTEX
  5
690
  8
0
 62
   253
 10
-235.2894237891989
 20
126.237762365
 30
0.0
 70
   192
  0
VERTEX
  5
691
  8
0
 62
   253
 10
-235.2802938693205
 20
125.791546522455
 30
0.0
 70
   192
  0
VERTEX
  5
692
  8
0
 62
   253
 10
0.0
 20
0.0
 30
0.0
 70
   128
 71
     1
 72
    -2
 73
    -3
  0
VERTEX
  5
693
  8
0
 62
   253
 10
0.0
 20
0.0
 30
0.0
 70
   128
 71
     3
 72
     4
 73
    -1
  0
VERTEX
  5
694
  8
0
 62
   253
 10
0.0
 20
0.0
 30
0.0
 70
   128
 71
     2
 72
     5
 73
    -3
  0
SEQEND
  5
76D
  8
0
 62
   253
  0
POLYLINE
  5
1AF
  8
0
 62
   253
 66
     1
 10
0.0
 20
0.0
 30
0.0
 70
    64
 71
     5
 72
     3
  0
VERTEX
  5
695
  8
0
 62
   253
 10
-235.2757538029975
 20
125.8072145485172
 30
0.0
 70
   192
  0
VERTEX
  5
696
  8
0
 62
   253
 10
-235.2802938693206
 20
125.791546522455
 30
0.0
 70
   192
  0
VERTEX
  5
697
  8
0
 62
   253
 10
-235.2757538029975
 20
126.0169437581876
 30
0.0
 70
   192
  0
VERTEX
  5
698
  8
0
 62
   253
 10
-235.2712137366745
 20
125.8228825745794
 30
0.0
 70
   192
  0
VERTEX
  5
699
  8
0
 62
   253
 10
-235.2802938693205
 20
126.2110049417958
 30
0.0
 70
   192
  0
VERTEX
  5
69A
  8
0
 62
   253
 10
0.0
 20
0.0
 30
0.0
 70
   128
 71
     1
 72
    -2
 73
    -3
  0
VERTEX
  5
69B
  8
0
 62
   253
 10
0.0
 20
0.0
 30
0.0
 70
   128
 71
     3
 72
     4
 73
    -1
  0
VERTEX
  5
69C
  8
0
 62
   253
 10
0.0
 20
0.0
 30
0.0
 70
   128
 71
     2
 72
     5
 73
    -3
  0
SEQEND
  5
76E
  8
0
 62
   253
  0
POLYLINE
  5
1B0
  8
0
 62
   253
 66
     1
 10
0.0
 20
0.0
 30
0.0
 70
    64
 71
     5
 72
     3
  0
VERTEX
  5
69D
  8
0
 62
   253
 10
-235.2757538029975
 20
126.1925769162531
 30
0.0
 70
   192
  0
VERTEX
  5
69E
  8
0
 62
   253
 10
-235.2712137366745
 20
126.1741488907104
 30
0.0
 70
   192
  0
VERTEX
  5
69F
  8
0
 62
   253
 10
-235.2757538029975
 20
126.0169437581876
 30
0.0
 70
   192
  0
VERTEX
  5
6A0
  8
0
 62
   253
 10
-235.2802938693207
 20
126.2110049417958
 30
0.0
 70
   192
  0
VERTEX
  5
6A1
  8
0
 62
   253
 10
-235.2712137366745
 20
125.8228825745794
 30
0.0
 70
   192
  0
VERTEX
  5
6A2
  8
0
 62
   253
 10
0.0
 20
0.0
 30
0.0
 70
   128
 71
     1
 72
    -2
 73
    -3
  0
VERTEX
  5
6A3
  8
0
 62
   253
 10
0.0
 20
0.0
 30
0.0
 70
   128
 71
     3
 72
     4
 73
    -1
  0
VERTEX
  5
6A4
  8
0
 62
   253
 10
0.0
 20
0.0
 30
0.0
 70
   128
 71
     2
 72
     5
 73
    -3
  0
SEQEND
  5
76F
  8
0
 62
   253
  0
POLYLINE
  5
1B1
  8
0
 62
   253
 66
     1
 10
0.0
 20
0.0
 30
0.0
 70
    64
 71
     5
 72
     3
  0
VERTEX
  5
6A5
  8
0
 62
   253
 10
-235.2679280063407
 20
125.8395380359398
 30
0.0
 70
   192
  0
VERTEX
  5
6A6
  8
0
 62
   253
 10
-235.271213736674
 20
125.8228825745793
 30
0.0
 70
   192
  0
VERTEX
  5
6A7
  8
0
 62
   253
 10
-235.2679280063407
 20
126.0151711940053
 30
0.0
 70
   192
  0
VERTEX
  5
6A8
  8
0
 62
   253
 10
-235.264642276007
 20
125.8561934973002
 30
0.0
 70
   192
  0
VERTEX
  5
6A9
  8
0
 62
   253
 10
-235.2712137366745
 20
126.1741488907104
 30
0.0
 70
   192
  0
VERTEX
  5
6AA
  8
0
 62
   253
 10
0.0
 20
0.0
 30
0.0
 70
   128
 71
     1
 72
    -2
 73
    -3
  0
VERTEX
  5
6AB
  8
0
 62
   253
 10
0.0
 20
0.0
 30
0.0
 70
   128
 71
     3
 72
     4
 73
    -1
  0
VERTEX
  5
6AC
  8
0
 62
   253
 10
0.0
 20
0.0
 30
0.0
 70
   128
 71
     2
 72
     5
 73
    -3
  0
SEQEND
  5
770
  8
0
 62
   253
  0
POLYLINE
  5
1B2
  8
0
 62
   253
 66
     1
 10
0.0
 20
0.0
 30
0.0
 70
    64
 71
     5
 72
     3
  0
VERTEX
  5
6AD
  8
0
 62
   253
 10
-235.2679280063407
 20
126.1608121863095
 30
0.0
 70
   192
  0
VERTEX
  5
6AE
  8
0
 62
   253
 10
-235.264642276007
 20
126.1474754819086
 30
0.0
 70
   192
  0
VERTEX
  5
6AF
  8
0
 62
   253
 10
-235.2679280063407
 20
126.0151711940053
 30
0.0
 70
   192
  0
VERTEX
  5
6B0
  8
0
 62
   253
 10
-235.271213736674
 20
126.1741488907104
 30
0.0
 70
   192
  0
VERTEX
  5
6B1
  8
0
 62
   253
 10
-235.264642276007
 20
125.8561934973002
 30
0.0
 70
   192
  0
VERTEX
  5
6B2
  8
0
 62
   253
 10
0.0
 20
0.0
 30
0.0
 70
   128
 71
     1
 72
    -2
 73
    -3
  0
VERTEX
  5
6B3
  8
0
 62
   253
 10
0.0
 20
0.0
 30
0.0
 70
   128
 71
     3
 72
     4
 73
    -1
  0
VERTEX
  5
6B4
  8
0
 62
   253
 10
0.0
 20
0.0
 30
0.0
 70
   128
 71
     2
 72
     5
 73
    -3
  0
SEQEND
  5
771
  8
0
 62
   253
  0
POLYLINE
  5
1B3
  8
0
 62
   253
 66
     1
 10
0.0
 20
0.0
 30
0.0
 70
    64
 71
     5
 72
     3
  0
VERTEX
  5
6B5
  8
0
 62
   253
 10
-235.2615962318368
 20
125.8716339826205
 30
0.0
 70
   192
  0
VERTEX
  5
6B6
  8
0
 62
   253
 10
-235.2646422760071
 20
125.8561934973002
 30
0.0
 70
   192
  0
VERTEX
  5
6B7
  8
0
 62
   253
 10
-235.2615962318368
 20
126.0172749749247
 30
0.0
 70
   192
  0
VERTEX
  5
6B8
  8
0
 62
   253
 10
-235.2585501876665
 20
125.8870744679408
 30
0.0
 70
   192
  0
VERTEX
  5
6B9
  8
0
 62
   253
 10
-235.264642276007
 20
126.1474754819086
 30
0.0
 70
   192
  0
VERTEX
  5
6BA
  8
0
 62
   253
 10
0.0
 20
0.0
 30
0.0
 70
   128
 71
     1
 72
    -2
 73
    -3
  0
VERTEX
  5
6BB
  8
0
 62
   253
 10
0.0
 20
0.0
 30
0.0
 70
   128
 71
     3
 72
     4
 73
    -1
  0
VERTEX
  5
6BC
  8
0
 62
   253
 10
0.0
 20
0.0
 30
0.0
 70
   128
 71
     2
 72
     5
 73
    -3
  0
SEQEND
  5
772
  8
0
 62
   253
  0
POLYLINE
  5
1B4
  8
0
 62
   253
 66
     1
 10
0.0
 20
0.0
 30
0.0
 70
    64
 71
     5
 72
     3
  0
VERTEX
  5
6BD
  8
0
 62
   253
 10
-235.2615962318368
 20
126.1278901170205
 30
0.0
 70
   192
  0
VERTEX
  5
6BE
  8
0
 62
   253
 10
-235.2585501876665
 20
126.1083047521324
 30
0.0
 70
   192
  0
VERTEX
  5
6BF
  8
0
 62
   253
 10
-235.2615962318368
 20
126.0172749749247
 30
0.0
 70
   192
  0
VERTEX
  5
6C0
  8
0
 62
   253
 10
-235.2646422760071
 20
126.1474754819086
 30
0.0
 70
   192
  0
VERTEX
  5
6C1
  8
0
 62
   253
 10
-235.2585501876665
 20
125.8870744679408
 30
0.0
 70
   192
  0
VERTEX
  5
6C2
  8
0
 62
   253
 10
0.0
 20
0.0
 30
0.0
 70
   128
 71
     1
 72
    -2
 73
    -3
  0
VERTEX
  5
6C3
  8
0
 62
   253
 10
0.0
 20
0.0
 30
0.0
 70
   128
 71
     3
 72
     4
 73
    -1
  0
VERTEX
  5
6C4
  8
0
 62
   253
 10
0.0
 20
0.0
 30
0.0
 70
   128
 71
     2
 72
     5
 73
    -3
  0
SEQEND
  5
773
  8
0
 62
   253
  0
POLYLINE
  5
1B5
  8
0
 62
   253
 66
     1
 10
0.0
 20
0.0
 30
0.0
 70
    64
 71
     5
 72
     3
  0
VERTEX
  5
6C5
  8
0
 62
   253
 10
-235.2565686933308
 20
125.9054343771965
 30
0.0
 70
   192
  0
VERTEX
  5
6C6
  8
0
 62
   253
 10
-235.2585501876668
 20
125.8870744679408
 30
0.0
 70
   192
  0
VERTEX
  5
6C7
  8
0
 62
   253
 10
-235.2565686933308
 20
126.0160495192923
 30
0.0
 70
   192
  0
VERTEX
  5
6C8
  8
0
 62
   253
 10
-235.254587198995
 20
125.9237942864522
 30
0.0
 70
   192
  0
VERTEX
  5
6C9
  8
0
 62
   253
 10
-235.2585501876665
 20
126.1083047521324
 30
0.0
 70
   192
  0
VERTEX
  5
6CA
  8
0
 62
   253
 10
0.0
 20
0.0
 30
0.0
 70
   128
 71
     1
 72
    -2
 73
    -3
  0
VERTEX
  5
6CB
  8
0
 62
   253
 10
0.0
 20
0.0
 30
0.0
 70
   128
 71
     3
 72
     4
 73
    -1
  0
VERTEX
  5
6CC
  8
0
 62
   253
 10
0.0
 20
0.0
 30
0.0
 70
   128
 71
     2
 72
     5
 73
    -3
  0
SEQEND
  5
774
  8
0
 62
   253
  0
POLYLINE
  5
1B6
  8
0
 62
   253
 66
     1
 10
0.0
 20
0.0
 30
0.0
 70
    64
 71
     5
 72
     3
  0
VERTEX
  5
6CD
  8
0
 62
   253
 10
-235.2565686933308
 20
126.0955641983442
 30
0.0
 70
   192
  0
VERTEX
  5
6CE
  8
0
 62
   253
 10
-235.254587198995
 20
126.082823644556
 30
0.0
 70
   192
  0
VERTEX
  5
6CF
  8
0
 62
   253
 10
-235.2565686933308
 20
126.0160495192923
 30
0.0
 70
   192
  0
VERTEX
  5
6D0
  8
0
 62
   253
 10
-235.2585501876668
 20
126.1083047521324
 30
0.0
 70
   192
  0
VERTEX
  5
6D1
  8
0
 62
   253
 10
-235.254587198995
 20
125.9237942864522
 30
0.0
 70
   192
  0
VERTEX
  5
6D2
  8
0
 62
   253
 10
0.0
 20
0.0
 30
0.0
 70
   128
 71
     1
 72
    -2
 73
    -3
  0
VERTEX
  5
6D3
  8
0
 62
   253
 10
0.0
 20
0.0
 30
0.0
 70
   128
 71
     3
 72
     4
 73
    -1
  0
VERTEX
  5
6D4
  8
0
 62
   253
 10
0.0
 20
0.0
 30
0.0
 70
   128
 71
     2
 72
     5
 73
    -3
  0
SEQEND
  5
775
  8
0
 62
   253
  0
POLYLINE
  5
1B7
  8
0
 62
   253
 66
     1
 10
0.0
 20
0.0
 30
0.0
 70
    64
 71
     5
 72
     3
  0
VERTEX
  5
6D5
  8
0
 62
   253
 10
-235.2530583592127
 20
125.9379600396198
 30
0.0
 70
   192
  0
VERTEX
  5
6D6
  8
0
 62
   253
 10
-235.2545871989947
 20
125.9237942864522
 30
0.0
 70
   192
  0
VERTEX
  5
6D7
  8
0
 62
   253
 10
-235.2530583592127
 20
126.0174747186717
 30
0.0
 70
   192
  0
VERTEX
  5
6D8
  8
0
 62
   253
 10
-235.2515295194305
 20
125.9521257927874
 30
0.0
 70
   192
  0
VERTEX
  5
6D9
  8
0
 62
   253
 10
-235.254587198995
 20
126.082823644556
 30
0.0
 70
   192
  0
VERTEX
  5
6DA
  8
0
 62
   253
 10
0.0
 20
0.0
 30
0.0
 70
   128
 71
     1
 72
    -2
 73
    -3
  0
VERTEX
  5
6DB
  8
0
 62
   253
 10
0.0
 20
0.0
 30
0.0
 70
   128
 71
     3
 72
     4
 73
    -1
  0
VERTEX
  5
6DC
  8
0
 62
   253
 10
0.0
 20
0.0
 30
0.0
 70
   128
 71
     2
 72
     5
 73
    -3
  0
SEQEND
  5
776
  8
0
 62
   253
  0
POLYLINE
  5
1B8
  8
0
 62
   253
 66
     1
 10
0.0
 20
0.0
 30
0.0
 70
    64
 71
     5
 72
     3
  0
VERTEX
  5
6DD
  8
0
 62
   253
 10
-235.2530583592127
 20
126.060047474313
 30
0.0
 70
   192
  0
VERTEX
  5
6DE
  8
0
 62
   253
 10
-235.2515295194305
 20
126.03727130407
 30
0.0
 70
   192
  0
VERTEX
  5
6DF
  8
0
 62
   253
 10
-235.2530583592127
 20
126.0174747186717
 30
0.0
 70
   192
  0
VERTEX
  5
6E0
  8
0
 62
   253
 10
-235.2545871989947
 20
126.082823644556
 30
0.0
 70
   192
  0
VERTEX
  5
6E1
  8
0
 62
   253
 10
-235.2515295194305
 20
125.9521257927874
 30
0.0
 70
   192
  0
VERTEX
  5
6E2
  8
0
 62
   253
 10
0.0
 20
0.0
 30
0.0
 70
   128
 71
     1
 72
    -2
 73
    -3
  0
VERTEX
  5
6E3
  8
0
 62
   253
 10
0.0
 20
0.0
 30
0.0
 70
   128
 71
     3
 72
     4
 73
    -1
  0
VERTEX
  5
6E4
  8
0
 62
   253
 10
0.0
 20
0.0
 30
0.0
 70
   128
 71
     2
 72
     5
 73
    -3
  0
SEQEND
  5
777
  8
0
 62
   253
  0
POLYLINE
  5
1B9
  8
0
 62
   253
 66
     1
 10
0.0
 20
0.0
 30
0.0
 70
    64
 71
     5
 72
     3
  0
VERTEX
  5
6E5
  8
0
 62
   253
 10
-235.2508673414605
 20
125.9848336310228
 30
0.0
 70
   192
  0
VERTEX
  5
6E6
  8
0
 62
   253
 10
-235.2515295194306
 20
125.9521257927874
 30
0.0
 70
   192
  0
VERTEX
  5
6E7
  8
0
 62
   253
 10
-235.2508673414605
 20
126.0274063866641
 30
0.0
 70
   192
  0
VERTEX
  5
6E8
  8
0
 62
   253
 10
-235.2502051634905
 20
126.0175414692582
 30
0.0
 70
   192
  0
VERTEX
  5
6E9
  8
0
 62
   253
 10
-235.2515295194305
 20
126.03727130407
 30
0.0
 70
   192
  0
VERTEX
  5
6EA
  8
0
 62
   253
 10
0.0
 20
0.0
 30
0.0
 70
   128
 71
     1
 72
    -2
 73
    -3
  0
VERTEX
  5
6EB
  8
0
 62
   253
 10
0.0
 20
0.0
 30
0.0
 70
   128
 71
     3
 72
     4
 73
    -1
  0
VERTEX
  5
6EC
  8
0
 62
   253
 10
0.0
 20
0.0
 30
0.0
 70
   128
 71
     2
 72
     5
 73
    -3
  0
SEQEND
  5
778
  8
0
 62
   253
  0
LINE
  5
1BA
  8
0
  6
CONTINUOUS
 62
     7
 10
-388.5000000000001
 20
727.6
 30
0.0
 11
-533.5000000000001
 21
727.6
 31
0.0
  0
LINE
  5
1BB
  8
0
  6
CONTINUOUS
 62
     7
 10
-388.5000000000001
 20
729.6
 30
0.0
 11
-533.5000000000001
 21
729.6
 31
0.0
  0
LINE
  5
1BC
  8
0
  6
CONTINUOUS
 62
     7
 10
-388.5000000000001
 20
721.6
 30
0.0
 11
-533.5000000000001
 21
721.6
 31
0.0
  0
LINE
  5
1BD
  8
0
  6
CONTINUOUS
 62
     7
 10
-388.5000000000001
 20
723.6
 30
0.0
 11
-533.5000000000001
 21
723.6
 31
0.0
  0
LINE
  5
1BE
  8
0
  6
CONTINUOUS
 62
     7
 10
-388.5000000000001
 20
719.6
 30
0.0
 11
-533.5000000000001
 21
719.6
 31
0.0
  0
LINE
  5
1BF
  8
0
  6
CONTINUOUS
 62
     7
 10
-388.5000000000001
 20
731.6
 30
0.0
 11
-533.5000000000001
 21
731.6
 31
0.0
  0
ARC
  5
1C0
  8
0
  6
CONTINUOUS
 62
     7
 10
-548.5
 20
696.1
 30
0.0
 40
8.000000000000007
 50
90.0
 51
180.0
  0
LINE
  5
1C1
  8
0
  6
CONTINUOUS
 62
     7
 10
-556.5
 20
696.1
 30
0.0
 11
-556.5
 21
666.1000000000001
 31
0.0
  0
ARC
  5
1C2
  8
0
  6
CONTINUOUS
 62
     7
 10
-548.5
 20
666.1000000000001
 30
0.0
 40
8.000000000000007
 50
180.0
 51
270.0
  0
ARC
  5
1C3
  8
0
  6
CONTINUOUS
 62
     7
 10
-373.5000000000001
 20
666.1000000000001
 30
0.0
 40
8.000000000000007
 50
270.0
 51
0.0
  0
LINE
  5
1C4
  8
0
  6
CONTINUOUS
 62
     7
 10
-365.5000000000001
 20
696.1
 30
0.0
 11
-365.5000000000001
 21
666.1000000000001
 31
0.0
  0
ARC
  5
1C5
  8
0
  6
CONTINUOUS
 62
     7
 10
-373.5000000000001
 20
696.1
 30
0.0
 40
8.000000000000007
 50
0.0
 51
90.0
  0
ARC
  5
1C6
  8
0
  6
CONTINUOUS
 62
     7
 10
-373.5000000000001
 20
666.1
 30
0.0
 40
9.999999999999954
 50
270.0
 51
0.0
  0
ARC
  5
1C7
  8
0
  6
CONTINUOUS
 62
     7
 10
-548.5
 20
666.1
 30
0.0
 40
10.00000000000001
 50
180.0
 51
269.9999999999999
  0
LINE
  5
1C8
  8
0
  6
CONTINUOUS
 62
     7
 10
-558.5
 20
696.1
 30
0.0
 11
-558.5
 21
666.1000000000001
 31
0.0
  0
ARC
  5
1C9
  8
0
  6
CONTINUOUS
 62
     7
 10
-548.5
 20
696.1
 30
0.0
 40
10.00000000000001
 50
90.00000000000009
 51
180.0
  0
LINE
  5
1CA
  8
0
  6
CONTINUOUS
 62
     7
 10
-373.5000000000001
 20
706.1
 30
0.0
 11
-548.5
 21
706.1
 31
0.0
  0
ARC
  5
1CB
  8
0
  6
CONTINUOUS
 62
     7
 10
-373.5000000000001
 20
696.1
 30
0.0
 40
10.00000000000001
 50
0.0
 51
90.0
  0
LINE
  5
1CC
  8
0
  6
CONTINUOUS
 62
     7
 10
-363.5000000000001
 20
696.1
 30
0.0
 11
-363.5000000000001
 21
666.1000000000001
 31
0.0
  0
LINE
  5
1CD
  8
0
  6
CONTINUOUS
 62
     7
 10
-373.5000000000001
 20
658.1000000000001
 30
0.0
 11
-548.5
 21
658.1000000000001
 31
0.0
  0
LINE
  5
1CE
  8
0
  6
CONTINUOUS
 62
     7
 10
-373.5000000000001
 20
656.1000000000001
 30
0.0
 11
-548.5
 21
656.1000000000001
 31
0.0
  0
LINE
  5
1CF
  8
0
  6
CONTINUOUS
 62
     7
 10
-373.5000000000001
 20
704.1
 30
0.0
 11
-548.5
 21
704.1
 31
0.0
  0
LINE
  5
1D0
  8
0
  6
CONTINUOUS
 62
     7
 10
-443.5211053259428
 20
656.1
 30
0.0
 11
-443.5211053259429
 21
655.9
 31
0.0
  0
LINE
  5
1D1
  8
0
  6
CONTINUOUS
 62
     7
 10
-439.8808570203178
 20
656.1
 30
0.0
 11
-439.8808570203178
 21
655.9
 31
0.0
  0
LINE
  5
1D2
  8
0
  6
CONTINUOUS
 62
     7
 10
-439.8808570203178
 20
655.9
 30
0.0
 11
-443.5211053259429
 21
655.9
 31
0.0
  0
LINE
  5
1D3
  8
0
  6
CONTINUOUS
 62
     7
 10
-463.2575334915059
 20
655.9
 30
0.0
 11
-465.5000000000001
 21
655.9
 31
0.0
  0
LINE
  5
1D4
  8
0
  6
CONTINUOUS
 62
     7
 10
-465.5000000000001
 20
656.1
 30
0.0
 11
-465.5000000000001
 21
655.9
 31
0.0
  0
LINE
  5
1D5
  8
0
  6
CONTINUOUS
 62
     7
 10
-463.2575334915059
 20
656.1
 30
0.0
 11
-463.2575334915059
 21
655.9
 31
0.0
  0
LINE
  5
1D6
  8
0
  6
CONTINUOUS
 62
     7
 10
-427.2499999999999
 20
656.1000000000003
 30
0.0
 11
-427.2499999999999
 21
655.9
 31
0.0
  0
LINE
  5
1D7
  8
0
  6
CONTINUOUS
 62
     7
 10
-427.2499999999999
 20
655.9
 30
0.0
 11
-439.8808570203178
 21
655.9
 31
0.0
  0
LINE
  5
1D8
  8
0
  6
CONTINUOUS
 62
     7
 10
-467.9609599257968
 20
656.1
 30
0.0
 11
-467.9609599257971
 21
655.9
 31
0.0
  0
LINE
  5
1D9
  8
0
  6
CONTINUOUS
 62
     7
 10
-467.9609599257971
 20
655.9
 30
0.0
 11
-470.5169288398483
 21
655.9
 31
0.0
  0
LINE
  5
1DA
  8
0
  6
CONTINUOUS
 62
     7
 10
-460.2124999999999
 20
655.9
 30
0.0
 11
-463.2575334915059
 21
655.9
 31
0.0
  0
LINE
  5
1DB
  8
0
  6
CONTINUOUS
 62
     7
 10
-465.5610872123947
 20
656.1
 30
0.0
 11
-465.5610872123947
 21
655.9
 31
0.0
  0
LINE
  5
1DC
  8
0
  6
CONTINUOUS
 62
     7
 10
-465.5610872123947
 20
655.9
 30
0.0
 11
-467.9609599257971
 21
655.9
 31
0.0
  0
LINE
  5
1DD
  8
0
  6
CONTINUOUS
 62
     7
 10
-470.5169288398483
 20
655.9
 30
0.0
 11
-473.1849329346232
 21
655.9
 31
0.0
  0
LINE
  5
1DE
  8
0
  6
CONTINUOUS
 62
     7
 10
-473.184932934623
 20
656.1
 30
0.0
 11
-473.1849329346232
 21
655.9
 31
0.0
  0
LINE
  5
1DF
  8
0
  6
CONTINUOUS
 62
     7
 10
-470.5169288398483
 20
656.1
 30
0.0
 11
-470.5169288398483
 21
655.9
 31
0.0
  0
LINE
  5
1E0
  8
0
  6
CONTINUOUS
 62
     7
 10
-473.1849329346232
 20
655.9
 30
0.0
 11
-478.4788946740572
 21
655.9
 31
0.0
  0
LINE
  5
1E1
  8
0
  6
CONTINUOUS
 62
     7
 10
-482.1191429796825
 20
655.9
 30
0.0
 11
-494.75
 21
655.9
 31
0.0
  0
LINE
  5
1E2
  8
0
  6
CONTINUOUS
 62
     7
 10
-494.7500000000002
 20
656.1
 30
0.0
 11
-494.75
 21
655.9
 31
0.0
  0
LINE
  5
1E3
  8
0
  6
CONTINUOUS
 62
     7
 10
-482.1191429796825
 20
656.1
 30
0.0
 11
-482.1191429796825
 21
655.9
 31
0.0
  0
LINE
  5
1E4
  8
0
  6
CONTINUOUS
 62
     7
 10
-478.4788946740572
 20
655.9
 30
0.0
 11
-482.1191429796825
 21
655.9
 31
0.0
  0
LINE
  5
1E5
  8
0
  6
CONTINUOUS
 62
     7
 10
-478.4788946740572
 20
656.1000000000003
 30
0.0
 11
-478.4788946740572
 21
655.9
 31
0.0
  0
LINE
  5
1E6
  8
0
  6
CONTINUOUS
 62
     7
 10
-449.1874999999999
 20
655.9
 30
0.0
 11
-452.9000000000001
 21
655.9
 31
0.0
  0
LINE
  5
1E7
  8
0
  6
CONTINUOUS
 62
     7
 10
-452.9000000000001
 20
656.1
 30
0.0
 11
-452.9000000000001
 21
655.9
 31
0.0
  0
LINE
  5
1E8
  8
0
  6
CONTINUOUS
 62
     7
 10
-449.1874999999999
 20
656.1000000000003
 30
0.0
 11
-449.1874999999999
 21
655.9
 31
0.0
  0
LINE
  5
1E9
  8
0
  6
CONTINUOUS
 62
     7
 10
-443.5211053259429
 20
655.9
 30
0.0
 11
-449.1874999999999
 21
655.9
 31
0.0
  0
LINE
  5
1EA
  8
0
  6
CONTINUOUS
 62
     7
 10
-454.5875
 20
655.9
 30
0.0
 11
-460.2124999999999
 21
655.9
 31
0.0
  0
LINE
  5
1EB
  8
0
  6
CONTINUOUS
 62
     7
 10
-453.3499999999997
 20
656.1
 30
0.0
 11
-453.35
 21
655.9
 31
0.0
  0
LINE
  5
1EC
  8
0
  6
CONTINUOUS
 62
     7
 10
-453.35
 20
655.9
 30
0.0
 11
-454.5875
 21
655.9
 31
0.0
  0
LINE
  5
1ED
  8
0
  6
CONTINUOUS
 62
     7
 10
-452.9000000000001
 20
655.9
 30
0.0
 11
-453.35
 21
655.9
 31
0.0
  0
LINE
  5
1EE
  8
0
  6
CONTINUOUS
 62
     7
 10
-465.4999999999999
 20
655.9
 30
0.0
 11
-465.5610872123947
 21
655.9
 31
0.0
  0
LINE
  5
1EF
  8
0
  6
CONTINUOUS
 62
     7
 10
-537.0
 20
719.1
 30
0.0
 11
-385.0000000000001
 21
719.1
 31
0.0
  0
LINE
  5
1F0
  8
0
  6
CONTINUOUS
 62
     7
 10
-537.0
 20
736.0999999999999
 30
0.0
 11
-385.0000000000001
 21
736.0999999999999
 31
0.0
  0
LINE
  5
1F1
  8
0
  6
CONTINUOUS
 62
     7
 10
-537.0
 20
732.0999999999999
 30
0.0
 11
-385.0000000000001
 21
732.0999999999999
 31
0.0
  0
LINE
  5
1F2
  8
0
  6
CONTINUOUS
 62
     7
 10
-534.9999988081254
 20
704.1
 30
0.0
 11
-534.9999988081254
 21
666.1
 31
0.0
  0
LINE
  5
1F3
  8
0
  6
CONTINUOUS
 62
     7
 10
-387.0000011918747
 20
666.1
 30
0.0
 11
-387.0000011918747
 21
704.1
 31
0.0
  0
LINE
  5
1F4
  8
0
  6
CONTINUOUS
 62
     7
 10
-427.2301019658433
 20
655.9
 30
0.0
 11
-422.7883522727274
 21
655.9
 31
0.0
  0
LINE
  5
1F5
  8
0
  6
CONTINUOUS
 62
     7
 10
-422.7883522727274
 20
655.9
 30
0.0
 11
-421.5610795454546
 21
655.9
 31
0.0
  0
LINE
  5
1F6
  8
0
  6
CONTINUOUS
 62
     7
 10
-496.4795077943327
 20
655.9
 30
0.0
 11
-494.7671737778813
 21
655.9
 31
0.0
  0
LINE
  5
1F7
  8
0
  6
CONTINUOUS
 62
     7
 10
-500.4276892683121
 20
655.8999999999999
 30
0.0
 11
-496.4795077943327
 21
655.8999999999999
 31
0.0
  0
ARC
  5
1F8
  8
0
  6
CONTINUOUS
 62
     7
 10
-526.9638638567053
 20
666.1317003670996
 30
0.0
 40
8.036197475840778
 50
180.2260150972857
 51
271.9168992150867
  0
ARC
  5
1F9
  8
0
  6
CONTINUOUS
 62
     7
 10
-395.0361645295432
 20
666.13172983538
 30
0.0
 40
8.036225978165357
 50
268.0833100845605
 51
359.7737756030672
  0
ARC
  5
1FA
  8
0
  6
CONTINUOUS
 62
     7
 10
-537.5000000000001
 20
728.6524786034369
 30
0.0
 40
0.4999999999999694
 50
96.34019174590973
 51
180.0
  0
ARC
  5
1FB
  8
0
  6
CONTINUOUS
 62
     7
 10
-384.5000000000001
 20
728.6524786034369
 30
0.0
 40
0.5000000000000004
 50
0.0
 51
83.6598082540901
  0
LINE
  5
1FC
  8
0
  6
CONTINUOUS
 62
     7
 10
-384.0000000000001
 20
728.5475213965632
 30
0.0
 11
-384.0000000000001
 21
728.6524786034369
 31
0.0
  0
LINE
  5
1FD
  8
0
  6
CONTINUOUS
 62
     7
 10
-538.0
 20
728.6524786034369
 30
0.0
 11
-538.0
 21
728.5475213965632
 31
0.0
  0
ARC
  5
1FE
  8
0
  6
CONTINUOUS
 62
     7
 10
-537.5000000000001
 20
728.5475213965632
 30
0.0
 40
0.4999999999999449
 50
180.0
 51
263.6598082540901
  0
ARC
  5
1FF
  8
0
  6
CONTINUOUS
 62
     7
 10
-384.5000000000001
 20
728.5475213965632
 30
0.0
 40
0.5000000000000306
 50
276.3401917459097
 51
0.0
  0
ARC
  5
200
  8
0
  6
CONTINUOUS
 62
     7
 10
-537.5000000000001
 20
722.6524786034369
 30
0.0
 40
0.4999999999999694
 50
96.34019174590973
 51
180.0000000000016
  0
ARC
  5
201
  8
0
  6
CONTINUOUS
 62
     7
 10
-384.5000000000001
 20
722.6524786034369
 30
0.0
 40
0.5000000000000004
 50
359.9999999999985
 51
83.65980825409008
  0
ARC
  5
202
  8
0
  6
CONTINUOUS
 62
     7
 10
-537.5000000000001
 20
722.5475213965632
 30
0.0
 40
0.4999999999999449
 50
179.9999999999984
 51
263.6598082540901
  0
ARC
  5
203
  8
0
  6
CONTINUOUS
 62
     7
 10
-384.5000000000001
 20
722.5475213965632
 30
0.0
 40
0.5000000000000306
 50
276.3401917459097
 51
0.0000000000015916
  0
LINE
  5
204
  8
0
  6
CONTINUOUS
 62
     7
 10
-384.0000000000001
 20
722.5475213965632
 30
0.0
 11
-384.0000000000001
 21
722.6524786034367
 31
0.0
  0
LINE
  5
205
  8
0
  6
CONTINUOUS
 62
     7
 10
-538.0
 20
722.6524786034367
 30
0.0
 11
-538.0
 21
722.5475213965631
 31
0.0
  0
LINE
  5
206
  8
0
  6
CONTINUOUS
 62
     7
 10
-537.5552157630374
 20
728.0505795292263
 30
0.0
 11
-533.5000000000001
 21
727.6
 31
0.0
  0
LINE
  5
207
  8
0
  6
CONTINUOUS
 62
     7
 10
-388.5000000000001
 20
727.6
 30
0.0
 11
-384.4447842369627
 21
728.0505795292263
 31
0.0
  0
LINE
  5
208
  8
0
  6
CONTINUOUS
 62
     7
 10
-384.4447842369627
 20
729.1494204707735
 30
0.0
 11
-388.5000000000001
 21
729.5999999999999
 31
0.0
  0
LINE
  5
209
  8
0
  6
CONTINUOUS
 62
     7
 10
-533.5000000000001
 20
729.6
 30
0.0
 11
-537.5552157630374
 21
729.1494204707735
 31
0.0
  0
LINE
  5
20A
  8
0
  6
CONTINUOUS
 62
     7
 10
-537.5552157630374
 20
722.0505795292264
 30
0.0
 11
-533.5000000000001
 21
721.6
 31
0.0
  0
LINE
  5
20B
  8
0
  6
CONTINUOUS
 62
     7
 10
-388.5000000000001
 20
721.6
 30
0.0
 11
-384.4447842369627
 21
722.0505795292263
 31
0.0
  0
LINE
  5
20C
  8
0
  6
CONTINUOUS
 62
     7
 10
-384.4447842369627
 20
723.1494204707735
 30
0.0
 11
-388.5000000000001
 21
723.5999999999999
 31
0.0
  0
LINE
  5
20D
  8
0
  6
CONTINUOUS
 62
     7
 10
-533.5000000000001
 20
723.6
 30
0.0
 11
-537.5552157630374
 21
723.1494204707735
 31
0.0
  0
LINE
  5
20E
  8
0
  6
CONTINUOUS
 62
     7
 10
-388.5000000000001
 20
719.6
 30
0.0
 11
-388.5000000000001
 21
721.6
 31
0.0
  0
LINE
  5
20F
  8
0
  6
CONTINUOUS
 62
     7
 10
-533.5000000000001
 20
721.6
 30
0.0
 11
-533.5000000000001
 21
719.6
 31
0.0
  0
LINE
  5
210
  8
0
  6
CONTINUOUS
 62
     7
 10
-388.5000000000001
 20
729.6
 30
0.0
 11
-388.5000000000001
 21
731.6
 31
0.0
  0
LINE
  5
211
  8
0
  6
CONTINUOUS
 62
     7
 10
-533.5000000000001
 20
731.6
 30
0.0
 11
-533.5000000000001
 21
729.6
 31
0.0
  0
LINE
  5
212
  8
0
  6
CONTINUOUS
 62
     7
 10
-388.5000000000001
 20
723.6
 30
0.0
 11
-388.5000000000001
 21
727.6
 31
0.0
  0
LINE
  5
213
  8
0
  6
CONTINUOUS
 62
     7
 10
-533.5000000000001
 20
727.6
 30
0.0
 11
-533.5000000000001
 21
723.6
 31
0.0
  0
LINE
  5
214
  8
0
  6
CONTINUOUS
 62
     7
 10
-454.5875
 20
655.9000000000004
 30
0.0
 11
-454.5875
 21
656.1000000000005
 31
0.0
  0
LINE
  5
215
  8
0
  6
CONTINUOUS
 62
     7
 10
-385.0
 20
707.3196817779058
 30
0.0
 11
-385.0
 21
719.1
 31
0.0
  0
LINE
  5
216
  8
0
  6
CONTINUOUS
 62
     7
 10
-537.0000000000001
 20
719.1
 30
0.0
 11
-537.0000000000001
 21
707.3252772823195
 31
0.0
  0
LINE
  5
217
  8
0
  6
CONTINUOUS
 62
     7
 10
-385.0
 20
732.0999999999999
 30
0.0
 11
-385.0
 21
736.0999999999999
 31
0.0
  0
LINE
  5
218
  8
0
  6
CONTINUOUS
 62
     7
 10
-537.0000000000001
 20
736.0999999999999
 30
0.0
 11
-537.0000000000001
 21
732.0999999999999
 31
0.0
  0
LINE
  5
219
  8
0
  6
CONTINUOUS
 62
     7
 10
-531.5000000000001
 20
732.0999999999999
 30
0.0
 11
-531.5000000000001
 21
731.6
 31
0.0
  0
LINE
  5
21A
  8
0
  6
CONTINUOUS
 62
     7
 10
-531.5000000000001
 20
719.6
 30
0.0
 11
-531.5000000000001
 21
719.1
 31
0.0
  0
LINE
  5
21B
  8
0
  6
CONTINUOUS
 62
     7
 10
-390.5000000000001
 20
719.1
 30
0.0
 11
-390.5000000000001
 21
719.6
 31
0.0
  0
LINE
  5
21C
  8
0
  6
CONTINUOUS
 62
     7
 10
-390.5000000000001
 20
731.6
 30
0.0
 11
-390.5000000000001
 21
732.0999999999999
 31
0.0
  0
LINE
  5
21D
  8
0
  6
CONTINUOUS
 62
     7
 10
-447.3641154382322
 20
655.875
 30
0.0
 11
-447.3641154382322
 21
655.9
 31
0.0
  0
LINE
  5
21E
  8
0
  6
CONTINUOUS
 62
     7
 10
-421.5610795454546
 20
655.9
 30
0.0
 11
-421.5610795454546
 21
656.1000000000003
 31
0.0
  0
LINE
  5
21F
  8
0
  6
CONTINUOUS
 62
     7
 10
-466.0640529065205
 20
655.9
 30
0.0
 11
-466.0640529065205
 21
655.875
 31
0.0
  0
LINE
  5
220
  8
0
  6
CONTINUOUS
 62
     7
 10
-500.4276892701569
 20
656.1
 30
0.0
 11
-500.4276892701569
 21
655.875
 31
0.0
  0
LINE
  5
221
  8
0
  6
CONTINUOUS
 62
     7
 10
-479.7883522727273
 20
655.9
 30
0.0
 11
-479.7883522727273
 21
655.875
 31
0.0
  0
ARC
  5
222
  8
0
  6
CONTINUOUS
 62
     7
 10
-539.7512598976771
 20
709.2281432781615
 30
0.0
 40
3.336160085728876
 50
290.3021818319401
 51
334.0330994847062
  0
ARC
  5
223
  8
0
  6
CONTINUOUS
 62
     7
 10
-382.4599127875013
 20
709.0611395365964
 30
0.0
 40
3.073824980530808
 50
204.893984858395
 51
239.5779771577841
  0
ARC
  5
224
  8
0
  6
CONTINUOUS
 62
     7
 10
-461.0000000000001
 20
57.00000000000004
 30
0.0
 40
77.00000000000001
 50
180.0
 51
0.0
  0
ARC
  5
225
  8
0
  6
CONTINUOUS
 62
     7
 10
-461.0000000000001
 20
57.00000000000004
 30
0.0
 40
76.99999999999996
 50
177.349359122901
 51
180.0
  0
ARC
  5
226
  8
0
  6
CONTINUOUS
 62
     7
 10
-461.0000000000001
 20
57.00000000000004
 30
0.0
 40
76.99999999999999
 50
0.0
 51
2.650640877098965
  0
ARC
  5
227
  8
0
  6
CONTINUOUS
 62
     7
 10
-375.0159861830474
 20
56.34187819322167
 30
0.0
 40
10.00000000000004
 50
135.0
 51
178.895241064192
  0
LINE
  5
228
  8
0
  6
CONTINUOUS
 62
     7
 10
-539.9129460050872
 20
63.41294600508715
 30
0.0
 11
-555.5710678118655
 21
79.07106781186548
 31
0.0
  0
ARC
  5
229
  8
0
  6
CONTINUOUS
 62
     7
 10
-461.0000000000001
 20
57.99999999999999
 30
0.0
 40
76.00000000000006
 50
181.1047589358079
 51
358.8952410641921
  0
ARC
  5
22A
  8
0
  6
CONTINUOUS
 62
     7
 10
-373.5000000000001
 20
86.14213562373095
 30
0.0
 40
9.999999999999954
 50
315.0
 51
0.0
  0
LINE
  5
22B
  8
0
  6
CONTINUOUS
 62
     7
 10
-366.4289321881346
 20
79.07106781186548
 30
0.0
 11
-382.0870539949129
 21
63.41294600508715
 31
0.0
  0
ARC
  5
22C
  8
0
  6
CONTINUOUS
 62
     7
 10
-546.9840138169527
 20
56.34187819322167
 30
0.0
 40
10.00000000000001
 50
1.104758935807979
 51
44.99999999999995
  0
LINE
  5
22D
  8
0
  6
CONTINUOUS
 62
     7
 10
-558.5
 20
331.0
 30
0.0
 11
-548.5
 21
331.0
 31
0.0
  0
ARC
  5
22E
  8
0
  6
CONTINUOUS
 62
     7
 10
-558.5
 20
332.0
 30
0.0
 40
1.000000000000001
 50
270.0
 51
0.0
  0
LINE
  5
22F
  8
0
  6
CONTINUOUS
 62
     7
 10
-373.5000000000001
 20
431.0
 30
0.0
 11
-363.5000000000001
 21
431.0
 31
0.0
  0
LINE
  5
230
  8
0
  6
CONTINUOUS
 62
     7
 10
-363.5000000000001
 20
431.0
 30
0.0
 11
-363.5000000000001
 21
383.0
 31
0.0
  0
LINE
  5
231
  8
0
  6
CONTINUOUS
 62
     7
 10
-363.5000000000001
 20
383.0
 30
0.0
 11
-373.5000000000001
 21
383.0
 31
0.0
  0
ARC
  5
232
  8
0
  6
CONTINUOUS
 62
     7
 10
-558.5
 20
332.0
 30
0.0
 40
1.000000000000001
 50
0.0
 51
90.0
  0
LINE
  5
233
  8
0
  6
CONTINUOUS
 62
     7
 10
-548.5
 20
333.0
 30
0.0
 11
-558.5
 21
333.0
 31
0.0
  0
ARC
  5
234
  8
0
  6
CONTINUOUS
 62
     7
 10
-558.5
 20
282.0
 30
0.0
 40
1.000000000000001
 50
0.0
 51
90.0
  0
LINE
  5
235
  8
0
  6
CONTINUOUS
 62
     7
 10
-548.5
 20
283.0
 30
0.0
 11
-558.5
 21
283.0
 31
0.0
  0
LINE
  5
236
  8
0
  6
CONTINUOUS
 62
     7
 10
-373.5000000000001
 20
381.0
 30
0.0
 11
-363.5000000000001
 21
381.0
 31
0.0
  0
LINE
  5
237
  8
0
  6
CONTINUOUS
 62
     7
 10
-363.5000000000001
 20
381.0
 30
0.0
 11
-363.5000000000001
 21
333.0
 31
0.0
  0
LINE
  5
238
  8
0
  6
CONTINUOUS
 62
     7
 10
-363.5000000000001
 20
333.0
 30
0.0
 11
-373.5000000000001
 21
333.0
 31
0.0
  0
LINE
  5
239
  8
0
  6
CONTINUOUS
 62
     7
 10
-558.5
 20
333.0
 30
0.0
 11
-558.5
 21
381.0
 31
0.0
  0
LINE
  5
23A
  8
0
  6
CONTINUOUS
 62
     7
 10
-558.5
 20
381.0
 30
0.0
 11
-548.5
 21
381.0
 31
0.0
  0
LINE
  5
23B
  8
0
  6
CONTINUOUS
 62
     7
 10
-548.5
 20
381.0
 30
0.0
 11
-373.5000000000001
 21
381.0
 31
0.0
  0
LINE
  5
23C
  8
0
  6
CONTINUOUS
 62
     7
 10
-373.5000000000001
 20
333.0
 30
0.0
 11
-548.5000000000001
 21
333.0
 31
0.0
  0
LINE
  5
23D
  8
0
  6
CONTINUOUS
 62
     7
 10
-373.5000000000001
 20
530.9999999999999
 30
0.0
 11
-548.5
 21
530.9999999999999
 31
0.0
  0
LINE
  5
23E
  8
0
  6
CONTINUOUS
 62
     7
 10
-373.5000000000001
 20
482.9999999999999
 30
0.0
 11
-548.5
 21
482.9999999999999
 31
0.0
  0
ARC
  5
23F
  8
0
  6
CONTINUOUS
 62
     7
 10
-363.5000000000001
 20
382.0
 30
0.0
 40
1.000000000000001
 50
180.0
 51
270.0000000000007
  0
ARC
  5
240
  8
0
  6
CONTINUOUS
 62
     7
 10
-548.5000000000001
 20
86.14213562373091
 30
0.0
 40
9.999999999999897
 50
180.0
 51
225.0
  0
LINE
  5
241
  8
0
  6
CONTINUOUS
 62
     7
 10
-373.5000000000001
 20
582.0000000000001
 30
0.0
 11
-363.5000000000001
 21
582.0000000000001
 31
0.0
  0
LINE
  5
242
  8
0
  6
CONTINUOUS
 62
     7
 10
-363.5000000000001
 20
582.0000000000001
 30
0.0
 11
-363.5000000000001
 21
532.9999999999999
 31
0.0
  0
LINE
  5
243
  8
0
  6
CONTINUOUS
 62
     7
 10
-363.5000000000001
 20
532.9999999999999
 30
0.0
 11
-373.5000000000001
 21
532.9999999999999
 31
0.0
  0
LINE
  5
244
  8
0
  6
CONTINUOUS
 62
     7
 10
-363.5000000000001
 20
233.0
 30
0.0
 11
-373.5000000000001
 21
233.0
 31
0.0
  0
ARC
  5
245
  8
0
  6
CONTINUOUS
 62
     7
 10
-363.5000000000001
 20
232.0
 30
0.0
 40
1.000000000000001
 50
89.9999999999992
 51
180.0
  0
LINE
  5
246
  8
0
  6
CONTINUOUS
 62
     7
 10
-373.5000000000001
 20
530.9999999999999
 30
0.0
 11
-363.5000000000001
 21
530.9999999999999
 31
0.0
  0
LINE
  5
247
  8
0
  6
CONTINUOUS
 62
     7
 10
-363.5000000000001
 20
530.9999999999999
 30
0.0
 11
-363.5000000000001
 21
482.9999999999999
 31
0.0
  0
LINE
  5
248
  8
0
  6
CONTINUOUS
 62
     7
 10
-363.5000000000001
 20
482.9999999999999
 30
0.0
 11
-373.5000000000001
 21
482.9999999999999
 31
0.0
  0
ARC
  5
249
  8
0
  6
CONTINUOUS
 62
     7
 10
-363.5000000000001
 20
382.0
 30
0.0
 40
1.000000000000001
 50
89.9999999999992
 51
180.0
  0
ARC
  5
24A
  8
0
  6
CONTINUOUS
 62
     7
 10
-558.5
 20
382.0
 30
0.0
 40
1.000000000000001
 50
270.0
 51
0.0
  0
ARC
  5
24B
  8
0
  6
CONTINUOUS
 62
     7
 10
-363.5000000000001
 20
332.0
 30
0.0
 40
1.000000000000001
 50
89.9999999999992
 51
180.0
  0
LINE
  5
24C
  8
0
  6
CONTINUOUS
 62
     7
 10
-558.5
 20
86.14213562373091
 30
0.0
 11
-558.5
 21
231.0
 31
0.0
  0
LINE
  5
24D
  8
0
  6
CONTINUOUS
 62
     7
 10
-558.5
 20
231.0
 30
0.0
 11
-548.5
 21
231.0
 31
0.0
  0
LINE
  5
24E
  8
0
  6
CONTINUOUS
 62
     7
 10
-373.5000000000001
 20
433.0
 30
0.0
 11
-548.5
 21
433.0
 31
0.0
  0
LINE
  5
24F
  8
0
  6
CONTINUOUS
 62
     7
 10
-548.5
 20
481.0
 30
0.0
 11
-373.5000000000001
 21
481.0
 31
0.0
  0
LINE
  5
250
  8
0
  6
CONTINUOUS
 62
     7
 10
-373.5000000000001
 20
481.0
 30
0.0
 11
-363.5000000000001
 21
481.0
 31
0.0
  0
LINE
  5
251
  8
0
  6
CONTINUOUS
 62
     7
 10
-363.5000000000001
 20
481.0
 30
0.0
 11
-363.5000000000001
 21
433.0
 31
0.0
  0
LINE
  5
252
  8
0
  6
CONTINUOUS
 62
     7
 10
-363.5000000000001
 20
433.0
 30
0.0
 11
-373.5000000000001
 21
433.0
 31
0.0
  0
LINE
  5
253
  8
0
  6
CONTINUOUS
 62
     7
 10
-373.5000000000001
 20
231.0
 30
0.0
 11
-363.5000000000001
 21
231.0
 31
0.0
  0
LINE
  5
254
  8
0
  6
CONTINUOUS
 62
     7
 10
-363.5000000000001
 20
231.0
 30
0.0
 11
-363.5000000000001
 21
86.14213562373097
 31
0.0
  0
LINE
  5
255
  8
0
  6
CONTINUOUS
 62
     7
 10
-548.5
 20
383.0
 30
0.0
 11
-558.5
 21
383.0
 31
0.0
  0
LINE
  5
256
  8
0
  6
CONTINUOUS
 62
     7
 10
-558.5
 20
383.0
 30
0.0
 11
-558.5
 21
431.0
 31
0.0
  0
LINE
  5
257
  8
0
  6
CONTINUOUS
 62
     7
 10
-558.5
 20
431.0
 30
0.0
 11
-548.5
 21
431.0
 31
0.0
  0
LINE
  5
258
  8
0
  6
CONTINUOUS
 62
     7
 10
-373.5000000000001
 20
281.0
 30
0.0
 11
-363.5000000000001
 21
281.0
 31
0.0
  0
ARC
  5
259
  8
0
  6
CONTINUOUS
 62
     7
 10
-363.5000000000001
 20
282.0
 30
0.0
 40
1.000000000000001
 50
180.0
 51
270.0000000000007
  0
ARC
  5
25A
  8
0
  6
CONTINUOUS
 62
     7
 10
-363.5000000000001
 20
332.0
 30
0.0
 40
1.000000000000001
 50
180.0
 51
270.0000000000007
  0
LINE
  5
25B
  8
0
  6
CONTINUOUS
 62
     7
 10
-373.5000000000001
 20
331.0
 30
0.0
 11
-363.5000000000001
 21
331.0
 31
0.0
  0
ARC
  5
25C
  8
0
  6
CONTINUOUS
 62
     7
 10
-363.5000000000001
 20
432.0
 30
0.0
 40
1.000000000000001
 50
89.99999999999841
 51
180.0
  0
LINE
  5
25D
  8
0
  6
CONTINUOUS
 62
     7
 10
-548.5
 20
281.0
 30
0.0
 11
-373.5000000000001
 21
281.0
 31
0.0
  0
LINE
  5
25E
  8
0
  6
CONTINUOUS
 62
     7
 10
-558.5
 20
481.0
 30
0.0
 11
-548.5
 21
481.0
 31
0.0
  0
ARC
  5
25F
  8
0
  6
CONTINUOUS
 62
     7
 10
-558.5
 20
482.0
 30
0.0
 40
1.000000000000001
 50
270.0000000000007
 51
0.0
  0
LINE
  5
260
  8
0
  6
CONTINUOUS
 62
     7
 10
-548.5
 20
331.0
 30
0.0
 11
-373.5000000000001
 21
331.0
 31
0.0
  0
LINE
  5
261
  8
0
  6
CONTINUOUS
 62
     7
 10
-558.5
 20
281.0
 30
0.0
 11
-548.5
 21
281.0
 31
0.0
  0
ARC
  5
262
  8
0
  6
CONTINUOUS
 62
     7
 10
-558.5
 20
282.0
 30
0.0
 40
1.000000000000001
 50
270.0
 51
0.0
  0
LINE
  5
263
  8
0
  6
CONTINUOUS
 62
     7
 10
-558.5
 20
283.0
 30
0.0
 11
-558.5
 21
331.0
 31
0.0
  0
LINE
  5
264
  8
0
  6
CONTINUOUS
 62
     7
 10
-363.5000000000001
 20
331.0
 30
0.0
 11
-363.5000000000001
 21
283.0
 31
0.0
  0
LINE
  5
265
  8
0
  6
CONTINUOUS
 62
     7
 10
-363.5000000000001
 20
283.0
 30
0.0
 11
-373.5000000000001
 21
283.0
 31
0.0
  0
LINE
  5
266
  8
0
  6
CONTINUOUS
 62
     7
 10
-548.5
 20
233.0
 30
0.0
 11
-558.5
 21
233.0
 31
0.0
  0
LINE
  5
267
  8
0
  6
CONTINUOUS
 62
     7
 10
-558.5
 20
233.0
 30
0.0
 11
-558.5
 21
281.0
 31
0.0
  0
ARC
  5
268
  8
0
  6
CONTINUOUS
 62
     7
 10
-558.5
 20
432.0
 30
0.0
 40
1.000000000000001
 50
0.0
 51
90.0
  0
LINE
  5
269
  8
0
  6
CONTINUOUS
 62
     7
 10
-548.5
 20
433.0
 30
0.0
 11
-558.5
 21
433.0
 31
0.0
  0
LINE
  5
26A
  8
0
  6
CONTINUOUS
 62
     7
 10
-363.5000000000001
 20
281.0
 30
0.0
 11
-363.5000000000001
 21
233.0
 31
0.0
  0
LINE
  5
26B
  8
0
  6
CONTINUOUS
 62
     7
 10
-548.5
 20
532.9999999999999
 30
0.0
 11
-558.5
 21
532.9999999999999
 31
0.0
  0
LINE
  5
26C
  8
0
  6
CONTINUOUS
 62
     7
 10
-558.5
 20
532.9999999999999
 30
0.0
 11
-558.5
 21
582.0000000000001
 31
0.0
  0
LINE
  5
26D
  8
0
  6
CONTINUOUS
 62
     7
 10
-558.5
 20
582.0000000000001
 30
0.0
 11
-548.5
 21
582.0000000000001
 31
0.0
  0
ARC
  5
26E
  8
0
  6
CONTINUOUS
 62
     7
 10
-363.5000000000001
 20
481.9999999999999
 30
0.0
 40
1.000000000000001
 50
89.99999999999841
 51
179.9999999999968
  0
ARC
  5
26F
  8
0
  6
CONTINUOUS
 62
     7
 10
-558.5
 20
232.0
 30
0.0
 40
1.000000000000001
 50
0.0
 51
90.00000000000159
  0
LINE
  5
270
  8
0
  6
CONTINUOUS
 62
     7
 10
-548.5
 20
482.9999999999999
 30
0.0
 11
-558.5
 21
482.9999999999999
 31
0.0
  0
LINE
  5
271
  8
0
  6
CONTINUOUS
 62
     7
 10
-558.5
 20
482.9999999999999
 30
0.0
 11
-558.5
 21
530.9999999999999
 31
0.0
  0
LINE
  5
272
  8
0
  6
CONTINUOUS
 62
     7
 10
-558.5
 20
530.9999999999999
 30
0.0
 11
-548.5
 21
530.9999999999999
 31
0.0
  0
ARC
  5
273
  8
0
  6
CONTINUOUS
 62
     7
 10
-363.5000000000001
 20
282.0
 30
0.0
 40
1.000000000000001
 50
89.9999999999992
 51
180.0
  0
LINE
  5
274
  8
0
  6
CONTINUOUS
 62
     7
 10
-373.5000000000001
 20
582.0000000000001
 30
0.0
 11
-548.5
 21
582.0000000000001
 31
0.0
  0
LINE
  5
275
  8
0
  6
CONTINUOUS
 62
     7
 10
-548.5
 20
532.9999999999999
 30
0.0
 11
-373.5000000000001
 21
532.9999999999999
 31
0.0
  0
LINE
  5
276
  8
0
  6
CONTINUOUS
 62
     7
 10
-373.5000000000001
 20
283.0
 30
0.0
 11
-548.5000000000001
 21
283.0
 31
0.0
  0
ARC
  5
277
  8
0
  6
CONTINUOUS
 62
     7
 10
-558.5
 20
481.9999999999999
 30
0.0
 40
1.000000000000001
 50
0.0000000000031806
 51
89.99999999999922
  0
ARC
  5
278
  8
0
  6
CONTINUOUS
 62
     7
 10
-558.5
 20
382.0
 30
0.0
 40
1.000000000000001
 50
0.0
 51
90.0
  0
LINE
  5
279
  8
0
  6
CONTINUOUS
 62
     7
 10
-548.5
 20
231.0
 30
0.0
 11
-373.5000000000001
 21
231.0
 31
0.0
  0
CIRCLE
  5
27A
  8
0
  6
CONTINUOUS
 62
     7
 10
-461.0000000000001
 20
17.00000000000004
 30
0.0
 40
25.00000000000002
  0
ARC
  5
27B
  8
0
  6
CONTINUOUS
 62
     7
 10
-363.5000000000001
 20
532.0
 30
0.0
 40
1.000000000000112
 50
180.0
 51
270.0000000000015
  0
LINE
  5
27C
  8
0
  6
CONTINUOUS
 62
     7
 10
-548.5
 20
431.0
 30
0.0
 11
-373.5000000000001
 21
431.0
 31
0.0
  0
LINE
  5
27D
  8
0
  6
CONTINUOUS
 62
     7
 10
-373.5000000000001
 20
233.0
 30
0.0
 11
-548.5000000000001
 21
233.0
 31
0.0
  0
ARC
  5
27E
  8
0
  6
CONTINUOUS
 62
     7
 10
-363.5000000000001
 20
532.0
 30
0.0
 40
1.000000000000001
 50
89.99999999999841
 51
180.0
  0
ARC
  5
27F
  8
0
  6
CONTINUOUS
 62
     7
 10
-363.5000000000001
 20
482.0
 30
0.0
 40
1.000000000000001
 50
180.0
 51
270.0000000000007
  0
ARC
  5
280
  8
0
  6
CONTINUOUS
 62
     7
 10
-558.5
 20
232.0
 30
0.0
 40
1.000000000000001
 50
269.9999999999992
 51
0.0
  0
ARC
  5
281
  8
0
  6
CONTINUOUS
 62
     7
 10
-363.5000000000001
 20
232.0
 30
0.0
 40
1.000000000000001
 50
180.0
 51
270.0000000000007
  0
ARC
  5
282
  8
0
  6
CONTINUOUS
 62
     7
 10
-363.5000000000001
 20
432.0
 30
0.0
 40
1.000000000000001
 50
180.0
 51
270.0000000000015
  0
LINE
  5
283
  8
0
  6
CONTINUOUS
 62
     7
 10
-558.5
 20
433.0
 30
0.0
 11
-558.5
 21
481.0
 31
0.0
  0
ARC
  5
284
  8
0
  6
CONTINUOUS
 62
     7
 10
-558.5
 20
532.0
 30
0.0
 40
1.000000000000001
 50
0.0
 51
89.9999999999992
  0
LINE
  5
285
  8
0
  6
CONTINUOUS
 62
     7
 10
-373.5000000000001
 20
383.0
 30
0.0
 11
-548.5
 21
383.0
 31
0.0
  0
ARC
  5
286
  8
0
  6
CONTINUOUS
 62
     7
 10
-558.5
 20
532.0
 30
0.0
 40
1.000000000000112
 50
270.0000000000015
 51
0.0
  0
ARC
  5
287
  8
0
  6
CONTINUOUS
 62
     7
 10
-558.5
 20
432.0
 30
0.0
 40
1.000000000000001
 50
270.0
 51
0.0
  0
ENDSEC
  0
EOF
