  0
SECTION
  2
HEADER
  9
$ACADVER
  1
AC1006
  9
$DWGCODEPAGE
  3
ansi_932
  9
$INSBASE
 10
0.0
 20
0.0
 30
0.0
  9
$EXTMIN
 10
-592.5
 20
633.6704545454545
  9
$EXTMAX
 10
202.3000000000001
 20
1252.5
  9
$LIMMIN
 10
0.0
 20
0.0
  9
$LIMMAX
 10
12.0
 20
9.0
  9
$ORTHOMODE
 70
     0
  9
$REGENMODE
 70
     1
  9
$FILLMODE
 70
     1
  9
$QTEXTMODE
 70
     0
  9
$MIRRTEXT
 70
     1
  9
$DRAGMODE
 70
     2
  9
$LTSCALE
 40
1.0
  9
$OSMODE
 70
    37
  9
$ATTMODE
 70
     1
  9
$TEXTSIZE
 40
0.2
  9
$TRACEWID
 40
0.05
  9
$TEXTSTYLE
  7
STANDARD
  9
$CLAYER
  8
0
  9
$CELTYPE
  6
BYLAYER
  9
$CECOLOR
 62
   256
  9
$DIMSCALE
 40
1.0
  9
$DIMASZ
 40
3.0
  9
$DIMEXO
 40
0.0625
  9
$DIMDLI
 40
0.38
  9
$DIMRND
 40
0.0
  9
$DIMDLE
 40
0.0
  9
$DIMEXE
 40
1.5
  9
$DIMTP
 40
0.0
  9
$DIMTM
 40
0.0
  9
$DIMTXT
 40
3.0
  9
$DIMCEN
 40
0.09
  9
$DIMTSZ
 40
0.0
  9
$DIMTOL
 70
     0
  9
$DIMLIM
 70
     0
  9
$DIMTIH
 70
     1
  9
$DIMTOH
 70
     1
  9
$DIMSE1
 70
     0
  9
$DIMSE2
 70
     0
  9
$DIMTAD
 70
     1
  9
$DIMZIN
 70
     0
  9
$DIMBLK
  1

  9
$DIMASO
 70
     1
  9
$DIMSHO
 70
     1
  9
$DIMPOST
  1

  9
$DIMAPOST
  1

  9
$DIMALT
 70
     0
  9
$DIMALTD
 70
     2
  9
$DIMALTF
 40
25.4
  9
$DIMLFAC
 40
1.0
  9
$DIMTOFL
 70
     0
  9
$DIMTVP
 40
0.0
  9
$DIMTIX
 70
     0
  9
$DIMSOXD
 70
     0
  9
$DIMSAH
 70
     0
  9
$DIMBLK1
  1

  9
$DIMBLK2
  1

  9
$LUNITS
 70
     2
  9
$LUPREC
 70
     4
  9
$SKETCHINC
 40
0.1
  9
$FILLETRAD
 40
0.5
  9
$AUNITS
 70
     0
  9
$AUPREC
 70
     0
  9
$MENU
  1
.
  9
$ELEVATION
 40
0.0
  9
$THICKNESS
 40
0.0
  9
$LIMCHECK
 70
     0
  9
$CHAMFERA
 40
0.0
  9
$CHAMFERB
 40
0.0
  9
$SKPOLY
 70
     0
  9
$TDCREATE
 40
2460094.484889433
  9
$TDUPDATE
 40
2460094.484889595
  9
$TDINDWG
 40
0.0000000116
  9
$TDUSRTIMER
 40
0.0000000116
  9
$USRTIMER
 70
     1
  9
$ANGBASE
 50
0.0
  9
$ANGDIR
 70
     0
  9
$PDMODE
 70
     0
  9
$PDSIZE
 40
0.0
  9
$PLINEWID
 40
0.0
  9
$COORDS
 70
     1
  9
$SPLFRAME
 70
     0
  9
$SPLINETYPE
 70
     6
  9
$SPLINESEGS
 70
     8
  9
$ATTDIA
 70
     0
  9
$ATTREQ
 70
     1
  9
$HANDLING
 70
     1
  9
$HANDSEED
  5
304
  9
$SURFTAB1
 70
     6
  9
$SURFTAB2
 70
     6
  9
$SURFTYPE
 70
     6
  9
$SURFU
 70
     6
  9
$SURFV
 70
     6
  9
$UCSNAME
  2

  9
$UCSORG
 10
0.0
 20
0.0
 30
0.0
  9
$UCSXDIR
 10
1.0
 20
0.0
 30
0.0
  9
$UCSYDIR
 10
0.0
 20
1.0
 30
0.0
  9
$USERI1
 70
     0
  9
$USERI2
 70
     0
  9
$USERI3
 70
     0
  9
$USERI4
 70
     0
  9
$USERI5
 70
     0
  9
$USERR1
 40
0.0
  9
$USERR2
 40
0.0
  9
$USERR3
 40
0.0
  9
$USERR4
 40
0.0
  9
$USERR5
 40
0.0
  9
$WORLDVIEW
 70
     1
  0
ENDSEC
  0
SECTION
  2
TABLES
  0
TABLE
  2
VPORT
 70
     1
  0
VPORT
  2
*ACTIVE
 70
     0
 10
0.0
 20
0.0
 11
1.0
 21
1.0
 12
-195.0999999999999
 22
943.0852272727273
 13
0.0
 23
0.0
 14
0.5
 24
0.5
 15
0.5
 25
0.5
 16
0.0
 26
0.0
 36
1.0
 17
0.0
 27
0.0
 37
0.0
 40
618.8295454545455
 41
1.6
 42
50.0
 43
0.0
 44
0.0
 50
0.0
 51
0.0
 71
     0
 72
   100
 73
     1
 74
     3
 75
     0
 76
     0
 77
     0
 78
     0
  0
ENDTAB
  0
TABLE
  2
LTYPE
 70
     1
  0
LTYPE
  2
CONTINUOUS
 70
     0
  3
Solid line
 72
    65
 73
     0
 40
0.0
  0
ENDTAB
  0
TABLE
  2
LAYER
 70
     1
  0
LAYER
  2
0
 70
     0
 62
     7
  6
CONTINUOUS
  0
ENDTAB
  0
TABLE
  2
STYLE
 70
     2
  0
STYLE
  2
STANDARD
 70
     0
 40
0.0
 41
1.0
 50
0.0
 71
     0
 42
0.2
  3
txt
  4

  0
STYLE
  2
ＭＳ_ゴシック
 70
     0
 40
0.0
 41
1.0
 50
0.0
 71
     0
 42
0.2
  3
ＭＳ ゴシック.shx
  4

  0
ENDTAB
  0
TABLE
  2
VIEW
 70
     0
  0
ENDTAB
  0
TABLE
  2
UCS
 70
     0
  0
ENDTAB
  0
ENDSEC
  0
SECTION
  2
BLOCKS
  0
BLOCK
  8
0
  2
D_FRAME_VIEW_2142
 70
     0
 10
0.0
 20
0.0
 30
0.0
  0
LINE
  5
70
  8
0
  6
CONTINUOUS
 62
     7
 10
196.7000000000001
 20
652.5
 30
0.0
 11
186.7000000000001
 21
652.5000000000001
 31
0.0
  0
LINE
  5
71
  8
0
  6
CONTINUOUS
 62
     7
 10
186.7000000000001
 20
1252.5
 30
0.0
 11
196.7000000000001
 21
1252.5
 31
0.0
  0
LINE
  5
72
  8
0
  6
CONTINUOUS
 62
     7
 10
186.7000000000001
 20
652.5000000000001
 30
0.0
 11
186.7000000000001
 21
1252.5
 31
0.0
  0
LINE
  5
73
  8
0
  6
CONTINUOUS
 62
     7
 10
196.7000000000001
 20
652.5
 30
0.0
 11
196.7000000000001
 21
1252.5
 31
0.0
  0
LINE
  5
74
  8
0
  6
CONTINUOUS
 62
     7
 10
96.70000000000009
 20
954.5
 30
0.0
 11
96.70000000000009
 21
1016.298058221921
 31
0.0
  0
LINE
  5
75
  8
0
  6
CONTINUOUS
 62
     7
 10
146.7000000000001
 20
1016.5
 30
0.0
 11
96.69999999999976
 21
1016.5
 31
0.0
  0
LINE
  5
76
  8
0
  6
CONTINUOUS
 62
     7
 10
146.7000000000001
 20
1016.5
 30
0.0
 11
146.7000000000001
 21
954.5
 31
0.0
  0
LINE
  5
77
  8
0
  6
CONTINUOUS
 62
     7
 10
96.70000000000009
 20
892.5
 30
0.0
 11
96.70000000000009
 21
954.5
 31
0.0
  0
LINE
  5
78
  8
0
  6
CONTINUOUS
 62
     7
 10
146.7000000000001
 20
954.5
 30
0.0
 11
146.7000000000001
 21
892.5
 31
0.0
  0
LINE
  5
79
  8
0
  6
CONTINUOUS
 62
     7
 10
96.70000000000009
 20
892.5
 30
0.0
 11
146.7000000000001
 21
892.5
 31
0.0
  0
LINE
  5
7A
  8
0
  6
CONTINUOUS
 62
     7
 10
34.69999999999973
 20
1016.5
 30
0.0
 11
-27.30000000000024
 21
1016.5
 31
0.0
  0
LINE
  5
7B
  8
0
  6
CONTINUOUS
 62
     7
 10
-27.30000000000016
 20
1016.5
 30
0.0
 11
-27.30000000000016
 21
1066.5
 31
0.0
  0
LINE
  5
7C
  8
0
  6
CONTINUOUS
 62
     7
 10
-27.30000000000021
 20
1066.5
 30
0.0
 11
34.69999999999995
 21
1066.5
 31
0.0
  0
LINE
  5
7D
  8
0
  6
CONTINUOUS
 62
     7
 10
96.69999999999975
 20
1066.5
 30
0.0
 11
96.69999999999975
 21
1016.5
 31
0.0
  0
LINE
  5
7E
  8
0
  6
CONTINUOUS
 62
     7
 10
34.69999999999995
 20
1066.5
 30
0.0
 11
96.69999999999982
 21
1066.5
 31
0.0
  0
LINE
  5
7F
  8
0
  6
CONTINUOUS
 62
     7
 10
96.49805822192134
 20
1016.5
 30
0.0
 11
34.69999999999974
 21
1016.5
 31
0.0
  0
ARC
  5
80
  8
0
  6
CONTINUOUS
 62
     7
 10
95.20000000000009
 20
1015.0
 30
0.0
 40
0.2069655764447287
 50
179.9999999999982
 51
269.9999999999923
  0
LINE
  5
81
  8
0
  6
CONTINUOUS
 62
     7
 10
94.99303442355519
 20
1015.0
 30
0.0
 11
94.99303442355519
 21
1016.5
 31
0.0
  0
LINE
  5
82
  8
0
  6
CONTINUOUS
 62
     7
 10
96.70000000000009
 20
1014.793034423555
 30
0.0
 11
95.20000000000006
 21
1014.793034423555
 31
0.0
  0
LINE
  5
83
  8
0
  6
CONTINUOUS
 62
     7
 10
96.70000000000009
 20
1016.298058221921
 30
0.0
 11
96.70000000000009
 21
1016.5
 31
0.0
  0
LINE
  5
84
  8
0
  6
CONTINUOUS
 62
     7
 10
96.70000000000009
 20
1016.5
 30
0.0
 11
96.49805822192123
 21
1016.5
 31
0.0
  0
LINE
  5
85
  8
0
  6
CONTINUOUS
 62
     7
 10
198.7000000000001
 20
1018.5
 30
0.0
 11
198.7000000000001
 21
1010.071259202697
 31
0.0
  0
LINE
  5
86
  8
0
  6
CONTINUOUS
 62
     7
 10
198.7000000000001
 20
998.9287407973035
 30
0.0
 11
198.7000000000001
 21
910.0712592026968
 31
0.0
  0
LINE
  5
87
  8
0
  6
CONTINUOUS
 62
     7
 10
198.7000000000001
 20
898.928740797303
 30
0.0
 11
198.7000000000001
 21
890.5
 31
0.0
  0
LINE
  5
88
  8
0
  6
CONTINUOUS
 62
     7
 10
198.9000000000001
 20
1010.273502691896
 30
0.0
 11
198.9000000000001
 21
1010.612659427353
 31
0.0
  0
LINE
  5
89
  8
0
  6
CONTINUOUS
 62
     7
 10
198.9000000000001
 20
1010.637132657828
 30
0.0
 11
198.9000000000001
 21
1012.594222411344
 31
0.0
  0
LINE
  5
8A
  8
0
  6
CONTINUOUS
 62
     7
 10
198.9000000000001
 20
896.9534915824624
 30
0.0
 11
198.9000000000001
 21
898.7264973081036
 31
0.0
  0
LINE
  5
8B
  8
0
  6
CONTINUOUS
 62
     7
 10
198.9000000000001
 20
1012.61886221509
 30
0.0
 11
198.9000000000001
 21
1015.012649632624
 31
0.0
  0
LINE
  5
8C
  8
0
  6
CONTINUOUS
 62
     7
 10
198.9000000000001
 20
894.2763135263884
 30
0.0
 11
198.9000000000001
 21
896.9023823917597
 31
0.0
  0
LINE
  5
8D
  8
0
  6
CONTINUOUS
 62
     7
 10
198.9000000000001
 20
893.3404155791229
 30
0.0
 11
198.9000000000001
 21
894.2625924695275
 31
0.0
  0
LINE
  5
8E
  8
0
  6
CONTINUOUS
 62
     7
 10
198.9000000000001
 20
1015.077300853172
 30
0.0
 11
198.9000000000001
 21
1016.119353792227
 31
0.0
  0
LINE
  5
8F
  8
0
  6
CONTINUOUS
 62
     7
 10
198.9000000000001
 20
892.764185722941
 30
0.0
 11
198.9000000000001
 21
893.315991816767
 31
0.0
  0
ARC
  5
90
  8
0
  6
CONTINUOUS
 62
     7
 10
200.7776608271746
 20
908.9365395057495
 30
0.0
 40
2.479944917103588
 50
182.4592719197302
 51
218.6769368558392
  0
ARC
  5
91
  8
0
  6
CONTINUOUS
 62
     7
 10
206.9183179506109
 20
904.3772151491879
 30
0.0
 40
8.619192561801182
 50
159.5636364369487
 51
179.1837644125293
  0
ARC
  5
92
  8
0
  6
CONTINUOUS
 62
     7
 10
206.7786691497911
 20
904.5965839366017
 30
0.0
 40
8.479219245215194
 50
180.6526510814246
 51
200.5999480690959
  0
ARC
  5
93
  8
0
  6
CONTINUOUS
 62
     7
 10
200.8437021475272
 20
900.0386791433369
 30
0.0
 40
2.547083123573908
 50
141.8162590230855
 51
177.0475322013454
  0
ARC
  5
94
  8
0
  6
CONTINUOUS
 62
     7
 10
193.6892663530741
 20
904.3786381165819
 30
0.0
 40
8.611588857176745
 50
0.8074879120572467
 51
20.44511123846515
  0
ARC
  5
95
  8
0
  6
CONTINUOUS
 62
     7
 10
199.7562978524736
 20
908.9613208566625
 30
0.0
 40
2.547083123573356
 50
321.816259023082
 51
357.0475322013497
  0
LINE
  5
96
  8
0
  6
CONTINUOUS
 62
     7
 10
202.3000000000001
 20
908.8301270189221
 30
0.0
 11
202.3000000000001
 21
904.4999999999999
 31
0.0
  0
ARC
  5
97
  8
0
  6
CONTINUOUS
 62
     7
 10
199.8223391728253
 20
900.06346049425
 30
0.0
 40
2.479944917103926
 50
2.459271919732379
 51
38.67693685583688
  0
ARC
  5
98
  8
0
  6
CONTINUOUS
 62
     7
 10
193.6316025132331
 20
904.6321807756088
 30
0.0
 40
8.66940521293296
 50
339.621012573144
 51
359.126388276334
  0
LINE
  5
99
  8
0
  6
CONTINUOUS
 62
     7
 10
202.3000000000001
 20
904.4999999999999
 30
0.0
 11
202.3000000000001
 21
900.1698729810777
 31
0.0
  0
ARC
  5
9A
  8
0
  6
CONTINUOUS
 62
     7
 10
199.8223391728256
 20
908.7237145320944
 30
0.0
 40
2.479944917103588
 50
2.459271919730147
 51
38.67693685583925
  0
LINE
  5
9B
  8
0
  6
CONTINUOUS
 62
     7
 10
198.8416124156913
 20
907.3867513459479
 30
0.0
 11
201.7583875843089
 21
907.3867513459479
 31
0.0
  0
ARC
  5
9C
  8
0
  6
CONTINUOUS
 62
     7
 10
200.8437021475266
 20
908.6989331811815
 30
0.0
 40
2.547083123573356
 50
141.816259023082
 51
177.0475322013498
  0
LINE
  5
9D
  8
0
  6
CONTINUOUS
 62
     7
 10
198.8416124156913
 20
910.2735026918959
 30
0.0
 11
201.7583875843089
 21
910.2735026918959
 31
0.0
  0
LINE
  5
9E
  8
0
  6
CONTINUOUS
 62
     7
 10
198.8416124156913
 20
901.6132486540516
 30
0.0
 11
201.7583875843088
 21
901.6132486540516
 31
0.0
  0
ARC
  5
9F
  8
0
  6
CONTINUOUS
 62
     7
 10
199.7562978524733
 20
900.3010668188183
 30
0.0
 40
2.547083123573643
 50
321.8162590230839
 51
357.0475322013476
  0
LINE
  5
A0
  8
0
  6
CONTINUOUS
 62
     7
 10
198.8416124156914
 20
898.7264973081036
 30
0.0
 11
201.7583875843088
 21
898.7264973081036
 31
0.0
  0
ARC
  5
A1
  8
0
  6
CONTINUOUS
 62
     7
 10
200.777660827175
 20
900.2762854679053
 30
0.0
 40
2.479944917103926
 50
182.4592719197324
 51
218.6769368558369
  0
LINE
  5
A2
  8
0
  6
CONTINUOUS
 62
     7
 10
173.3000000000001
 20
907.4999999999999
 30
0.0
 11
173.3000000000001
 21
906.4102448306347
 31
0.0
  0
LINE
  5
A3
  8
0
  6
CONTINUOUS
 62
     7
 10
173.3000000000001
 20
902.5897551693653
 30
0.0
 11
173.3000000000001
 21
901.4999999999999
 31
0.0
  0
LINE
  5
A4
  8
0
  6
CONTINUOUS
 62
     7
 10
202.3000000000001
 20
900.1698729810777
 30
0.0
 11
202.3000000000001
 21
899.4999999999998
 31
0.0
  0
LINE
  5
A5
  8
0
  6
CONTINUOUS
 62
     7
 10
202.3000000000001
 20
909.4999999999999
 30
0.0
 11
202.3000000000001
 21
908.8301270189221
 31
0.0
  0
ARC
  5
A6
  8
0
  6
CONTINUOUS
 62
     7
 10
200.7776608271746
 20
1008.93653950575
 30
0.0
 40
2.479944917103523
 50
182.4592719197251
 51
218.6769368558381
  0
ARC
  5
A7
  8
0
  6
CONTINUOUS
 62
     7
 10
206.9183179506082
 20
1004.377215149189
 30
0.0
 40
8.619192561798517
 50
159.563636436946
 51
179.1837644125327
  0
ARC
  5
A8
  8
0
  6
CONTINUOUS
 62
     7
 10
206.7786691497901
 20
1004.596583936602
 30
0.0
 40
8.47921924521414
 50
180.6526510814239
 51
200.5999480690971
  0
ARC
  5
A9
  8
0
  6
CONTINUOUS
 62
     7
 10
200.8437021475279
 20
1000.038679143337
 30
0.0
 40
2.54708312357459
 50
141.8162590230912
 51
177.0475322013437
  0
LINE
  5
AA
  8
0
  6
CONTINUOUS
 62
     7
 10
202.3000000000001
 20
1008.830127018923
 30
0.0
 11
202.3000000000001
 21
1004.5
 31
0.0
  0
ARC
  5
AB
  8
0
  6
CONTINUOUS
 62
     7
 10
193.6892663530741
 20
1004.378638116582
 30
0.0
 40
8.611588857176745
 50
0.8074879120572467
 51
20.44511123846515
  0
ARC
  5
AC
  8
0
  6
CONTINUOUS
 62
     7
 10
199.7562978524729
 20
1008.961320856663
 30
0.0
 40
2.547083123574038
 50
321.8162590230878
 51
357.0475322013481
  0
LINE
  5
AD
  8
0
  6
CONTINUOUS
 62
     7
 10
202.3000000000001
 20
1004.5
 30
0.0
 11
202.3000000000001
 21
1000.169872981078
 31
0.0
  0
ARC
  5
AE
  8
0
  6
CONTINUOUS
 62
     7
 10
199.8223391728253
 20
1000.063460494251
 30
0.0
 40
2.479944917103866
 50
2.459271919729872
 51
38.67693685583765
  0
ARC
  5
AF
  8
0
  6
CONTINUOUS
 62
     7
 10
193.6316025132345
 20
1004.632180775609
 30
0.0
 40
8.669405212931569
 50
339.6210125731429
 51
359.1263882763352
  0
ARC
  5
B0
  8
0
  6
CONTINUOUS
 62
     7
 10
199.8223391728255
 20
1008.723714532095
 30
0.0
 40
2.479944917103644
 50
2.459271919730091
 51
38.67693685583646
  0
LINE
  5
B1
  8
0
  6
CONTINUOUS
 62
     7
 10
198.8416124156913
 20
1007.386751345948
 30
0.0
 11
201.7583875843089
 21
1007.386751345948
 31
0.0
  0
ARC
  5
B2
  8
0
  6
CONTINUOUS
 62
     7
 10
200.8437021475259
 20
1008.698933181182
 30
0.0
 40
2.547083123572673
 50
141.8162590230763
 51
177.0475322013515
  0
LINE
  5
B3
  8
0
  6
CONTINUOUS
 62
     7
 10
198.8416124156913
 20
1010.273502691897
 30
0.0
 11
201.7583875843089
 21
1010.273502691897
 31
0.0
  0
LINE
  5
B4
  8
0
  6
CONTINUOUS
 62
     7
 10
198.8416124156913
 20
1001.613248654052
 30
0.0
 11
201.7583875843088
 21
1001.613248654052
 31
0.0
  0
ARC
  5
B5
  8
0
  6
CONTINUOUS
 62
     7
 10
199.7562978524733
 20
1000.301066818819
 30
0.0
 40
2.547083123573643
 50
321.8162590230839
 51
357.0475322013476
  0
LINE
  5
B6
  8
0
  6
CONTINUOUS
 62
     7
 10
198.8416124156914
 20
998.7264973081042
 30
0.0
 11
201.7583875843088
 21
998.7264973081042
 31
0.0
  0
ARC
  5
B7
  8
0
  6
CONTINUOUS
 62
     7
 10
200.777660827175
 20
1000.276285467906
 30
0.0
 40
2.479944917103931
 50
182.4592719197349
 51
218.6769368558388
  0
LINE
  5
B8
  8
0
  6
CONTINUOUS
 62
     7
 10
173.3000000000001
 20
1007.5
 30
0.0
 11
173.3000000000001
 21
1006.410244830635
 31
0.0
  0
LINE
  5
B9
  8
0
  6
CONTINUOUS
 62
     7
 10
173.3000000000001
 20
1002.589755169365
 30
0.0
 11
173.3000000000001
 21
1001.5
 31
0.0
  0
LINE
  5
BA
  8
0
  6
CONTINUOUS
 62
     7
 10
202.3000000000001
 20
1000.169872981078
 30
0.0
 11
202.3000000000001
 21
999.5000000000003
 31
0.0
  0
LINE
  5
BB
  8
0
  6
CONTINUOUS
 62
     7
 10
202.3000000000001
 20
1009.5
 30
0.0
 11
202.3000000000001
 21
1008.830127018923
 31
0.0
  0
LINE
  5
BC
  8
0
  6
CONTINUOUS
 62
     7
 10
198.3000000000001
 20
910.5000000000001
 30
0.0
 11
198.3000000000001
 21
898.5000000000001
 31
0.0
  0
LINE
  5
BD
  8
0
  6
CONTINUOUS
 62
     7
 10
198.3000000000001
 20
1010.5
 30
0.0
 11
198.3000000000001
 21
998.5000000000001
 31
0.0
  0
LINE
  5
BE
  8
0
  6
CONTINUOUS
 62
     7
 10
177.0238985655402
 20
906.7739055644959
 30
0.0
 11
177.9827114052318
 21
906.8370438317979
 31
0.0
  0
LINE
  5
BF
  8
0
  6
CONTINUOUS
 62
     7
 10
177.9827114052318
 20
906.8370438317979
 30
0.0
 11
180.6215285552388
 21
906.9599745699059
 31
0.0
  0
LINE
  5
C0
  8
0
  6
CONTINUOUS
 62
     7
 10
177.9827114052318
 20
902.1629561682021
 30
0.0
 11
177.0238985655402
 21
902.2260944355041
 31
0.0
  0
LINE
  5
C1
  8
0
  6
CONTINUOUS
 62
     7
 10
180.6215285552386
 20
902.0400254300941
 30
0.0
 11
177.9827114052318
 21
902.1629561682021
 31
0.0
  0
POLYLINE
  5
C2
  8
0
  6
CONTINUOUS
 62
     7
 66
     1
 10
0.0
 20
0.0
 30
0.0
  0
VERTEX
  5
220
  8
0
  6
CONTINUOUS
 62
     7
 10
181.0137600849268
 20
902.5429859312527
 30
0.0
  0
VERTEX
  5
221
  8
0
  6
CONTINUOUS
 62
     7
 10
181.0194818772743
 20
902.5152799661363
 30
0.0
  0
VERTEX
  5
222
  8
0
  6
CONTINUOUS
 62
     7
 10
181.0238047588472
 20
902.4874769112879
 30
0.0
  0
VERTEX
  5
223
  8
0
  6
CONTINUOUS
 62
     7
 10
181.0266812342867
 20
902.4596874653093
 30
0.0
  0
VERTEX
  5
224
  8
0
  6
CONTINUOUS
 62
     7
 10
181.0278831088042
 20
902.4383397791213
 30
0.0
  0
VERTEX
  5
225
  8
0
  6
CONTINUOUS
 62
     7
 10
181.0281865129274
 20
902.4170532828006
 30
0.0
  0
VERTEX
  5
226
  8
0
  6
CONTINUOUS
 62
     7
 10
181.0275742575768
 20
902.3958876498037
 30
0.0
  0
VERTEX
  5
227
  8
0
  6
CONTINUOUS
 62
     7
 10
181.0260291536726
 20
902.3749025535872
 30
0.0
  0
VERTEX
  5
228
  8
0
  6
CONTINUOUS
 62
     7
 10
181.023604148781
 20
902.3546305972452
 30
0.0
  0
VERTEX
  5
229
  8
0
  6
CONTINUOUS
 62
     7
 10
181.0202589585486
 20
902.3345748074471
 30
0.0
  0
VERTEX
  5
22A
  8
0
  6
CONTINUOUS
 62
     7
 10
181.0159862544974
 20
902.3147997025113
 30
0.0
  0
VERTEX
  5
22B
  8
0
  6
CONTINUOUS
 62
     7
 10
181.0107787081497
 20
902.2953698007564
 30
0.0
  0
VERTEX
  5
22C
  8
0
  6
CONTINUOUS
 62
     7
 10
181.0043759308479
 20
902.2756254260121
 30
0.0
  0
VERTEX
  5
22D
  8
0
  6
CONTINUOUS
 62
     7
 10
180.996940008158
 20
902.2563102435499
 30
0.0
  0
VERTEX
  5
22E
  8
0
  6
CONTINUOUS
 62
     7
 10
180.9884804743567
 20
902.2375038217721
 30
0.0
  0
VERTEX
  5
22F
  8
0
  6
CONTINUOUS
 62
     7
 10
180.9790068637203
 20
902.2192857290806
 30
0.0
  0
VERTEX
  5
230
  8
0
  6
CONTINUOUS
 62
     7
 10
180.9700532497641
 20
902.2041373966814
 30
0.0
  0
VERTEX
  5
231
  8
0
  6
CONTINUOUS
 62
     7
 10
180.9603448884303
 20
902.1894673134111
 30
0.0
  0
VERTEX
  5
232
  8
0
  6
CONTINUOUS
 62
     7
 10
180.9499037265892
 20
902.1753255081679
 30
0.0
  0
VERTEX
  5
233
  8
0
  6
CONTINUOUS
 62
     7
 10
180.9387517111114
 20
902.1617620098497
 30
0.0
  0
VERTEX
  5
234
  8
0
  6
CONTINUOUS
 62
     7
 10
180.9264378318631
 20
902.1483321900857
 30
0.0
  0
VERTEX
  5
235
  8
0
  6
CONTINUOUS
 62
     7
 10
180.9133712648065
 20
902.1355640389777
 30
0.0
  0
VERTEX
  5
236
  8
0
  6
CONTINUOUS
 62
     7
 10
180.899595816446
 20
902.1235042435479
 30
0.0
  0
VERTEX
  5
237
  8
0
  6
CONTINUOUS
 62
     7
 10
180.8851552932863
 20
902.112199490819
 30
0.0
  0
VERTEX
  5
238
  8
0
  6
CONTINUOUS
 62
     7
 10
180.8722362946544
 20
902.1031099507807
 30
0.0
  0
VERTEX
  5
239
  8
0
  6
CONTINUOUS
 62
     7
 10
180.858849863868
 20
902.094593420528
 30
0.0
  0
VERTEX
  5
23A
  8
0
  6
CONTINUOUS
 62
     7
 10
180.845033244816
 20
902.086668972874
 30
0.0
  0
VERTEX
  5
23B
  8
0
  6
CONTINUOUS
 62
     7
 10
180.8308236813877
 20
902.0793556806316
 30
0.0
  0
VERTEX
  5
23C
  8
0
  6
CONTINUOUS
 62
     7
 10
180.81579434328
 20
902.0724684205225
 30
0.0
  0
VERTEX
  5
23D
  8
0
  6
CONTINUOUS
 62
     7
 10
180.8003800626131
 20
902.0662311130892
 30
0.0
  0
VERTEX
  5
23E
  8
0
  6
CONTINUOUS
 62
     7
 10
180.7846259345318
 20
902.0606515200756
 30
0.0
  0
VERTEX
  5
23F
  8
0
  6
CONTINUOUS
 62
     7
 10
180.768577054181
 20
902.0557374032254
 30
0.0
  0
VERTEX
  5
240
  8
0
  6
CONTINUOUS
 62
     7
 10
180.751194193259
 20
902.051235931931
 30
0.0
  0
VERTEX
  5
241
  8
0
  6
CONTINUOUS
 62
     7
 10
180.7335183373281
 20
902.0474728398477
 30
0.0
  0
VERTEX
  5
242
  8
0
  6
CONTINUOUS
 62
     7
 10
180.7156017714631
 20
902.0444428143294
 30
0.0
  0
VERTEX
  5
243
  8
0
  6
CONTINUOUS
 62
     7
 10
180.6974967807388
 20
902.0421405427296
 30
0.0
  0
VERTEX
  5
244
  8
0
  6
CONTINUOUS
 62
     7
 10
180.6786956083594
 20
902.0405196498392
 30
0.0
  0
VERTEX
  5
245
  8
0
  6
CONTINUOUS
 62
     7
 10
180.6597349138365
 20
902.0396379305406
 30
0.0
  0
VERTEX
  5
246
  8
0
  6
CONTINUOUS
 62
     7
 10
180.6406630963897
 20
902.0394787391778
 30
0.0
  0
VERTEX
  5
247
  8
0
  6
CONTINUOUS
 62
     7
 10
180.6215285552386
 20
902.0400254300941
 30
0.0
  0
SEQEND
  5
2F0
  8
0
  6
CONTINUOUS
 62
     7
  0
POLYLINE
  5
C3
  8
0
  6
CONTINUOUS
 62
     7
 66
     1
 10
0.0
 20
0.0
 30
0.0
  0
VERTEX
  5
248
  8
0
  6
CONTINUOUS
 62
     7
 10
180.6215285552388
 20
906.9599745699059
 30
0.0
  0
VERTEX
  5
249
  8
0
  6
CONTINUOUS
 62
     7
 10
180.6456917251727
 20
906.9605487676273
 30
0.0
  0
VERTEX
  5
24A
  8
0
  6
CONTINUOUS
 62
     7
 10
180.6697318180046
 20
906.9599896696066
 30
0.0
  0
VERTEX
  5
24B
  8
0
  6
CONTINUOUS
 62
     7
 10
180.6935518113222
 20
906.9582632910339
 30
0.0
  0
VERTEX
  5
24C
  8
0
  6
CONTINUOUS
 62
     7
 10
180.7116906337662
 20
906.9561174306917
 30
0.0
  0
VERTEX
  5
24D
  8
0
  6
CONTINUOUS
 62
     7
 10
180.7296486378642
 20
906.9532468382474
 30
0.0
  0
VERTEX
  5
24E
  8
0
  6
CONTINUOUS
 62
     7
 10
180.7473738958896
 20
906.9496455176322
 30
0.0
  0
VERTEX
  5
24F
  8
0
  6
CONTINUOUS
 62
     7
 10
180.764814480116
 20
906.945307472777
 30
0.0
  0
VERTEX
  5
250
  8
0
  6
CONTINUOUS
 62
     7
 10
180.7815436177766
 20
906.9403501894599
 30
0.0
  0
VERTEX
  5
251
  8
0
  6
CONTINUOUS
 62
     7
 10
180.7979620384255
 20
906.9346753577687
 30
0.0
  0
VERTEX
  5
252
  8
0
  6
CONTINUOUS
 62
     7
 10
180.8140192073082
 20
906.928291103455
 30
0.0
  0
VERTEX
  5
253
  8
0
  6
CONTINUOUS
 62
     7
 10
180.8296645896704
 20
906.9212055522697
 30
0.0
  0
VERTEX
  5
254
  8
0
  6
CONTINUOUS
 62
     7
 10
180.8453816237097
 20
906.9131403345212
 30
0.0
  0
VERTEX
  5
255
  8
0
  6
CONTINUOUS
 62
     7
 10
180.8606193934409
 20
906.904327882448
 30
0.0
  0
VERTEX
  5
256
  8
0
  6
CONTINUOUS
 62
     7
 10
180.8753279375551
 20
906.8947944327098
 30
0.0
  0
VERTEX
  5
257
  8
0
  6
CONTINUOUS
 62
     7
 10
180.8894572947431
 20
906.8845662219669
 30
0.0
  0
VERTEX
  5
258
  8
0
  6
CONTINUOUS
 62
     7
 10
180.9016628345915
 20
906.8747728464264
 30
0.0
  0
VERTEX
  5
259
  8
0
  6
CONTINUOUS
 62
     7
 10
180.9133782741052
 20
906.8644335074115
 30
0.0
  0
VERTEX
  5
25A
  8
0
  6
CONTINUOUS
 62
     7
 10
180.9245763293102
 20
906.8535773059144
 30
0.0
  0
VERTEX
  5
25B
  8
0
  6
CONTINUOUS
 62
     7
 10
180.9352297162324
 20
906.8422333429273
 30
0.0
  0
VERTEX
  5
25C
  8
0
  6
CONTINUOUS
 62
     7
 10
180.9456177810733
 20
906.8300594610382
 30
0.0
  0
VERTEX
  5
25D
  8
0
  6
CONTINUOUS
 62
     7
 10
180.9554200012289
 20
906.8173955339016
 30
0.0
  0
VERTEX
  5
25E
  8
0
  6
CONTINUOUS
 62
     7
 10
180.9646182510475
 20
906.8042790417901
 30
0.0
  0
VERTEX
  5
25F
  8
0
  6
CONTINUOUS
 62
     7
 10
180.9731944048775
 20
906.7907474649764
 30
0.0
  0
VERTEX
  5
260
  8
0
  6
CONTINUOUS
 62
     7
 10
180.9834846259569
 20
906.7724025927254
 30
0.0
  0
VERTEX
  5
261
  8
0
  6
CONTINUOUS
 62
     7
 10
180.9927162420094
 20
906.7533806107858
 30
0.0
  0
VERTEX
  5
262
  8
0
  6
CONTINUOUS
 62
     7
 10
181.0008817080128
 20
906.7337666251152
 30
0.0
  0
VERTEX
  5
263
  8
0
  6
CONTINUOUS
 62
     7
 10
181.0079734789449
 20
906.713645741671
 30
0.0
  0
VERTEX
  5
264
  8
0
  6
CONTINUOUS
 62
     7
 10
181.0139840097836
 20
906.6931030664108
 30
0.0
  0
VERTEX
  5
265
  8
0
  6
CONTINUOUS
 62
     7
 10
181.0189057555066
 20
906.672223705292
 30
0.0
  0
VERTEX
  5
266
  8
0
  6
CONTINUOUS
 62
     7
 10
181.023063461414
 20
906.649005721316
 30
0.0
  0
VERTEX
  5
267
  8
0
  6
CONTINUOUS
 62
     7
 10
181.025979676081
 20
906.6254014564197
 30
0.0
  0
VERTEX
  5
268
  8
0
  6
CONTINUOUS
 62
     7
 10
181.0276769565957
 20
906.6015014581752
 30
0.0
  0
VERTEX
  5
269
  8
0
  6
CONTINUOUS
 62
     7
 10
181.0281778600463
 20
906.5773962741544
 30
0.0
  0
VERTEX
  5
26A
  8
0
  6
CONTINUOUS
 62
     7
 10
181.0275049435211
 20
906.5531764519291
 30
0.0
  0
VERTEX
  5
26B
  8
0
  6
CONTINUOUS
 62
     7
 10
181.0256807641081
 20
906.5289325390715
 30
0.0
  0
VERTEX
  5
26C
  8
0
  6
CONTINUOUS
 62
     7
 10
181.0227670171817
 20
906.5049288550072
 30
0.0
  0
VERTEX
  5
26D
  8
0
  6
CONTINUOUS
 62
     7
 10
181.0187831664944
 20
906.480932538058
 30
0.0
  0
VERTEX
  5
26E
  8
0
  6
CONTINUOUS
 62
     7
 10
181.0137600849269
 20
906.4570140687473
 30
0.0
  0
SEQEND
  5
2F1
  8
0
  6
CONTINUOUS
 62
     7
  0
ARC
  5
C4
  8
0
  6
CONTINUOUS
 62
     7
 10
189.2492439880778
 20
904.5
 30
0.0
 40
8.464815366228265
 50
166.632625461024
 51
193.3673745389752
  0
LINE
  5
C5
  8
0
  6
CONTINUOUS
 62
     7
 10
177.0238985655402
 20
906.7739055644959
 30
0.0
 11
176.9204779995882
 21
906.7654272908701
 31
0.0
  0
LINE
  5
C6
  8
0
  6
CONTINUOUS
 62
     7
 10
176.9204779995881
 20
902.2345727091299
 30
0.0
 11
177.0238985655402
 21
902.2260944355041
 31
0.0
  0
LINE
  5
C7
  8
0
  6
CONTINUOUS
 62
     7
 10
175.7000000000001
 20
900.3903882032023
 30
0.0
 11
175.7000000000001
 21
902.3543061748784
 31
0.0
  0
LINE
  5
C8
  8
0
  6
CONTINUOUS
 62
     7
 10
175.7000000000001
 20
906.6456938251216
 30
0.0
 11
175.7000000000001
 21
908.6096117967977
 31
0.0
  0
LINE
  5
C9
  8
0
  6
CONTINUOUS
 62
     7
 10
177.9827114052318
 20
1002.162956168202
 30
0.0
 11
177.0238985655402
 21
1002.226094435504
 31
0.0
  0
LINE
  5
CA
  8
0
  6
CONTINUOUS
 62
     7
 10
180.6215285552386
 20
1002.040025430094
 30
0.0
 11
177.9827114052318
 21
1002.162956168202
 31
0.0
  0
LINE
  5
CB
  8
0
  6
CONTINUOUS
 62
     7
 10
177.0238985655402
 20
1006.773905564496
 30
0.0
 11
177.9827114052318
 21
1006.837043831798
 31
0.0
  0
LINE
  5
CC
  8
0
  6
CONTINUOUS
 62
     7
 10
177.9827114052318
 20
1006.837043831798
 30
0.0
 11
180.6215285552388
 21
1006.959974569906
 31
0.0
  0
POLYLINE
  5
CD
  8
0
  6
CONTINUOUS
 62
     7
 66
     1
 10
0.0
 20
0.0
 30
0.0
  0
VERTEX
  5
26F
  8
0
  6
CONTINUOUS
 62
     7
 10
181.0137600849268
 20
1002.542985931253
 30
0.0
  0
VERTEX
  5
270
  8
0
  6
CONTINUOUS
 62
     7
 10
181.0194818772743
 20
1002.515279966136
 30
0.0
  0
VERTEX
  5
271
  8
0
  6
CONTINUOUS
 62
     7
 10
181.0238047588472
 20
1002.487476911288
 30
0.0
  0
VERTEX
  5
272
  8
0
  6
CONTINUOUS
 62
     7
 10
181.0266812342867
 20
1002.459687465309
 30
0.0
  0
VERTEX
  5
273
  8
0
  6
CONTINUOUS
 62
     7
 10
181.0278831088042
 20
1002.438339779121
 30
0.0
  0
VERTEX
  5
274
  8
0
  6
CONTINUOUS
 62
     7
 10
181.0281865129274
 20
1002.417053282801
 30
0.0
  0
VERTEX
  5
275
  8
0
  6
CONTINUOUS
 62
     7
 10
181.0275742575768
 20
1002.395887649804
 30
0.0
  0
VERTEX
  5
276
  8
0
  6
CONTINUOUS
 62
     7
 10
181.0260291536726
 20
1002.374902553587
 30
0.0
  0
VERTEX
  5
277
  8
0
  6
CONTINUOUS
 62
     7
 10
181.023604148781
 20
1002.354630597245
 30
0.0
  0
VERTEX
  5
278
  8
0
  6
CONTINUOUS
 62
     7
 10
181.0202589585486
 20
1002.334574807447
 30
0.0
  0
VERTEX
  5
279
  8
0
  6
CONTINUOUS
 62
     7
 10
181.0159862544974
 20
1002.314799702511
 30
0.0
  0
VERTEX
  5
27A
  8
0
  6
CONTINUOUS
 62
     7
 10
181.0107787081497
 20
1002.295369800756
 30
0.0
  0
VERTEX
  5
27B
  8
0
  6
CONTINUOUS
 62
     7
 10
181.0043759308479
 20
1002.275625426012
 30
0.0
  0
VERTEX
  5
27C
  8
0
  6
CONTINUOUS
 62
     7
 10
180.996940008158
 20
1002.25631024355
 30
0.0
  0
VERTEX
  5
27D
  8
0
  6
CONTINUOUS
 62
     7
 10
180.9884804743567
 20
1002.237503821772
 30
0.0
  0
VERTEX
  5
27E
  8
0
  6
CONTINUOUS
 62
     7
 10
180.9790068637203
 20
1002.219285729081
 30
0.0
  0
VERTEX
  5
27F
  8
0
  6
CONTINUOUS
 62
     7
 10
180.9700532497641
 20
1002.204137396681
 30
0.0
  0
VERTEX
  5
280
  8
0
  6
CONTINUOUS
 62
     7
 10
180.9603448884303
 20
1002.189467313411
 30
0.0
  0
VERTEX
  5
281
  8
0
  6
CONTINUOUS
 62
     7
 10
180.9499037265892
 20
1002.175325508168
 30
0.0
  0
VERTEX
  5
282
  8
0
  6
CONTINUOUS
 62
     7
 10
180.9387517111114
 20
1002.16176200985
 30
0.0
  0
VERTEX
  5
283
  8
0
  6
CONTINUOUS
 62
     7
 10
180.9264378318631
 20
1002.148332190086
 30
0.0
  0
VERTEX
  5
284
  8
0
  6
CONTINUOUS
 62
     7
 10
180.9133712648065
 20
1002.135564038977
 30
0.0
  0
VERTEX
  5
285
  8
0
  6
CONTINUOUS
 62
     7
 10
180.899595816446
 20
1002.123504243548
 30
0.0
  0
VERTEX
  5
286
  8
0
  6
CONTINUOUS
 62
     7
 10
180.8851552932863
 20
1002.112199490819
 30
0.0
  0
VERTEX
  5
287
  8
0
  6
CONTINUOUS
 62
     7
 10
180.8722362946544
 20
1002.103109950781
 30
0.0
  0
VERTEX
  5
288
  8
0
  6
CONTINUOUS
 62
     7
 10
180.858849863868
 20
1002.094593420528
 30
0.0
  0
VERTEX
  5
289
  8
0
  6
CONTINUOUS
 62
     7
 10
180.845033244816
 20
1002.086668972874
 30
0.0
  0
VERTEX
  5
28A
  8
0
  6
CONTINUOUS
 62
     7
 10
180.8308236813877
 20
1002.079355680632
 30
0.0
  0
VERTEX
  5
28B
  8
0
  6
CONTINUOUS
 62
     7
 10
180.81579434328
 20
1002.072468420522
 30
0.0
  0
VERTEX
  5
28C
  8
0
  6
CONTINUOUS
 62
     7
 10
180.8003800626131
 20
1002.066231113089
 30
0.0
  0
VERTEX
  5
28D
  8
0
  6
CONTINUOUS
 62
     7
 10
180.7846259345318
 20
1002.060651520076
 30
0.0
  0
VERTEX
  5
28E
  8
0
  6
CONTINUOUS
 62
     7
 10
180.768577054181
 20
1002.055737403226
 30
0.0
  0
VERTEX
  5
28F
  8
0
  6
CONTINUOUS
 62
     7
 10
180.751194193259
 20
1002.051235931931
 30
0.0
  0
VERTEX
  5
290
  8
0
  6
CONTINUOUS
 62
     7
 10
180.7335183373281
 20
1002.047472839848
 30
0.0
  0
VERTEX
  5
291
  8
0
  6
CONTINUOUS
 62
     7
 10
180.7156017714631
 20
1002.044442814329
 30
0.0
  0
VERTEX
  5
292
  8
0
  6
CONTINUOUS
 62
     7
 10
180.6974967807388
 20
1002.042140542729
 30
0.0
  0
VERTEX
  5
293
  8
0
  6
CONTINUOUS
 62
     7
 10
180.6786956083594
 20
1002.040519649839
 30
0.0
  0
VERTEX
  5
294
  8
0
  6
CONTINUOUS
 62
     7
 10
180.6597349138365
 20
1002.039637930541
 30
0.0
  0
VERTEX
  5
295
  8
0
  6
CONTINUOUS
 62
     7
 10
180.6406630963897
 20
1002.039478739178
 30
0.0
  0
VERTEX
  5
296
  8
0
  6
CONTINUOUS
 62
     7
 10
180.6215285552386
 20
1002.040025430094
 30
0.0
  0
SEQEND
  5
2F2
  8
0
  6
CONTINUOUS
 62
     7
  0
POLYLINE
  5
CE
  8
0
  6
CONTINUOUS
 62
     7
 66
     1
 10
0.0
 20
0.0
 30
0.0
  0
VERTEX
  5
297
  8
0
  6
CONTINUOUS
 62
     7
 10
180.6215285552388
 20
1006.959974569906
 30
0.0
  0
VERTEX
  5
298
  8
0
  6
CONTINUOUS
 62
     7
 10
180.6456917251727
 20
1006.960548767627
 30
0.0
  0
VERTEX
  5
299
  8
0
  6
CONTINUOUS
 62
     7
 10
180.6697318180046
 20
1006.959989669607
 30
0.0
  0
VERTEX
  5
29A
  8
0
  6
CONTINUOUS
 62
     7
 10
180.6935518113222
 20
1006.958263291034
 30
0.0
  0
VERTEX
  5
29B
  8
0
  6
CONTINUOUS
 62
     7
 10
180.7116906337662
 20
1006.956117430692
 30
0.0
  0
VERTEX
  5
29C
  8
0
  6
CONTINUOUS
 62
     7
 10
180.7296486378642
 20
1006.953246838247
 30
0.0
  0
VERTEX
  5
29D
  8
0
  6
CONTINUOUS
 62
     7
 10
180.7473738958896
 20
1006.949645517632
 30
0.0
  0
VERTEX
  5
29E
  8
0
  6
CONTINUOUS
 62
     7
 10
180.764814480116
 20
1006.945307472777
 30
0.0
  0
VERTEX
  5
29F
  8
0
  6
CONTINUOUS
 62
     7
 10
180.7815436177766
 20
1006.94035018946
 30
0.0
  0
VERTEX
  5
2A0
  8
0
  6
CONTINUOUS
 62
     7
 10
180.7979620384255
 20
1006.934675357769
 30
0.0
  0
VERTEX
  5
2A1
  8
0
  6
CONTINUOUS
 62
     7
 10
180.8140192073082
 20
1006.928291103455
 30
0.0
  0
VERTEX
  5
2A2
  8
0
  6
CONTINUOUS
 62
     7
 10
180.8296645896704
 20
1006.92120555227
 30
0.0
  0
VERTEX
  5
2A3
  8
0
  6
CONTINUOUS
 62
     7
 10
180.8453816237097
 20
1006.913140334521
 30
0.0
  0
VERTEX
  5
2A4
  8
0
  6
CONTINUOUS
 62
     7
 10
180.8606193934409
 20
1006.904327882448
 30
0.0
  0
VERTEX
  5
2A5
  8
0
  6
CONTINUOUS
 62
     7
 10
180.8753279375551
 20
1006.89479443271
 30
0.0
  0
VERTEX
  5
2A6
  8
0
  6
CONTINUOUS
 62
     7
 10
180.8894572947431
 20
1006.884566221967
 30
0.0
  0
VERTEX
  5
2A7
  8
0
  6
CONTINUOUS
 62
     7
 10
180.9016628345915
 20
1006.874772846426
 30
0.0
  0
VERTEX
  5
2A8
  8
0
  6
CONTINUOUS
 62
     7
 10
180.9133782741052
 20
1006.864433507411
 30
0.0
  0
VERTEX
  5
2A9
  8
0
  6
CONTINUOUS
 62
     7
 10
180.9245763293102
 20
1006.853577305914
 30
0.0
  0
VERTEX
  5
2AA
  8
0
  6
CONTINUOUS
 62
     7
 10
180.9352297162324
 20
1006.842233342927
 30
0.0
  0
VERTEX
  5
2AB
  8
0
  6
CONTINUOUS
 62
     7
 10
180.9456177810733
 20
1006.830059461038
 30
0.0
  0
VERTEX
  5
2AC
  8
0
  6
CONTINUOUS
 62
     7
 10
180.9554200012289
 20
1006.817395533902
 30
0.0
  0
VERTEX
  5
2AD
  8
0
  6
CONTINUOUS
 62
     7
 10
180.9646182510475
 20
1006.80427904179
 30
0.0
  0
VERTEX
  5
2AE
  8
0
  6
CONTINUOUS
 62
     7
 10
180.9731944048775
 20
1006.790747464976
 30
0.0
  0
VERTEX
  5
2AF
  8
0
  6
CONTINUOUS
 62
     7
 10
180.9834846259569
 20
1006.772402592725
 30
0.0
  0
VERTEX
  5
2B0
  8
0
  6
CONTINUOUS
 62
     7
 10
180.9927162420094
 20
1006.753380610786
 30
0.0
  0
VERTEX
  5
2B1
  8
0
  6
CONTINUOUS
 62
     7
 10
181.0008817080128
 20
1006.733766625115
 30
0.0
  0
VERTEX
  5
2B2
  8
0
  6
CONTINUOUS
 62
     7
 10
181.0079734789449
 20
1006.713645741671
 30
0.0
  0
VERTEX
  5
2B3
  8
0
  6
CONTINUOUS
 62
     7
 10
181.0139840097836
 20
1006.693103066411
 30
0.0
  0
VERTEX
  5
2B4
  8
0
  6
CONTINUOUS
 62
     7
 10
181.0189057555066
 20
1006.672223705292
 30
0.0
  0
VERTEX
  5
2B5
  8
0
  6
CONTINUOUS
 62
     7
 10
181.023063461414
 20
1006.649005721316
 30
0.0
  0
VERTEX
  5
2B6
  8
0
  6
CONTINUOUS
 62
     7
 10
181.025979676081
 20
1006.62540145642
 30
0.0
  0
VERTEX
  5
2B7
  8
0
  6
CONTINUOUS
 62
     7
 10
181.0276769565957
 20
1006.601501458175
 30
0.0
  0
VERTEX
  5
2B8
  8
0
  6
CONTINUOUS
 62
     7
 10
181.0281778600463
 20
1006.577396274154
 30
0.0
  0
VERTEX
  5
2B9
  8
0
  6
CONTINUOUS
 62
     7
 10
181.0275049435211
 20
1006.553176451929
 30
0.0
  0
VERTEX
  5
2BA
  8
0
  6
CONTINUOUS
 62
     7
 10
181.0256807641081
 20
1006.528932539072
 30
0.0
  0
VERTEX
  5
2BB
  8
0
  6
CONTINUOUS
 62
     7
 10
181.0227670171817
 20
1006.504928855007
 30
0.0
  0
VERTEX
  5
2BC
  8
0
  6
CONTINUOUS
 62
     7
 10
181.0187831664944
 20
1006.480932538058
 30
0.0
  0
VERTEX
  5
2BD
  8
0
  6
CONTINUOUS
 62
     7
 10
181.0137600849269
 20
1006.457014068747
 30
0.0
  0
SEQEND
  5
2F3
  8
0
  6
CONTINUOUS
 62
     7
  0
ARC
  5
CF
  8
0
  6
CONTINUOUS
 62
     7
 10
189.2492439880774
 20
1004.5
 30
0.0
 40
8.46481536622778
 50
166.6326254610239
 51
193.367374538976
  0
LINE
  5
D0
  8
0
  6
CONTINUOUS
 62
     7
 10
177.0238985655402
 20
1006.773905564496
 30
0.0
 11
176.9204779995882
 21
1006.76542729087
 31
0.0
  0
LINE
  5
D1
  8
0
  6
CONTINUOUS
 62
     7
 10
176.9204779995881
 20
1002.23457270913
 30
0.0
 11
177.0238985655402
 21
1002.226094435504
 31
0.0
  0
LINE
  5
D2
  8
0
  6
CONTINUOUS
 62
     7
 10
175.7000000000001
 20
1000.390388203202
 30
0.0
 11
175.7000000000001
 21
1002.354306174879
 31
0.0
  0
LINE
  5
D3
  8
0
  6
CONTINUOUS
 62
     7
 10
175.7000000000001
 20
1006.645693825122
 30
0.0
 11
175.7000000000001
 21
1008.609611796798
 31
0.0
  0
LINE
  5
D4
  8
0
  6
CONTINUOUS
 62
     7
 10
176.7000000000001
 20
888.0
 30
0.0
 11
176.7000000000001
 21
899.75
 31
0.0
  0
LINE
  5
D5
  8
0
  6
CONTINUOUS
 62
     7
 10
176.7000000000001
 20
909.25
 30
0.0
 11
176.7000000000001
 21
954.5
 31
0.0
  0
LINE
  5
D6
  8
0
  6
CONTINUOUS
 62
     7
 10
176.7000000000001
 20
954.5
 30
0.0
 11
176.7000000000001
 21
999.75
 31
0.0
  0
LINE
  5
D7
  8
0
  6
CONTINUOUS
 62
     7
 10
176.7000000000001
 20
1009.25
 30
0.0
 11
176.7000000000001
 21
1021.0
 31
0.0
  0
LINE
  5
D8
  8
0
  6
CONTINUOUS
 62
     7
 10
180.7000000000001
 20
885.0
 30
0.0
 11
180.7000000000001
 21
898.75
 31
0.0
  0
LINE
  5
D9
  8
0
  6
CONTINUOUS
 62
     7
 10
180.7000000000001
 20
910.25
 30
0.0
 11
180.7000000000001
 21
954.5
 31
0.0
  0
LINE
  5
DA
  8
0
  6
CONTINUOUS
 62
     7
 10
180.7000000000001
 20
954.5
 30
0.0
 11
180.7000000000001
 21
998.75
 31
0.0
  0
LINE
  5
DB
  8
0
  6
CONTINUOUS
 62
     7
 10
180.7000000000001
 20
1010.25
 30
0.0
 11
180.7000000000001
 21
1024.0
 31
0.0
  0
LINE
  5
DC
  8
0
  6
CONTINUOUS
 62
     7
 10
186.7000000000001
 20
1069.5
 30
0.0
 11
181.7000000000001
 21
1069.5
 31
0.0
  0
LINE
  5
DD
  8
0
  6
CONTINUOUS
 62
     7
 10
181.7000000000001
 20
839.5
 30
0.0
 11
186.7000000000001
 21
839.5
 31
0.0
  0
LINE
  5
DE
  8
0
  6
CONTINUOUS
 62
     7
 10
181.7000000000001
 20
839.5
 30
0.0
 11
181.7000000000001
 21
1069.5
 31
0.0
  0
LINE
  5
DF
  8
0
  6
CONTINUOUS
 62
     7
 10
181.7000000000001
 20
1079.5
 30
0.0
 11
186.7000000000001
 21
1079.5
 31
0.0
  0
LINE
  5
E0
  8
0
  6
CONTINUOUS
 62
     7
 10
181.7000000000001
 20
1069.5
 30
0.0
 11
181.7000000000001
 21
1079.5
 31
0.0
  0
LINE
  5
E1
  8
0
  6
CONTINUOUS
 62
     7
 10
186.7000000000001
 20
829.5
 30
0.0
 11
181.7000000000001
 21
829.5
 31
0.0
  0
LINE
  5
E2
  8
0
  6
CONTINUOUS
 62
     7
 10
181.7000000000001
 20
829.5
 30
0.0
 11
181.7000000000001
 21
839.5
 31
0.0
  0
ARC
  5
E3
  8
0
  6
CONTINUOUS
 62
     7
 10
95.20000000000009
 20
1015.0
 30
0.0
 40
121.0
 50
180.0
 51
270.0
  0
LINE
  5
E4
  8
0
  6
CONTINUOUS
 62
     7
 10
-25.7999999999999
 20
1016.5
 30
0.0
 11
-25.7999999999999
 21
1015.0
 31
0.0
  0
LINE
  5
E5
  8
0
  6
CONTINUOUS
 62
     7
 10
95.20000000000006
 20
894.0
 30
0.0
 11
96.70000000000009
 21
894.0
 31
0.0
  0
LINE
  5
E6
  8
0
  6
CONTINUOUS
 62
     7
 10
198.7000000000001
 20
1018.5
 30
0.0
 11
196.7000000000001
 21
1018.5
 31
0.0
  0
LINE
  5
E7
  8
0
  6
CONTINUOUS
 62
     7
 10
196.7000000000001
 20
890.5
 30
0.0
 11
198.7000000000001
 21
890.5
 31
0.0
  0
LINE
  5
E8
  8
0
  6
CONTINUOUS
 62
     7
 10
169.0197026022306
 20
1011.619888475836
 30
0.0
 11
146.7000000000001
 21
1011.497252747253
 31
0.0
  0
LINE
  5
E9
  8
0
  6
CONTINUOUS
 62
     7
 10
146.7000000000001
 20
897.5027472527472
 30
0.0
 11
169.0197026022306
 21
897.3801115241635
 31
0.0
  0
LINE
  5
EA
  8
0
  6
CONTINUOUS
 62
     7
 10
198.9000000000001
 20
1010.612659429047
 30
0.0
 11
198.7
 21
1010.612659429047
 31
0.0
  0
LINE
  5
EB
  8
0
  6
CONTINUOUS
 62
     7
 10
198.9000000000001
 20
1012.594222412047
 30
0.0
 11
198.7
 21
1012.594222412047
 31
0.0
  0
LINE
  5
EC
  8
0
  6
CONTINUOUS
 62
     7
 10
198.7000000000001
 20
896.9534915813346
 30
0.0
 11
198.9250000000001
 21
896.9534915813346
 31
0.0
  0
LINE
  5
ED
  8
0
  6
CONTINUOUS
 62
     7
 10
198.9000000000001
 20
1015.01264963829
 30
0.0
 11
198.7
 21
1015.01264963829
 31
0.0
  0
LINE
  5
EE
  8
0
  6
CONTINUOUS
 62
     7
 10
198.7000000000001
 20
894.2763135257023
 30
0.0
 11
198.9000000000001
 21
894.2763135257023
 31
0.0
  0
LINE
  5
EF
  8
0
  6
CONTINUOUS
 62
     7
 10
198.7000000000001
 20
893.3404155759051
 30
0.0
 11
198.9000000000001
 21
893.3404155759051
 31
0.0
  0
LINE
  5
F0
  8
0
  6
CONTINUOUS
 62
     7
 10
198.9250000000001
 20
1016.119353796819
 30
0.0
 11
198.7
 21
1016.119353796819
 31
0.0
  0
LINE
  5
F1
  8
0
  6
CONTINUOUS
 62
     7
 10
198.7000000000001
 20
892.7641857178891
 30
0.0
 11
198.9000000000001
 21
892.7641857178891
 31
0.0
  0
LINE
  5
F2
  8
0
  6
CONTINUOUS
 62
     7
 10
198.9000000000001
 20
1010.411807539006
 30
0.0
 11
198.9250000000001
 21
1010.411807539006
 31
0.0
  0
LINE
  5
F3
  8
0
  6
CONTINUOUS
 62
     7
 10
198.9000000000001
 20
893.8447651761518
 30
0.0
 11
198.9250000000001
 21
893.8447651761518
 31
0.0
  0
LINE
  5
F4
  8
0
  6
CONTINUOUS
 62
     7
 10
198.9250000000001
 20
1014.61586990427
 30
0.0
 11
198.9000000000001
 21
1014.61586990427
 31
0.0
  0
LINE
  5
F5
  8
0
  6
CONTINUOUS
 62
     7
 10
198.9250000000001
 20
1013.223475821957
 30
0.0
 11
198.9000000000001
 21
1013.223475821957
 31
0.0
  0
LINE
  5
F6
  8
0
  6
CONTINUOUS
 62
     7
 10
173.3000000000001
 20
901.4999999999999
 30
0.0
 11
175.7000000000001
 21
901.4999999999999
 31
0.0
  0
LINE
  5
F7
  8
0
  6
CONTINUOUS
 62
     7
 10
175.7000000000001
 20
907.4999999999999
 30
0.0
 11
173.3000000000001
 21
907.4999999999999
 31
0.0
  0
LINE
  5
F8
  8
0
  6
CONTINUOUS
 62
     7
 10
198.8416124156913
 20
910.2735026918959
 30
0.0
 11
198.3000000000001
 21
909.4999999999999
 31
0.0
  0
LINE
  5
F9
  8
0
  6
CONTINUOUS
 62
     7
 10
201.7583875843089
 20
898.7264973081036
 30
0.0
 11
202.3000000000001
 21
899.4999999999998
 31
0.0
  0
LINE
  5
FA
  8
0
  6
CONTINUOUS
 62
     7
 10
202.3000000000001
 20
909.4999999999999
 30
0.0
 11
201.7583875843089
 21
910.2735026918959
 31
0.0
  0
LINE
  5
FB
  8
0
  6
CONTINUOUS
 62
     7
 10
198.3000000000001
 20
899.4999999999998
 30
0.0
 11
198.8416124156913
 21
898.7264973081036
 31
0.0
  0
LINE
  5
FC
  8
0
  6
CONTINUOUS
 62
     7
 10
173.3000000000001
 20
1001.5
 30
0.0
 11
175.7000000000001
 21
1001.5
 31
0.0
  0
LINE
  5
FD
  8
0
  6
CONTINUOUS
 62
     7
 10
175.7000000000001
 20
1007.5
 30
0.0
 11
173.3000000000001
 21
1007.5
 31
0.0
  0
LINE
  5
FE
  8
0
  6
CONTINUOUS
 62
     7
 10
198.8416124156913
 20
1010.273502691897
 30
0.0
 11
198.3000000000001
 21
1009.5
 31
0.0
  0
LINE
  5
FF
  8
0
  6
CONTINUOUS
 62
     7
 10
201.7583875843089
 20
998.7264973081042
 30
0.0
 11
202.3000000000001
 21
999.5000000000003
 31
0.0
  0
LINE
  5
100
  8
0
  6
CONTINUOUS
 62
     7
 10
202.3000000000001
 20
1009.5
 30
0.0
 11
201.7583875843089
 21
1010.273502691897
 31
0.0
  0
LINE
  5
101
  8
0
  6
CONTINUOUS
 62
     7
 10
198.3000000000001
 20
999.5000000000003
 30
0.0
 11
198.8416124156913
 21
998.7264973081042
 31
0.0
  0
LINE
  5
102
  8
0
  6
CONTINUOUS
 62
     7
 10
196.7000000000001
 20
898.5000000000001
 30
0.0
 11
198.3000000000001
 21
898.5000000000001
 31
0.0
  0
LINE
  5
103
  8
0
  6
CONTINUOUS
 62
     7
 10
198.3000000000001
 20
910.5000000000001
 30
0.0
 11
196.7000000000001
 21
910.5000000000001
 31
0.0
  0
LINE
  5
104
  8
0
  6
CONTINUOUS
 62
     7
 10
196.7000000000001
 20
998.5000000000001
 30
0.0
 11
198.3000000000001
 21
998.5000000000001
 31
0.0
  0
LINE
  5
105
  8
0
  6
CONTINUOUS
 62
     7
 10
198.3000000000001
 20
1010.5
 30
0.0
 11
196.7000000000001
 21
1010.5
 31
0.0
  0
LINE
  5
106
  8
0
  6
CONTINUOUS
 62
     7
 10
169.126967161206
 20
905.5475062189439
 30
0.0
 11
169.126967161206
 21
903.4524937810561
 31
0.0
  0
ARC
  5
107
  8
0
  6
CONTINUOUS
 62
     7
 10
169.626967161206
 20
905.5475062189439
 30
0.0
 40
0.4999999999999935
 50
95.60300152572069
 51
180.0
  0
ARC
  5
108
  8
0
  6
CONTINUOUS
 62
     7
 10
169.626967161206
 20
903.4524937810561
 30
0.0
 40
0.5000000000000004
 50
180.0
 51
264.3969984742793
  0
LINE
  5
109
  8
0
  6
CONTINUOUS
 62
     7
 10
176.9204779995881
 20
906.7654272908701
 30
0.0
 11
169.57814964315
 21
906.0451173622384
 31
0.0
  0
LINE
  5
10A
  8
0
  6
CONTINUOUS
 62
     7
 10
169.57814964315
 20
902.9548826377616
 30
0.0
 11
176.9204779995881
 21
902.23457270913
 31
0.0
  0
LINE
  5
10B
  8
0
  6
CONTINUOUS
 62
     7
 10
181.0787321874819
 20
910.3446830468704
 30
0.0
 11
176.0787321874819
 21
909.0946830468705
 31
0.0
  0
LINE
  5
10C
  8
0
  6
CONTINUOUS
 62
     7
 10
176.0787321874819
 20
899.9053169531296
 30
0.0
 11
181.0787321874819
 21
898.6553169531295
 31
0.0
  0
ARC
  5
10D
  8
0
  6
CONTINUOUS
 62
     7
 10
181.2000000000001
 20
899.1403882032022
 30
0.0
 40
0.5000000000000231
 50
255.9637565320735
 51
0.0
  0
ARC
  5
10E
  8
0
  6
CONTINUOUS
 62
     7
 10
181.2000000000001
 20
909.8596117967978
 30
0.0
 40
0.5000000000000004
 50
0.0
 51
104.0362434679265
  0
ARC
  5
10F
  8
0
  6
CONTINUOUS
 62
     7
 10
176.2000000000001
 20
908.6096117967977
 30
0.0
 40
0.5000000000000231
 50
104.0362434679263
 51
180.0
  0
ARC
  5
110
  8
0
  6
CONTINUOUS
 62
     7
 10
176.2000000000001
 20
900.3903882032023
 30
0.0
 40
0.5000000000000004
 50
180.0
 51
255.9637565320737
  0
ARC
  5
111
  8
0
  6
CONTINUOUS
 62
     7
 10
169.626967161206
 20
1005.547506218944
 30
0.0
 40
0.499999999999883
 50
95.60300152572069
 51
180.0
  0
LINE
  5
112
  8
0
  6
CONTINUOUS
 62
     7
 10
169.126967161206
 20
1005.547506218944
 30
0.0
 11
169.126967161206
 21
1003.452493781056
 31
0.0
  0
ARC
  5
113
  8
0
  6
CONTINUOUS
 62
     7
 10
169.626967161206
 20
1003.452493781056
 30
0.0
 40
0.5000000000000004
 50
180.0
 51
264.3969984742793
  0
LINE
  5
114
  8
0
  6
CONTINUOUS
 62
     7
 10
176.9204779995881
 20
1006.76542729087
 30
0.0
 11
169.57814964315
 21
1006.045117362238
 31
0.0
  0
LINE
  5
115
  8
0
  6
CONTINUOUS
 62
     7
 10
169.57814964315
 20
1002.954882637761
 30
0.0
 11
176.9204779995881
 21
1002.23457270913
 31
0.0
  0
LINE
  5
116
  8
0
  6
CONTINUOUS
 62
     7
 10
181.0787321874819
 20
1010.344683046871
 30
0.0
 11
176.0787321874819
 21
1009.094683046871
 31
0.0
  0
LINE
  5
117
  8
0
  6
CONTINUOUS
 62
     7
 10
176.0787321874819
 20
999.9053169531295
 30
0.0
 11
181.0787321874819
 21
998.6553169531296
 31
0.0
  0
ARC
  5
118
  8
0
  6
CONTINUOUS
 62
     7
 10
181.2000000000001
 20
999.1403882032022
 30
0.0
 40
0.4999999999999155
 50
255.9637565320735
 51
0.0
  0
ARC
  5
119
  8
0
  6
CONTINUOUS
 62
     7
 10
181.2000000000001
 20
1009.859611796798
 30
0.0
 40
0.5000000000000004
 50
0.0
 51
104.0362434679265
  0
ARC
  5
11A
  8
0
  6
CONTINUOUS
 62
     7
 10
176.2000000000001
 20
1008.609611796798
 30
0.0
 40
0.5000000000001308
 50
104.0362434679263
 51
180.0
  0
ARC
  5
11B
  8
0
  6
CONTINUOUS
 62
     7
 10
176.2000000000001
 20
1000.390388203202
 30
0.0
 40
0.5000000000000004
 50
180.0
 51
255.9637565320737
  0
ARC
  5
11C
  8
0
  6
CONTINUOUS
 62
     7
 10
179.7000000000001
 20
888.0
 30
0.0
 40
2.999999999999989
 50
180.0
 51
270.0
  0
ARC
  5
11D
  8
0
  6
CONTINUOUS
 62
     7
 10
179.7000000000001
 20
1021.0
 30
0.0
 40
3.000000000000114
 50
90.0
 51
180.0
  0
LINE
  5
11E
  8
0
  6
CONTINUOUS
 62
     7
 10
179.7000000000001
 20
885.0
 30
0.0
 11
180.7000000000001
 21
885.0
 31
0.0
  0
LINE
  5
11F
  8
0
  6
CONTINUOUS
 62
     7
 10
180.7000000000001
 20
1024.0
 30
0.0
 11
179.7000000000001
 21
1024.0
 31
0.0
  0
LINE
  5
120
  8
0
  6
CONTINUOUS
 62
     7
 10
180.7000000000001
 20
892.5
 30
0.0
 11
181.7000000000001
 21
892.5
 31
0.0
  0
LINE
  5
121
  8
0
  6
CONTINUOUS
 62
     7
 10
181.7000000000001
 20
1016.5
 30
0.0
 11
180.7000000000001
 21
1016.5
 31
0.0
  0
LINE
  5
122
  8
0
  6
CONTINUOUS
 62
     7
 10
176.7000000000001
 20
1014.5
 30
0.0
 11
169.0197026022306
 21
1011.619888475836
 31
0.0
  0
LINE
  5
123
  8
0
  6
CONTINUOUS
 62
     7
 10
169.0197026022306
 20
897.3801115241635
 30
0.0
 11
176.7000000000001
 21
894.5
 31
0.0
  0
ENDBLK
  8
0
  0
BLOCK
  8
0
  2
D_FRAME_VIEW_1635
 70
     0
 10
0.0
 20
0.0
 30
0.0
  0
LINE
  5
128
  8
0
  6
CONTINUOUS
 62
     7
 10
-192.5000000000001
 20
1252.5
 30
0.0
 11
-592.5
 21
1252.5
 31
0.0
  0
LINE
  5
129
  8
0
  6
CONTINUOUS
 62
     7
 10
-192.5000000000001
 20
652.5000000000001
 30
0.0
 11
-192.5000000000001
 21
1252.5
 31
0.0
  0
LINE
  5
12A
  8
0
  6
CONTINUOUS
 62
     7
 10
-592.5
 20
652.5000000000003
 30
0.0
 11
-192.5000000000001
 21
652.5000000000001
 31
0.0
  0
LINE
  5
12B
  8
0
  6
CONTINUOUS
 62
     7
 10
-592.5
 20
1252.5
 30
0.0
 11
-592.5
 21
652.5000000000002
 31
0.0
  0
ARC
  5
12C
  8
0
  6
CONTINUOUS
 62
     7
 10
-392.4999999999999
 20
1128.270329614269
 30
0.0
 40
10.00000000000001
 50
248.1985905136482
 51
291.8014094863518
  0
LINE
  5
12D
  8
0
  6
CONTINUOUS
 62
     7
 10
-388.7860932364588
 20
1118.985562705416
 30
0.0
 11
-348.786093236459
 21
1134.985562705416
 31
0.0
  0
ARC
  5
12E
  8
0
  6
CONTINUOUS
 62
     7
 10
-352.5
 20
1144.270329614269
 30
0.0
 40
10.0
 50
291.8014094863517
 51
0.0
  0
LINE
  5
12F
  8
0
  6
CONTINUOUS
 62
     7
 10
-342.5
 20
1144.270329614269
 30
0.0
 11
-342.5
 21
1147.5
 31
0.0
  0
ARC
  5
130
  8
0
  6
CONTINUOUS
 62
     7
 10
-352.5
 20
1147.5
 30
0.0
 40
10.00000000000001
 50
0.0
 51
90.0
  0
LINE
  5
131
  8
0
  6
CONTINUOUS
 62
     7
 10
-352.5
 20
1157.5
 30
0.0
 11
-432.5
 21
1157.5
 31
0.0
  0
ARC
  5
132
  8
0
  6
CONTINUOUS
 62
     7
 10
-432.5
 20
1147.5
 30
0.0
 40
10.0
 50
90.0
 51
180.0
  0
LINE
  5
133
  8
0
  6
CONTINUOUS
 62
     7
 10
-442.5
 20
1147.5
 30
0.0
 11
-442.5
 21
1144.270329614269
 31
0.0
  0
LINE
  5
134
  8
0
  6
CONTINUOUS
 62
     7
 10
-436.213906763541
 20
1134.985562705416
 30
0.0
 11
-396.2139067635409
 21
1118.985562705416
 31
0.0
  0
ARC
  5
135
  8
0
  6
CONTINUOUS
 62
     7
 10
-432.5
 20
1144.270329614269
 30
0.0
 40
10.00000000000001
 50
180.0
 51
248.1985905136482
  0
LINE
  5
136
  8
0
  6
CONTINUOUS
 62
     7
 10
-350.5000000000001
 20
1016.5
 30
0.0
 11
-412.5000000000001
 21
1016.5
 31
0.0
  0
LINE
  5
137
  8
0
  6
CONTINUOUS
 62
     7
 10
-412.5
 20
1066.5
 30
0.0
 11
-350.5
 21
1066.5
 31
0.0
  0
LINE
  5
138
  8
0
  6
CONTINUOUS
 62
     7
 10
-350.5000000000001
 20
1066.5
 30
0.0
 11
-350.5000000000001
 21
1016.5
 31
0.0
  0
LINE
  5
139
  8
0
  6
CONTINUOUS
 62
     7
 10
-412.5
 20
1016.5
 30
0.0
 11
-474.5000000000001
 21
1016.5
 31
0.0
  0
LINE
  5
13A
  8
0
  6
CONTINUOUS
 62
     7
 10
-474.5000000000001
 20
1016.5
 30
0.0
 11
-474.5000000000001
 21
1066.5
 31
0.0
  0
LINE
  5
13B
  8
0
  6
CONTINUOUS
 62
     7
 10
-474.5000000000001
 20
1066.5
 30
0.0
 11
-412.5
 21
1066.5
 31
0.0
  0
ARC
  5
13C
  8
0
  6
CONTINUOUS
 62
     7
 10
-412.5
 20
954.5
 30
0.0
 40
60.5
 50
180.0
 51
0.0
  0
ARC
  5
13D
  8
0
  6
CONTINUOUS
 62
     7
 10
-412.5
 20
954.5
 30
0.0
 40
62.0
 50
180.0
 51
270.0
  0
ARC
  5
13E
  8
0
  6
CONTINUOUS
 62
     7
 10
-412.5
 20
954.5
 30
0.0
 40
62.0
 50
270.0
 51
0.0
  0
ARC
  5
13F
  8
0
  6
CONTINUOUS
 62
     7
 10
-412.5
 20
954.5
 30
0.0
 40
61.99999999999999
 50
167.3710594592986
 51
180.0
  0
ARC
  5
140
  8
0
  6
CONTINUOUS
 62
     7
 10
-412.5
 20
954.5
 30
0.0
 40
62.0
 50
0.0
 51
12.62894054070138
  0
CIRCLE
  5
141
  8
0
  6
CONTINUOUS
 62
     7
 10
-502.5000000000007
 20
904.4999999999999
 30
0.0
 40
3.000000000000003
  0
CIRCLE
  5
142
  8
0
  6
CONTINUOUS
 62
     7
 10
-502.5000000000007
 20
1004.5
 30
0.0
 40
3.000000000000003
  0
CIRCLE
  5
143
  8
0
  6
CONTINUOUS
 62
     7
 10
-282.4999999999995
 20
904.4999999999999
 30
0.0
 40
3.000000000000003
  0
CIRCLE
  5
144
  8
0
  6
CONTINUOUS
 62
     7
 10
-282.4999999999995
 20
1004.5
 30
0.0
 40
3.000000000000003
  0
LINE
  5
145
  8
0
  6
CONTINUOUS
 62
     7
 10
-498.0000000000001
 20
906.1626159800937
 30
0.0
 11
-498.0000000000001
 21
906.7739055644959
 31
0.0
  0
LINE
  5
146
  8
0
  6
CONTINUOUS
 62
     7
 10
-507.0000000000001
 20
906.7739055644959
 30
0.0
 11
-507.0000000000001
 21
906.1626159800937
 31
0.0
  0
LINE
  5
147
  8
0
  6
CONTINUOUS
 62
     7
 10
-507.0000000000001
 20
902.8373840199062
 30
0.0
 11
-507.0000000000001
 21
902.226094435504
 31
0.0
  0
LINE
  5
148
  8
0
  6
CONTINUOUS
 62
     7
 10
-498.0000000000001
 20
902.226094435504
 30
0.0
 11
-498.0000000000001
 21
902.8373840199062
 31
0.0
  0
LINE
  5
149
  8
0
  6
CONTINUOUS
 62
     7
 10
-507.0000000000001
 20
902.8373840199062
 30
0.0
 11
-507.0000000000001
 21
906.1626159800937
 31
0.0
  0
LINE
  5
14A
  8
0
  6
CONTINUOUS
 62
     7
 10
-498.0000000000001
 20
902.8373840199062
 30
0.0
 11
-498.0000000000001
 21
906.1626159800937
 31
0.0
  0
LINE
  5
14B
  8
0
  6
CONTINUOUS
 62
     7
 10
-507.0000000000001
 20
906.7739055644959
 30
0.0
 11
-507.0000000000001
 21
906.8370438317979
 31
0.0
  0
POLYLINE
  5
14C
  8
0
  6
CONTINUOUS
 62
     7
 66
     1
 10
0.0
 20
0.0
 30
0.0
  0
VERTEX
  5
2C0
  8
0
  6
CONTINUOUS
 62
     7
 10
-507.6755004175641
 20
906.9599745699057
 30
0.0
  0
VERTEX
  5
2C1
  8
0
  6
CONTINUOUS
 62
     7
 10
-509.0590666940019
 20
906.769013946126
 30
0.0
  0
VERTEX
  5
2C2
  8
0
  6
CONTINUOUS
 62
     7
 10
-510.1506635844659
 20
906.5835463378089
 30
0.0
  0
SEQEND
  5
2F4
  8
0
  6
CONTINUOUS
 62
     7
  0
LINE
  5
14D
  8
0
  6
CONTINUOUS
 62
     7
 10
-507.6755004175641
 20
906.9599745699059
 30
0.0
 11
-507.0000000000001
 21
906.8370438317979
 31
0.0
  0
POLYLINE
  5
14E
  8
0
  6
CONTINUOUS
 62
     7
 66
     1
 10
0.0
 20
0.0
 30
0.0
  0
VERTEX
  5
2C3
  8
0
  6
CONTINUOUS
 62
     7
 10
-494.8493364155343
 20
906.5835463378089
 30
0.0
  0
VERTEX
  5
2C4
  8
0
  6
CONTINUOUS
 62
     7
 10
-495.9409333059983
 20
906.769013946126
 30
0.0
  0
VERTEX
  5
2C5
  8
0
  6
CONTINUOUS
 62
     7
 10
-497.3244995824361
 20
906.9599745699057
 30
0.0
  0
SEQEND
  5
2F5
  8
0
  6
CONTINUOUS
 62
     7
  0
LINE
  5
14F
  8
0
  6
CONTINUOUS
 62
     7
 10
-498.0000000000001
 20
906.7739055644959
 30
0.0
 11
-498.0000000000001
 21
906.8370438317979
 31
0.0
  0
LINE
  5
150
  8
0
  6
CONTINUOUS
 62
     7
 10
-498.0000000000001
 20
906.8370438317979
 30
0.0
 11
-497.3244995824361
 21
906.9599745699059
 31
0.0
  0
LINE
  5
151
  8
0
  6
CONTINUOUS
 62
     7
 10
-498.0000000000001
 20
902.1629561682021
 30
0.0
 11
-498.0000000000001
 21
902.2260944355041
 31
0.0
  0
POLYLINE
  5
152
  8
0
  6
CONTINUOUS
 62
     7
 66
     1
 10
0.0
 20
0.0
 30
0.0
  0
VERTEX
  5
2C6
  8
0
  6
CONTINUOUS
 62
     7
 10
-497.324499582436
 20
902.0400254300943
 30
0.0
  0
VERTEX
  5
2C7
  8
0
  6
CONTINUOUS
 62
     7
 10
-495.9409333059983
 20
902.230986053874
 30
0.0
  0
VERTEX
  5
2C8
  8
0
  6
CONTINUOUS
 62
     7
 10
-494.8493364155344
 20
902.4164536621911
 30
0.0
  0
SEQEND
  5
2F6
  8
0
  6
CONTINUOUS
 62
     7
  0
LINE
  5
153
  8
0
  6
CONTINUOUS
 62
     7
 10
-497.3244995824361
 20
902.0400254300941
 30
0.0
 11
-498.0000000000001
 21
902.1629561682021
 31
0.0
  0
POLYLINE
  5
154
  8
0
  6
CONTINUOUS
 62
     7
 66
     1
 10
0.0
 20
0.0
 30
0.0
  0
VERTEX
  5
2C9
  8
0
  6
CONTINUOUS
 62
     7
 10
-510.1506635844659
 20
902.4164536621911
 30
0.0
  0
VERTEX
  5
2CA
  8
0
  6
CONTINUOUS
 62
     7
 10
-509.0590666940018
 20
902.230986053874
 30
0.0
  0
VERTEX
  5
2CB
  8
0
  6
CONTINUOUS
 62
     7
 10
-507.6755004175641
 20
902.0400254300943
 30
0.0
  0
SEQEND
  5
2F7
  8
0
  6
CONTINUOUS
 62
     7
  0
LINE
  5
155
  8
0
  6
CONTINUOUS
 62
     7
 10
-507.0000000000001
 20
902.1629561682021
 30
0.0
 11
-507.0000000000001
 21
902.2260944355041
 31
0.0
  0
LINE
  5
156
  8
0
  6
CONTINUOUS
 62
     7
 10
-507.0000000000001
 20
902.1629561682021
 30
0.0
 11
-507.6755004175641
 21
902.0400254300941
 31
0.0
  0
LINE
  5
157
  8
0
  6
CONTINUOUS
 62
     7
 10
-510.150663584466
 20
906.5835463378091
 30
0.0
 11
-510.2083460525526
 21
906.5768956663368
 31
0.0
  0
LINE
  5
158
  8
0
  6
CONTINUOUS
 62
     7
 10
-494.7916539474476
 20
906.5768956663368
 30
0.0
 11
-494.8493364155343
 21
906.5835463378091
 31
0.0
  0
LINE
  5
159
  8
0
  6
CONTINUOUS
 62
     7
 10
-510.2083460525526
 20
902.4231043336633
 30
0.0
 11
-510.150663584466
 21
902.416453662191
 31
0.0
  0
LINE
  5
15A
  8
0
  6
CONTINUOUS
 62
     7
 10
-494.8493364155343
 20
902.416453662191
 30
0.0
 11
-494.7916539474476
 21
902.4231043336633
 31
0.0
  0
LINE
  5
15B
  8
0
  6
CONTINUOUS
 62
     7
 10
-497.3244995824361
 20
906.9599745699059
 30
0.0
 11
-497.2884981669155
 21
906.9517288616544
 31
0.0
  0
LINE
  5
15C
  8
0
  6
CONTINUOUS
 62
     7
 10
-507.6755004175641
 20
902.0400254300941
 30
0.0
 11
-507.7114776357209
 21
902.048258032613
 31
0.0
  0
LINE
  5
15D
  8
0
  6
CONTINUOUS
 62
     7
 10
-507.7114916954047
 20
906.9517343533794
 30
0.0
 11
-507.6755004175641
 21
906.9599745699059
 31
0.0
  0
LINE
  5
15E
  8
0
  6
CONTINUOUS
 62
     7
 10
-497.2885012892337
 20
902.048269446792
 30
0.0
 11
-497.3244995824362
 21
902.0400254300941
 31
0.0
  0
LINE
  5
15F
  8
0
  6
CONTINUOUS
 62
     7
 10
-498.0000000000001
 20
1002.226094435504
 30
0.0
 11
-498.0000000000001
 21
1002.837384019906
 31
0.0
  0
LINE
  5
160
  8
0
  6
CONTINUOUS
 62
     7
 10
-507.0000000000001
 20
1006.773905564496
 30
0.0
 11
-507.0000000000001
 21
1006.162615980094
 31
0.0
  0
LINE
  5
161
  8
0
  6
CONTINUOUS
 62
     7
 10
-498.0000000000001
 20
1006.162615980094
 30
0.0
 11
-498.0000000000001
 21
1006.773905564496
 31
0.0
  0
LINE
  5
162
  8
0
  6
CONTINUOUS
 62
     7
 10
-507.0000000000001
 20
1002.837384019906
 30
0.0
 11
-507.0000000000001
 21
1002.226094435504
 31
0.0
  0
LINE
  5
163
  8
0
  6
CONTINUOUS
 62
     7
 10
-507.0000000000001
 20
1002.837384019906
 30
0.0
 11
-507.0000000000001
 21
1006.162615980094
 31
0.0
  0
LINE
  5
164
  8
0
  6
CONTINUOUS
 62
     7
 10
-498.0000000000001
 20
1002.837384019906
 30
0.0
 11
-498.0000000000001
 21
1006.162615980094
 31
0.0
  0
POLYLINE
  5
165
  8
0
  6
CONTINUOUS
 62
     7
 66
     1
 10
0.0
 20
0.0
 30
0.0
  0
VERTEX
  5
2CC
  8
0
  6
CONTINUOUS
 62
     7
 10
-494.8493364155343
 20
1006.583546337809
 30
0.0
  0
VERTEX
  5
2CD
  8
0
  6
CONTINUOUS
 62
     7
 10
-495.9409333059983
 20
1006.769013946126
 30
0.0
  0
VERTEX
  5
2CE
  8
0
  6
CONTINUOUS
 62
     7
 10
-497.3244995824361
 20
1006.959974569906
 30
0.0
  0
SEQEND
  5
2F8
  8
0
  6
CONTINUOUS
 62
     7
  0
LINE
  5
166
  8
0
  6
CONTINUOUS
 62
     7
 10
-498.0000000000001
 20
1006.773905564496
 30
0.0
 11
-498.0000000000001
 21
1006.837043831798
 31
0.0
  0
LINE
  5
167
  8
0
  6
CONTINUOUS
 62
     7
 10
-498.0000000000001
 20
1006.837043831798
 30
0.0
 11
-497.3244995824361
 21
1006.959974569906
 31
0.0
  0
POLYLINE
  5
168
  8
0
  6
CONTINUOUS
 62
     7
 66
     1
 10
0.0
 20
0.0
 30
0.0
  0
VERTEX
  5
2CF
  8
0
  6
CONTINUOUS
 62
     7
 10
-510.1506635844659
 20
1002.416453662191
 30
0.0
  0
VERTEX
  5
2D0
  8
0
  6
CONTINUOUS
 62
     7
 10
-509.0590666940018
 20
1002.230986053874
 30
0.0
  0
VERTEX
  5
2D1
  8
0
  6
CONTINUOUS
 62
     7
 10
-507.6755004175641
 20
1002.040025430094
 30
0.0
  0
SEQEND
  5
2F9
  8
0
  6
CONTINUOUS
 62
     7
  0
LINE
  5
169
  8
0
  6
CONTINUOUS
 62
     7
 10
-507.0000000000001
 20
1002.162956168202
 30
0.0
 11
-507.0000000000001
 21
1002.226094435504
 31
0.0
  0
LINE
  5
16A
  8
0
  6
CONTINUOUS
 62
     7
 10
-507.0000000000001
 20
1002.162956168202
 30
0.0
 11
-507.6755004175641
 21
1002.040025430094
 31
0.0
  0
LINE
  5
16B
  8
0
  6
CONTINUOUS
 62
     7
 10
-507.0000000000001
 20
1006.773905564496
 30
0.0
 11
-507.0000000000001
 21
1006.837043831798
 31
0.0
  0
POLYLINE
  5
16C
  8
0
  6
CONTINUOUS
 62
     7
 66
     1
 10
0.0
 20
0.0
 30
0.0
  0
VERTEX
  5
2D2
  8
0
  6
CONTINUOUS
 62
     7
 10
-507.6755004175641
 20
1006.959974569906
 30
0.0
  0
VERTEX
  5
2D3
  8
0
  6
CONTINUOUS
 62
     7
 10
-509.0590666940019
 20
1006.769013946126
 30
0.0
  0
VERTEX
  5
2D4
  8
0
  6
CONTINUOUS
 62
     7
 10
-510.1506635844659
 20
1006.583546337809
 30
0.0
  0
SEQEND
  5
2FA
  8
0
  6
CONTINUOUS
 62
     7
  0
LINE
  5
16D
  8
0
  6
CONTINUOUS
 62
     7
 10
-507.6755004175641
 20
1006.959974569906
 30
0.0
 11
-507.0000000000001
 21
1006.837043831798
 31
0.0
  0
LINE
  5
16E
  8
0
  6
CONTINUOUS
 62
     7
 10
-498.0000000000001
 20
1002.162956168202
 30
0.0
 11
-498.0000000000001
 21
1002.226094435504
 31
0.0
  0
POLYLINE
  5
16F
  8
0
  6
CONTINUOUS
 62
     7
 66
     1
 10
0.0
 20
0.0
 30
0.0
  0
VERTEX
  5
2D5
  8
0
  6
CONTINUOUS
 62
     7
 10
-497.324499582436
 20
1002.040025430094
 30
0.0
  0
VERTEX
  5
2D6
  8
0
  6
CONTINUOUS
 62
     7
 10
-495.9409333059983
 20
1002.230986053874
 30
0.0
  0
VERTEX
  5
2D7
  8
0
  6
CONTINUOUS
 62
     7
 10
-494.8493364155344
 20
1002.416453662191
 30
0.0
  0
SEQEND
  5
2FB
  8
0
  6
CONTINUOUS
 62
     7
  0
LINE
  5
170
  8
0
  6
CONTINUOUS
 62
     7
 10
-497.3244995824361
 20
1002.040025430094
 30
0.0
 11
-498.0000000000001
 21
1002.162956168202
 31
0.0
  0
LINE
  5
171
  8
0
  6
CONTINUOUS
 62
     7
 10
-494.7916539474476
 20
1006.576895666337
 30
0.0
 11
-494.8493364155343
 21
1006.583546337809
 31
0.0
  0
LINE
  5
172
  8
0
  6
CONTINUOUS
 62
     7
 10
-510.2083460525526
 20
1002.423104333663
 30
0.0
 11
-510.150663584466
 21
1002.416453662191
 31
0.0
  0
LINE
  5
173
  8
0
  6
CONTINUOUS
 62
     7
 10
-510.150663584466
 20
1006.583546337809
 30
0.0
 11
-510.2083460525526
 21
1006.576895666337
 31
0.0
  0
LINE
  5
174
  8
0
  6
CONTINUOUS
 62
     7
 10
-494.8493364155343
 20
1002.416453662191
 30
0.0
 11
-494.7916539474476
 21
1002.423104333663
 31
0.0
  0
LINE
  5
175
  8
0
  6
CONTINUOUS
 62
     7
 10
-497.3244995824361
 20
1006.959974569906
 30
0.0
 11
-497.2884981669155
 21
1006.951728861654
 31
0.0
  0
LINE
  5
176
  8
0
  6
CONTINUOUS
 62
     7
 10
-507.6755004175641
 20
1002.040025430094
 30
0.0
 11
-507.7114776357209
 21
1002.048258032613
 31
0.0
  0
LINE
  5
177
  8
0
  6
CONTINUOUS
 62
     7
 10
-497.2885012892337
 20
1002.048269446792
 30
0.0
 11
-497.3244995824362
 21
1002.040025430094
 31
0.0
  0
LINE
  5
178
  8
0
  6
CONTINUOUS
 62
     7
 10
-507.7114916954047
 20
1006.951734353379
 30
0.0
 11
-507.6755004175641
 21
1006.959974569906
 31
0.0
  0
LINE
  5
179
  8
0
  6
CONTINUOUS
 62
     7
 10
-278.0000000000001
 20
902.226094435504
 30
0.0
 11
-278.0000000000001
 21
902.8373840199062
 31
0.0
  0
LINE
  5
17A
  8
0
  6
CONTINUOUS
 62
     7
 10
-287.0000000000001
 20
902.8373840199062
 30
0.0
 11
-287.0000000000001
 21
902.226094435504
 31
0.0
  0
LINE
  5
17B
  8
0
  6
CONTINUOUS
 62
     7
 10
-278.0000000000001
 20
906.1626159800937
 30
0.0
 11
-278.0000000000001
 21
906.7739055644959
 31
0.0
  0
LINE
  5
17C
  8
0
  6
CONTINUOUS
 62
     7
 10
-287.0000000000001
 20
906.7739055644959
 30
0.0
 11
-287.0000000000001
 21
906.1626159800937
 31
0.0
  0
LINE
  5
17D
  8
0
  6
CONTINUOUS
 62
     7
 10
-278.0000000000001
 20
902.8373840199062
 30
0.0
 11
-278.0000000000001
 21
906.1626159800937
 31
0.0
  0
LINE
  5
17E
  8
0
  6
CONTINUOUS
 62
     7
 10
-287.0000000000001
 20
902.8373840199062
 30
0.0
 11
-287.0000000000001
 21
906.1626159800937
 31
0.0
  0
POLYLINE
  5
17F
  8
0
  6
CONTINUOUS
 62
     7
 66
     1
 10
0.0
 20
0.0
 30
0.0
  0
VERTEX
  5
2D8
  8
0
  6
CONTINUOUS
 62
     7
 10
-290.150663584466
 20
902.4164536621911
 30
0.0
  0
VERTEX
  5
2D9
  8
0
  6
CONTINUOUS
 62
     7
 10
-289.0590666940019
 20
902.230986053874
 30
0.0
  0
VERTEX
  5
2DA
  8
0
  6
CONTINUOUS
 62
     7
 10
-287.6755004175642
 20
902.0400254300943
 30
0.0
  0
SEQEND
  5
2FC
  8
0
  6
CONTINUOUS
 62
     7
  0
LINE
  5
180
  8
0
  6
CONTINUOUS
 62
     7
 10
-287.0000000000001
 20
902.1629561682021
 30
0.0
 11
-287.0000000000001
 21
902.2260944355041
 31
0.0
  0
LINE
  5
181
  8
0
  6
CONTINUOUS
 62
     7
 10
-287.0000000000001
 20
902.1629561682021
 30
0.0
 11
-287.6755004175642
 21
902.0400254300941
 31
0.0
  0
LINE
  5
182
  8
0
  6
CONTINUOUS
 62
     7
 10
-278.0000000000001
 20
902.1629561682021
 30
0.0
 11
-278.0000000000001
 21
902.2260944355041
 31
0.0
  0
POLYLINE
  5
183
  8
0
  6
CONTINUOUS
 62
     7
 66
     1
 10
0.0
 20
0.0
 30
0.0
  0
VERTEX
  5
2DB
  8
0
  6
CONTINUOUS
 62
     7
 10
-277.324499582436
 20
902.0400254300943
 30
0.0
  0
VERTEX
  5
2DC
  8
0
  6
CONTINUOUS
 62
     7
 10
-275.9409333059983
 20
902.230986053874
 30
0.0
  0
VERTEX
  5
2DD
  8
0
  6
CONTINUOUS
 62
     7
 10
-274.8493364155344
 20
902.4164536621911
 30
0.0
  0
SEQEND
  5
2FD
  8
0
  6
CONTINUOUS
 62
     7
  0
LINE
  5
184
  8
0
  6
CONTINUOUS
 62
     7
 10
-277.3244995824361
 20
902.0400254300941
 30
0.0
 11
-278.0000000000001
 21
902.1629561682021
 31
0.0
  0
LINE
  5
185
  8
0
  6
CONTINUOUS
 62
     7
 10
-287.0000000000001
 20
906.7739055644959
 30
0.0
 11
-287.0000000000001
 21
906.8370438317979
 31
0.0
  0
POLYLINE
  5
186
  8
0
  6
CONTINUOUS
 62
     7
 66
     1
 10
0.0
 20
0.0
 30
0.0
  0
VERTEX
  5
2DE
  8
0
  6
CONTINUOUS
 62
     7
 10
-287.6755004175642
 20
906.9599745699057
 30
0.0
  0
VERTEX
  5
2DF
  8
0
  6
CONTINUOUS
 62
     7
 10
-289.059066694002
 20
906.769013946126
 30
0.0
  0
VERTEX
  5
2E0
  8
0
  6
CONTINUOUS
 62
     7
 10
-290.150663584466
 20
906.5835463378089
 30
0.0
  0
SEQEND
  5
2FE
  8
0
  6
CONTINUOUS
 62
     7
  0
LINE
  5
187
  8
0
  6
CONTINUOUS
 62
     7
 10
-287.6755004175642
 20
906.9599745699059
 30
0.0
 11
-287.0000000000001
 21
906.8370438317979
 31
0.0
  0
POLYLINE
  5
188
  8
0
  6
CONTINUOUS
 62
     7
 66
     1
 10
0.0
 20
0.0
 30
0.0
  0
VERTEX
  5
2E1
  8
0
  6
CONTINUOUS
 62
     7
 10
-274.8493364155343
 20
906.5835463378089
 30
0.0
  0
VERTEX
  5
2E2
  8
0
  6
CONTINUOUS
 62
     7
 10
-275.9409333059983
 20
906.769013946126
 30
0.0
  0
VERTEX
  5
2E3
  8
0
  6
CONTINUOUS
 62
     7
 10
-277.3244995824361
 20
906.9599745699057
 30
0.0
  0
SEQEND
  5
2FF
  8
0
  6
CONTINUOUS
 62
     7
  0
LINE
  5
189
  8
0
  6
CONTINUOUS
 62
     7
 10
-278.0000000000001
 20
906.7739055644959
 30
0.0
 11
-278.0000000000001
 21
906.8370438317979
 31
0.0
  0
LINE
  5
18A
  8
0
  6
CONTINUOUS
 62
     7
 10
-278.0000000000001
 20
906.8370438317979
 30
0.0
 11
-277.3244995824361
 21
906.9599745699059
 31
0.0
  0
LINE
  5
18B
  8
0
  6
CONTINUOUS
 62
     7
 10
-290.2083460525527
 20
902.4231043336633
 30
0.0
 11
-290.150663584466
 21
902.416453662191
 31
0.0
  0
LINE
  5
18C
  8
0
  6
CONTINUOUS
 62
     7
 10
-274.8493364155343
 20
902.416453662191
 30
0.0
 11
-274.7916539474476
 21
902.4231043336633
 31
0.0
  0
LINE
  5
18D
  8
0
  6
CONTINUOUS
 62
     7
 10
-290.150663584466
 20
906.5835463378091
 30
0.0
 11
-290.2083460525527
 21
906.5768956663368
 31
0.0
  0
LINE
  5
18E
  8
0
  6
CONTINUOUS
 62
     7
 10
-274.7916539474476
 20
906.5768956663368
 30
0.0
 11
-274.8493364155343
 21
906.5835463378091
 31
0.0
  0
LINE
  5
18F
  8
0
  6
CONTINUOUS
 62
     7
 10
-277.3244995824361
 20
906.9599745699059
 30
0.0
 11
-277.2884981669156
 21
906.9517288616544
 31
0.0
  0
LINE
  5
190
  8
0
  6
CONTINUOUS
 62
     7
 10
-287.6755004175642
 20
902.0400254300941
 30
0.0
 11
-287.7114776357208
 21
902.048258032613
 31
0.0
  0
LINE
  5
191
  8
0
  6
CONTINUOUS
 62
     7
 10
-287.7114916954048
 20
906.9517343533794
 30
0.0
 11
-287.6755004175642
 21
906.9599745699059
 31
0.0
  0
LINE
  5
192
  8
0
  6
CONTINUOUS
 62
     7
 10
-277.2885012892336
 20
902.048269446792
 30
0.0
 11
-277.3244995824361
 21
902.0400254300941
 31
0.0
  0
LINE
  5
193
  8
0
  6
CONTINUOUS
 62
     7
 10
-278.0000000000001
 20
1006.162615980094
 30
0.0
 11
-278.0000000000001
 21
1006.773905564496
 31
0.0
  0
LINE
  5
194
  8
0
  6
CONTINUOUS
 62
     7
 10
-287.0000000000001
 20
1006.773905564496
 30
0.0
 11
-287.0000000000001
 21
1006.162615980094
 31
0.0
  0
LINE
  5
195
  8
0
  6
CONTINUOUS
 62
     7
 10
-278.0000000000001
 20
1002.226094435504
 30
0.0
 11
-278.0000000000001
 21
1002.837384019906
 31
0.0
  0
LINE
  5
196
  8
0
  6
CONTINUOUS
 62
     7
 10
-287.0000000000001
 20
1002.837384019906
 30
0.0
 11
-287.0000000000001
 21
1002.226094435504
 31
0.0
  0
LINE
  5
197
  8
0
  6
CONTINUOUS
 62
     7
 10
-278.0000000000001
 20
1002.837384019906
 30
0.0
 11
-278.0000000000001
 21
1006.162615980094
 31
0.0
  0
LINE
  5
198
  8
0
  6
CONTINUOUS
 62
     7
 10
-287.0000000000001
 20
1002.837384019906
 30
0.0
 11
-287.0000000000001
 21
1006.162615980094
 31
0.0
  0
POLYLINE
  5
199
  8
0
  6
CONTINUOUS
 62
     7
 66
     1
 10
0.0
 20
0.0
 30
0.0
  0
VERTEX
  5
2E4
  8
0
  6
CONTINUOUS
 62
     7
 10
-274.8493364155343
 20
1006.583546337809
 30
0.0
  0
VERTEX
  5
2E5
  8
0
  6
CONTINUOUS
 62
     7
 10
-275.9409333059983
 20
1006.769013946126
 30
0.0
  0
VERTEX
  5
2E6
  8
0
  6
CONTINUOUS
 62
     7
 10
-277.3244995824361
 20
1006.959974569906
 30
0.0
  0
SEQEND
  5
300
  8
0
  6
CONTINUOUS
 62
     7
  0
LINE
  5
19A
  8
0
  6
CONTINUOUS
 62
     7
 10
-278.0000000000001
 20
1006.773905564496
 30
0.0
 11
-278.0000000000001
 21
1006.837043831798
 31
0.0
  0
LINE
  5
19B
  8
0
  6
CONTINUOUS
 62
     7
 10
-278.0000000000001
 20
1006.837043831798
 30
0.0
 11
-277.3244995824361
 21
1006.959974569906
 31
0.0
  0
POLYLINE
  5
19C
  8
0
  6
CONTINUOUS
 62
     7
 66
     1
 10
0.0
 20
0.0
 30
0.0
  0
VERTEX
  5
2E7
  8
0
  6
CONTINUOUS
 62
     7
 10
-290.150663584466
 20
1002.416453662191
 30
0.0
  0
VERTEX
  5
2E8
  8
0
  6
CONTINUOUS
 62
     7
 10
-289.0590666940019
 20
1002.230986053874
 30
0.0
  0
VERTEX
  5
2E9
  8
0
  6
CONTINUOUS
 62
     7
 10
-287.6755004175642
 20
1002.040025430094
 30
0.0
  0
SEQEND
  5
301
  8
0
  6
CONTINUOUS
 62
     7
  0
LINE
  5
19D
  8
0
  6
CONTINUOUS
 62
     7
 10
-287.0000000000001
 20
1002.162956168202
 30
0.0
 11
-287.0000000000001
 21
1002.226094435504
 31
0.0
  0
LINE
  5
19E
  8
0
  6
CONTINUOUS
 62
     7
 10
-287.0000000000001
 20
1002.162956168202
 30
0.0
 11
-287.6755004175642
 21
1002.040025430094
 31
0.0
  0
LINE
  5
19F
  8
0
  6
CONTINUOUS
 62
     7
 10
-287.0000000000001
 20
1006.773905564496
 30
0.0
 11
-287.0000000000001
 21
1006.837043831798
 31
0.0
  0
POLYLINE
  5
1A0
  8
0
  6
CONTINUOUS
 62
     7
 66
     1
 10
0.0
 20
0.0
 30
0.0
  0
VERTEX
  5
2EA
  8
0
  6
CONTINUOUS
 62
     7
 10
-287.6755004175642
 20
1006.959974569906
 30
0.0
  0
VERTEX
  5
2EB
  8
0
  6
CONTINUOUS
 62
     7
 10
-289.059066694002
 20
1006.769013946126
 30
0.0
  0
VERTEX
  5
2EC
  8
0
  6
CONTINUOUS
 62
     7
 10
-290.150663584466
 20
1006.583546337809
 30
0.0
  0
SEQEND
  5
302
  8
0
  6
CONTINUOUS
 62
     7
  0
LINE
  5
1A1
  8
0
  6
CONTINUOUS
 62
     7
 10
-287.6755004175642
 20
1006.959974569906
 30
0.0
 11
-287.0000000000001
 21
1006.837043831798
 31
0.0
  0
LINE
  5
1A2
  8
0
  6
CONTINUOUS
 62
     7
 10
-278.0000000000001
 20
1002.162956168202
 30
0.0
 11
-278.0000000000001
 21
1002.226094435504
 31
0.0
  0
POLYLINE
  5
1A3
  8
0
  6
CONTINUOUS
 62
     7
 66
     1
 10
0.0
 20
0.0
 30
0.0
  0
VERTEX
  5
2ED
  8
0
  6
CONTINUOUS
 62
     7
 10
-277.324499582436
 20
1002.040025430094
 30
0.0
  0
VERTEX
  5
2EE
  8
0
  6
CONTINUOUS
 62
     7
 10
-275.9409333059983
 20
1002.230986053874
 30
0.0
  0
VERTEX
  5
2EF
  8
0
  6
CONTINUOUS
 62
     7
 10
-274.8493364155344
 20
1002.416453662191
 30
0.0
  0
SEQEND
  5
303
  8
0
  6
CONTINUOUS
 62
     7
  0
LINE
  5
1A4
  8
0
  6
CONTINUOUS
 62
     7
 10
-277.3244995824361
 20
1002.040025430094
 30
0.0
 11
-278.0000000000001
 21
1002.162956168202
 31
0.0
  0
LINE
  5
1A5
  8
0
  6
CONTINUOUS
 62
     7
 10
-274.7916539474476
 20
1006.576895666337
 30
0.0
 11
-274.8493364155343
 21
1006.583546337809
 31
0.0
  0
LINE
  5
1A6
  8
0
  6
CONTINUOUS
 62
     7
 10
-290.150663584466
 20
1006.583546337809
 30
0.0
 11
-290.2083460525527
 21
1006.576895666337
 31
0.0
  0
LINE
  5
1A7
  8
0
  6
CONTINUOUS
 62
     7
 10
-290.2083460525527
 20
1002.423104333663
 30
0.0
 11
-290.150663584466
 21
1002.416453662191
 31
0.0
  0
LINE
  5
1A8
  8
0
  6
CONTINUOUS
 62
     7
 10
-274.8493364155343
 20
1002.416453662191
 30
0.0
 11
-274.7916539474476
 21
1002.423104333663
 31
0.0
  0
LINE
  5
1A9
  8
0
  6
CONTINUOUS
 62
     7
 10
-277.3244995824361
 20
1006.959974569906
 30
0.0
 11
-277.2884981669156
 21
1006.951728861654
 31
0.0
  0
LINE
  5
1AA
  8
0
  6
CONTINUOUS
 62
     7
 10
-287.6755004175642
 20
1002.040025430094
 30
0.0
 11
-287.7114776357208
 21
1002.048258032613
 31
0.0
  0
LINE
  5
1AB
  8
0
  6
CONTINUOUS
 62
     7
 10
-287.7114916954048
 20
1006.951734353379
 30
0.0
 11
-287.6755004175642
 21
1006.959974569906
 31
0.0
  0
LINE
  5
1AC
  8
0
  6
CONTINUOUS
 62
     7
 10
-277.2885012892336
 20
1002.048269446792
 30
0.0
 11
-277.3244995824361
 21
1002.040025430094
 31
0.0
  0
ARC
  5
1AD
  8
0
  6
CONTINUOUS
 62
     7
 10
-412.5
 20
954.5
 30
0.0
 40
69.5
 50
150.5172135634556
 51
0.0
  0
ARC
  5
1AE
  8
0
  6
CONTINUOUS
 62
     7
 10
-412.5
 20
954.5
 30
0.0
 40
69.5
 50
0.0
 51
29.48278643654441
  0
LINE
  5
1AF
  8
0
  6
CONTINUOUS
 62
     7
 10
-512.5
 20
839.5000000000001
 30
0.0
 11
-502.4999999999999
 21
829.5
 31
0.0
  0
LINE
  5
1B0
  8
0
  6
CONTINUOUS
 62
     7
 10
-512.5
 20
1069.5
 30
0.0
 11
-512.5
 21
1006.132799487893
 31
0.0
  0
LINE
  5
1B1
  8
0
  6
CONTINUOUS
 62
     7
 10
-512.5
 20
1002.867200512108
 30
0.0
 11
-512.5
 21
906.1327994878924
 31
0.0
  0
LINE
  5
1B2
  8
0
  6
CONTINUOUS
 62
     7
 10
-512.5
 20
902.8672005121075
 30
0.0
 11
-512.5
 21
839.5000000000001
 31
0.0
  0
LINE
  5
1B3
  8
0
  6
CONTINUOUS
 62
     7
 10
-502.4999999999999
 20
1079.5
 30
0.0
 11
-512.5
 21
1069.5
 31
0.0
  0
LINE
  5
1B4
  8
0
  6
CONTINUOUS
 62
     7
 10
-282.5000000000001
 20
1079.5
 30
0.0
 11
-502.4999999999999
 21
1079.5
 31
0.0
  0
LINE
  5
1B5
  8
0
  6
CONTINUOUS
 62
     7
 10
-272.5000000000001
 20
1069.5
 30
0.0
 11
-282.5000000000001
 21
1079.5
 31
0.0
  0
LINE
  5
1B6
  8
0
  6
CONTINUOUS
 62
     7
 10
-272.5000000000001
 20
839.5
 30
0.0
 11
-272.5000000000001
 21
902.8672005121076
 31
0.0
  0
LINE
  5
1B7
  8
0
  6
CONTINUOUS
 62
     7
 10
-272.5000000000001
 20
906.1327994878924
 30
0.0
 11
-272.5000000000001
 21
1002.867200512108
 31
0.0
  0
LINE
  5
1B8
  8
0
  6
CONTINUOUS
 62
     7
 10
-272.5000000000001
 20
1006.132799487892
 30
0.0
 11
-272.5000000000001
 21
1069.5
 31
0.0
  0
LINE
  5
1B9
  8
0
  6
CONTINUOUS
 62
     7
 10
-282.5000000000002
 20
829.5
 30
0.0
 11
-272.5000000000001
 21
839.5
 31
0.0
  0
LINE
  5
1BA
  8
0
  6
CONTINUOUS
 62
     7
 10
-502.5000000000001
 20
829.5
 30
0.0
 11
-282.5000000000002
 21
829.5
 31
0.0
  0
LINE
  5
1BB
  8
0
  6
CONTINUOUS
 62
     7
 10
-352.0
 20
1015.0
 30
0.0
 11
-352.0
 21
1016.5
 31
0.0
  0
LINE
  5
1BC
  8
0
  6
CONTINUOUS
 62
     7
 10
-473.0
 20
1016.5
 30
0.0
 11
-473.0
 21
1015.0
 31
0.0
  0
LINE
  5
1BD
  8
0
  6
CONTINUOUS
 62
     7
 10
-473.0
 20
1015.0
 30
0.0
 11
-473.0
 21
954.5000000000001
 31
0.0
  0
LINE
  5
1BE
  8
0
  6
CONTINUOUS
 62
     7
 10
-352.0
 20
954.5
 30
0.0
 11
-352.0
 21
1015.0
 31
0.0
  0
ARC
  5
1BF
  8
0
  6
CONTINUOUS
 62
     7
 10
-512.892135242473
 20
905.5475062189439
 30
0.0
 40
0.4999999999999987
 50
100.9673226849804
 51
180.0
  0
ARC
  5
1C0
  8
0
  6
CONTINUOUS
 62
     7
 10
-492.1078647575272
 20
903.4524937810561
 30
0.0
 40
0.4999999999999987
 50
280.9673226849804
 51
0.0
  0
ARC
  5
1C1
  8
0
  6
CONTINUOUS
 62
     7
 10
-492.1078647575272
 20
905.5475062189439
 30
0.0
 40
0.5000000000000004
 50
0.0
 51
79.03267731501964
  0
LINE
  5
1C2
  8
0
  6
CONTINUOUS
 62
     7
 10
-491.6078647575272
 20
903.4524937810561
 30
0.0
 11
-491.6078647575272
 21
905.5475062189439
 31
0.0
  0
LINE
  5
1C3
  8
0
  6
CONTINUOUS
 62
     7
 10
-513.392135242473
 20
905.5475062189439
 30
0.0
 11
-513.392135242473
 21
903.4524937810561
 31
0.0
  0
ARC
  5
1C4
  8
0
  6
CONTINUOUS
 62
     7
 10
-512.892135242473
 20
903.4524937810561
 30
0.0
 40
0.5000000000000004
 50
180.0
 51
259.0326773150197
  0
LINE
  5
1C5
  8
0
  6
CONTINUOUS
 62
     7
 10
-510.2083460525526
 20
906.5768956663368
 30
0.0
 11
-512.9872598005456
 21
906.0383741425767
 31
0.0
  0
LINE
  5
1C6
  8
0
  6
CONTINUOUS
 62
     7
 10
-492.0127401994546
 20
906.0383741425767
 30
0.0
 11
-494.7916539474476
 21
906.5768956663368
 31
0.0
  0
LINE
  5
1C7
  8
0
  6
CONTINUOUS
 62
     7
 10
-512.9872598005456
 20
902.9616258574233
 30
0.0
 11
-510.2083460525526
 21
902.4231043336632
 31
0.0
  0
LINE
  5
1C8
  8
0
  6
CONTINUOUS
 62
     7
 10
-494.7916539474477
 20
902.4231043336632
 30
0.0
 11
-492.0127401994546
 21
902.9616258574233
 31
0.0
  0
LINE
  5
1C9
  8
0
  6
CONTINUOUS
 62
     7
 10
-510.256839112863
 20
902.4358800250845
 30
0.0
 11
-509.9319611059026
 21
902.3754447649034
 31
0.0
  0
LINE
  5
1CA
  8
0
  6
CONTINUOUS
 62
     7
 10
-509.9319611059025
 20
902.3754447649034
 30
0.0
 11
-507.7135239737861
 21
902.0486614389226
 31
0.0
  0
LINE
  5
1CB
  8
0
  6
CONTINUOUS
 62
     7
 10
-507.7134565299958
 20
906.9513470486477
 30
0.0
 11
-509.8499682217849
 21
906.6390280058463
 31
0.0
  0
LINE
  5
1CC
  8
0
  6
CONTINUOUS
 62
     7
 10
-509.8499682217849
 20
906.6390280058463
 30
0.0
 11
-509.9864296393592
 21
906.6147814430954
 31
0.0
  0
LINE
  5
1CD
  8
0
  6
CONTINUOUS
 62
     7
 10
-509.9864296393592
 20
906.6147814430954
 30
0.0
 11
-510.2568391128629
 21
906.5641199749155
 31
0.0
  0
LINE
  5
1CE
  8
0
  6
CONTINUOUS
 62
     7
 10
-497.2862654889216
 20
902.048686805565
 30
0.0
 11
-495.1591977178563
 21
902.3594026704284
 31
0.0
  0
LINE
  5
1CF
  8
0
  6
CONTINUOUS
 62
     7
 10
-495.1591977178564
 20
902.3594026704284
 30
0.0
 11
-495.010523597976
 21
902.3857914653207
 31
0.0
  0
LINE
  5
1D0
  8
0
  6
CONTINUOUS
 62
     7
 10
-495.010523597976
 20
902.3857914653207
 30
0.0
 11
-494.7431608871373
 21
902.4358800250847
 31
0.0
  0
LINE
  5
1D1
  8
0
  6
CONTINUOUS
 62
     7
 10
-494.7431608871373
 20
906.5641199749153
 30
0.0
 11
-495.0599790191532
 21
906.6230915545897
 31
0.0
  0
LINE
  5
1D2
  8
0
  6
CONTINUOUS
 62
     7
 10
-495.0599790191532
 20
906.6230915545897
 30
0.0
 11
-497.2862879411619
 21
906.9513160443694
 31
0.0
  0
ARC
  5
1D3
  8
0
  6
CONTINUOUS
 62
     7
 10
-502.5000000000002
 20
904.5
 30
0.0
 40
5.859611796797797
 50
24.57833805647107
 51
155.4218152054064
  0
ARC
  5
1D4
  8
0
  6
CONTINUOUS
 62
     7
 10
-502.5000000000002
 20
904.5
 30
0.0
 40
5.859611796797787
 50
204.5780015961615
 51
335.4216628230918
  0
LINE
  5
1D5
  8
0
  6
CONTINUOUS
 62
     7
 10
-513.392135242473
 20
1005.547506218944
 30
0.0
 11
-513.392135242473
 21
1003.452493781056
 31
0.0
  0
ARC
  5
1D6
  8
0
  6
CONTINUOUS
 62
     7
 10
-492.1078647575272
 20
1003.452493781056
 30
0.0
 40
0.4999999999999987
 50
280.9673226849804
 51
0.0
  0
LINE
  5
1D7
  8
0
  6
CONTINUOUS
 62
     7
 10
-491.6078647575272
 20
1003.452493781056
 30
0.0
 11
-491.6078647575272
 21
1005.547506218944
 31
0.0
  0
ARC
  5
1D8
  8
0
  6
CONTINUOUS
 62
     7
 10
-512.892135242473
 20
1005.547506218944
 30
0.0
 40
0.4999999999999987
 50
100.9673226849804
 51
180.0
  0
ARC
  5
1D9
  8
0
  6
CONTINUOUS
 62
     7
 10
-492.1078647575272
 20
1005.547506218944
 30
0.0
 40
0.5000000000000004
 50
0.0
 51
79.03267731501964
  0
ARC
  5
1DA
  8
0
  6
CONTINUOUS
 62
     7
 10
-512.892135242473
 20
1003.452493781056
 30
0.0
 40
0.5000000000000004
 50
180.0
 51
259.0326773150197
  0
LINE
  5
1DB
  8
0
  6
CONTINUOUS
 62
     7
 10
-492.0127401994546
 20
1006.038374142577
 30
0.0
 11
-494.7916539474476
 21
1006.576895666337
 31
0.0
  0
LINE
  5
1DC
  8
0
  6
CONTINUOUS
 62
     7
 10
-512.9872598005456
 20
1002.961625857423
 30
0.0
 11
-510.2083460525526
 21
1002.423104333663
 31
0.0
  0
LINE
  5
1DD
  8
0
  6
CONTINUOUS
 62
     7
 10
-510.2083460525526
 20
1006.576895666337
 30
0.0
 11
-512.9872598005456
 21
1006.038374142577
 31
0.0
  0
LINE
  5
1DE
  8
0
  6
CONTINUOUS
 62
     7
 10
-494.7916539474477
 20
1002.423104333663
 30
0.0
 11
-492.0127401994546
 21
1002.961625857423
 31
0.0
  0
LINE
  5
1DF
  8
0
  6
CONTINUOUS
 62
     7
 10
-494.7431608871373
 20
1006.564119974915
 30
0.0
 11
-495.0599790191532
 21
1006.62309155459
 31
0.0
  0
LINE
  5
1E0
  8
0
  6
CONTINUOUS
 62
     7
 10
-495.0599790191532
 20
1006.62309155459
 30
0.0
 11
-497.2862879411619
 21
1006.951316044369
 31
0.0
  0
LINE
  5
1E1
  8
0
  6
CONTINUOUS
 62
     7
 10
-497.2862654889216
 20
1002.048686805565
 30
0.0
 11
-495.1591977178563
 21
1002.359402670428
 31
0.0
  0
LINE
  5
1E2
  8
0
  6
CONTINUOUS
 62
     7
 10
-495.1591977178564
 20
1002.359402670428
 30
0.0
 11
-495.010523597976
 21
1002.385791465321
 31
0.0
  0
LINE
  5
1E3
  8
0
  6
CONTINUOUS
 62
     7
 10
-495.010523597976
 20
1002.385791465321
 30
0.0
 11
-494.7431608871373
 21
1002.435880025085
 31
0.0
  0
LINE
  5
1E4
  8
0
  6
CONTINUOUS
 62
     7
 10
-510.256839112863
 20
1002.435880025085
 30
0.0
 11
-509.9319611059026
 21
1002.375444764903
 31
0.0
  0
LINE
  5
1E5
  8
0
  6
CONTINUOUS
 62
     7
 10
-509.9319611059025
 20
1002.375444764903
 30
0.0
 11
-507.7135239737861
 21
1002.048661438923
 31
0.0
  0
LINE
  5
1E6
  8
0
  6
CONTINUOUS
 62
     7
 10
-507.7134565299958
 20
1006.951347048648
 30
0.0
 11
-509.8499682217849
 21
1006.639028005846
 31
0.0
  0
LINE
  5
1E7
  8
0
  6
CONTINUOUS
 62
     7
 10
-509.8499682217849
 20
1006.639028005846
 30
0.0
 11
-509.9864296393592
 21
1006.614781443095
 31
0.0
  0
LINE
  5
1E8
  8
0
  6
CONTINUOUS
 62
     7
 10
-509.9864296393592
 20
1006.614781443095
 30
0.0
 11
-510.2568391128629
 21
1006.564119974916
 31
0.0
  0
ARC
  5
1E9
  8
0
  6
CONTINUOUS
 62
     7
 10
-502.5000000000002
 20
1004.5
 30
0.0
 40
5.859611796797797
 50
24.57833805647107
 51
155.4218152054064
  0
ARC
  5
1EA
  8
0
  6
CONTINUOUS
 62
     7
 10
-502.5000000000002
 20
1004.5
 30
0.0
 40
5.859611796797787
 50
204.5780015961615
 51
335.4216628230918
  0
ARC
  5
1EB
  8
0
  6
CONTINUOUS
 62
     7
 10
-292.892135242473
 20
905.5475062189439
 30
0.0
 40
0.4999999999999987
 50
100.9673226849804
 51
180.0
  0
ARC
  5
1EC
  8
0
  6
CONTINUOUS
 62
     7
 10
-292.892135242473
 20
903.4524937810561
 30
0.0
 40
0.5000000000000004
 50
180.0
 51
259.0326773150197
  0
LINE
  5
1ED
  8
0
  6
CONTINUOUS
 62
     7
 10
-293.392135242473
 20
905.5475062189439
 30
0.0
 11
-293.392135242473
 21
903.4524937810561
 31
0.0
  0
LINE
  5
1EE
  8
0
  6
CONTINUOUS
 62
     7
 10
-271.6078647575272
 20
903.4524937810561
 30
0.0
 11
-271.6078647575272
 21
905.5475062189439
 31
0.0
  0
ARC
  5
1EF
  8
0
  6
CONTINUOUS
 62
     7
 10
-272.1078647575272
 20
903.4524937810561
 30
0.0
 40
0.4999999999999987
 50
280.9673226849804
 51
0.0
  0
ARC
  5
1F0
  8
0
  6
CONTINUOUS
 62
     7
 10
-272.1078647575272
 20
905.5475062189439
 30
0.0
 40
0.5000000000000004
 50
0.0
 51
79.03267731501964
  0
LINE
  5
1F1
  8
0
  6
CONTINUOUS
 62
     7
 10
-292.9872598005456
 20
902.9616258574233
 30
0.0
 11
-290.2083460525527
 21
902.4231043336632
 31
0.0
  0
LINE
  5
1F2
  8
0
  6
CONTINUOUS
 62
     7
 10
-274.7916539474476
 20
902.4231043336632
 30
0.0
 11
-272.0127401994546
 21
902.9616258574233
 31
0.0
  0
LINE
  5
1F3
  8
0
  6
CONTINUOUS
 62
     7
 10
-290.2083460525527
 20
906.5768956663368
 30
0.0
 11
-292.9872598005456
 21
906.0383741425767
 31
0.0
  0
LINE
  5
1F4
  8
0
  6
CONTINUOUS
 62
     7
 10
-272.0127401994546
 20
906.0383741425767
 30
0.0
 11
-274.7916539474476
 21
906.5768956663368
 31
0.0
  0
LINE
  5
1F5
  8
0
  6
CONTINUOUS
 62
     7
 10
-287.7134565299958
 20
906.9513470486477
 30
0.0
 11
-289.8499682217849
 21
906.6390280058463
 31
0.0
  0
LINE
  5
1F6
  8
0
  6
CONTINUOUS
 62
     7
 10
-289.8499682217849
 20
906.6390280058463
 30
0.0
 11
-289.9864296393592
 21
906.6147814430954
 31
0.0
  0
LINE
  5
1F7
  8
0
  6
CONTINUOUS
 62
     7
 10
-289.9864296393592
 20
906.6147814430954
 30
0.0
 11
-290.2568391128629
 21
906.5641199749155
 31
0.0
  0
LINE
  5
1F8
  8
0
  6
CONTINUOUS
 62
     7
 10
-277.2862654889216
 20
902.048686805565
 30
0.0
 11
-275.1591977178563
 21
902.3594026704284
 31
0.0
  0
LINE
  5
1F9
  8
0
  6
CONTINUOUS
 62
     7
 10
-275.1591977178563
 20
902.3594026704284
 30
0.0
 11
-275.010523597976
 21
902.3857914653207
 31
0.0
  0
LINE
  5
1FA
  8
0
  6
CONTINUOUS
 62
     7
 10
-275.010523597976
 20
902.3857914653207
 30
0.0
 11
-274.7431608871373
 21
902.4358800250847
 31
0.0
  0
LINE
  5
1FB
  8
0
  6
CONTINUOUS
 62
     7
 10
-290.2568391128629
 20
902.4358800250845
 30
0.0
 11
-289.9319611059026
 21
902.3754447649034
 31
0.0
  0
LINE
  5
1FC
  8
0
  6
CONTINUOUS
 62
     7
 10
-289.9319611059026
 20
902.3754447649034
 30
0.0
 11
-287.7135239737862
 21
902.0486614389226
 31
0.0
  0
LINE
  5
1FD
  8
0
  6
CONTINUOUS
 62
     7
 10
-274.7431608871373
 20
906.5641199749153
 30
0.0
 11
-275.0599790191532
 21
906.6230915545897
 31
0.0
  0
LINE
  5
1FE
  8
0
  6
CONTINUOUS
 62
     7
 10
-275.0599790191532
 20
906.6230915545897
 30
0.0
 11
-277.286287941162
 21
906.9513160443694
 31
0.0
  0
ARC
  5
1FF
  8
0
  6
CONTINUOUS
 62
     7
 10
-282.5000000000001
 20
904.5
 30
0.0
 40
5.859611796797797
 50
24.57833805647107
 51
155.4218152054064
  0
ARC
  5
200
  8
0
  6
CONTINUOUS
 62
     7
 10
-282.5000000000001
 20
904.5
 30
0.0
 40
5.859611796797787
 50
204.5780015961615
 51
335.4216628230918
  0
ARC
  5
201
  8
0
  6
CONTINUOUS
 62
     7
 10
-292.892135242473
 20
1005.547506218944
 30
0.0
 40
0.4999999999999987
 50
100.9673226849804
 51
180.0
  0
ARC
  5
202
  8
0
  6
CONTINUOUS
 62
     7
 10
-272.1078647575272
 20
1003.452493781056
 30
0.0
 40
0.4999999999999987
 50
280.9673226849804
 51
0.0
  0
LINE
  5
203
  8
0
  6
CONTINUOUS
 62
     7
 10
-271.6078647575272
 20
1003.452493781056
 30
0.0
 11
-271.6078647575272
 21
1005.547506218944
 31
0.0
  0
LINE
  5
204
  8
0
  6
CONTINUOUS
 62
     7
 10
-293.392135242473
 20
1005.547506218944
 30
0.0
 11
-293.392135242473
 21
1003.452493781056
 31
0.0
  0
ARC
  5
205
  8
0
  6
CONTINUOUS
 62
     7
 10
-272.1078647575272
 20
1005.547506218944
 30
0.0
 40
0.5000000000000004
 50
0.0
 51
79.03267731501964
  0
ARC
  5
206
  8
0
  6
CONTINUOUS
 62
     7
 10
-292.892135242473
 20
1003.452493781056
 30
0.0
 40
0.5000000000000004
 50
180.0
 51
259.0326773150197
  0
LINE
  5
207
  8
0
  6
CONTINUOUS
 62
     7
 10
-272.0127401994546
 20
1006.038374142577
 30
0.0
 11
-274.7916539474476
 21
1006.576895666337
 31
0.0
  0
LINE
  5
208
  8
0
  6
CONTINUOUS
 62
     7
 10
-290.2083460525527
 20
1006.576895666337
 30
0.0
 11
-292.9872598005456
 21
1006.038374142577
 31
0.0
  0
LINE
  5
209
  8
0
  6
CONTINUOUS
 62
     7
 10
-292.9872598005456
 20
1002.961625857423
 30
0.0
 11
-290.2083460525527
 21
1002.423104333663
 31
0.0
  0
LINE
  5
20A
  8
0
  6
CONTINUOUS
 62
     7
 10
-274.7916539474476
 20
1002.423104333663
 30
0.0
 11
-272.0127401994546
 21
1002.961625857423
 31
0.0
  0
LINE
  5
20B
  8
0
  6
CONTINUOUS
 62
     7
 10
-287.7134565299958
 20
1006.951347048648
 30
0.0
 11
-289.8499682217849
 21
1006.639028005846
 31
0.0
  0
LINE
  5
20C
  8
0
  6
CONTINUOUS
 62
     7
 10
-289.8499682217849
 20
1006.639028005846
 30
0.0
 11
-289.9864296393592
 21
1006.614781443095
 31
0.0
  0
LINE
  5
20D
  8
0
  6
CONTINUOUS
 62
     7
 10
-289.9864296393592
 20
1006.614781443095
 30
0.0
 11
-290.2568391128629
 21
1006.564119974916
 31
0.0
  0
LINE
  5
20E
  8
0
  6
CONTINUOUS
 62
     7
 10
-274.7431608871373
 20
1006.564119974915
 30
0.0
 11
-275.0599790191532
 21
1006.62309155459
 31
0.0
  0
LINE
  5
20F
  8
0
  6
CONTINUOUS
 62
     7
 10
-275.0599790191532
 20
1006.62309155459
 30
0.0
 11
-277.286287941162
 21
1006.951316044369
 31
0.0
  0
LINE
  5
210
  8
0
  6
CONTINUOUS
 62
     7
 10
-290.2568391128629
 20
1002.435880025085
 30
0.0
 11
-289.9319611059026
 21
1002.375444764903
 31
0.0
  0
LINE
  5
211
  8
0
  6
CONTINUOUS
 62
     7
 10
-289.9319611059026
 20
1002.375444764903
 30
0.0
 11
-287.7135239737862
 21
1002.048661438923
 31
0.0
  0
LINE
  5
212
  8
0
  6
CONTINUOUS
 62
     7
 10
-277.2862654889216
 20
1002.048686805565
 30
0.0
 11
-275.1591977178563
 21
1002.359402670428
 31
0.0
  0
LINE
  5
213
  8
0
  6
CONTINUOUS
 62
     7
 10
-275.1591977178563
 20
1002.359402670428
 30
0.0
 11
-275.010523597976
 21
1002.385791465321
 31
0.0
  0
LINE
  5
214
  8
0
  6
CONTINUOUS
 62
     7
 10
-275.010523597976
 20
1002.385791465321
 30
0.0
 11
-274.7431608871373
 21
1002.435880025085
 31
0.0
  0
ARC
  5
215
  8
0
  6
CONTINUOUS
 62
     7
 10
-282.5000000000001
 20
1004.5
 30
0.0
 40
5.859611796797797
 50
24.57833805647107
 51
155.4218152054064
  0
ARC
  5
216
  8
0
  6
CONTINUOUS
 62
     7
 10
-282.5000000000001
 20
1004.5
 30
0.0
 40
5.859611796797787
 50
204.5780015961615
 51
335.4216628230918
  0
ENDBLK
  8
0
  0
ENDSEC
  0
SECTION
  2
ENTITIES
  0
INSERT
  5
124
  8
0
  6
CONTINUOUS
 62
     7
  2
D_FRAME_VIEW_2142
 10
0.0
 20
0.0
 30
0.0
  0
INSERT
  5
217
  8
0
  6
CONTINUOUS
 62
     7
  2
D_FRAME_VIEW_1635
 10
0.0
 20
0.0
 30
0.0
  0
TEXT
  5
218
  8
0
  6
CONTINUOUS
 62
     7
 10
81.5754501688133
 20
633.3284200325122
 30
0.0
 40
3.0
  1
AGH-CLM
  0
ENDSEC
  0
EOF
