  0
SECTION
  2
HEADER
  9
$ACADVER
  1
AC1006
  9
$DWGCODEPAGE
  3
ansi_932
  9
$INSBASE
 10
0.0
 20
0.0
 30
0.0
  9
$EXTMIN
 10
-424.5000000000001
 20
303.3556927597849
  9
$EXTMAX
 10
-56.50000000000008
 20
508.4980151148262
  9
$LIMMIN
 10
0.0
 20
0.0
  9
$LIMMAX
 10
12.0
 20
9.0
  9
$ORTHOMODE
 70
     0
  9
$REGENMODE
 70
     1
  9
$FILLMODE
 70
     1
  9
$QTEXTMODE
 70
     0
  9
$MIRRTEXT
 70
     1
  9
$DRAGMODE
 70
     2
  9
$LTSCALE
 40
1.0
  9
$OSMODE
 70
    37
  9
$ATTMODE
 70
     1
  9
$TEXTSIZE
 40
0.2
  9
$TRACEWID
 40
0.05
  9
$TEXTSTYLE
  7
STANDARD
  9
$CLAYER
  8
0
  9
$CELTYPE
  6
BYLAYER
  9
$CECOLOR
 62
   256
  9
$DIMSCALE
 40
1.0
  9
$DIMASZ
 40
3.0
  9
$DIMEXO
 40
0.0625
  9
$DIMDLI
 40
0.38
  9
$DIMRND
 40
0.0
  9
$DIMDLE
 40
0.0
  9
$DIMEXE
 40
1.5
  9
$DIMTP
 40
0.0
  9
$DIMTM
 40
0.0
  9
$DIMTXT
 40
3.0
  9
$DIMCEN
 40
0.09
  9
$DIMTSZ
 40
0.0
  9
$DIMTOL
 70
     0
  9
$DIMLIM
 70
     0
  9
$DIMTIH
 70
     1
  9
$DIMTOH
 70
     1
  9
$DIMSE1
 70
     0
  9
$DIMSE2
 70
     0
  9
$DIMTAD
 70
     1
  9
$DIMZIN
 70
     0
  9
$DIMBLK
  1

  9
$DIMASO
 70
     1
  9
$DIMSHO
 70
     1
  9
$DIMPOST
  1

  9
$DIMAPOST
  1

  9
$DIMALT
 70
     0
  9
$DIMALTD
 70
     2
  9
$DIMALTF
 40
25.4
  9
$DIMLFAC
 40
1.0
  9
$DIMTOFL
 70
     0
  9
$DIMTVP
 40
0.0
  9
$DIMTIX
 70
     0
  9
$DIMSOXD
 70
     0
  9
$DIMSAH
 70
     0
  9
$DIMBLK1
  1

  9
$DIMBLK2
  1

  9
$LUNITS
 70
     2
  9
$LUPREC
 70
     4
  9
$SKETCHINC
 40
0.1
  9
$FILLETRAD
 40
0.5
  9
$AUNITS
 70
     0
  9
$AUPREC
 70
     0
  9
$MENU
  1
.
  9
$ELEVATION
 40
0.0
  9
$THICKNESS
 40
0.0
  9
$LIMCHECK
 70
     0
  9
$CHAMFERA
 40
0.0
  9
$CHAMFERB
 40
0.0
  9
$SKPOLY
 70
     0
  9
$TDCREATE
 40
2460578.782893935
  9
$TDUPDATE
 40
2460578.78289419
  9
$TDINDWG
 40
0.0000000116
  9
$TDUSRTIMER
 40
0.0000000116
  9
$USRTIMER
 70
     1
  9
$ANGBASE
 50
0.0
  9
$ANGDIR
 70
     0
  9
$PDMODE
 70
     0
  9
$PDSIZE
 40
0.0
  9
$PLINEWID
 40
0.0
  9
$COORDS
 70
     1
  9
$SPLFRAME
 70
     0
  9
$SPLINETYPE
 70
     6
  9
$SPLINESEGS
 70
     8
  9
$ATTDIA
 70
     0
  9
$ATTREQ
 70
     1
  9
$HANDLING
 70
     1
  9
$HANDSEED
  5
306
  9
$SURFTAB1
 70
     6
  9
$SURFTAB2
 70
     6
  9
$SURFTYPE
 70
     6
  9
$SURFU
 70
     6
  9
$SURFV
 70
     6
  9
$UCSNAME
  2

  9
$UCSORG
 10
0.0
 20
0.0
 30
0.0
  9
$UCSXDIR
 10
1.0
 20
0.0
 30
0.0
  9
$UCSYDIR
 10
0.0
 20
1.0
 30
0.0
  9
$USERI1
 70
     0
  9
$USERI2
 70
     0
  9
$USERI3
 70
     0
  9
$USERI4
 70
     0
  9
$USERI5
 70
     0
  9
$USERR1
 40
0.0
  9
$USERR2
 40
0.0
  9
$USERR3
 40
0.0
  9
$USERR4
 40
0.0
  9
$USERR5
 40
0.0
  9
$WORLDVIEW
 70
     1
  0
ENDSEC
  0
SECTION
  2
TABLES
  0
TABLE
  2
VPORT
 70
     1
  0
VPORT
  2
*ACTIVE
 70
     0
 10
0.0
 20
0.0
 11
1.0
 21
1.0
 12
-240.5000000000001
 22
405.9268539373055
 13
0.0
 23
0.0
 14
0.5
 24
0.5
 15
0.5
 25
0.5
 16
0.0
 26
0.0
 36
1.0
 17
0.0
 27
0.0
 37
0.0
 40
205.1423223550412
 41
1.6
 42
50.0
 43
0.0
 44
0.0
 50
0.0
 51
0.0
 71
     0
 72
   100
 73
     1
 74
     3
 75
     0
 76
     0
 77
     0
 78
     0
  0
ENDTAB
  0
TABLE
  2
LTYPE
 70
     2
  0
LTYPE
  2
CONTINUOUS
 70
     0
  3
Solid line
 72
    65
 73
     0
 40
0.0
  0
LTYPE
  2
CENTER
 70
     0
  3

 72
    65
 73
     0
 40
0.0
  0
ENDTAB
  0
TABLE
  2
LAYER
 70
     2
  0
LAYER
  2
0
 70
     0
 62
     7
  6
CONTINUOUS
  0
LAYER
  2
1
 70
     0
 62
     7
  6
CONTINUOUS
  0
ENDTAB
  0
TABLE
  2
STYLE
 70
     2
  0
STYLE
  2
STANDARD
 70
     0
 40
0.0
 41
1.0
 50
0.0
 71
     0
 42
0.2
  3
txt
  4

  0
STYLE
  2
ＭＳ_ゴシック
 70
     0
 40
0.0
 41
1.0
 50
0.0
 71
     0
 42
0.2
  3
ＭＳ ゴシック.shx
  4

  0
ENDTAB
  0
TABLE
  2
VIEW
 70
     0
  0
ENDTAB
  0
TABLE
  2
UCS
 70
     0
  0
ENDTAB
  0
ENDSEC
  0
SECTION
  2
BLOCKS
  0
ENDSEC
  0
SECTION
  2
ENTITIES
  0
LINE
  5
70
  8
1
  6
CONTINUOUS
 62
     7
 10
-74.53433677737853
 20
455.3898551539925
 30
0.0
 11
-74.55212832377295
 21
455.3800026768194
 31
0.0
  0
LINE
  5
71
  8
1
  6
CONTINUOUS
 62
     7
 10
-74.55212832377295
 20
455.3800026768194
 30
0.0
 11
-74.57367491856228
 21
455.3701501996462
 31
0.0
  0
LINE
  5
72
  8
1
  6
CONTINUOUS
 62
     7
 10
-74.57367491856228
 20
455.3701501996462
 30
0.0
 11
-74.59897271090442
 21
455.3602977224729
 31
0.0
  0
LINE
  5
73
  8
1
  6
CONTINUOUS
 62
     7
 10
-74.59897271090442
 20
455.3602977224729
 30
0.0
 11
-74.62797023551168
 21
455.3504452452997
 31
0.0
  0
LINE
  5
74
  8
1
  6
CONTINUOUS
 62
     7
 10
-74.62797023551168
 20
455.3504452452997
 30
0.0
 11
-74.66059362190649
 21
455.3405927681264
 31
0.0
  0
LINE
  5
75
  8
1
  6
CONTINUOUS
 62
     7
 10
-74.66059362190649
 20
455.3405927681264
 30
0.0
 11
-74.69676886900666
 21
455.3307402909533
 31
0.0
  0
LINE
  5
76
  8
1
  6
CONTINUOUS
 62
     7
 10
-74.69676886900666
 20
455.3307402909533
 30
0.0
 11
-74.73642197573005
 21
455.3208878137801
 31
0.0
  0
LINE
  5
77
  8
1
  6
CONTINUOUS
 62
     7
 10
-74.73642197573005
 20
455.3208878137801
 30
0.0
 11
-74.77947894099444
 21
455.3110353366069
 31
0.0
  0
LINE
  5
78
  8
1
  6
CONTINUOUS
 62
     7
 10
-74.77947894099444
 20
455.3110353366069
 30
0.0
 11
-74.82586576371764
 21
455.3011828594336
 31
0.0
  0
LINE
  5
79
  8
1
  6
CONTINUOUS
 62
     7
 10
-74.82586576371764
 20
455.3011828594336
 30
0.0
 11
-74.87550844281748
 21
455.2913303822604
 31
0.0
  0
LINE
  5
7A
  8
1
  6
CONTINUOUS
 62
     7
 10
-74.87550844281748
 20
455.2913303822604
 30
0.0
 11
-74.92833297721175
 21
455.2814779050871
 31
0.0
  0
LINE
  5
7B
  8
1
  6
CONTINUOUS
 62
     7
 10
-74.92833297721175
 20
455.2814779050871
 30
0.0
 11
-74.98426536581829
 21
455.271625427914
 31
0.0
  0
LINE
  5
7C
  8
1
  6
CONTINUOUS
 62
     7
 10
-74.98426536581829
 20
455.271625427914
 30
0.0
 11
-75.04323160755489
 21
455.2617729507407
 31
0.0
  0
LINE
  5
7D
  8
1
  6
CONTINUOUS
 62
     7
 10
-75.04323160755489
 20
455.2617729507407
 30
0.0
 11
-75.10515770133937
 21
455.2519204735676
 31
0.0
  0
LINE
  5
7E
  8
1
  6
CONTINUOUS
 62
     7
 10
-75.10515770133937
 20
455.2519204735676
 30
0.0
 11
-75.16996964608956
 21
455.2420679963944
 31
0.0
  0
LINE
  5
7F
  8
1
  6
CONTINUOUS
 62
     7
 10
-75.16996964608956
 20
455.2420679963944
 30
0.0
 11
-75.2375934367773
 21
455.2322155192212
 31
0.0
  0
LINE
  5
80
  8
1
  6
CONTINUOUS
 62
     7
 10
-75.2375934367773
 20
455.2322155192212
 30
0.0
 11
-75.30794355313354
 21
455.2223630420481
 31
0.0
  0
LINE
  5
81
  8
1
  6
CONTINUOUS
 62
     7
 10
-75.30794355313354
 20
455.2223630420481
 30
0.0
 11
-75.38089767108805
 21
455.2125105648747
 31
0.0
  0
LINE
  5
82
  8
1
  6
CONTINUOUS
 62
     7
 10
-75.38089767108805
 20
455.2125105648747
 30
0.0
 11
-75.45632612940119
 21
455.2026580877016
 31
0.0
  0
LINE
  5
83
  8
1
  6
CONTINUOUS
 62
     7
 10
-75.45632612940119
 20
455.2026580877016
 30
0.0
 11
-75.53409926683315
 21
455.1928056105284
 31
0.0
  0
LINE
  5
84
  8
1
  6
CONTINUOUS
 62
     7
 10
-75.53409926683315
 20
455.1928056105284
 30
0.0
 11
-75.61408742214424
 21
455.1829531333552
 31
0.0
  0
LINE
  5
85
  8
1
  6
CONTINUOUS
 62
     7
 10
-75.61408742214424
 20
455.1829531333552
 30
0.0
 11
-75.6961609340947
 21
455.173100656182
 31
0.0
  0
LINE
  5
86
  8
1
  6
CONTINUOUS
 62
     7
 10
-75.6961609340947
 20
455.173100656182
 30
0.0
 11
-75.78019014144482
 21
455.1632481790087
 31
0.0
  0
LINE
  5
87
  8
1
  6
CONTINUOUS
 62
     7
 10
-75.78019014144482
 20
455.1632481790087
 30
0.0
 11
-75.86604538295482
 21
455.1533957018355
 31
0.0
  0
LINE
  5
88
  8
1
  6
CONTINUOUS
 62
     7
 10
-75.86604538295482
 20
455.1533957018355
 30
0.0
 11
-75.953596997385
 21
455.1435432246623
 31
0.0
  0
LINE
  5
89
  8
1
  6
CONTINUOUS
 62
     7
 10
-75.953596997385
 20
455.1435432246623
 30
0.0
 11
-76.04271532349561
 21
455.1336907474891
 31
0.0
  0
LINE
  5
8A
  8
1
  6
CONTINUOUS
 62
     7
 10
-76.04271532349561
 20
455.1336907474891
 30
0.0
 11
-76.13327070004692
 21
455.1238382703158
 31
0.0
  0
LINE
  5
8B
  8
1
  6
CONTINUOUS
 62
     7
 10
-76.13327070004692
 20
455.1238382703158
 30
0.0
 11
-76.2251334657992
 21
455.1139857931427
 31
0.0
  0
LINE
  5
8C
  8
1
  6
CONTINUOUS
 62
     7
 10
-76.2251334657992
 20
455.1139857931427
 30
0.0
 11
-76.31817395951269
 21
455.1041333159695
 31
0.0
  0
LINE
  5
8D
  8
1
  6
CONTINUOUS
 62
     7
 10
-76.31817395951269
 20
455.1041333159695
 30
0.0
 11
-76.4122623573603
 21
455.0942808387964
 31
0.0
  0
LINE
  5
8E
  8
1
  6
CONTINUOUS
 62
     7
 10
-76.4122623573603
 20
455.0942808387964
 30
0.0
 11
-76.50726112548679
 21
455.0844283616231
 31
0.0
  0
LINE
  5
8F
  8
1
  6
CONTINUOUS
 62
     7
 10
-76.50726112548679
 20
455.0844283616231
 30
0.0
 11
-76.60302182710205
 21
455.0745758844498
 31
0.0
  0
LINE
  5
90
  8
1
  6
CONTINUOUS
 62
     7
 10
-76.60302182710205
 20
455.0745758844498
 30
0.0
 11
-76.6993952001143
 21
455.0647234072766
 31
0.0
  0
LINE
  5
91
  8
1
  6
CONTINUOUS
 62
     7
 10
-76.6993952001143
 20
455.0647234072766
 30
0.0
 11
-76.79623198243165
 21
455.0548709301034
 31
0.0
  0
LINE
  5
92
  8
1
  6
CONTINUOUS
 62
     7
 10
-76.79623198243165
 20
455.0548709301034
 30
0.0
 11
-76.89338291196232
 21
455.0450184529302
 31
0.0
  0
LINE
  5
93
  8
1
  6
CONTINUOUS
 62
     7
 10
-76.89338291196232
 20
455.0450184529302
 30
0.0
 11
-76.99069872661448
 21
455.035165975757
 31
0.0
  0
LINE
  5
94
  8
1
  6
CONTINUOUS
 62
     7
 10
-76.99069872661448
 20
455.035165975757
 30
0.0
 11
-77.08803016429631
 21
455.0253134985838
 31
0.0
  0
LINE
  5
95
  8
1
  6
CONTINUOUS
 62
     7
 10
-77.08803016429631
 20
455.0253134985838
 30
0.0
 11
-77.18522796291596
 21
455.0154610214106
 31
0.0
  0
LINE
  5
96
  8
1
  6
CONTINUOUS
 62
     7
 10
-77.18522796291596
 20
455.0154610214106
 30
0.0
 11
-77.28214286038163
 21
455.0056085442373
 31
0.0
  0
LINE
  5
97
  8
1
  6
CONTINUOUS
 62
     7
 10
-77.28214286038163
 20
455.0056085442373
 30
0.0
 11
-77.3786255946015
 21
454.9957560670641
 31
0.0
  0
LINE
  5
98
  8
1
  6
CONTINUOUS
 62
     7
 10
-77.3786255946015
 20
454.9957560670641
 30
0.0
 11
-77.47452690348372
 21
454.9859035898909
 31
0.0
  0
LINE
  5
99
  8
1
  6
CONTINUOUS
 62
     7
 10
-77.47452690348372
 20
454.9859035898909
 30
0.0
 11
-77.56969752493647
 21
454.9760511127178
 31
0.0
  0
LINE
  5
9A
  8
1
  6
CONTINUOUS
 62
     7
 10
-77.56969752493647
 20
454.9760511127178
 30
0.0
 11
-77.66398819686796
 21
454.9661986355445
 31
0.0
  0
LINE
  5
9B
  8
1
  6
CONTINUOUS
 62
     7
 10
-77.66398819686796
 20
454.9661986355445
 30
0.0
 11
-77.75725070923083
 21
454.9563461583713
 31
0.0
  0
LINE
  5
9C
  8
1
  6
CONTINUOUS
 62
     7
 10
-77.75725070923083
 20
454.9563461583713
 30
0.0
 11
-77.84934936132971
 21
454.9464936811981
 31
0.0
  0
LINE
  5
9D
  8
1
  6
CONTINUOUS
 62
     7
 10
-77.84934936132971
 20
454.9464936811981
 30
0.0
 11
-77.94015665766887
 21
454.9366412040249
 31
0.0
  0
LINE
  5
9E
  8
1
  6
CONTINUOUS
 62
     7
 10
-77.94015665766887
 20
454.9366412040249
 30
0.0
 11
-78.02954524568457
 21
454.9267887268518
 31
0.0
  0
LINE
  5
9F
  8
1
  6
CONTINUOUS
 62
     7
 10
-78.02954524568457
 20
454.9267887268518
 30
0.0
 11
-78.11738777281319
 21
454.9169362496785
 31
0.0
  0
LINE
  5
A0
  8
1
  6
CONTINUOUS
 62
     7
 10
-78.11738777281319
 20
454.9169362496785
 30
0.0
 11
-78.203556886491
 21
454.9070837725053
 31
0.0
  0
LINE
  5
A1
  8
1
  6
CONTINUOUS
 62
     7
 10
-78.203556886491
 20
454.9070837725053
 30
0.0
 11
-78.28792523415434
 21
454.8972312953321
 31
0.0
  0
LINE
  5
A2
  8
1
  6
CONTINUOUS
 62
     7
 10
-78.28792523415434
 20
454.8972312953321
 30
0.0
 11
-78.37036546323951
 21
454.8873788181589
 31
0.0
  0
LINE
  5
A3
  8
1
  6
CONTINUOUS
 62
     7
 10
-78.37036546323951
 20
454.8873788181589
 30
0.0
 11
-78.45075022118286
 21
454.8775263409857
 31
0.0
  0
LINE
  5
A4
  8
1
  6
CONTINUOUS
 62
     7
 10
-78.45075022118286
 20
454.8775263409857
 30
0.0
 11
-78.52895215542068
 21
454.8676738638125
 31
0.0
  0
LINE
  5
A5
  8
1
  6
CONTINUOUS
 62
     7
 10
-78.52895215542068
 20
454.8676738638125
 30
0.0
 11
-78.60484391338932
 21
454.8578213866393
 31
0.0
  0
LINE
  5
A6
  8
1
  6
CONTINUOUS
 62
     7
 10
-78.60484391338932
 20
454.8578213866393
 30
0.0
 11
-78.67829814252507
 21
454.8479689094661
 31
0.0
  0
LINE
  5
A7
  8
1
  6
CONTINUOUS
 62
     7
 10
-78.67829814252507
 20
454.8479689094661
 30
0.0
 11
-78.74918749026425
 21
454.8381164322928
 31
0.0
  0
LINE
  5
A8
  8
1
  6
CONTINUOUS
 62
     7
 10
-78.74918749026425
 20
454.8381164322928
 30
0.0
 11
-78.81738460404318
 21
454.8282639551197
 31
0.0
  0
LINE
  5
A9
  8
1
  6
CONTINUOUS
 62
     7
 10
-78.81738460404318
 20
454.8282639551197
 30
0.0
 11
-78.88277040342929
 21
454.8184114779464
 31
0.0
  0
LINE
  5
AA
  8
1
  6
CONTINUOUS
 62
     7
 10
-78.88277040342929
 20
454.8184114779464
 30
0.0
 11
-78.9452639026884
 21
454.8085590007732
 31
0.0
  0
LINE
  5
AB
  8
1
  6
CONTINUOUS
 62
     7
 10
-78.9452639026884
 20
454.8085590007732
 30
0.0
 11
-79.00479507505264
 21
454.7987065236
 31
0.0
  0
LINE
  5
AC
  8
1
  6
CONTINUOUS
 62
     7
 10
-79.00479507505264
 20
454.7987065236
 30
0.0
 11
-79.06129389473996
 21
454.7888540464268
 31
0.0
  0
LINE
  5
AD
  8
1
  6
CONTINUOUS
 62
     7
 10
-79.06129389473996
 20
454.7888540464268
 30
0.0
 11
-79.11469033596826
 21
454.7790015692536
 31
0.0
  0
LINE
  5
AE
  8
1
  6
CONTINUOUS
 62
     7
 10
-79.11469033596826
 20
454.7790015692536
 30
0.0
 11
-79.16491437295555
 21
454.7691490920804
 31
0.0
  0
LINE
  5
AF
  8
1
  6
CONTINUOUS
 62
     7
 10
-79.16491437295555
 20
454.7691490920804
 30
0.0
 11
-79.21189597991975
 21
454.7592966149072
 31
0.0
  0
LINE
  5
B0
  8
1
  6
CONTINUOUS
 62
     7
 10
-79.21189597991975
 20
454.7592966149072
 30
0.0
 11
-79.25556513107878
 21
454.749444137734
 31
0.0
  0
LINE
  5
B1
  8
1
  6
CONTINUOUS
 62
     7
 10
-79.25556513107878
 20
454.749444137734
 30
0.0
 11
-79.29585180065061
 21
454.7395916605608
 31
0.0
  0
LINE
  5
B2
  8
1
  6
CONTINUOUS
 62
     7
 10
-79.29585180065061
 20
454.7395916605608
 30
0.0
 11
-79.33268596285319
 21
454.7297391833876
 31
0.0
  0
LINE
  5
B3
  8
1
  6
CONTINUOUS
 62
     7
 10
-79.33268596285319
 20
454.7297391833876
 30
0.0
 11
-79.36599759190449
 21
454.7198867062144
 31
0.0
  0
LINE
  5
B4
  8
1
  6
CONTINUOUS
 62
     7
 10
-79.36599759190449
 20
454.7198867062144
 30
0.0
 11
-79.39571666202238
 21
454.7100342290412
 31
0.0
  0
LINE
  5
B5
  8
1
  6
CONTINUOUS
 62
     7
 10
-79.39571666202238
 20
454.7100342290412
 30
0.0
 11
-79.42177314742489
 21
454.7001817518679
 31
0.0
  0
LINE
  5
B6
  8
1
  6
CONTINUOUS
 62
     7
 10
-79.42177314742489
 20
454.7001817518679
 30
0.0
 11
-79.44409721225253
 21
454.6903292746947
 31
0.0
  0
LINE
  5
B7
  8
1
  6
CONTINUOUS
 62
     7
 10
-79.44409721225253
 20
454.6903292746947
 30
0.0
 11
-79.46264300585982
 21
454.6804767975215
 31
0.0
  0
LINE
  5
B8
  8
1
  6
CONTINUOUS
 62
     7
 10
-74.53463419467742
 20
453.7998327672198
 30
0.0
 11
-74.55496858265103
 21
453.788727700042
 31
0.0
  0
LINE
  5
B9
  8
1
  6
CONTINUOUS
 62
     7
 10
-74.55496858265103
 20
453.788727700042
 30
0.0
 11
-74.57997818021714
 21
453.7776226328641
 31
0.0
  0
LINE
  5
BA
  8
1
  6
CONTINUOUS
 62
     7
 10
-74.57997818021714
 20
453.7776226328641
 30
0.0
 11
-74.60964041235383
 21
453.7665175656862
 31
0.0
  0
LINE
  5
BB
  8
1
  6
CONTINUOUS
 62
     7
 10
-74.60964041235383
 20
453.7665175656862
 30
0.0
 11
-74.64393270403912
 21
453.7554124985083
 31
0.0
  0
LINE
  5
BC
  8
1
  6
CONTINUOUS
 62
     7
 10
-74.64393270403912
 20
453.7554124985083
 30
0.0
 11
-74.6828321061812
 21
453.7443074313305
 31
0.0
  0
LINE
  5
BD
  8
1
  6
CONTINUOUS
 62
     7
 10
-74.6828321061812
 20
453.7443074313305
 30
0.0
 11
-74.72628068054237
 21
453.7332023641526
 31
0.0
  0
LINE
  5
BE
  8
1
  6
CONTINUOUS
 62
     7
 10
-74.72628068054237
 20
453.7332023641526
 30
0.0
 11
-74.77415745957262
 21
453.7220972969747
 31
0.0
  0
LINE
  5
BF
  8
1
  6
CONTINUOUS
 62
     7
 10
-74.77415745957262
 20
453.7220972969747
 30
0.0
 11
-74.82633487711033
 21
453.7109922297968
 31
0.0
  0
LINE
  5
C0
  8
1
  6
CONTINUOUS
 62
     7
 10
-74.82633487711033
 20
453.7109922297968
 30
0.0
 11
-74.88268536699402
 21
453.6998871626189
 31
0.0
  0
LINE
  5
C1
  8
1
  6
CONTINUOUS
 62
     7
 10
-74.88268536699402
 20
453.6998871626189
 30
0.0
 11
-74.94308136306218
 21
453.6887820954412
 31
0.0
  0
LINE
  5
C2
  8
1
  6
CONTINUOUS
 62
     7
 10
-74.94308136306218
 20
453.6887820954412
 30
0.0
 11
-75.00739529915325
 21
453.6776770282633
 31
0.0
  0
LINE
  5
C3
  8
1
  6
CONTINUOUS
 62
     7
 10
-75.00739529915325
 20
453.6776770282633
 30
0.0
 11
-75.0754996091057
 21
453.6665719610854
 31
0.0
  0
LINE
  5
C4
  8
1
  6
CONTINUOUS
 62
     7
 10
-75.0754996091057
 20
453.6665719610854
 30
0.0
 11
-75.14726672675806
 21
453.6554668939075
 31
0.0
  0
LINE
  5
C5
  8
1
  6
CONTINUOUS
 62
     7
 10
-75.14726672675806
 20
453.6554668939075
 30
0.0
 11
-75.22256908594873
 21
453.6443618267296
 31
0.0
  0
LINE
  5
C6
  8
1
  6
CONTINUOUS
 62
     7
 10
-75.22256908594873
 20
453.6443618267296
 30
0.0
 11
-75.30127912051626
 21
453.6332567595517
 31
0.0
  0
LINE
  5
C7
  8
1
  6
CONTINUOUS
 62
     7
 10
-75.30127912051626
 20
453.6332567595517
 30
0.0
 11
-75.38326926429906
 21
453.6221516923738
 31
0.0
  0
LINE
  5
C8
  8
1
  6
CONTINUOUS
 62
     7
 10
-75.38326926429906
 20
453.6221516923738
 30
0.0
 11
-75.4684119329201
 21
453.611046625196
 31
0.0
  0
LINE
  5
C9
  8
1
  6
CONTINUOUS
 62
     7
 10
-75.4684119329201
 20
453.611046625196
 30
0.0
 11
-75.55656349936426
 21
453.5999415580181
 31
0.0
  0
LINE
  5
CA
  8
1
  6
CONTINUOUS
 62
     7
 10
-75.55656349936426
 20
453.5999415580181
 30
0.0
 11
-75.64753487889291
 21
453.5888364908403
 31
0.0
  0
LINE
  5
CB
  8
1
  6
CONTINUOUS
 62
     7
 10
-75.64753487889291
 20
453.5888364908403
 30
0.0
 11
-75.74112899086082
 21
453.5777314236623
 31
0.0
  0
LINE
  5
CC
  8
1
  6
CONTINUOUS
 62
     7
 10
-75.74112899086082
 20
453.5777314236623
 30
0.0
 11
-75.83714875462283
 21
453.5666263564845
 31
0.0
  0
LINE
  5
CD
  8
1
  6
CONTINUOUS
 62
     7
 10
-75.83714875462283
 20
453.5666263564845
 30
0.0
 11
-75.93539708953371
 21
453.5555212893067
 31
0.0
  0
LINE
  5
CE
  8
1
  6
CONTINUOUS
 62
     7
 10
-75.93539708953371
 20
453.5555212893067
 30
0.0
 11
-76.03567691494821
 21
453.5444162221287
 31
0.0
  0
LINE
  5
CF
  8
1
  6
CONTINUOUS
 62
     7
 10
-76.03567691494821
 20
453.5444162221287
 30
0.0
 11
-76.1377911502212
 21
453.533311154951
 31
0.0
  0
LINE
  5
D0
  8
1
  6
CONTINUOUS
 62
     7
 10
-76.1377911502212
 20
453.533311154951
 30
0.0
 11
-76.2415427147074
 21
453.522206087773
 31
0.0
  0
LINE
  5
D1
  8
1
  6
CONTINUOUS
 62
     7
 10
-76.2415427147074
 20
453.522206087773
 30
0.0
 11
-76.34673452776161
 21
453.5111010205953
 31
0.0
  0
LINE
  5
D2
  8
1
  6
CONTINUOUS
 62
     7
 10
-76.34673452776161
 20
453.5111010205953
 30
0.0
 11
-76.45316950873865
 21
453.4999959534173
 31
0.0
  0
LINE
  5
D3
  8
1
  6
CONTINUOUS
 62
     7
 10
-76.45316950873865
 20
453.4999959534173
 30
0.0
 11
-76.56065057699327
 21
453.4888908862395
 31
0.0
  0
LINE
  5
D4
  8
1
  6
CONTINUOUS
 62
     7
 10
-76.56065057699327
 20
453.4888908862395
 30
0.0
 11
-76.66898065188029
 21
453.4777858190616
 31
0.0
  0
LINE
  5
D5
  8
1
  6
CONTINUOUS
 62
     7
 10
-76.66898065188029
 20
453.4777858190616
 30
0.0
 11
-76.77796051786098
 21
453.4666807518837
 31
0.0
  0
LINE
  5
D6
  8
1
  6
CONTINUOUS
 62
     7
 10
-76.77796051786098
 20
453.4666807518837
 30
0.0
 11
-76.88738118475631
 21
453.4555756847058
 31
0.0
  0
LINE
  5
D7
  8
1
  6
CONTINUOUS
 62
     7
 10
-76.88738118475631
 20
453.4555756847058
 30
0.0
 11
-76.99703086657006
 21
453.4444706175281
 31
0.0
  0
LINE
  5
D8
  8
1
  6
CONTINUOUS
 62
     7
 10
-76.99703086657006
 20
453.4444706175281
 30
0.0
 11
-77.10669777708311
 21
453.4333655503501
 31
0.0
  0
LINE
  5
D9
  8
1
  6
CONTINUOUS
 62
     7
 10
-77.10669777708311
 20
453.4333655503501
 30
0.0
 11
-77.2161701300763
 21
453.4222604831722
 31
0.0
  0
LINE
  5
DA
  8
1
  6
CONTINUOUS
 62
     7
 10
-77.2161701300763
 20
453.4222604831722
 30
0.0
 11
-77.32523613933047
 21
453.4111554159945
 31
0.0
  0
LINE
  5
DB
  8
1
  6
CONTINUOUS
 62
     7
 10
-77.32523613933047
 20
453.4111554159945
 30
0.0
 11
-77.43368401862644
 21
453.4000503488165
 31
0.0
  0
LINE
  5
DC
  8
1
  6
CONTINUOUS
 62
     7
 10
-77.43368401862644
 20
453.4000503488165
 30
0.0
 11
-77.5413019817451
 21
453.3889452816387
 31
0.0
  0
LINE
  5
DD
  8
1
  6
CONTINUOUS
 62
     7
 10
-77.5413019817451
 20
453.3889452816387
 30
0.0
 11
-77.64787824246726
 21
453.3778402144608
 31
0.0
  0
LINE
  5
DE
  8
1
  6
CONTINUOUS
 62
     7
 10
-77.64787824246726
 20
453.3778402144608
 30
0.0
 11
-77.75320101457378
 21
453.3667351472828
 31
0.0
  0
LINE
  5
DF
  8
1
  6
CONTINUOUS
 62
     7
 10
-77.75320101457378
 20
453.3667351472828
 30
0.0
 11
-77.85705851184552
 21
453.355630080105
 31
0.0
  0
LINE
  5
E0
  8
1
  6
CONTINUOUS
 62
     7
 10
-77.85705851184552
 20
453.355630080105
 30
0.0
 11
-77.95923894806333
 21
453.3445250129272
 31
0.0
  0
LINE
  5
E1
  8
1
  6
CONTINUOUS
 62
     7
 10
-77.95923894806333
 20
453.3445250129272
 30
0.0
 11
-78.05953422074849
 21
453.3334199457494
 31
0.0
  0
LINE
  5
E2
  8
1
  6
CONTINUOUS
 62
     7
 10
-78.05953422074849
 20
453.3334199457494
 30
0.0
 11
-78.15776400370281
 21
453.3223148785714
 31
0.0
  0
LINE
  5
E3
  8
1
  6
CONTINUOUS
 62
     7
 10
-78.15776400370281
 20
453.3223148785714
 30
0.0
 11
-78.25376063911915
 21
453.3112098113936
 31
0.0
  0
LINE
  5
E4
  8
1
  6
CONTINUOUS
 62
     7
 10
-78.25376063911915
 20
453.3112098113936
 30
0.0
 11
-78.34735653379265
 21
453.3001047442157
 31
0.0
  0
LINE
  5
E5
  8
1
  6
CONTINUOUS
 62
     7
 10
-78.34735653379265
 20
453.3001047442157
 30
0.0
 11
-78.43838409451845
 21
453.2889996770379
 31
0.0
  0
LINE
  5
E6
  8
1
  6
CONTINUOUS
 62
     7
 10
-78.43838409451845
 20
453.2889996770379
 30
0.0
 11
-78.52667572809165
 21
453.2778946098599
 31
0.0
  0
LINE
  5
E7
  8
1
  6
CONTINUOUS
 62
     7
 10
-78.52667572809165
 20
453.2778946098599
 30
0.0
 11
-78.61206384130745
 21
453.2667895426821
 31
0.0
  0
LINE
  5
E8
  8
1
  6
CONTINUOUS
 62
     7
 10
-78.61206384130745
 20
453.2667895426821
 30
0.0
 11
-78.6943808409609
 21
453.2556844755043
 31
0.0
  0
LINE
  5
E9
  8
1
  6
CONTINUOUS
 62
     7
 10
-78.6943808409609
 20
453.2556844755043
 30
0.0
 11
-78.77345913384721
 21
453.2445794083263
 31
0.0
  0
LINE
  5
EA
  8
1
  6
CONTINUOUS
 62
     7
 10
-78.77345913384721
 20
453.2445794083263
 30
0.0
 11
-78.84913112676148
 21
453.2334743411485
 31
0.0
  0
LINE
  5
EB
  8
1
  6
CONTINUOUS
 62
     7
 10
-78.84913112676148
 20
453.2334743411485
 30
0.0
 11
-78.92122922649884
 21
453.2223692739706
 31
0.0
  0
LINE
  5
EC
  8
1
  6
CONTINUOUS
 62
     7
 10
-78.92122922649884
 20
453.2223692739706
 30
0.0
 11
-78.98958583985444
 21
453.2112642067927
 31
0.0
  0
LINE
  5
ED
  8
1
  6
CONTINUOUS
 62
     7
 10
-78.98958583985444
 20
453.2112642067927
 30
0.0
 11
-79.0540372032654
 21
453.2001591396149
 31
0.0
  0
LINE
  5
EE
  8
1
  6
CONTINUOUS
 62
     7
 10
-79.0540372032654
 20
453.2001591396149
 30
0.0
 11
-79.1144700783257
 21
453.189054072437
 31
0.0
  0
LINE
  5
EF
  8
1
  6
CONTINUOUS
 62
     7
 10
-79.1144700783257
 20
453.189054072437
 30
0.0
 11
-79.17080692215953
 21
453.1779490052592
 31
0.0
  0
LINE
  5
F0
  8
1
  6
CONTINUOUS
 62
     7
 10
-79.17080692215953
 20
453.1779490052592
 30
0.0
 11
-79.2229709429119
 21
453.1668439380813
 31
0.0
  0
LINE
  5
F1
  8
1
  6
CONTINUOUS
 62
     7
 10
-79.2229709429119
 20
453.1668439380813
 30
0.0
 11
-79.2708853487277
 21
453.1557388709035
 31
0.0
  0
LINE
  5
F2
  8
1
  6
CONTINUOUS
 62
     7
 10
-79.2708853487277
 20
453.1557388709035
 30
0.0
 11
-79.31447334775193
 21
453.1446338037256
 31
0.0
  0
LINE
  5
F3
  8
1
  6
CONTINUOUS
 62
     7
 10
-79.31447334775193
 20
453.1446338037256
 30
0.0
 11
-79.35365814812953
 21
453.1335287365477
 31
0.0
  0
LINE
  5
F4
  8
1
  6
CONTINUOUS
 62
     7
 10
-79.35365814812953
 20
453.1335287365477
 30
0.0
 11
-79.38836295800546
 21
453.1224236693698
 31
0.0
  0
LINE
  5
F5
  8
1
  6
CONTINUOUS
 62
     7
 10
-79.38836295800546
 20
453.1224236693698
 30
0.0
 11
-79.41851098552468
 21
453.111318602192
 31
0.0
  0
LINE
  5
F6
  8
1
  6
CONTINUOUS
 62
     7
 10
-79.41851098552468
 20
453.111318602192
 30
0.0
 11
-79.44402543883214
 21
453.1002135350141
 31
0.0
  0
LINE
  5
F7
  8
1
  6
CONTINUOUS
 62
     7
 10
-79.44402543883214
 20
453.1002135350141
 30
0.0
 11
-79.4648295260728
 21
453.0891084678362
 31
0.0
  0
TEXT
  5
F8
  8
1
  6
CONTINUOUS
 62
     2
 10
-128.3990996623734
 20
303.0136582468426
 30
0.0
 40
3.0
  1
AGST-AR100
  0
LINE
  5
F9
  8
1
  6
CONTINUOUS
 62
     7
 10
-77.50000000000007
 20
456.8453460206307
 30
0.0
 11
-76.50000000000007
 21
456.8453460206307
 31
0.0
  0
ARC
  5
FA
  8
1
  6
CONTINUOUS
 62
     7
 10
-77.00000000000007
 20
447.1453460206307
 30
0.0
 40
11.98957880828176
 50
96.22467549480078
 51
101.4219971763073
  0
LINE
  5
FB
  8
1
  6
CONTINUOUS
 62
     7
 10
-101.0523612067446
 20
453.4980151148262
 30
0.0
 11
-101.0523612067446
 21
319.4980151148262
 31
0.0
  0
LINE
  5
FC
  8
1
  6
CONTINUOUS
 62
     7
 10
-76.50000000000007
 20
457.3068444887474
 30
0.0
 11
-76.50000000000007
 21
458.7092490356928
 31
0.0
  0
LINE
  5
FD
  8
1
  6
CONTINUOUS
 62
     7
 10
-75.70000000000007
 20
459.064238586637
 30
0.0
 11
-76.50000000000007
 21
459.064238586637
 31
0.0
  0
LINE
  5
FE
  8
1
  6
CONTINUOUS
 62
     7
 10
-76.50000000000007
 20
459.064238586637
 30
0.0
 11
-76.50000000000007
 21
458.7092490356928
 31
0.0
  0
LINE
  5
FF
  8
1
  6
CONTINUOUS
 62
     7
 10
-72.50000000000006
 20
455.8453460206307
 30
0.0
 11
-77.00000000000007
 21
455.8453460206307
 31
0.0
  0
LINE
  5
100
  8
1
  6
CONTINUOUS
 62
     7
 10
-75.22325337494773
 20
454.9937651507669
 30
0.0
 11
-75.14644329414705
 21
455.0292665549808
 31
0.0
  0
LINE
  5
101
  8
1
  6
CONTINUOUS
 62
     7
 10
-78.76810187103419
 20
453.4876758094333
 30
0.0
 11
-78.85242860035699
 21
453.4497081091962
 31
0.0
  0
LINE
  5
102
  8
1
  6
CENTER
 62
     1
 10
-56.50000000000008
 20
386.4980151148262
 30
0.0
 11
-189.0000000000001
 21
386.4980151148262
 31
0.0
  0
LINE
  5
104
  8
1
  6
CONTINUOUS
 62
     7
 10
-78.75936793927355
 20
455.0809268346785
 30
0.0
 11
-78.85011077194595
 21
455.0412430571009
 31
0.0
  0
ARC
  5
105
  8
1
  6
CONTINUOUS
 62
     7
 10
-122.5009084107724
 20
572.2091343876276
 30
0.0
 40
65.35812186306204
 50
257.182830572293
 51
282.8188030149066
  0
ARC
  5
106
  8
1
  6
CONTINUOUS
 62
     7
 10
-122.4717625363824
 20
471.027336167435
 30
0.0
 40
14.35228196206388
 50
84.24285316647786
 51
317.0917909555385
  0
ARC
  5
107
  8
1
  6
CONTINUOUS
 62
     7
 10
-122.630401960678
 20
470.967494698904
 30
0.0
 40
14.42853399131624
 50
317.6947452624627
 51
83.63989885955357
  0
LINE
  5
108
  8
1
  6
CONTINUOUS
 62
     7
 10
-67.00000000000006
 20
447.4980151148262
 30
0.0
 11
-67.00000000000009
 21
325.4980151148262
 31
0.0
  0
LINE
  5
109
  8
1
  6
CONTINUOUS
 62
     7
 10
-104.4781828305232
 20
386.4003795030771
 30
0.0
 11
-104.4781828305232
 21
319.4980151148262
 31
0.0
  0
LINE
  5
10A
  8
1
  6
CONTINUOUS
 62
     7
 10
-77.00000000000007
 20
455.8453460206307
 30
0.0
 11
-81.50000000000007
 21
455.8453460206307
 31
0.0
  0
ARC
  5
10B
  8
1
  6
CONTINUOUS
 62
     7
 10
-77.00000000000007
 20
447.1453460206307
 30
0.0
 40
11.9895788082818
 50
78.57800282369281
 51
83.77532450519921
  0
LINE
  5
10C
  8
1
  6
CONTINUOUS
 62
     7
 10
-79.4648295260728
 20
453.0891084678362
 30
0.0
 11
-79.46121653240634
 21
453.0023572197406
 31
0.0
  0
LINE
  5
10D
  8
1
  6
CONTINUOUS
 62
     7
 10
-74.53967614809645
 20
453.8868337457789
 30
0.0
 11
-74.53463419467742
 21
453.7998327672198
 31
0.0
  0
LINE
  5
10E
  8
1
  6
CONTINUOUS
 62
     7
 10
-78.89999999999888
 20
454.29052701929
 30
0.0
 11
-78.80785736328458
 21
454.3695196361622
 31
0.0
  0
LINE
  5
10F
  8
1
  6
CONTINUOUS
 62
     7
 10
-104.4781828305232
 20
441.4176445445055
 30
0.0
 11
-104.4781828305232
 21
433.6792235023455
 31
0.0
  0
LINE
  5
110
  8
1
  6
CONTINUOUS
 62
     7
 10
-104.4781828305232
 20
394.5138082984878
 30
0.0
 11
-104.4781828305232
 21
386.4003795030771
 31
0.0
  0
LINE
  5
111
  8
1
  6
CONTINUOUS
 62
     7
 10
-77.50000000000007
 20
457.3068444887472
 30
0.0
 11
-77.50000000000007
 21
456.8453460206307
 31
0.0
  0
LINE
  5
112
  8
1
  6
CONTINUOUS
 62
     7
 10
-76.50000000000007
 20
456.8453460206307
 30
0.0
 11
-76.50000000000007
 21
457.3068444887474
 31
0.0
  0
ARC
  5
113
  8
1
  6
CONTINUOUS
 62
     7
 10
-79.4539426784363
 20
454.6358267400644
 30
0.0
 40
0.0454898156536565
 50
101.0262552740623
 51
264.6645652270955
  0
LINE
  5
114
  8
1
  6
CONTINUOUS
 62
     7
 10
-77.50000000000007
 20
459.064238586637
 30
0.0
 11
-78.30000000000007
 21
459.064238586637
 31
0.0
  0
ARC
  5
115
  8
1
  6
CONTINUOUS
 62
     7
 10
56.54253766280184
 20
-312.2487748159812
 30
0.0
 40
778.475008476464
 50
99.74487966533813
 51
100.0126775010376
  0
ARC
  5
116
  8
1
  6
CONTINUOUS
 62
     7
 10
-19.93907140019877
 20
125.4851181875234
 30
0.0
 40
332.5445535420834
 50
99.57094772990534
 51
100.1979001842352
  0
LINE
  5
117
  8
1
  6
CONTINUOUS
 62
     7
 10
-75.23084473868697
 20
453.4008084061966
 30
0.0
 11
-75.14458336761382
 21
453.4405215536906
 31
0.0
  0
LINE
  5
118
  8
1
  6
CONTINUOUS
 62
     7
 10
-75.10000000000046
 20
454.1879146252695
 30
0.0
 11
-75.18506919226634
 21
454.1120401337892
 31
0.0
  0
LINE
  5
119
  8
1
  6
CONTINUOUS
 62
     7
 10
-78.89999999999941
 20
452.7003338297692
 30
0.0
 11
-78.81564255743659
 21
452.7761652072522
 31
0.0
  0
LINE
  5
11A
  8
1
  6
CONTINUOUS
 62
     7
 10
-77.50000000000007
 20
458.7092490356928
 30
0.0
 11
-77.50000000000007
 21
457.3068444887472
 31
0.0
  0
LINE
  5
11B
  8
1
  6
CONTINUOUS
 62
     7
 10
-74.57358451831355
 20
458.8974738241492
 30
0.0
 11
-74.6256596516574
 21
458.8974738241492
 31
0.0
  0
LINE
  5
11C
  8
1
  6
CONTINUOUS
 62
     7
 10
-79.37434034834273
 20
458.8974738241492
 30
0.0
 11
-79.42641548168658
 21
458.8974738241492
 31
0.0
  0
LINE
  5
11D
  8
1
  6
CONTINUOUS
 62
     7
 10
-77.50000000000007
 20
458.7092490356928
 30
0.0
 11
-77.50000000000007
 21
459.0642385866369
 31
0.0
  0
LINE
  5
11E
  8
1
  6
CONTINUOUS
 62
     7
 10
-81.16090036882278
 20
452.4980151148262
 30
0.0
 11
-72.83909963117732
 21
452.4980151148262
 31
0.0
  0
LINE
  5
11F
  8
1
  6
CONTINUOUS
 62
     7
 10
-75.10000000000241
 20
452.598028589218
 30
0.0
 11
-75.24629729467091
 21
452.498014926364
 31
0.0
  0
ARC
  5
120
  8
1
  6
CONTINUOUS
 62
     7
 10
-135.9908042087135
 20
792.464105404401
 30
0.0
 40
343.7723919743683
 50
279.5817804461799
 51
280.187958207783
  0
LINE
  5
121
  8
1
  6
CONTINUOUS
 62
     7
 10
-104.4781828305232
 20
433.6792235023455
 30
0.0
 11
-104.4781828305232
 21
394.5138082984878
 31
0.0
  0
LINE
  5
122
  8
1
  6
CONTINUOUS
 62
     7
 10
-74.53724993059043
 20
455.4753297917656
 30
0.0
 11
-74.53433677737853
 21
455.3898551539925
 31
0.0
  0
LINE
  5
123
  8
1
  6
CONTINUOUS
 62
     7
 10
-101.0000000000001
 20
447.4980151148262
 30
0.0
 11
-101.0000000000001
 21
325.4980151148263
 31
0.0
  0
LINE
  5
124
  8
1
  6
CONTINUOUS
 62
     7
 10
-75.1000000000038
 20
455.7779012915287
 30
0.0
 11
-75.1769534063534
 21
455.7058588631447
 31
0.0
  0
ARC
  5
125
  8
1
  6
CONTINUOUS
 62
     7
 10
-112.3705223980201
 20
658.3369600962985
 30
0.0
 40
206.0163215895733
 50
279.3896659102057
 51
280.4010401870295
  0
ARC
  5
126
  8
1
  6
CONTINUOUS
 62
     7
 10
-70.27926546528046
 20
448.4980151148262
 30
0.0
 40
1.000000000000001
 50
189.9999999999999
 51
270.0
  0
LINE
  5
127
  8
1
  6
CONTINUOUS
 62
     7
 10
-79.46122143584083
 20
453.0023600703875
 30
0.0
 11
-78.89983901134286
 21
452.6718288818783
 31
0.0
  0
LINE
  5
128
  8
1
  6
CONTINUOUS
 62
     7
 10
-79.45818829773945
 20
454.590542825654
 30
0.0
 11
-78.89983524895891
 21
454.2617539412039
 31
0.0
  0
LINE
  5
129
  8
1
  6
CONTINUOUS
 62
     7
 10
-101.0000000000001
 20
325.4980151148262
 30
0.0
 11
-67.00000000000009
 21
325.4980151148262
 31
0.0
  0
LINE
  5
12A
  8
1
  6
CONTINUOUS
 62
     7
 10
-74.53722733477127
 20
455.475316344764
 30
0.0
 11
-75.10012964552357
 21
455.8067416498994
 31
0.0
  0
ARC
  5
12B
  8
1
  6
CONTINUOUS
 62
     7
 10
-77.00000000000007
 20
447.1453460206307
 30
0.0
 40
11.99999999999997
 50
74.50603249947754
 51
78.33428591227464
  0
LINE
  5
12C
  8
1
  6
CONTINUOUS
 62
     7
 10
-140.5
 20
441.498015114826
 30
0.0
 11
-140.5
 21
504.9980151148262
 31
0.0
  0
LINE
  5
12D
  8
1
  6
CONTINUOUS
 62
     7
 10
-104.5000000000001
 20
504.9980151148262
 30
0.0
 11
-104.5000000000001
 21
441.498015114826
 31
0.0
  0
LINE
  5
12E
  8
1
  6
CONTINUOUS
 62
     7
 10
-140.5
 20
386.4980151148262
 30
0.0
 11
-140.5
 21
441.4980151148262
 31
0.0
  0
LINE
  5
12F
  8
1
  6
CONTINUOUS
 62
     7
 10
-176.0000380769358
 20
443.3203982607866
 30
0.0
 11
-176.0000380769358
 21
386.4980151148262
 31
0.0
  0
LINE
  5
130
  8
1
  6
CONTINUOUS
 62
     7
 10
-101.0523612067446
 20
453.4980151148262
 30
0.0
 11
-104.4781828305232
 21
453.4980151148262
 31
0.0
  0
CIRCLE
  5
131
  8
1
  6
CONTINUOUS
 62
     7
 10
-122.5476145204592
 20
470.6121417758004
 30
0.0
 40
13.40480884984619
  0
LINE
  5
132
  8
1
  6
CONTINUOUS
 62
     7
 10
-141.0000000000001
 20
432.3867325872484
 30
0.0
 11
-141.0000000000001
 21
432.8867325872484
 31
0.0
  0
LINE
  5
133
  8
1
  6
CONTINUOUS
 62
     7
 10
-141.0000000000001
 20
451.4980151148262
 30
0.0
 11
-141.0000000000001
 21
451.9980151148262
 31
0.0
  0
LINE
  5
134
  8
1
  6
CONTINUOUS
 62
     7
 10
-101.0000000000001
 20
447.4980151148266
 30
0.0
 11
-101.0523612067446
 21
453.4980151148265
 31
0.0
  0
LINE
  5
135
  8
1
  6
CONTINUOUS
 62
     7
 10
-108.0015217123154
 20
508.4796773827483
 30
0.0
 11
-107.9201041459916
 21
508.4978841213388
 31
0.0
  0
LINE
  5
136
  8
1
  6
CONTINUOUS
 62
     7
 10
-137.0804031779905
 20
508.4979782668344
 30
0.0
 11
-136.9970834330569
 21
508.4793462058402
 31
0.0
  0
LINE
  5
137
  8
1
  6
CONTINUOUS
 62
     7
 10
-104.4781828305232
 20
319.4980151148263
 30
0.0
 11
-101.0523612067446
 21
319.4980151148263
 31
0.0
  0
LINE
  5
138
  8
1
  6
CONTINUOUS
 62
     7
 10
-101.0523612067446
 20
319.4980151148267
 30
0.0
 11
-101.0000000000001
 21
325.4980151148266
 31
0.0
  0
LINE
  5
139
  8
1
  6
CONTINUOUS
 62
     7
 10
-83.72073453471967
 20
447.4980151148262
 30
0.0
 11
-87.63041453537399
 21
447.4980151148262
 31
0.0
  0
ARC
  5
13A
  8
1
  6
CONTINUOUS
 62
     7
 10
-83.72073453471967
 20
448.4980151148262
 30
0.0
 40
1.000000000000005
 50
270.0
 51
350.0000000000001
  0
LINE
  5
13B
  8
1
  6
CONTINUOUS
 62
     7
 10
-71.2640775935159
 20
448.3243917502833
 30
0.0
 11
-71.85429187816514
 21
451.6716632924931
 31
0.0
  0
LINE
  5
13C
  8
1
  6
CONTINUOUS
 62
     7
 10
-70.27926546528046
 20
447.4980151148262
 30
0.0
 11
-70.27988821903743
 21
447.4980151148262
 31
0.0
  0
LINE
  5
13D
  8
1
  6
CONTINUOUS
 62
     7
 10
-104.4781828305232
 20
453.4980151148259
 30
0.0
 11
-104.4956746437665
 21
451.4936518469561
 31
0.0
  0
ARC
  5
13E
  8
1
  6
CONTINUOUS
 62
     7
 10
-72.83909963117732
 20
451.4980151148262
 30
0.0
 40
0.9999999999999777
 50
10.00000000000031
 51
90.00000000000001
  0
ARC
  5
13F
  8
1
  6
CONTINUOUS
 62
     7
 10
-79.77822393533255
 20
457.1673953003511
 30
0.0
 40
1.600000000000023
 50
105.4939675005224
 51
174.9999999999999
  0
LINE
  5
140
  8
1
  6
CONTINUOUS
 62
     7
 10
-176.0000380769358
 20
386.4980151148262
 30
0.0
 11
-176.0000380769358
 21
329.6756319688658
 31
0.0
  0
ARC
  5
141
  8
1
  6
CONTINUOUS
 62
     7
 10
-77.00000000000007
 20
447.1453460206307
 30
0.0
 40
11.99999999999999
 50
101.6657140877253
 51
105.4939675005225
  0
LINE
  5
142
  8
1
  6
CONTINUOUS
 62
     7
 10
-75.15028177640163
 20
455.0269921783219
 30
0.0
 11
-74.53431273220298
 21
455.3898700424754
 31
0.0
  0
LINE
  5
143
  8
1
  6
CONTINUOUS
 62
     7
 10
-140.5
 20
319.9980151148262
 30
0.0
 11
-140.5
 21
386.4980151148262
 31
0.0
  0
LINE
  5
144
  8
1
  6
CONTINUOUS
 62
     7
 10
-177.0000000000001
 20
330.6843585043643
 30
0.0
 11
-177.0000000000001
 21
442.3116717252882
 31
0.0
  0
LINE
  5
145
  8
1
  6
CONTINUOUS
 62
     7
 10
-72.50000000000006
 20
455.8453460206307
 30
0.0
 11
-72.62786454772078
 21
457.3068444887474
 31
0.0
  0
LINE
  5
146
  8
1
  6
CONTINUOUS
 62
     7
 10
-104.4956746437665
 20
321.5023783826957
 30
0.0
 11
-104.4781828305232
 21
319.4980151148259
 31
0.0
  0
LINE
  5
147
  8
1
  6
CONTINUOUS
 62
     7
 10
-82.145708121835
 20
451.6716632924932
 30
0.0
 11
-82.73591712254533
 21
448.3244217169898
 31
0.0
  0
LINE
  5
148
  8
1
  6
CONTINUOUS
 62
     7
 10
-104.5000000000001
 20
394.5114067124339
 30
0.0
 11
-104.5000000000001
 21
386.4980151148263
 31
0.0
  0
ARC
  5
149
  8
1
  6
CONTINUOUS
 62
     7
 10
-104.9956556052975
 20
451.4980151148262
 30
0.0
 40
0.5000000000000018
 50
352.5904767519125
 51
359.4999999999995
  0
ARC
  5
14A
  8
1
  6
CONTINUOUS
 62
     7
 10
-81.16090036882278
 20
451.4980151148262
 30
0.0
 40
1.000000000000001
 50
90.0
 51
169.9999999999997
  0
LINE
  5
14B
  8
1
  6
CONTINUOUS
 62
     7
 10
-83.71919389972712
 20
447.4980151148262
 30
0.0
 11
-83.72073453471967
 21
447.4980151148262
 31
0.0
  0
LINE
  5
14C
  8
1
  6
CONTINUOUS
 62
     7
 10
-91.38943803908184
 20
447.4980151148262
 30
0.0
 11
-101.0000000000001
 21
447.4980151148262
 31
0.0
  0
LINE
  5
14D
  8
1
  6
CONTINUOUS
 62
     7
 10
-104.5000000000001
 20
441.498015114826
 30
0.0
 11
-104.5000000000001
 21
394.5114067124339
 31
0.0
  0
ARC
  5
14E
  8
1
  6
CONTINUOUS
 62
     7
 10
-104.9956556052976
 20
321.4980151148262
 30
0.0
 40
0.4999999999999938
 50
0.5000000000004547
 51
7.409523248069773
  0
LINE
  5
14F
  8
1
  6
CONTINUOUS
 62
     7
 10
-67.00000000000006
 20
447.4980151148262
 30
0.0
 11
-70.27926546528046
 21
447.4980151148262
 31
0.0
  0
LINE
  5
150
  8
1
  6
CONTINUOUS
 62
     7
 10
-81.37213545227934
 20
457.3068444887474
 30
0.0
 11
-81.50000000000007
 21
455.8453460206307
 31
0.0
  0
ARC
  5
151
  8
1
  6
CONTINUOUS
 62
     7
 10
-74.22177606466757
 20
457.1673953003511
 30
0.0
 40
1.600000000000002
 50
5.000000000000138
 51
74.50603249947767
  0
LINE
  5
152
  8
1
  6
CONTINUOUS
 62
     7
 10
-75.14868808447278
 20
453.4380896203408
 30
0.0
 11
-74.53461274401383
 21
453.7998460111322
 31
0.0
  0
LINE
  5
153
  8
1
  6
CONTINUOUS
 62
     7
 10
-87.65189766952233
 20
447.4980151148262
 30
0.0
 11
-87.65279149025059
 21
447.4980151148262
 31
0.0
  0
LINE
  5
154
  8
1
  6
CONTINUOUS
 62
     7
 10
-87.65371571982874
 20
447.4980151148262
 30
0.0
 11
-87.65467035825678
 21
447.4980151148262
 31
0.0
  0
LINE
  5
155
  8
1
  6
CONTINUOUS
 62
     7
 10
-91.35888058685929
 20
447.4980151148262
 30
0.0
 11
-91.35979079756005
 21
447.4980151148262
 31
0.0
  0
LINE
  5
156
  8
1
  6
CONTINUOUS
 62
     7
 10
-87.65020125461538
 20
447.4980151148262
 30
0.0
 11
-87.65103425764391
 21
447.4980151148262
 31
0.0
  0
LINE
  5
157
  8
1
  6
CONTINUOUS
 62
     7
 10
-91.35979079756005
 20
447.4980151148262
 30
0.0
 11
-91.36064294503853
 21
447.4980151148262
 31
0.0
  0
LINE
  5
158
  8
1
  6
CENTER
 62
     1
 10
-423.485643376531
 20
386.4980151148262
 30
0.0
 11
-291.5143566234691
 21
386.4980151148262
 31
0.0
  0
LINE
  5
159
  8
1
  6
CONTINUOUS
 62
     7
 10
-87.64407262560316
 20
447.4980151148262
 30
0.0
 11
-87.64463194898278
 21
447.4980151148262
 31
0.0
  0
LINE
  5
15A
  8
1
  6
CONTINUOUS
 62
     7
 10
-91.36064294503853
 20
447.4980151148262
 30
0.0
 11
-91.3614370292947
 21
447.4980151148263
 31
0.0
  0
LINE
  5
15B
  8
1
  6
CONTINUOUS
 62
     7
 10
-87.64069275716172
 20
447.4980151148262
 30
0.0
 11
-87.64100880974233
 21
447.4980151148262
 31
0.0
  0
LINE
  5
15C
  8
1
  6
CONTINUOUS
 62
     7
 10
-91.3614370292947
 20
447.4980151148263
 30
0.0
 11
-91.36217305032861
 21
447.4980151148262
 31
0.0
  0
LINE
  5
15D
  8
1
  6
CONTINUOUS
 62
     7
 10
-91.36217305032861
 20
447.4980151148262
 30
0.0
 11
-91.36285100814018
 21
447.4980151148262
 31
0.0
  0
LINE
  5
15E
  8
1
  6
CENTER
 62
     1
 10
-357.5000000000001
 20
320.5123717382953
 30
0.0
 11
-357.5000000000001
 21
452.4836584913572
 31
0.0
  0
LINE
  5
15F
  8
1
  6
CONTINUOUS
 62
     7
 10
-87.64304520539353
 20
447.4980151148262
 30
0.0
 11
-87.64354371107339
 21
447.4980151148262
 31
0.0
  0
LINE
  5
160
  8
1
  6
CONTINUOUS
 62
     7
 10
-87.64257710856353
 20
447.4980151148262
 30
0.0
 11
-87.64304520539353
 21
447.4980151148262
 31
0.0
  0
LINE
  5
161
  8
1
  6
CONTINUOUS
 62
     7
 10
-91.36285100814018
 20
447.4980151148262
 30
0.0
 11
-91.3634709027295
 21
447.4980151148262
 31
0.0
  0
LINE
  5
162
  8
1
  6
CONTINUOUS
 62
     7
 10
-87.64717333100006
 20
447.4980151148262
 30
0.0
 11
-87.6478846986291
 21
447.4980151148262
 31
0.0
  0
LINE
  5
163
  8
1
  6
CONTINUOUS
 62
     7
 10
-91.3634709027295
 20
447.4980151148262
 30
0.0
 11
-91.36403273409653
 21
447.4980151148262
 31
0.0
  0
LINE
  5
164
  8
1
  6
CONTINUOUS
 62
     7
 10
-87.64173214145318
 20
447.4980151148262
 30
0.0
 11
-87.64213942058342
 21
447.4980151148262
 31
0.0
  0
LINE
  5
165
  8
1
  6
CONTINUOUS
 62
     7
 10
-87.64015187855011
 20
447.4980151148262
 30
0.0
 11
-87.64040711343098
 21
447.4980151148262
 31
0.0
  0
LINE
  5
166
  8
1
  6
CONTINUOUS
 62
     7
 10
-87.64213942058342
 20
447.4980151148262
 30
0.0
 11
-87.64257710856353
 21
447.4980151148262
 31
0.0
  0
LINE
  5
167
  8
1
  6
CONTINUOUS
 62
     7
 10
-87.94191660082215
 20
447.4980151148262
 30
0.0
 11
-89.45080359197053
 21
447.4980151148262
 31
0.0
  0
LINE
  5
168
  8
1
  6
CONTINUOUS
 62
     7
 10
-87.63920468371339
 20
447.4980151148262
 30
0.0
 11
-87.63933183689399
 21
447.4980151148262
 31
0.0
  0
LINE
  5
169
  8
1
  6
CONTINUOUS
 62
     7
 10
-87.63973263533802
 20
447.4980151148262
 30
0.0
 11
-87.63992705251914
 21
447.4980151148263
 31
0.0
  0
LINE
  5
16A
  8
1
  6
CONTINUOUS
 62
     7
 10
-87.64040711343098
 20
447.4980151148262
 30
0.0
 11
-87.64069275716172
 21
447.4980151148262
 31
0.0
  0
LINE
  5
16B
  8
1
  6
CONTINUOUS
 62
     7
 10
-87.64135527117281
 20
447.4980151148262
 30
0.0
 11
-87.64173214145318
 21
447.4980151148262
 31
0.0
  0
LINE
  5
16C
  8
1
  6
CONTINUOUS
 62
     7
 10
-87.64522168121229
 20
447.4980151148262
 30
0.0
 11
-87.64584182229166
 21
447.4980151148262
 31
0.0
  0
LINE
  5
16D
  8
1
  6
CONTINUOUS
 62
     7
 10
-87.6478846986291
 20
447.4980151148262
 30
0.0
 11
-87.64862647510799
 21
447.4980151148263
 31
0.0
  0
LINE
  5
16E
  8
1
  6
CONTINUOUS
 62
     7
 10
-87.65103425764391
 20
447.4980151148262
 30
0.0
 11
-87.65189766952233
 21
447.4980151148262
 31
0.0
  0
LINE
  5
16F
  8
1
  6
CONTINUOUS
 62
     7
 10
-87.65279149025059
 20
447.4980151148262
 30
0.0
 11
-87.65371571982874
 21
447.4980151148262
 31
0.0
  0
LINE
  5
170
  8
1
  6
CONTINUOUS
 62
     7
 10
-87.64584182229166
 20
447.4980151148262
 30
0.0
 11
-87.64649237222093
 21
447.4980151148262
 31
0.0
  0
LINE
  5
171
  8
1
  6
CONTINUOUS
 62
     7
 10
-87.63933183689399
 20
447.4980151148262
 30
0.0
 11
-87.63943502752547
 21
447.4980151148262
 31
0.0
  0
LINE
  5
172
  8
1
  6
CONTINUOUS
 62
     7
 10
-87.63943502752547
 20
447.4980151148262
 30
0.0
 11
-87.6395686270068
 21
447.4980151148262
 31
0.0
  0
LINE
  5
173
  8
1
  6
CONTINUOUS
 62
     7
 10
-87.6395686270068
 20
447.4980151148262
 30
0.0
 11
-87.63973263533802
 21
447.4980151148262
 31
0.0
  0
LINE
  5
174
  8
1
  6
CONTINUOUS
 62
     7
 10
-87.64100880974233
 20
447.4980151148262
 30
0.0
 11
-87.64135527117281
 21
447.4980151148262
 31
0.0
  0
LINE
  5
175
  8
1
  6
CONTINUOUS
 62
     7
 10
-87.63992705251914
 20
447.4980151148263
 30
0.0
 11
-87.64015187855011
 21
447.4980151148262
 31
0.0
  0
LINE
  5
176
  8
1
  6
CONTINUOUS
 62
     7
 10
-87.64354371107339
 20
447.4980151148262
 30
0.0
 11
-87.64407262560316
 21
447.4980151148262
 31
0.0
  0
LINE
  5
177
  8
1
  6
CONTINUOUS
 62
     7
 10
-87.64463194898278
 20
447.4980151148262
 30
0.0
 11
-87.64522168121229
 21
447.4980151148262
 31
0.0
  0
LINE
  5
178
  8
1
  6
CONTINUOUS
 62
     7
 10
-87.64649237222093
 20
447.4980151148262
 30
0.0
 11
-87.64717333100006
 21
447.4980151148262
 31
0.0
  0
LINE
  5
179
  8
1
  6
CONTINUOUS
 62
     7
 10
-87.64862647510799
 20
447.4980151148263
 30
0.0
 11
-87.64939866043674
 21
447.4980151148262
 31
0.0
  0
LINE
  5
17A
  8
1
  6
CONTINUOUS
 62
     7
 10
-87.64939866043674
 20
447.4980151148262
 30
0.0
 11
-87.65020125461538
 21
447.4980151148262
 31
0.0
  0
LINE
  5
17B
  8
1
  6
CONTINUOUS
 62
     7
 10
-89.79224260860197
 20
447.4980151148262
 30
0.0
 11
-89.45080359197053
 21
447.4980151148262
 31
0.0
  0
LINE
  5
17C
  8
1
  6
CONTINUOUS
 62
     7
 10
-87.6499553674546
 20
447.4980151148262
 30
0.0
 11
-87.6499553674546
 21
447.5128635524337
 31
0.0
  0
LINE
  5
17D
  8
1
  6
CONTINUOUS
 62
     7
 10
-91.3663397834414
 20
447.4980151148262
 30
0.0
 11
-91.36647637139644
 21
447.4980151148262
 31
0.0
  0
LINE
  5
17E
  8
1
  6
CONTINUOUS
 62
     7
 10
-91.0648499115504
 20
447.4980151148263
 30
0.0
 11
-91.06497164921106
 21
447.4980151148262
 31
0.0
  0
LINE
  5
17F
  8
1
  6
CONTINUOUS
 62
     7
 10
-91.06460435032959
 20
447.4980151148262
 30
0.0
 11
-91.06472747858992
 21
447.4980151148262
 31
0.0
  0
LINE
  5
180
  8
1
  6
CONTINUOUS
 62
     7
 10
-91.06509269157188
 20
447.4980151148262
 30
0.0
 11
-91.06521303863286
 21
447.4980151148262
 31
0.0
  0
LINE
  5
181
  8
1
  6
CONTINUOUS
 62
     7
 10
-91.36453650224124
 20
447.4980151148262
 30
0.0
 11
-91.36498220716366
 21
447.4980151148262
 31
0.0
  0
LINE
  5
182
  8
1
  6
CONTINUOUS
 62
     7
 10
-90.47556818181826
 20
447.4980151148262
 30
0.0
 11
-91.06460435032962
 21
447.4980151148262
 31
0.0
  0
LINE
  5
183
  8
1
  6
CONTINUOUS
 62
     7
 10
-91.06497164921106
 20
447.4980151148262
 30
0.0
 11
-91.06509269157188
 21
447.4980151148262
 31
0.0
  0
LINE
  5
184
  8
1
  6
CONTINUOUS
 62
     7
 10
-87.95090795591031
 20
447.4980151148262
 30
0.0
 11
-87.65467035825678
 21
447.4980151148262
 31
0.0
  0
LINE
  5
185
  8
1
  6
CONTINUOUS
 62
     7
 10
-91.06521303863286
 20
447.4980151148262
 30
0.0
 11
-91.065332690394
 21
447.4980151148262
 31
0.0
  0
LINE
  5
186
  8
1
  6
CONTINUOUS
 62
     7
 10
-91.3653698488638
 20
447.4980151148263
 30
0.0
 11
-91.36569942734164
 21
447.4980151148262
 31
0.0
  0
LINE
  5
187
  8
1
  6
CONTINUOUS
 62
     7
 10
-91.36597094259717
 20
447.4980151148262
 30
0.0
 11
-91.36618439463044
 21
447.4980151148262
 31
0.0
  0
LINE
  5
188
  8
1
  6
CONTINUOUS
 62
     7
 10
-91.36569942734164
 20
447.4980151148262
 30
0.0
 11
-91.36597094259717
 21
447.4980151148262
 31
0.0
  0
LINE
  5
189
  8
1
  6
CONTINUOUS
 62
     7
 10
-90.38134708539869
 20
447.4980151148262
 30
0.0
 11
-90.47556818181829
 21
447.4980151148262
 31
0.0
  0
LINE
  5
18A
  8
1
  6
CONTINUOUS
 62
     7
 10
-91.35888058685931
 20
447.4980151148262
 30
0.0
 11
-91.06502333519941
 21
447.4980151148262
 31
0.0
  0
LINE
  5
18B
  8
1
  6
CONTINUOUS
 62
     7
 10
-91.36403273409653
 20
447.4980151148262
 30
0.0
 11
-91.36453650224124
 21
447.4980151148262
 31
0.0
  0
LINE
  5
18C
  8
1
  6
CONTINUOUS
 62
     7
 10
-91.36498220716366
 20
447.4980151148262
 30
0.0
 11
-91.3653698488638
 21
447.4980151148263
 31
0.0
  0
LINE
  5
18D
  8
1
  6
CONTINUOUS
 62
     7
 10
-91.06472747858992
 20
447.4980151148262
 30
0.0
 11
-91.0648499115504
 21
447.4980151148263
 31
0.0
  0
LINE
  5
18E
  8
1
  6
CONTINUOUS
 62
     7
 10
-91.065332690394
 20
447.4980151148262
 30
0.0
 11
-91.06545164685534
 21
447.4980151148262
 31
0.0
  0
LINE
  5
18F
  8
1
  6
CONTINUOUS
 62
     7
 10
-89.7930222117366
 20
447.4980151148262
 30
0.0
 11
-90.37823882697693
 21
447.4980151148262
 31
0.0
  0
LINE
  5
190
  8
1
  6
CONTINUOUS
 62
     7
 10
-91.36618439463044
 20
447.4980151148262
 30
0.0
 11
-91.3663397834414
 21
447.4980151148262
 31
0.0
  0
LINE
  5
191
  8
1
  6
CONTINUOUS
 62
     7
 10
-91.06545164685534
 20
447.4980151148262
 30
0.0
 11
-91.06556990801681
 21
447.4980151148262
 31
0.0
  0
CIRCLE
  5
192
  8
1
  6
CONTINUOUS
 62
     7
 10
-357.5000000000001
 20
386.4980151148262
 30
0.0
 40
51.49999999999999
  0
ARC
  5
193
  8
1
  6
CONTINUOUS
 62
     7
 10
-357.5000000000001
 20
386.4980151148262
 30
0.0
 40
67.0
 50
49.26045187473073
 51
90.0
  0
ARC
  5
194
  8
1
  6
CONTINUOUS
 62
     7
 10
-357.5000000000001
 20
386.4980151148262
 30
0.0
 40
67.0
 50
131.0174885767182
 51
131.6798328606472
  0
ARC
  5
195
  8
1
  6
CONTINUOUS
 62
     7
 10
-357.5000000000001
 20
386.4980151148262
 30
0.0
 40
67.00000000000001
 50
90.0
 51
130.7395481252693
  0
LINE
  5
196
  8
1
  6
CONTINUOUS
 62
     7
 10
-361.9125113364741
 20
456.8453460206307
 30
0.0
 11
-361.8840912735153
 21
456.8453460206307
 31
0.0
  0
LINE
  5
197
  8
1
  6
CONTINUOUS
 62
     7
 10
-353.0000000000001
 20
455.8453460206307
 30
0.0
 11
-362.0000000000001
 21
455.8453460206307
 31
0.0
  0
LINE
  5
198
  8
1
  6
CONTINUOUS
 62
     7
 10
-361.8840912735152
 20
456.8453460206307
 30
0.0
 11
-361.8434512099341
 21
457.3068444887474
 31
0.0
  0
LINE
  5
199
  8
1
  6
CONTINUOUS
 62
     7
 10
-353.1565487900626
 20
457.3068444887472
 30
0.0
 11
-353.1159087264849
 21
456.8453460206307
 31
0.0
  0
LINE
  5
19A
  8
1
  6
CONTINUOUS
 62
     7
 10
-353.1159087264848
 20
456.8453460206307
 30
0.0
 11
-353.0874886635259
 21
456.8453460206307
 31
0.0
  0
ARC
  5
19B
  8
1
  6
CONTINUOUS
 62
     7
 10
-360.2486406126312
 20
457.1634651201315
 30
0.0
 40
1.601242793774354
 50
105.1236316528631
 51
174.8627089133397
  0
ARC
  5
19C
  8
1
  6
CONTINUOUS
 62
     7
 10
-354.7521479183349
 20
457.1628033038953
 30
0.0
 40
1.602087526035005
 50
5.158339542519457
 51
74.85531989143523
  0
ARC
  5
19D
  8
1
  6
CONTINUOUS
 62
     7
 10
-357.5000000000001
 20
447.1453460206307
 30
0.0
 40
11.98957880828176
 50
96.22467549480078
 51
105.3132903196987
  0
LINE
  5
19E
  8
1
  6
CONTINUOUS
 62
     7
 10
-358.0000000000001
 20
459.064238586637
 30
0.0
 11
-358.8
 21
459.064238586637
 31
0.0
  0
LINE
  5
19F
  8
1
  6
CONTINUOUS
 62
     7
 10
-358.0000000000001
 20
458.8974738241492
 30
0.0
 11
-358.0000000000001
 21
459.064238586637
 31
0.0
  0
LINE
  5
1A0
  8
1
  6
CONTINUOUS
 62
     7
 10
-357.0000000000001
 20
458.8974738241492
 30
0.0
 11
-358.0000000000001
 21
458.8974738241492
 31
0.0
  0
LINE
  5
1A1
  8
1
  6
CONTINUOUS
 62
     7
 10
-357.0000000000001
 20
459.064238586637
 30
0.0
 11
-357.0000000000001
 21
458.8974738241492
 31
0.0
  0
LINE
  5
1A2
  8
1
  6
CONTINUOUS
 62
     7
 10
-356.2
 20
459.064238586637
 30
0.0
 11
-357.0
 21
459.064238586637
 31
0.0
  0
ARC
  5
1A3
  8
1
  6
CONTINUOUS
 62
     7
 10
-357.5000000000001
 20
447.1453460206307
 30
0.0
 40
11.98957880828179
 50
74.6867096803013
 51
83.77532450519921
  0
LINE
  5
1A4
  8
1
  6
CONTINUOUS
 62
     7
 10
-359.9663723473931
 20
454.2807408538918
 30
0.0
 11
-359.960168134087
 21
454.1942077815395
 31
0.0
  0
ARC
  5
1A5
  8
1
  6
CONTINUOUS
 62
     7
 10
-355.0464231964884
 20
455.0348044834306
 30
0.0
 40
0.0458513234162876
 50
279.1734250561088
 51
84.00209730436818
  0
LINE
  5
1A6
  8
1
  6
CONTINUOUS
 62
     7
 10
-359.9914384535484
 20
455.8087274981114
 30
0.0
 11
-359.9907262184138
 21
455.8078431164198
 31
0.0
  0
LINE
  5
1A7
  8
1
  6
CONTINUOUS
 62
     7
 10
-359.9907262184138
 20
455.8078431164198
 30
0.0
 11
-359.9899836757011
 21
455.8069587347281
 31
0.0
  0
LINE
  5
1A8
  8
1
  6
CONTINUOUS
 62
     7
 10
-359.9899836757011
 20
455.8069587347281
 30
0.0
 11
-359.9892108205319
 21
455.8060743530365
 31
0.0
  0
LINE
  5
1A9
  8
1
  6
CONTINUOUS
 62
     7
 10
-359.9892108205319
 20
455.8060743530365
 30
0.0
 11
-359.9884076480276
 21
455.8051899713449
 31
0.0
  0
LINE
  5
1AA
  8
1
  6
CONTINUOUS
 62
     7
 10
-359.9884076480276
 20
455.8051899713449
 30
0.0
 11
-359.9875741533099
 21
455.8043055896533
 31
0.0
  0
LINE
  5
1AB
  8
1
  6
CONTINUOUS
 62
     7
 10
-359.9875741533099
 20
455.8043055896533
 30
0.0
 11
-359.9867103315
 21
455.8034212079615
 31
0.0
  0
LINE
  5
1AC
  8
1
  6
CONTINUOUS
 62
     7
 10
-359.9867103315
 20
455.8034212079615
 30
0.0
 11
-359.9858161777198
 21
455.8025368262699
 31
0.0
  0
LINE
  5
1AD
  8
1
  6
CONTINUOUS
 62
     7
 10
-359.9858161777198
 20
455.8025368262699
 30
0.0
 11
-359.9848916870905
 21
455.8016524445783
 31
0.0
  0
LINE
  5
1AE
  8
1
  6
CONTINUOUS
 62
     7
 10
-359.9848916870905
 20
455.8016524445783
 30
0.0
 11
-359.9839368547337
 21
455.8007680628866
 31
0.0
  0
LINE
  5
1AF
  8
1
  6
CONTINUOUS
 62
     7
 10
-359.9839368547337
 20
455.8007680628866
 30
0.0
 11
-359.9829516757709
 21
455.799883681195
 31
0.0
  0
LINE
  5
1B0
  8
1
  6
CONTINUOUS
 62
     7
 10
-359.9829516757709
 20
455.799883681195
 30
0.0
 11
-359.9819361453237
 21
455.7989992995033
 31
0.0
  0
LINE
  5
1B1
  8
1
  6
CONTINUOUS
 62
     7
 10
-359.9819361453237
 20
455.7989992995033
 30
0.0
 11
-359.9808902585136
 21
455.7981149178117
 31
0.0
  0
LINE
  5
1B2
  8
1
  6
CONTINUOUS
 62
     7
 10
-359.9808902585136
 20
455.7981149178117
 30
0.0
 11
-359.9798140104618
 21
455.79723053612
 31
0.0
  0
LINE
  5
1B3
  8
1
  6
CONTINUOUS
 62
     7
 10
-359.9798140104618
 20
455.79723053612
 30
0.0
 11
-359.9787073962904
 21
455.7963461544284
 31
0.0
  0
LINE
  5
1B4
  8
1
  6
CONTINUOUS
 62
     7
 10
-359.9787073962904
 20
455.7963461544284
 30
0.0
 11
-359.9775704111203
 21
455.7954617727368
 31
0.0
  0
LINE
  5
1B5
  8
1
  6
CONTINUOUS
 62
     7
 10
-359.9775704111203
 20
455.7954617727368
 30
0.0
 11
-359.9764030500733
 21
455.794577391045
 31
0.0
  0
LINE
  5
1B6
  8
1
  6
CONTINUOUS
 62
     7
 10
-359.9764030500733
 20
455.794577391045
 30
0.0
 11
-359.975205308271
 21
455.7936930093534
 31
0.0
  0
LINE
  5
1B7
  8
1
  6
CONTINUOUS
 62
     7
 10
-359.975205308271
 20
455.7936930093534
 30
0.0
 11
-359.9739771808347
 21
455.7928086276618
 31
0.0
  0
LINE
  5
1B8
  8
1
  6
CONTINUOUS
 62
     7
 10
-359.9739771808347
 20
455.7928086276618
 30
0.0
 11
-359.972718662886
 21
455.7919242459701
 31
0.0
  0
LINE
  5
1B9
  8
1
  6
CONTINUOUS
 62
     7
 10
-359.972718662886
 20
455.7919242459701
 30
0.0
 11
-359.9714297495464
 21
455.7910398642784
 31
0.0
  0
LINE
  5
1BA
  8
1
  6
CONTINUOUS
 62
     7
 10
-359.9714297495464
 20
455.7910398642784
 30
0.0
 11
-359.9701104359373
 21
455.7901554825867
 31
0.0
  0
LINE
  5
1BB
  8
1
  6
CONTINUOUS
 62
     7
 10
-359.9701104359373
 20
455.7901554825867
 30
0.0
 11
-359.9687607171805
 21
455.7892711008952
 31
0.0
  0
LINE
  5
1BC
  8
1
  6
CONTINUOUS
 62
     7
 10
-359.9687607171805
 20
455.7892711008952
 30
0.0
 11
-359.9673805883973
 21
455.7883867192036
 31
0.0
  0
LINE
  5
1BD
  8
1
  6
CONTINUOUS
 62
     7
 10
-359.9673805883973
 20
455.7883867192036
 30
0.0
 11
-359.9659700447092
 21
455.7875023375119
 31
0.0
  0
LINE
  5
1BE
  8
1
  6
CONTINUOUS
 62
     7
 10
-355.0391134264343
 20
454.9895395839965
 30
0.0
 11
-355.0579356952186
 21
454.9796951571894
 31
0.0
  0
LINE
  5
1BF
  8
1
  6
CONTINUOUS
 62
     7
 10
-355.0579356952186
 20
454.9796951571894
 30
0.0
 11
-355.0804826132338
 21
454.9698507303825
 31
0.0
  0
LINE
  5
1C0
  8
1
  6
CONTINUOUS
 62
     7
 10
-355.0804826132338
 20
454.9698507303825
 30
0.0
 11
-355.106751612718
 21
454.9600063035755
 31
0.0
  0
LINE
  5
1C1
  8
1
  6
CONTINUOUS
 62
     7
 10
-355.106751612718
 20
454.9600063035755
 30
0.0
 11
-355.1367144052927
 21
454.9501618767685
 31
0.0
  0
LINE
  5
1C2
  8
1
  6
CONTINUOUS
 62
     7
 10
-355.1367144052927
 20
454.9501618767685
 30
0.0
 11
-355.1702978139406
 21
454.9403174499615
 31
0.0
  0
LINE
  5
1C3
  8
1
  6
CONTINUOUS
 62
     7
 10
-355.1702978139406
 20
454.9403174499615
 30
0.0
 11
-355.2074241471595
 21
454.9304730231545
 31
0.0
  0
LINE
  5
1C4
  8
1
  6
CONTINUOUS
 62
     7
 10
-355.2074241471595
 20
454.9304730231545
 30
0.0
 11
-355.248015713447
 21
454.9206285963475
 31
0.0
  0
LINE
  5
1C5
  8
1
  6
CONTINUOUS
 62
     7
 10
-355.248015713447
 20
454.9206285963475
 30
0.0
 11
-355.2919948213005
 21
454.9107841695404
 31
0.0
  0
LINE
  5
1C6
  8
1
  6
CONTINUOUS
 62
     7
 10
-355.2919948213005
 20
454.9107841695404
 30
0.0
 11
-355.339283779218
 21
454.9009397427334
 31
0.0
  0
LINE
  5
1C7
  8
1
  6
CONTINUOUS
 62
     7
 10
-355.339283779218
 20
454.9009397427334
 30
0.0
 11
-355.3898048956968
 21
454.8910953159264
 31
0.0
  0
LINE
  5
1C8
  8
1
  6
CONTINUOUS
 62
     7
 10
-355.3898048956968
 20
454.8910953159264
 30
0.0
 11
-355.4434804792347
 21
454.8812508891194
 31
0.0
  0
LINE
  5
1C9
  8
1
  6
CONTINUOUS
 62
     7
 10
-355.4434804792347
 20
454.8812508891194
 30
0.0
 11
-355.5002328383293
 21
454.8714064623125
 31
0.0
  0
LINE
  5
1CA
  8
1
  6
CONTINUOUS
 62
     7
 10
-355.5002328383293
 20
454.8714064623125
 30
0.0
 11
-355.5599842814782
 21
454.8615620355055
 31
0.0
  0
LINE
  5
1CB
  8
1
  6
CONTINUOUS
 62
     7
 10
-355.5599842814782
 20
454.8615620355055
 30
0.0
 11
-355.622657117179
 21
454.8517176086984
 31
0.0
  0
LINE
  5
1CC
  8
1
  6
CONTINUOUS
 62
     7
 10
-355.622657117179
 20
454.8517176086984
 30
0.0
 11
-355.6881736539293
 21
454.8418731818914
 31
0.0
  0
LINE
  5
1CD
  8
1
  6
CONTINUOUS
 62
     7
 10
-355.6881736539293
 20
454.8418731818914
 30
0.0
 11
-355.7564562002268
 21
454.8320287550843
 31
0.0
  0
LINE
  5
1CE
  8
1
  6
CONTINUOUS
 62
     7
 10
-355.7564562002268
 20
454.8320287550843
 30
0.0
 11
-355.8274253978361
 21
454.8221843282773
 31
0.0
  0
LINE
  5
1CF
  8
1
  6
CONTINUOUS
 62
     7
 10
-355.8274253978361
 20
454.8221843282773
 30
0.0
 11
-355.9009737997982
 21
454.8123399014702
 31
0.0
  0
LINE
  5
1D0
  8
1
  6
CONTINUOUS
 62
     7
 10
-355.9009737997982
 20
454.8123399014702
 30
0.0
 11
-355.9769706031623
 21
454.8024954746632
 31
0.0
  0
LINE
  5
1D1
  8
1
  6
CONTINUOUS
 62
     7
 10
-355.9769706031623
 20
454.8024954746632
 30
0.0
 11
-356.0552842949047
 21
454.7926510478563
 31
0.0
  0
LINE
  5
1D2
  8
1
  6
CONTINUOUS
 62
     7
 10
-356.0552842949047
 20
454.7926510478563
 30
0.0
 11
-356.1357833620012
 21
454.7828066210493
 31
0.0
  0
LINE
  5
1D3
  8
1
  6
CONTINUOUS
 62
     7
 10
-356.1357833620012
 20
454.7828066210493
 30
0.0
 11
-356.2183362914282
 21
454.7729621942424
 31
0.0
  0
LINE
  5
1D4
  8
1
  6
CONTINUOUS
 62
     7
 10
-356.2183362914282
 20
454.7729621942424
 30
0.0
 11
-356.3028115701615
 21
454.7631177674352
 31
0.0
  0
LINE
  5
1D5
  8
1
  6
CONTINUOUS
 62
     7
 10
-356.3028115701615
 20
454.7631177674352
 30
0.0
 11
-356.3890776851773
 21
454.7532733406283
 31
0.0
  0
LINE
  5
1D6
  8
1
  6
CONTINUOUS
 62
     7
 10
-356.3890776851773
 20
454.7532733406283
 30
0.0
 11
-356.4770031234518
 21
454.7434289138213
 31
0.0
  0
LINE
  5
1D7
  8
1
  6
CONTINUOUS
 62
     7
 10
-356.4770031234518
 20
454.7434289138213
 30
0.0
 11
-356.5664563719608
 21
454.7335844870142
 31
0.0
  0
LINE
  5
1D8
  8
1
  6
CONTINUOUS
 62
     7
 10
-356.5664563719608
 20
454.7335844870142
 30
0.0
 11
-356.6573059176808
 21
454.7237400602072
 31
0.0
  0
LINE
  5
1D9
  8
1
  6
CONTINUOUS
 62
     7
 10
-356.6573059176808
 20
454.7237400602072
 30
0.0
 11
-356.7494202475876
 21
454.7138956334002
 31
0.0
  0
LINE
  5
1DA
  8
1
  6
CONTINUOUS
 62
     7
 10
-356.7494202475876
 20
454.7138956334002
 30
0.0
 11
-356.8426678486573
 21
454.7040512065933
 31
0.0
  0
LINE
  5
1DB
  8
1
  6
CONTINUOUS
 62
     7
 10
-356.8426678486573
 20
454.7040512065933
 30
0.0
 11
-356.9369172078661
 21
454.6942067797862
 31
0.0
  0
LINE
  5
1DC
  8
1
  6
CONTINUOUS
 62
     7
 10
-356.9369172078661
 20
454.6942067797862
 30
0.0
 11
-357.0320350340612
 21
454.6843623529791
 31
0.0
  0
LINE
  5
1DD
  8
1
  6
CONTINUOUS
 62
     7
 10
-357.0320350340612
 20
454.6843623529791
 30
0.0
 11
-357.1278768875386
 21
454.6745179261722
 31
0.0
  0
LINE
  5
1DE
  8
1
  6
CONTINUOUS
 62
     7
 10
-357.1278768875386
 20
454.6745179261722
 30
0.0
 11
-357.2242940173564
 21
454.6646734993652
 31
0.0
  0
LINE
  5
1DF
  8
1
  6
CONTINUOUS
 62
     7
 10
-357.2242940173564
 20
454.6646734993652
 30
0.0
 11
-357.3211376632628
 21
454.6548290725582
 31
0.0
  0
LINE
  5
1E0
  8
1
  6
CONTINUOUS
 62
     7
 10
-357.3211376632628
 20
454.6548290725582
 30
0.0
 11
-357.4182590650065
 21
454.6449846457512
 31
0.0
  0
LINE
  5
1E1
  8
1
  6
CONTINUOUS
 62
     7
 10
-357.4182590650065
 20
454.6449846457512
 30
0.0
 11
-357.515509462336
 21
454.6351402189442
 31
0.0
  0
LINE
  5
1E2
  8
1
  6
CONTINUOUS
 62
     7
 10
-357.515509462336
 20
454.6351402189442
 30
0.0
 11
-357.6127400949998
 21
454.6252957921371
 31
0.0
  0
LINE
  5
1E3
  8
1
  6
CONTINUOUS
 62
     7
 10
-357.6127400949998
 20
454.6252957921371
 30
0.0
 11
-357.7098022027465
 21
454.61545136533
 31
0.0
  0
LINE
  5
1E4
  8
1
  6
CONTINUOUS
 62
     7
 10
-357.7098022027465
 20
454.61545136533
 30
0.0
 11
-357.8065470253247
 21
454.6056069385231
 31
0.0
  0
LINE
  5
1E5
  8
1
  6
CONTINUOUS
 62
     7
 10
-357.8065470253247
 20
454.6056069385231
 30
0.0
 11
-357.9028258024829
 21
454.5957625117161
 31
0.0
  0
LINE
  5
1E6
  8
1
  6
CONTINUOUS
 62
     7
 10
-357.9028258024829
 20
454.5957625117161
 30
0.0
 11
-357.9984897739696
 21
454.5859180849091
 31
0.0
  0
LINE
  5
1E7
  8
1
  6
CONTINUOUS
 62
     7
 10
-357.9984897739696
 20
454.5859180849091
 30
0.0
 11
-358.0933901795333
 21
454.576073658102
 31
0.0
  0
LINE
  5
1E8
  8
1
  6
CONTINUOUS
 62
     7
 10
-358.0933901795333
 20
454.576073658102
 30
0.0
 11
-358.1873782589227
 21
454.5662292312951
 31
0.0
  0
LINE
  5
1E9
  8
1
  6
CONTINUOUS
 62
     7
 10
-358.1873782589227
 20
454.5662292312951
 30
0.0
 11
-358.2803052614461
 21
454.5563848044881
 31
0.0
  0
LINE
  5
1EA
  8
1
  6
CONTINUOUS
 62
     7
 10
-358.2803052614461
 20
454.5563848044881
 30
0.0
 11
-358.3720282531052
 21
454.5465403776809
 31
0.0
  0
LINE
  5
1EB
  8
1
  6
CONTINUOUS
 62
     7
 10
-358.3720282531052
 20
454.5465403776809
 30
0.0
 11
-358.4624199812244
 21
454.5366959508741
 31
0.0
  0
LINE
  5
1EC
  8
1
  6
CONTINUOUS
 62
     7
 10
-358.4624199812244
 20
454.5366959508741
 30
0.0
 11
-358.5513558091409
 21
454.526851524067
 31
0.0
  0
LINE
  5
1ED
  8
1
  6
CONTINUOUS
 62
     7
 10
-358.5513558091409
 20
454.526851524067
 30
0.0
 11
-358.6387111001921
 21
454.51700709726
 31
0.0
  0
LINE
  5
1EE
  8
1
  6
CONTINUOUS
 62
     7
 10
-358.6387111001921
 20
454.51700709726
 30
0.0
 11
-358.7243612177156
 21
454.5071626704529
 31
0.0
  0
LINE
  5
1EF
  8
1
  6
CONTINUOUS
 62
     7
 10
-358.7243612177156
 20
454.5071626704529
 30
0.0
 11
-358.8081815250486
 21
454.497318243646
 31
0.0
  0
LINE
  5
1F0
  8
1
  6
CONTINUOUS
 62
     7
 10
-358.8081815250486
 20
454.497318243646
 30
0.0
 11
-358.8900473855288
 21
454.487473816839
 31
0.0
  0
LINE
  5
1F1
  8
1
  6
CONTINUOUS
 62
     7
 10
-358.8900473855288
 20
454.487473816839
 30
0.0
 11
-358.9698341624936
 21
454.4776293900321
 31
0.0
  0
LINE
  5
1F2
  8
1
  6
CONTINUOUS
 62
     7
 10
-358.9698341624936
 20
454.4776293900321
 30
0.0
 11
-359.0474172192801
 21
454.467784963225
 31
0.0
  0
LINE
  5
1F3
  8
1
  6
CONTINUOUS
 62
     7
 10
-359.0474172192801
 20
454.467784963225
 30
0.0
 11
-359.122671919226
 21
454.4579405364179
 31
0.0
  0
LINE
  5
1F4
  8
1
  6
CONTINUOUS
 62
     7
 10
-359.122671919226
 20
454.4579405364179
 30
0.0
 11
-359.1954736256687
 21
454.4480961096109
 31
0.0
  0
LINE
  5
1F5
  8
1
  6
CONTINUOUS
 62
     7
 10
-359.1954736256687
 20
454.4480961096109
 30
0.0
 11
-359.2656977019457
 21
454.4382516828039
 31
0.0
  0
LINE
  5
1F6
  8
1
  6
CONTINUOUS
 62
     7
 10
-359.2656977019457
 20
454.4382516828039
 30
0.0
 11
-359.3332195113942
 21
454.4284072559969
 31
0.0
  0
LINE
  5
1F7
  8
1
  6
CONTINUOUS
 62
     7
 10
-359.3332195113942
 20
454.4284072559969
 30
0.0
 11
-359.3979151170724
 21
454.4185628291899
 31
0.0
  0
LINE
  5
1F8
  8
1
  6
CONTINUOUS
 62
     7
 10
-359.3979151170724
 20
454.4185628291899
 30
0.0
 11
-359.45968553483
 21
454.408718402383
 31
0.0
  0
LINE
  5
1F9
  8
1
  6
CONTINUOUS
 62
     7
 10
-359.45968553483
 20
454.408718402383
 30
0.0
 11
-359.5184629509645
 21
454.3988739755759
 31
0.0
  0
LINE
  5
1FA
  8
1
  6
CONTINUOUS
 62
     7
 10
-359.5184629509645
 20
454.3988739755759
 30
0.0
 11
-359.5741815143529
 21
454.3890295487689
 31
0.0
  0
LINE
  5
1FB
  8
1
  6
CONTINUOUS
 62
     7
 10
-359.5741815143529
 20
454.3890295487689
 30
0.0
 11
-359.6267753738719
 21
454.3791851219619
 31
0.0
  0
LINE
  5
1FC
  8
1
  6
CONTINUOUS
 62
     7
 10
-359.6267753738719
 20
454.3791851219619
 30
0.0
 11
-359.6761786783986
 21
454.369340695155
 31
0.0
  0
LINE
  5
1FD
  8
1
  6
CONTINUOUS
 62
     7
 10
-359.6761786783986
 20
454.369340695155
 30
0.0
 11
-359.72232557681
 21
454.3594962683478
 31
0.0
  0
LINE
  5
1FE
  8
1
  6
CONTINUOUS
 62
     7
 10
-359.72232557681
 20
454.3594962683478
 30
0.0
 11
-359.765150217983
 21
454.349651841541
 31
0.0
  0
LINE
  5
1FF
  8
1
  6
CONTINUOUS
 62
     7
 10
-359.765150217983
 20
454.349651841541
 30
0.0
 11
-359.8045867507942
 21
454.3398074147338
 31
0.0
  0
LINE
  5
200
  8
1
  6
CONTINUOUS
 62
     7
 10
-359.8045867507942
 20
454.3398074147338
 30
0.0
 11
-359.8405693241209
 21
454.3299629879268
 31
0.0
  0
LINE
  5
201
  8
1
  6
CONTINUOUS
 62
     7
 10
-359.8405693241209
 20
454.3299629879268
 30
0.0
 11
-359.8730320868398
 21
454.3201185611198
 31
0.0
  0
LINE
  5
202
  8
1
  6
CONTINUOUS
 62
     7
 10
-359.8730320868398
 20
454.3201185611198
 30
0.0
 11
-359.901909187828
 21
454.3102741343129
 31
0.0
  0
LINE
  5
203
  8
1
  6
CONTINUOUS
 62
     7
 10
-359.901909187828
 20
454.3102741343129
 30
0.0
 11
-359.9271347759623
 21
454.3004297075057
 31
0.0
  0
LINE
  5
204
  8
1
  6
CONTINUOUS
 62
     7
 10
-359.9271347759623
 20
454.3004297075057
 30
0.0
 11
-359.9486430001197
 21
454.2905852806988
 31
0.0
  0
LINE
  5
205
  8
1
  6
CONTINUOUS
 62
     7
 10
-359.9486430001197
 20
454.2905852806988
 30
0.0
 11
-359.9663723473931
 21
454.2807408538918
 31
0.0
  0
LINE
  5
206
  8
1
  6
CONTINUOUS
 62
     7
 10
-359.3999999999985
 20
455.4830706726964
 30
0.0
 11
-359.3250282189801
 21
455.5541670421606
 31
0.0
  0
ARC
  5
207
  8
1
  6
CONTINUOUS
 62
     7
 10
-356.8506908346979
 20
446.613431887565
 30
0.0
 40
9.276803899828803
 50
95.63880918789312
 51
105.4693615883324
  0
LINE
  5
208
  8
1
  6
CONTINUOUS
 62
     7
 10
-359.3999999999977
 20
453.8929886177462
 30
0.0
 11
-359.3100227022944
 21
453.9710987475797
 31
0.0
  0
ARC
  5
209
  8
1
  6
CONTINUOUS
 62
     7
 10
-326.1105884152065
 20
272.3111788904649
 30
0.0
 40
184.6687004326289
 50
99.23755895674032
 51
100.3568495984808
  0
LINE
  5
20A
  8
1
  6
CONTINUOUS
 62
     7
 10
-355.7551313969024
 20
454.5849564638789
 30
0.0
 11
-355.6529881159408
 21
454.6279413726248
 31
0.0
  0
LINE
  5
20B
  8
1
  6
CONTINUOUS
 62
     7
 10
-355.6529881159408
 20
454.6279413726248
 30
0.0
 11
-355.651456939482
 21
454.6288106231581
 31
0.0
  0
LINE
  5
20C
  8
1
  6
CONTINUOUS
 62
     7
 10
-355.6000000000026
 20
453.7904425382501
 30
0.0
 11
-355.6867384517224
 21
453.7137523699938
 31
0.0
  0
ARC
  5
20D
  8
1
  6
CONTINUOUS
 62
     7
 10
-357.6034339179965
 20
460.2738815055782
 30
0.0
 40
6.834399445889791
 50
276.3150684183589
 51
286.2869603722065
  0
LINE
  5
20E
  8
1
  6
CONTINUOUS
 62
     7
 10
-355.6000000000038
 20
455.3803864965089
 30
0.0
 11
-355.6792053445526
 21
455.307298530988
 31
0.0
  0
ARC
  5
20F
  8
1
  6
CONTINUOUS
 62
     7
 10
-397.1212898411925
 20
682.4423350286044
 30
0.0
 40
230.8847573405403
 50
279.4380364234287
 51
280.3402013216457
  0
LINE
  5
210
  8
1
  6
CONTINUOUS
 62
     7
 10
-359.2606058134177
 20
454.6829449320616
 30
0.0
 11
-359.3551324746463
 21
454.6407106943924
 31
0.0
  0
CIRCLE
  5
211
  8
1
  6
CONTINUOUS
 62
     7
 10
-357.5000000000001
 20
386.4980151148262
 30
0.0
 40
55.81365661046205
  0
ARC
  5
212
  8
1
  6
CONTINUOUS
 62
     7
 10
-311.3612825275778
 20
432.6367325872484
 30
0.0
 40
0.7500000000000007
 50
0.0
 51
180.0
  0
ARC
  5
213
  8
1
  6
CONTINUOUS
 62
     7
 10
-311.3612825275778
 20
432.6367325872484
 30
0.0
 40
0.7500000000000007
 50
180.0
 51
0.0
  0
ARC
  5
214
  8
1
  6
CONTINUOUS
 62
     7
 10
-357.5000000000001
 20
451.7480151148263
 30
0.0
 40
0.7500000000000007
 50
0.0
 51
180.0
  0
ARC
  5
215
  8
1
  6
CONTINUOUS
 62
     7
 10
-357.5000000000001
 20
451.7480151148263
 30
0.0
 40
0.7500000000000007
 50
180.0
 51
0.0
  0
ARC
  5
216
  8
1
  6
CONTINUOUS
 62
     7
 10
-403.6387174724222
 20
432.6367325872484
 30
0.0
 40
0.7500000000000007
 50
0.0
 51
180.0
  0
ARC
  5
217
  8
1
  6
CONTINUOUS
 62
     7
 10
-403.6387174724222
 20
432.6367325872484
 30
0.0
 40
0.7500000000000007
 50
180.0
 51
0.0
  0
ARC
  5
218
  8
1
  6
CONTINUOUS
 62
     7
 10
-357.5000000000001
 20
441.4980151148262
 30
0.0
 40
63.0
 50
0.0
 51
11.57577168589503
  0
LINE
  5
219
  8
1
  6
CONTINUOUS
 62
     7
 10
-295.7814079921646
 20
454.1398267164261
 30
0.0
 11
-308.09165455685
 21
454.1398267164261
 31
0.0
  0
ARC
  5
21A
  8
1
  6
CONTINUOUS
 62
     7
 10
-357.5000000000001
 20
441.4980151148262
 30
0.0
 40
51.00000000000001
 50
0.0
 51
14.35201757666852
  0
LINE
  5
21B
  8
1
  6
CONTINUOUS
 62
     7
 10
-306.5
 20
441.4980151148262
 30
0.0
 11
-306.5
 21
429.9491370796271
 31
0.0
  0
ARC
  5
21C
  8
1
  6
CONTINUOUS
 62
     7
 10
-357.5000000000001
 20
386.4980151148262
 30
0.0
 40
67.0
 50
22.19164935349471
 51
40.43042570861172
  0
LINE
  5
21D
  8
1
  6
CONTINUOUS
 62
     7
 10
-294.5000000000001
 20
411.993066010856
 30
0.0
 11
-294.5005892478232
 21
411.9690430699878
 31
0.0
  0
LINE
  5
21E
  8
1
  6
CONTINUOUS
 62
     7
 10
-294.5005892478232
 20
411.9690430699878
 30
0.0
 11
-294.5023476863772
 21
411.945007794348
 31
0.0
  0
LINE
  5
21F
  8
1
  6
CONTINUOUS
 62
     7
 10
-294.5023476863772
 20
411.945007794348
 30
0.0
 11
-294.5052613582887
 21
411.9210423819601
 31
0.0
  0
LINE
  5
220
  8
1
  6
CONTINUOUS
 62
     7
 10
-294.5052613582887
 20
411.9210423819601
 30
0.0
 11
-294.5093163061844
 21
411.8972290308475
 31
0.0
  0
LINE
  5
221
  8
1
  6
CONTINUOUS
 62
     7
 10
-294.5093163061844
 20
411.8972290308475
 30
0.0
 11
-294.5144985726907
 21
411.8736499390336
 31
0.0
  0
LINE
  5
222
  8
1
  6
CONTINUOUS
 62
     7
 10
-294.5144985726907
 20
411.8736499390336
 30
0.0
 11
-294.5207942004346
 21
411.8503873045418
 31
0.0
  0
LINE
  5
223
  8
1
  6
CONTINUOUS
 62
     7
 10
-294.5207942004346
 20
411.8503873045418
 30
0.0
 11
-294.5281892320425
 21
411.8275233253957
 31
0.0
  0
LINE
  5
224
  8
1
  6
CONTINUOUS
 62
     7
 10
-294.5281892320425
 20
411.8275233253957
 30
0.0
 11
-294.5366966793351
 21
411.8050492939634
 31
0.0
  0
LINE
  5
225
  8
1
  6
CONTINUOUS
 62
     7
 10
-294.5366966793351
 20
411.8050492939634
 30
0.0
 11
-294.5463118056331
 21
411.7829507048091
 31
0.0
  0
LINE
  5
226
  8
1
  6
CONTINUOUS
 62
     7
 10
-294.5463118056331
 20
411.7829507048091
 30
0.0
 11
-294.5569942119454
 21
411.7613005428395
 31
0.0
  0
LINE
  5
227
  8
1
  6
CONTINUOUS
 62
     7
 10
-294.5569942119454
 20
411.7613005428395
 30
0.0
 11
-294.5687034992813
 21
411.740171792961
 31
0.0
  0
LINE
  5
228
  8
1
  6
CONTINUOUS
 62
     7
 10
-294.5687034992813
 20
411.740171792961
 30
0.0
 11
-294.5813992686502
 21
411.7196374400799
 31
0.0
  0
LINE
  5
229
  8
1
  6
CONTINUOUS
 62
     7
 10
-294.5813992686502
 20
411.7196374400799
 30
0.0
 11
-294.5950411210612
 21
411.6997704691024
 31
0.0
  0
LINE
  5
22A
  8
1
  6
CONTINUOUS
 62
     7
 10
-294.5950411210612
 20
411.6997704691024
 30
0.0
 11
-294.6095886575235
 21
411.6806438649352
 31
0.0
  0
LINE
  5
22B
  8
1
  6
CONTINUOUS
 62
     7
 10
-294.6095886575235
 20
411.6806438649352
 30
0.0
 11
-294.6250538965112
 21
411.6622572752417
 31
0.0
  0
LINE
  5
22C
  8
1
  6
CONTINUOUS
 62
     7
 10
-294.6250538965112
 20
411.6622572752417
 30
0.0
 11
-294.64143993368
 21
411.6445915891991
 31
0.0
  0
LINE
  5
22D
  8
1
  6
CONTINUOUS
 62
     7
 10
-294.64143993368
 20
411.6445915891991
 30
0.0
 11
-294.6586844824818
 21
411.6277022822689
 31
0.0
  0
LINE
  5
22E
  8
1
  6
CONTINUOUS
 62
     7
 10
-294.6586844824818
 20
411.6277022822689
 30
0.0
 11
-294.676725256369
 21
411.6116448299125
 31
0.0
  0
LINE
  5
22F
  8
1
  6
CONTINUOUS
 62
     7
 10
-294.676725256369
 20
411.6116448299125
 30
0.0
 11
-294.6954999687933
 21
411.5964747075914
 31
0.0
  0
LINE
  5
230
  8
1
  6
CONTINUOUS
 62
     7
 10
-294.6954999687933
 20
411.5964747075914
 30
0.0
 11
-294.7149463332071
 21
411.5822473907669
 31
0.0
  0
LINE
  5
231
  8
1
  6
CONTINUOUS
 62
     7
 10
-294.7149463332071
 20
411.5822473907669
 30
0.0
 11
-294.7350020630624
 21
411.5690183549005
 31
0.0
  0
LINE
  5
232
  8
1
  6
CONTINUOUS
 62
     7
 10
-294.7350020630624
 20
411.5690183549005
 30
0.0
 11
-294.7556778373084
 21
411.5567916508655
 31
0.0
  0
LINE
  5
233
  8
1
  6
CONTINUOUS
 62
     7
 10
-294.7556778373084
 20
411.5567916508655
 30
0.0
 11
-294.7769835975053
 21
411.5455497537083
 31
0.0
  0
LINE
  5
234
  8
1
  6
CONTINUOUS
 62
     7
 10
-294.7769835975053
 20
411.5455497537083
 30
0.0
 11
-294.7988422320978
 21
411.5353243488857
 31
0.0
  0
LINE
  5
235
  8
1
  6
CONTINUOUS
 62
     7
 10
-294.7988422320978
 20
411.5353243488857
 30
0.0
 11
-294.8211766295306
 21
411.5261471218545
 31
0.0
  0
LINE
  5
236
  8
1
  6
CONTINUOUS
 62
     7
 10
-294.8211766295306
 20
411.5261471218545
 30
0.0
 11
-294.8439096782482
 21
411.5180497580715
 31
0.0
  0
LINE
  5
237
  8
1
  6
CONTINUOUS
 62
     7
 10
-294.8439096782482
 20
411.5180497580715
 30
0.0
 11
-294.8669642666956
 21
411.5110639429935
 31
0.0
  0
LINE
  5
238
  8
1
  6
CONTINUOUS
 62
     7
 10
-294.8669642666956
 20
411.5110639429935
 30
0.0
 11
-294.8902632833172
 21
411.5052213620773
 31
0.0
  0
LINE
  5
239
  8
1
  6
CONTINUOUS
 62
     7
 10
-294.8902632833172
 20
411.5052213620773
 30
0.0
 11
-294.9138185805355
 21
411.5005287906448
 31
0.0
  0
LINE
  5
23A
  8
1
  6
CONTINUOUS
 62
     7
 10
-294.9138185805355
 20
411.5005287906448
 30
0.0
 11
-294.9376422670301
 21
411.4969738044922
 31
0.0
  0
LINE
  5
23B
  8
1
  6
CONTINUOUS
 62
     7
 10
-294.9376422670301
 20
411.4969738044922
 30
0.0
 11
-294.9616511260173
 21
411.4945607489551
 31
0.0
  0
LINE
  5
23C
  8
1
  6
CONTINUOUS
 62
     7
 10
-294.9616511260173
 20
411.4945607489551
 30
0.0
 11
-294.9857619407137
 21
411.4932939693689
 31
0.0
  0
LINE
  5
23D
  8
1
  6
CONTINUOUS
 62
     7
 10
-294.9857619407137
 20
411.4932939693689
 30
0.0
 11
-295.0098914943354
 21
411.4931778110692
 31
0.0
  0
LINE
  5
23E
  8
1
  6
CONTINUOUS
 62
     7
 10
-295.0098914943354
 20
411.4931778110692
 30
0.0
 11
-295.0339565700988
 21
411.4942166193912
 31
0.0
  0
LINE
  5
23F
  8
1
  6
CONTINUOUS
 62
     7
 10
-295.0339565700988
 20
411.4942166193912
 30
0.0
 11
-295.0578739512204
 21
411.4964147396706
 31
0.0
  0
LINE
  5
240
  8
1
  6
CONTINUOUS
 62
     7
 10
-295.0578739512204
 20
411.4964147396706
 30
0.0
 11
-295.0816566806577
 21
411.4997831367411
 31
0.0
  0
LINE
  5
241
  8
1
  6
CONTINUOUS
 62
     7
 10
-295.0816566806577
 20
411.4997831367411
 30
0.0
 11
-295.1053161527058
 21
411.5043137976874
 31
0.0
  0
LINE
  5
242
  8
1
  6
CONTINUOUS
 62
     7
 10
-295.1053161527058
 20
411.5043137976874
 30
0.0
 11
-295.1287724224317
 21
411.5099832716259
 31
0.0
  0
LINE
  5
243
  8
1
  6
CONTINUOUS
 62
     7
 10
-295.1287724224317
 20
411.5099832716259
 30
0.0
 11
-295.1519455449022
 21
411.5167681076727
 31
0.0
  0
LINE
  5
244
  8
1
  6
CONTINUOUS
 62
     7
 10
-295.1519455449022
 20
411.5167681076727
 30
0.0
 11
-295.174755575184
 21
411.5246448549442
 31
0.0
  0
LINE
  5
245
  8
1
  6
CONTINUOUS
 62
     7
 10
-295.174755575184
 20
411.5246448549442
 30
0.0
 11
-295.197122568344
 21
411.5335900625566
 31
0.0
  0
LINE
  5
246
  8
1
  6
CONTINUOUS
 62
     7
 10
-295.197122568344
 20
411.5335900625566
 30
0.0
 11
-295.2189665794489
 21
411.543580279626
 31
0.0
  0
LINE
  5
247
  8
1
  6
CONTINUOUS
 62
     7
 10
-295.2189665794489
 20
411.543580279626
 30
0.0
 11
-295.240299200443
 21
411.5546317535395
 31
0.0
  0
LINE
  5
248
  8
1
  6
CONTINUOUS
 62
     7
 10
-295.240299200443
 20
411.5546317535395
 30
0.0
 11
-295.2611307936231
 21
411.5667393922413
 31
0.0
  0
LINE
  5
249
  8
1
  6
CONTINUOUS
 62
     7
 10
-295.2611307936231
 20
411.5667393922413
 30
0.0
 11
-295.2813936678239
 21
411.5798546062325
 31
0.0
  0
LINE
  5
24A
  8
1
  6
CONTINUOUS
 62
     7
 10
-295.2813936678239
 20
411.5798546062325
 30
0.0
 11
-295.3010201318796
 21
411.5939288060135
 31
0.0
  0
LINE
  5
24B
  8
1
  6
CONTINUOUS
 62
     7
 10
-295.3010201318796
 20
411.5939288060135
 30
0.0
 11
-295.3199424946246
 21
411.6089134020851
 31
0.0
  0
LINE
  5
24C
  8
1
  6
CONTINUOUS
 62
     7
 10
-295.3199424946246
 20
411.6089134020851
 30
0.0
 11
-295.3380930648934
 21
411.6247598049482
 31
0.0
  0
LINE
  5
24D
  8
1
  6
CONTINUOUS
 62
     7
 10
-295.3380930648934
 20
411.6247598049482
 30
0.0
 11
-295.3554041515204
 21
411.6414194251033
 31
0.0
  0
LINE
  5
24E
  8
1
  6
CONTINUOUS
 62
     7
 10
-295.3554041515204
 20
411.6414194251033
 30
0.0
 11
-295.3718819942428
 21
411.6589122042378
 31
0.0
  0
LINE
  5
24F
  8
1
  6
CONTINUOUS
 62
     7
 10
-295.3718819942428
 20
411.6589122042378
 30
0.0
 11
-295.3875372957589
 21
411.6772360947202
 31
0.0
  0
LINE
  5
250
  8
1
  6
CONTINUOUS
 62
     7
 10
-295.3875372957589
 20
411.6772360947202
 30
0.0
 11
-295.4023222221297
 21
411.6963228272895
 31
0.0
  0
LINE
  5
251
  8
1
  6
CONTINUOUS
 62
     7
 10
-295.4023222221297
 20
411.6963228272895
 30
0.0
 11
-295.4161889394158
 21
411.7161041326849
 31
0.0
  0
LINE
  5
252
  8
1
  6
CONTINUOUS
 62
     7
 10
-295.4161889394158
 20
411.7161041326849
 30
0.0
 11
-295.4290896136781
 21
411.7365117416452
 31
0.0
  0
LINE
  5
253
  8
1
  6
CONTINUOUS
 62
     7
 10
-295.4290896136781
 20
411.7365117416452
 30
0.0
 11
-295.4409764109773
 21
411.7574773849097
 31
0.0
  0
LINE
  5
254
  8
1
  6
CONTINUOUS
 62
     7
 10
-295.4409764109773
 20
411.7574773849097
 30
0.0
 11
-295.4518014973743
 21
411.7789327932173
 31
0.0
  0
LINE
  5
255
  8
1
  6
CONTINUOUS
 62
     7
 10
-295.4518014973743
 20
411.7789327932173
 30
0.0
 11
-295.4575674733861
 21
411.7915421546526
 31
0.0
  0
LINE
  5
256
  8
1
  6
CONTINUOUS
 62
     7
 10
-295.4575674733861
 20
411.7915421546526
 30
0.0
 11
-295.4629818611248
 21
411.8043064360939
 31
0.0
  0
LINE
  5
257
  8
1
  6
CONTINUOUS
 62
     7
 10
-294.5000000000001
 20
411.993066010856
 30
0.0
 11
-294.5000000000001
 21
441.4980151148262
 31
0.0
  0
LINE
  5
258
  8
1
  6
CONTINUOUS
 62
     7
 10
-408.5
 20
429.9491370796271
 30
0.0
 11
-408.5
 21
441.4980151148262
 31
0.0
  0
ARC
  5
259
  8
1
  6
CONTINUOUS
 62
     7
 10
-357.5000000000001
 20
441.4980151148262
 30
0.0
 40
50.99999999999999
 50
165.6479824233316
 51
180.0
  0
LINE
  5
25A
  8
1
  6
CONTINUOUS
 62
     7
 10
-419.2185920078355
 20
454.1398267164261
 30
0.0
 11
-406.9083454431501
 21
454.1398267164261
 31
0.0
  0
ARC
  5
25B
  8
1
  6
CONTINUOUS
 62
     7
 10
-357.5000000000001
 20
441.4980151148262
 30
0.0
 40
63.0
 50
168.424228314105
 51
180.0
  0
LINE
  5
25C
  8
1
  6
CONTINUOUS
 62
     7
 10
-420.5000000000001
 20
441.4980151148262
 30
0.0
 11
-420.5000000000001
 21
411.9930660108561
 31
0.0
  0
LINE
  5
25D
  8
1
  6
CONTINUOUS
 62
     7
 10
-419.5370181388753
 20
411.8043064360938
 30
0.0
 11
-419.546639585915
 21
411.7822805537213
 31
0.0
  0
LINE
  5
25E
  8
1
  6
CONTINUOUS
 62
     7
 10
-419.546639585915
 20
411.7822805537213
 30
0.0
 11
-419.5573486110451
 21
411.7606850048624
 31
0.0
  0
LINE
  5
25F
  8
1
  6
CONTINUOUS
 62
     7
 10
-419.5573486110451
 20
411.7606850048624
 30
0.0
 11
-419.5691012097417
 21
411.7395906341176
 31
0.0
  0
LINE
  5
260
  8
1
  6
CONTINUOUS
 62
     7
 10
-419.5691012097417
 20
411.7395906341176
 30
0.0
 11
-419.5818533774814
 21
411.7190682860875
 31
0.0
  0
LINE
  5
261
  8
1
  6
CONTINUOUS
 62
     7
 10
-419.5818533774814
 20
411.7190682860875
 30
0.0
 11
-419.5955611097403
 21
411.6991888053726
 31
0.0
  0
LINE
  5
262
  8
1
  6
CONTINUOUS
 62
     7
 10
-419.5955611097403
 20
411.6991888053726
 30
0.0
 11
-419.6101804019947
 21
411.6800230365733
 31
0.0
  0
LINE
  5
263
  8
1
  6
CONTINUOUS
 62
     7
 10
-419.6101804019947
 20
411.6800230365733
 30
0.0
 11
-419.6256672497211
 21
411.6616418242904
 31
0.0
  0
LINE
  5
264
  8
1
  6
CONTINUOUS
 62
     7
 10
-419.6256672497211
 20
411.6616418242904
 30
0.0
 11
-419.642036913229
 21
411.6440420638758
 31
0.0
  0
LINE
  5
265
  8
1
  6
CONTINUOUS
 62
     7
 10
-419.642036913229
 20
411.6440420638758
 30
0.0
 11
-419.6592905348708
 21
411.6272084506993
 31
0.0
  0
LINE
  5
266
  8
1
  6
CONTINUOUS
 62
     7
 10
-419.6592905348708
 20
411.6272084506993
 30
0.0
 11
-419.677363132197
 21
411.6111933046118
 31
0.0
  0
LINE
  5
267
  8
1
  6
CONTINUOUS
 62
     7
 10
-419.677363132197
 20
411.6111933046118
 30
0.0
 11
-419.6961897227577
 21
411.5960489454646
 31
0.0
  0
LINE
  5
268
  8
1
  6
CONTINUOUS
 62
     7
 10
-419.6961897227577
 20
411.5960489454646
 30
0.0
 11
-419.715705324103
 21
411.5818276931084
 31
0.0
  0
LINE
  5
269
  8
1
  6
CONTINUOUS
 62
     7
 10
-419.715705324103
 20
411.5818276931084
 30
0.0
 11
-419.7358449537833
 21
411.5685818673946
 31
0.0
  0
LINE
  5
26A
  8
1
  6
CONTINUOUS
 62
     7
 10
-419.7358449537833
 20
411.5685818673946
 30
0.0
 11
-419.7565436293488
 21
411.5563637881742
 31
0.0
  0
LINE
  5
26B
  8
1
  6
CONTINUOUS
 62
     7
 10
-419.7565436293488
 20
411.5563637881742
 30
0.0
 11
-419.7778140990948
 21
411.5451769341361
 31
0.0
  0
LINE
  5
26C
  8
1
  6
CONTINUOUS
 62
     7
 10
-419.7778140990948
 20
411.5451769341361
 30
0.0
 11
-419.7996650591793
 21
411.5350056602484
 31
0.0
  0
LINE
  5
26D
  8
1
  6
CONTINUOUS
 62
     7
 10
-419.7996650591793
 20
411.5350056602484
 30
0.0
 11
-419.8220178608405
 21
411.5258778324154
 31
0.0
  0
LINE
  5
26E
  8
1
  6
CONTINUOUS
 62
     7
 10
-419.8220178608405
 20
411.5258778324154
 30
0.0
 11
-419.8447938553161
 21
411.5178213165414
 31
0.0
  0
LINE
  5
26F
  8
1
  6
CONTINUOUS
 62
     7
 10
-419.8447938553161
 20
411.5178213165414
 30
0.0
 11
-419.8679143938442
 21
411.5108639785307
 31
0.0
  0
LINE
  5
270
  8
1
  6
CONTINUOUS
 62
     7
 10
-419.8679143938442
 20
411.5108639785307
 30
0.0
 11
-419.8913008276624
 21
411.5050336842878
 31
0.0
  0
LINE
  5
271
  8
1
  6
CONTINUOUS
 62
     7
 10
-419.8913008276624
 20
411.5050336842878
 30
0.0
 11
-419.9148745080088
 21
411.5003582997169
 31
0.0
  0
LINE
  5
272
  8
1
  6
CONTINUOUS
 62
     7
 10
-419.9148745080088
 20
411.5003582997169
 30
0.0
 11
-419.9386431240946
 21
411.4968457211184
 31
0.0
  0
LINE
  5
273
  8
1
  6
CONTINUOUS
 62
     7
 10
-419.9386431240946
 20
411.4968457211184
 30
0.0
 11
-419.962623184409
 21
411.4944833540095
 31
0.0
  0
LINE
  5
274
  8
1
  6
CONTINUOUS
 62
     7
 10
-419.962623184409
 20
411.4944833540095
 30
0.0
 11
-419.9867312744232
 21
411.4932714402355
 31
0.0
  0
LINE
  5
275
  8
1
  6
CONTINUOUS
 62
     7
 10
-419.9867312744232
 20
411.4932714402355
 30
0.0
 11
-420.0108839796085
 21
411.493210221642
 31
0.0
  0
LINE
  5
276
  8
1
  6
CONTINUOUS
 62
     7
 10
-420.0108839796085
 20
411.493210221642
 30
0.0
 11
-420.0349978854364
 21
411.4942999400741
 31
0.0
  0
LINE
  5
277
  8
1
  6
CONTINUOUS
 62
     7
 10
-420.0349978854364
 20
411.4942999400741
 30
0.0
 11
-420.0589895773781
 21
411.4965408373774
 31
0.0
  0
LINE
  5
278
  8
1
  6
CONTINUOUS
 62
     7
 10
-420.0589895773781
 20
411.4965408373774
 30
0.0
 11
-420.0827756409048
 21
411.4999331553973
 31
0.0
  0
LINE
  5
279
  8
1
  6
CONTINUOUS
 62
     7
 10
-420.0827756409048
 20
411.4999331553973
 30
0.0
 11
-420.106361101207
 21
411.5044869498053
 31
0.0
  0
LINE
  5
27A
  8
1
  6
CONTINUOUS
 62
     7
 10
-420.106361101207
 20
411.5044869498053
 30
0.0
 11
-420.1297653086921
 21
411.5101957298106
 31
0.0
  0
LINE
  5
27B
  8
1
  6
CONTINUOUS
 62
     7
 10
-420.1297653086921
 20
411.5101957298106
 30
0.0
 11
-420.1529095199256
 21
411.5170320966225
 31
0.0
  0
LINE
  5
27C
  8
1
  6
CONTINUOUS
 62
     7
 10
-420.1529095199256
 20
411.5170320966225
 30
0.0
 11
-420.1757149914728
 21
411.5249686514509
 31
0.0
  0
LINE
  5
27D
  8
1
  6
CONTINUOUS
 62
     7
 10
-420.1757149914728
 20
411.5249686514509
 30
0.0
 11
-420.1981029798991
 21
411.5339779955053
 31
0.0
  0
LINE
  5
27E
  8
1
  6
CONTINUOUS
 62
     7
 10
-420.1981029798991
 20
411.5339779955053
 30
0.0
 11
-420.2199947417699
 21
411.5440327299955
 31
0.0
  0
LINE
  5
27F
  8
1
  6
CONTINUOUS
 62
     7
 10
-420.2199947417699
 20
411.5440327299955
 30
0.0
 11
-420.2413115336507
 21
411.555105456131
 31
0.0
  0
LINE
  5
280
  8
1
  6
CONTINUOUS
 62
     7
 10
-420.2413115336507
 20
411.555105456131
 30
0.0
 11
-420.2620572468043
 21
411.567208808725
 31
0.0
  0
LINE
  5
281
  8
1
  6
CONTINUOUS
 62
     7
 10
-420.2620572468043
 20
411.567208808725
 30
0.0
 11
-420.2822496967657
 21
411.5803417693169
 31
0.0
  0
LINE
  5
282
  8
1
  6
CONTINUOUS
 62
     7
 10
-420.2822496967657
 20
411.5803417693169
 30
0.0
 11
-420.3018236970525
 21
411.5944524207091
 31
0.0
  0
LINE
  5
283
  8
1
  6
CONTINUOUS
 62
     7
 10
-420.3018236970525
 20
411.5944524207091
 30
0.0
 11
-420.3207140611819
 21
411.6094888457039
 31
0.0
  0
LINE
  5
284
  8
1
  6
CONTINUOUS
 62
     7
 10
-420.3207140611819
 20
411.6094888457039
 30
0.0
 11
-420.3388556026713
 21
411.6253991271035
 31
0.0
  0
LINE
  5
285
  8
1
  6
CONTINUOUS
 62
     7
 10
-420.3388556026713
 20
411.6253991271035
 30
0.0
 11
-420.3561831350383
 21
411.6421313477103
 31
0.0
  0
LINE
  5
286
  8
1
  6
CONTINUOUS
 62
     7
 10
-420.3561831350383
 20
411.6421313477103
 30
0.0
 11
-420.3726314718001
 21
411.6596335903266
 31
0.0
  0
LINE
  5
287
  8
1
  6
CONTINUOUS
 62
     7
 10
-420.3726314718001
 20
411.6596335903266
 30
0.0
 11
-420.3882027244808
 21
411.677922243866
 31
0.0
  0
LINE
  5
288
  8
1
  6
CONTINUOUS
 62
     7
 10
-420.3882027244808
 20
411.677922243866
 30
0.0
 11
-420.402911158901
 21
411.6969992946924
 31
0.0
  0
LINE
  5
289
  8
1
  6
CONTINUOUS
 62
     7
 10
-420.402911158901
 20
411.6969992946924
 30
0.0
 11
-420.4167124709821
 21
411.7167941849713
 31
0.0
  0
LINE
  5
28A
  8
1
  6
CONTINUOUS
 62
     7
 10
-420.4167124709821
 20
411.7167941849713
 30
0.0
 11
-420.4295623566454
 21
411.7372363568678
 31
0.0
  0
LINE
  5
28B
  8
1
  6
CONTINUOUS
 62
     7
 10
-420.4295623566454
 20
411.7372363568678
 30
0.0
 11
-420.4414165118121
 21
411.7582552525471
 31
0.0
  0
LINE
  5
28C
  8
1
  6
CONTINUOUS
 62
     7
 10
-420.4414165118121
 20
411.7582552525471
 30
0.0
 11
-420.4522306324035
 21
411.7797803141746
 31
0.0
  0
LINE
  5
28D
  8
1
  6
CONTINUOUS
 62
     7
 10
-420.4522306324035
 20
411.7797803141746
 30
0.0
 11
-420.4619604143409
 21
411.8017409839154
 31
0.0
  0
LINE
  5
28E
  8
1
  6
CONTINUOUS
 62
     7
 10
-420.4619604143409
 20
411.8017409839154
 30
0.0
 11
-420.4706036384087
 21
411.8241567603235
 31
0.0
  0
LINE
  5
28F
  8
1
  6
CONTINUOUS
 62
     7
 10
-420.4706036384087
 20
411.8241567603235
 30
0.0
 11
-420.4781715976478
 21
411.8470310355681
 31
0.0
  0
LINE
  5
290
  8
1
  6
CONTINUOUS
 62
     7
 10
-420.4781715976478
 20
411.8470310355681
 30
0.0
 11
-420.4846458319611
 21
411.8702825588444
 31
0.0
  0
LINE
  5
291
  8
1
  6
CONTINUOUS
 62
     7
 10
-420.4846458319611
 20
411.8702825588444
 30
0.0
 11
-420.4900078812516
 21
411.8938300793477
 31
0.0
  0
LINE
  5
292
  8
1
  6
CONTINUOUS
 62
     7
 10
-420.4900078812516
 20
411.8938300793477
 30
0.0
 11
-420.4942392854222
 21
411.9175923462732
 31
0.0
  0
LINE
  5
293
  8
1
  6
CONTINUOUS
 62
     7
 10
-420.4942392854222
 20
411.9175923462732
 30
0.0
 11
-420.4973215843757
 21
411.9414881088164
 31
0.0
  0
LINE
  5
294
  8
1
  6
CONTINUOUS
 62
     7
 10
-420.4973215843757
 20
411.9414881088164
 30
0.0
 11
-420.4992363180152
 21
411.9654361161724
 31
0.0
  0
LINE
  5
295
  8
1
  6
CONTINUOUS
 62
     7
 10
-420.4992363180152
 20
411.9654361161724
 30
0.0
 11
-420.4998090076556
 21
411.9792457884862
 31
0.0
  0
LINE
  5
296
  8
1
  6
CONTINUOUS
 62
     7
 10
-420.4998090076556
 20
411.9792457884862
 30
0.0
 11
-420.5000000000001
 21
411.9930660108561
 31
0.0
  0
ARC
  5
297
  8
1
  6
CONTINUOUS
 62
     7
 10
-357.5000000000001
 20
386.4980151148262
 30
0.0
 40
67.0
 50
139.5695742913883
 51
157.8083506465052
  0
CIRCLE
  5
298
  8
1
  6
CONTINUOUS
 62
     7
 10
-357.5000000000001
 20
386.4980151148262
 30
0.0
 40
63.98564337653094
  0
ARC
  5
299
  8
1
  6
CONTINUOUS
 62
     7
 10
-357.5000000000001
 20
441.4980151148262
 30
0.0
 40
63.0
 50
152.3436599240888
 51
166.8260763898829
  0
LINE
  5
29A
  8
1
  6
CONTINUOUS
 62
     7
 10
-406.4371272748621
 20
455.8562035132264
 30
0.0
 11
-418.8420119161089
 21
455.8562035132264
 31
0.0
  0
ARC
  5
29B
  8
1
  6
CONTINUOUS
 62
     7
 10
-357.5000000000001
 20
441.4980151148262
 30
0.0
 40
51.00000000000001
 50
145.013525197964
 51
163.6482734175049
  0
LINE
  5
29C
  8
1
  6
CONTINUOUS
 62
     7
 10
-374.1081883984002
 20
489.7180117772405
 30
0.0
 11
-374.1081883984002
 21
502.2694564184784
 31
0.0
  0
ARC
  5
29D
  8
1
  6
CONTINUOUS
 62
     7
 10
-357.5000000000001
 20
441.4980151148262
 30
0.0
 40
63.0
 50
105.2850901457977
 51
133.2887208698083
  0
LINE
  5
29E
  8
1
  6
CONTINUOUS
 62
     7
 10
-379.8165086161977
 20
487.3562035132265
 30
0.0
 11
-400.6975295221478
 21
487.3562035132265
 31
0.0
  0
ARC
  5
29F
  8
1
  6
CONTINUOUS
 62
     7
 10
-357.5000000000001
 20
441.4980151148262
 30
0.0
 40
51.00000000000001
 50
109.0050053103537
 51
115.9494880797897
  0
ARC
  5
2A0
  8
1
  6
CONTINUOUS
 62
     7
 10
-357.5000000000001
 20
441.4980151148262
 30
0.0
 40
51.00000000000001
 50
120.0572103476833
 51
144.9930516805152
  0
LINE
  5
2A1
  8
1
  6
CONTINUOUS
 62
     7
 10
-402.4499774029849
 20
485.6398267164262
 30
0.0
 11
-383.0440887198752
 21
485.6398267164262
 31
0.0
  0
ARC
  5
2A2
  8
1
  6
CONTINUOUS
 62
     7
 10
-357.5000000000001
 20
441.4980151148262
 30
0.0
 40
63.0
 50
135.5197248823589
 51
152.3283305460402
  0
ARC
  5
2A3
  8
1
  6
CONTINUOUS
 62
     7
 10
-357.5000000000001
 20
441.4980151148262
 30
0.0
 40
50.99999999999999
 50
90.00838579880053
 51
106.9775098081692
  0
ARC
  5
2A4
  8
1
  6
CONTINUOUS
 62
     7
 10
-357.5000000000001
 20
441.4980151148262
 30
0.0
 40
63.0
 50
90.00678850378254
 51
103.6728628361064
  0
LINE
  5
2A5
  8
1
  6
CONTINUOUS
 62
     7
 10
-372.3918116015998
 20
502.7126697918107
 30
0.0
 11
-372.3918116015998
 21
490.2754068780444
 31
0.0
  0
LINE
  5
2A6
  8
1
  6
CONTINUOUS
 62
     7
 10
-335.1834913838022
 20
487.3562035132264
 30
0.0
 11
-314.3024704778522
 21
487.3562035132264
 31
0.0
  0
ARC
  5
2A7
  8
1
  6
CONTINUOUS
 62
     7
 10
-357.5000000000001
 20
441.4980151148262
 30
0.0
 40
63.0
 50
46.71127913019149
 51
74.7149098542022
  0
LINE
  5
2A8
  8
1
  6
CONTINUOUS
 62
     7
 10
-340.8918116015998
 20
502.2694564184784
 30
0.0
 11
-340.8918116015998
 21
489.7180117772405
 31
0.0
  0
ARC
  5
2A9
  8
1
  6
CONTINUOUS
 62
     7
 10
-357.5000000000001
 20
441.4980151148262
 30
0.0
 40
51.00000000000001
 50
64.05051192021006
 51
70.99499468964626
  0
ARC
  5
2AA
  8
1
  6
CONTINUOUS
 62
     7
 10
-357.5000000000001
 20
441.4980151148262
 30
0.0
 40
63.00000000000001
 50
76.32713716389362
 51
89.99321149621743
  0
ARC
  5
2AB
  8
1
  6
CONTINUOUS
 62
     7
 10
-357.5000000000001
 20
441.4980151148262
 30
0.0
 40
50.99999999999999
 50
73.0224901918308
 51
89.99161420119947
  0
LINE
  5
2AC
  8
1
  6
CONTINUOUS
 62
     7
 10
-342.6081883984002
 20
490.2754068780442
 30
0.0
 11
-342.6081883984002
 21
502.7126697918106
 31
0.0
  0
ARC
  5
2AD
  8
1
  6
CONTINUOUS
 62
     7
 10
-357.5000000000001
 20
441.4980151148262
 30
0.0
 40
51.00000000000001
 50
35.00694831948476
 51
59.94278965231649
  0
ARC
  5
2AE
  8
1
  6
CONTINUOUS
 62
     7
 10
-357.5000000000001
 20
441.4980151148262
 30
0.0
 40
63.0
 50
27.67166945395983
 51
44.48027511764099
  0
LINE
  5
2AF
  8
1
  6
CONTINUOUS
 62
     7
 10
-312.550022597015
 20
485.6398267164261
 30
0.0
 11
-331.9559112801247
 21
485.6398267164261
 31
0.0
  0
ARC
  5
2B0
  8
1
  6
CONTINUOUS
 62
     7
 10
-357.5000000000001
 20
441.4980151148262
 30
0.0
 40
63.00000000000003
 50
13.17392361011708
 51
27.65634007591123
  0
ARC
  5
2B1
  8
1
  6
CONTINUOUS
 62
     7
 10
-357.5000000000001
 20
441.4980151148262
 30
0.0
 40
50.99999999999999
 50
16.35172658249508
 51
34.986474802036
  0
LINE
  5
2B2
  8
1
  6
CONTINUOUS
 62
     7
 10
-308.562872725138
 20
455.8562035132264
 30
0.0
 11
-296.1579880838912
 21
455.8562035132264
 31
0.0
  0
ARC
  5
2B3
  8
1
  6
CONTINUOUS
 62
     7
 10
-357.5000000000001
 20
441.4980151148262
 30
0.0
 40
67.00000000000003
 50
359.9999999999998
 51
88.65465630287797
  0
ARC
  5
2B4
  8
1
  6
CONTINUOUS
 62
     7
 10
-357.5
 20
441.4980151148262
 30
0.0
 40
67.00000000000006
 50
91.32424694691336
 51
180.0
  0
LINE
  5
2B5
  8
1
  6
CONTINUOUS
 62
     7
 10
-359.0482949667422
 20
508.479818398498
 30
0.0
 11
-355.9272541887021
 21
508.4793462058402
 31
0.0
  0
ARC
  5
2B6
  8
1
  6
CONTINUOUS
 62
     7
 10
-357.5000000000001
 20
386.4980151148262
 30
0.0
 40
66.99999999999999
 50
180.0
 51
0.0
  0
LINE
  5
2B7
  8
1
  6
CONTINUOUS
 62
     7
 10
-290.5000000000001
 20
441.4980151148262
 30
0.0
 11
-290.5000000000001
 21
386.4980151148263
 31
0.0
  0
LINE
  5
2B8
  8
1
  6
CONTINUOUS
 62
     7
 10
-424.5000000000001
 20
386.4980151148262
 30
0.0
 11
-424.5000000000001
 21
441.4980151148262
 31
0.0
  0
CIRCLE
  5
2B9
  8
1
  6
CONTINUOUS
 62
     7
 10
-357.5000000000001
 20
386.4980151148262
 30
0.0
 40
63.75000000000001
  0
LINE
  5
2BA
  8
1
  6
CONTINUOUS
 62
     7
 10
-296.1579880838912
 20
455.8562035132264
 30
0.0
 11
-296.236614233903
 21
455.9185110115663
 31
0.0
  0
ARC
  5
2BB
  8
1
  6
CONTINUOUS
 62
     7
 10
-358.7535669740335
 20
440.3475891008926
 30
0.0
 40
48.72263477309606
 50
20.32562730113023
 51
60.58923396421715
  0
LINE
  5
2BC
  8
1
  6
CONTINUOUS
 62
     7
 10
-313.7743563589966
 20
437.2628463287678
 30
0.0
 11
-313.4644351591896
 21
437.0434765846775
 31
0.0
  0
LINE
  5
2BD
  8
1
  6
CONTINUOUS
 62
     7
 10
-313.4644351591896
 20
437.0434765846775
 30
0.0
 11
-313.1186343000145
 21
436.8866411856783
 31
0.0
  0
LINE
  5
2BE
  8
1
  6
CONTINUOUS
 62
     7
 10
-313.1186343000145
 20
436.8866411856783
 30
0.0
 11
-312.7494193135888
 21
436.7979937808331
 31
0.0
  0
LINE
  5
2BF
  8
1
  6
CONTINUOUS
 62
     7
 10
-312.7494193135888
 20
436.7979937808331
 30
0.0
 11
-312.3700997714462
 21
436.7807299581308
 31
0.0
  0
LINE
  5
2C0
  8
1
  6
CONTINUOUS
 62
     7
 10
-312.3700997714462
 20
436.7807299581308
 30
0.0
 11
-311.9943494971471
 21
436.835472048982
 31
0.0
  0
LINE
  5
2C1
  8
1
  6
CONTINUOUS
 62
     7
 10
-311.9943494971471
 20
436.835472048982
 30
0.0
 11
-311.6357136482241
 21
436.9602466942303
 31
0.0
  0
LINE
  5
2C2
  8
1
  6
CONTINUOUS
 62
     7
 10
-311.6357136482241
 20
436.9602466942303
 30
0.0
 11
-311.3071204363189
 21
437.1505559803903
 31
0.0
  0
LINE
  5
2C3
  8
1
  6
CONTINUOUS
 62
     7
 10
-311.3071204363189
 20
437.1505559803903
 30
0.0
 11
-311.0204150871674
 21
437.3995395817686
 31
0.0
  0
LINE
  5
2C4
  8
1
  6
CONTINUOUS
 62
     7
 10
-311.0204150871674
 20
437.3995395817686
 30
0.0
 11
-310.7859328403831
 21
437.6982220635237
 31
0.0
  0
LINE
  5
2C5
  8
1
  6
CONTINUOUS
 62
     7
 10
-310.7859328403831
 20
437.6982220635237
 30
0.0
 11
-310.6121263816686
 21
438.0358364308073
 31
0.0
  0
LINE
  5
2C6
  8
1
  6
CONTINUOUS
 62
     7
 10
-310.6121263816686
 20
438.0358364308073
 30
0.0
 11
-310.5052611378899
 21
438.4002122605939
 31
0.0
  0
LINE
  5
2C7
  8
1
  6
CONTINUOUS
 62
     7
 10
-310.5052611378899
 20
438.4002122605939
 30
0.0
 11
-310.4691894191069
 21
438.7782144247063
 31
0.0
  0
LINE
  5
2C8
  8
1
  6
CONTINUOUS
 62
     7
 10
-404.5308105808932
 20
438.7782144247063
 30
0.0
 11
-404.4947388621102
 21
438.4002122605939
 31
0.0
  0
LINE
  5
2C9
  8
1
  6
CONTINUOUS
 62
     7
 10
-404.4947388621102
 20
438.4002122605939
 30
0.0
 11
-404.3878736183315
 21
438.0358364308073
 31
0.0
  0
LINE
  5
2CA
  8
1
  6
CONTINUOUS
 62
     7
 10
-404.3878736183315
 20
438.0358364308073
 30
0.0
 11
-404.2140671596169
 21
437.6982220635236
 31
0.0
  0
LINE
  5
2CB
  8
1
  6
CONTINUOUS
 62
     7
 10
-404.2140671596169
 20
437.6982220635236
 30
0.0
 11
-403.9795849128326
 21
437.3995395817685
 31
0.0
  0
LINE
  5
2CC
  8
1
  6
CONTINUOUS
 62
     7
 10
-403.9795849128326
 20
437.3995395817685
 30
0.0
 11
-403.6928795636812
 21
437.1505559803902
 31
0.0
  0
LINE
  5
2CD
  8
1
  6
CONTINUOUS
 62
     7
 10
-403.6928795636812
 20
437.1505559803902
 30
0.0
 11
-403.3642863517759
 21
436.9602466942302
 31
0.0
  0
LINE
  5
2CE
  8
1
  6
CONTINUOUS
 62
     7
 10
-403.3642863517759
 20
436.9602466942302
 30
0.0
 11
-403.005650502853
 21
436.835472048982
 31
0.0
  0
LINE
  5
2CF
  8
1
  6
CONTINUOUS
 62
     7
 10
-403.005650502853
 20
436.835472048982
 30
0.0
 11
-402.6299002285538
 21
436.7807299581307
 31
0.0
  0
LINE
  5
2D0
  8
1
  6
CONTINUOUS
 62
     7
 10
-402.6299002285538
 20
436.7807299581307
 30
0.0
 11
-402.2505806864112
 21
436.797993780833
 31
0.0
  0
LINE
  5
2D1
  8
1
  6
CONTINUOUS
 62
     7
 10
-402.2505806864112
 20
436.797993780833
 30
0.0
 11
-401.8813656999856
 21
436.8866411856783
 31
0.0
  0
LINE
  5
2D2
  8
1
  6
CONTINUOUS
 62
     7
 10
-401.8813656999856
 20
436.8866411856783
 30
0.0
 11
-401.5355648408105
 21
437.0434765846775
 31
0.0
  0
LINE
  5
2D3
  8
1
  6
CONTINUOUS
 62
     7
 10
-401.5355648408105
 20
437.0434765846775
 30
0.0
 11
-401.2256436410035
 21
437.2628463287677
 31
0.0
  0
LINE
  5
2D4
  8
1
  6
CONTINUOUS
 62
     7
 10
-310.4691894191069
 20
441.4980151148262
 30
0.0
 11
-310.4691894191069
 21
438.7782144247063
 31
0.0
  0
LINE
  5
2D5
  8
1
  6
CONTINUOUS
 62
     7
 10
-404.5308105808932
 20
438.7782144247063
 30
0.0
 11
-404.5308105808932
 21
441.4980151148262
 31
0.0
  0
LINE
  5
2D6
  8
1
  6
CONTINUOUS
 62
     7
 10
-344.0040365792056
 20
486.6826315011963
 30
0.0
 11
-344.1199777093708
 21
486.7010223730743
 31
0.0
  0
ARC
  5
2D7
  8
1
  6
CONTINUOUS
 62
     7
 10
-357.5251019138361
 20
438.6601498607868
 30
0.0
 40
49.87607429097647
 50
74.40899364250988
 51
105.6694227135873
  0
LINE
  5
2D8
  8
1
  6
CONTINUOUS
 62
     7
 10
-313.5306010048951
 20
437.051867114543
 30
0.0
 11
-312.9101356440714
 21
436.5054545285763
 31
0.0
  0
LINE
  5
2D9
  8
1
  6
CONTINUOUS
 62
     7
 10
-353.0000000000001
 20
455.8453460206307
 30
0.0
 11
-353.087488663526
 21
456.8453460206307
 31
0.0
  0
LINE
  5
2DA
  8
1
  6
CONTINUOUS
 62
     7
 10
-361.9125113364741
 20
456.8453460206307
 30
0.0
 11
-362.0000000000001
 21
455.8453460206307
 31
0.0
  0
LINE
  5
2DB
  8
1
  6
CONTINUOUS
 62
     7
 10
-355.0416040932612
 20
455.0803890811785
 30
0.0
 11
-355.6001627877202
 21
455.4092475405317
 31
0.0
  0
LINE
  5
2DC
  8
1
  6
CONTINUOUS
 62
     7
 10
-355.0410560630401
 20
453.4900747098283
 30
0.0
 11
-355.6001685500128
 21
453.8191239927787
 31
0.0
  0
LINE
  5
2DD
  8
1
  6
CONTINUOUS
 62
     7
 10
-359.3512962878282
 20
454.6429828497618
 30
0.0
 11
-359.9663724018229
 21
454.2807408200431
 31
0.0
  0
LINE
  5
2DE
  8
1
  6
CONTINUOUS
 62
     7
 10
-355.6553334495617
 20
454.6265125814406
 30
0.0
 11
-355.0390872216769
 21
454.9895547978502
 31
0.0
  0
LINE
  5
2DF
  8
1
  6
CONTINUOUS
 62
     7
 10
-359.9601821336338
 20
454.1942158431989
 30
0.0
 11
-359.3999545348416
 21
453.8643105309149
 31
0.0
  0
LINE
  5
2E0
  8
1
  6
CONTINUOUS
 62
     7
 10
-359.9659730092494
 20
455.7875041764305
 30
0.0
 11
-359.3998762202061
 21
455.4542225894515
 31
0.0
  0
LINE
  5
2E1
  8
1
  6
CONTINUOUS
 62
     7
 10
-355.6
 20
455.3803893942038
 30
0.0
 11
-355.6
 21
455.8453460206307
 31
0.0
  0
LINE
  5
2E2
  8
1
  6
CONTINUOUS
 62
     7
 10
-355.6
 20
453.7904448869382
 30
0.0
 11
-355.6
 21
454.659202178327
 31
0.0
  0
LINE
  5
2E3
  8
1
  6
CONTINUOUS
 62
     7
 10
-359.4
 20
453.8929842312074
 30
0.0
 11
-359.4
 21
453.4710693978735
 31
0.0
  0
LINE
  5
2E4
  8
1
  6
CONTINUOUS
 62
     7
 10
-359.4
 20
455.4830661618353
 30
0.0
 11
-359.4
 21
454.6142298192082
 31
0.0
  0
ARC
  5
2E5
  8
1
  6
CONTINUOUS
 62
     7
 10
-357.5000000000001
 20
441.4980151148262
 30
0.0
 40
47.03067731161772
 50
160.4316456582808
 51
180.0
  0
ARC
  5
2E6
  8
1
  6
CONTINUOUS
 62
     7
 10
-357.5000000000001
 20
441.4980151148262
 30
0.0
 40
47.03067731161772
 50
64.37330105597596
 51
73.40014935804793
  0
LINE
  5
2E7
  8
1
  6
CONTINUOUS
 62
     7
 10
-74.53965991353986
 20
453.8868244988842
 30
0.0
 11
-75.10004571291861
 21
454.2166741831068
 31
0.0
  0
ARC
  5
2E8
  8
1
  6
CONTINUOUS
 62
     7
 10
-105.0000000000001
 20
319.9980151148263
 30
0.0
 40
0.5000000000000004
 50
269.9999999999984
 51
359.9999999999985
  0
ARC
  5
2E9
  8
1
  6
CONTINUOUS
 62
     7
 10
-140.5
 20
432.8867325872484
 30
0.0
 40
0.5000000000000004
 50
90.0
 51
180.0
  0
LINE
  5
2EA
  8
1
  6
CONTINUOUS
 62
     7
 10
-176.0000380769358
 20
443.3203982607868
 30
0.0
 11
-177.0000000000001
 21
442.3116717252883
 31
0.0
  0
ARC
  5
2EB
  8
1
  6
CONTINUOUS
 62
     7
 10
-140.5
 20
432.3867325872484
 30
0.0
 40
0.5000000000000004
 50
180.0
 51
270.0
  0
LINE
  5
2EC
  8
1
  6
CONTINUOUS
 62
     7
 10
-75.10000000000005
 20
452.5980248513941
 30
0.0
 11
-75.10000000000005
 21
453.4668436357155
 31
0.0
  0
ARC
  5
2ED
  8
1
  6
CONTINUOUS
 62
     7
 10
-137.0
 20
504.9980151148262
 30
0.0
 40
3.499999999999999
 50
91.1833319708498
 51
180.0
  0
ARC
  5
2EE
  8
1
  6
CONTINUOUS
 62
     7
 10
-140.5
 20
451.9980151148262
 30
0.0
 40
0.5000000000000004
 50
90.0
 51
180.0
  0
ARC
  5
2EF
  8
1
  6
CONTINUOUS
 62
     7
 10
-140.5
 20
451.4980151148262
 30
0.0
 40
0.5000000000000004
 50
180.0
 51
270.0
  0
LINE
  5
2F0
  8
1
  6
CONTINUOUS
 62
     7
 10
-78.90000000000005
 20
452.7003336272373
 30
0.0
 11
-78.90000000000005
 21
452.4980151148262
 31
0.0
  0
LINE
  5
2F1
  8
1
  6
CONTINUOUS
 62
     7
 10
-78.90000000000005
 20
454.2905242442001
 30
0.0
 11
-78.90000000000005
 21
453.4216300165558
 31
0.0
  0
LINE
  5
2F2
  8
1
  6
CONTINUOUS
 62
     7
 10
-140.0000000000001
 20
319.4980151148262
 30
0.0
 11
-105.0000000000001
 21
319.4980151148262
 31
0.0
  0
LINE
  5
2F3
  8
1
  6
CONTINUOUS
 62
     7
 10
-140.5
 20
443.630202399651
 30
0.0
 11
-176.0000380769358
 21
443.3203982607867
 31
0.0
  0
LINE
  5
2F4
  8
1
  6
CONTINUOUS
 62
     7
 10
-75.10000000000005
 20
454.1879149824836
 30
0.0
 11
-75.10000000000005
 21
455.0566877269036
 31
0.0
  0
LINE
  5
2F5
  8
1
  6
CONTINUOUS
 62
     7
 10
-78.84839094445478
 20
453.4521000415616
 30
0.0
 11
-79.46484323538192
 21
453.0891002034393
 31
0.0
  0
ARC
  5
2F6
  8
1
  6
CONTINUOUS
 62
     7
 10
-108.0000000000001
 20
504.9980151148262
 30
0.0
 40
3.499999999999975
 50
359.9999999999998
 51
90.0
  0
ARC
  5
2F7
  8
1
  6
CONTINUOUS
 62
     7
 10
-140.0000000000001
 20
319.9980151148262
 30
0.0
 40
0.5000000000000282
 50
180.0
 51
270.0000000000015
  0
LINE
  5
2F8
  8
1
  6
CONTINUOUS
 62
     7
 10
-74.88258885002413
 20
452.4980151148262
 30
0.0
 11
-75.10015647242778
 21
452.626500616646
 31
0.0
  0
LINE
  5
2F9
  8
1
  6
CONTINUOUS
 62
     7
 10
-176.0000380769358
 20
329.6756319688658
 30
0.0
 11
-140.5000000000001
 21
329.3658278300014
 31
0.0
  0
LINE
  5
2FA
  8
1
  6
CONTINUOUS
 62
     7
 10
-177.0000000000001
 20
330.6843585043642
 30
0.0
 11
-176.0000380769358
 21
329.6756319688657
 31
0.0
  0
LINE
  5
2FB
  8
1
  6
CONTINUOUS
 62
     7
 10
-78.84628816269823
 20
455.0435083397436
 30
0.0
 11
-79.46266457480256
 21
454.6804640371615
 31
0.0
  0
ARC
  5
2FC
  8
1
  6
CONTINUOUS
 62
     7
 10
-137.0
 20
504.9980151148262
 30
0.0
 40
3.500000000000003
 50
90.00000000000045
 51
91.1833319708498
  0
LINE
  5
2FD
  8
1
  6
CONTINUOUS
 62
     7
 10
-78.90000000000005
 20
455.8453460206307
 30
0.0
 11
-78.90000000000005
 21
455.0117871832317
 31
0.0
  0
LINE
  5
2FE
  8
1
  6
CONTINUOUS
 62
     7
 10
-75.10000000000005
 20
455.7779035067483
 30
0.0
 11
-75.10000000000005
 21
455.8453460206307
 31
0.0
  0
ENDSEC
  0
EOF
