  0
SECTION
  2
HEADER
  9
$ACADVER
  1
AC1006
  9
$DWGCODEPAGE
  3
ansi_932
  9
$INSBASE
 10
0.0
 20
0.0
 30
0.0
  9
$EXTMIN
 10
797.5
 20
168.6704545454546
  9
$EXTMAX
 10
1945.595957467312
 20
203.0959574673126
  9
$LIMMIN
 10
0.0
 20
0.0
  9
$LIMMAX
 10
12.0
 20
9.0
  9
$ORTHOMODE
 70
     0
  9
$REGENMODE
 70
     1
  9
$FILLMODE
 70
     1
  9
$QTEXTMODE
 70
     0
  9
$MIRRTEXT
 70
     1
  9
$DRAGMODE
 70
     2
  9
$LTSCALE
 40
1.0
  9
$OSMODE
 70
    37
  9
$ATTMODE
 70
     1
  9
$TEXTSIZE
 40
0.2
  9
$TRACEWID
 40
0.05
  9
$TEXTSTYLE
  7
STANDARD
  9
$CLAYER
  8
0
  9
$CELTYPE
  6
BYLAYER
  9
$CECOLOR
 62
   256
  9
$DIMSCALE
 40
1.0
  9
$DIMASZ
 40
3.0
  9
$DIMEXO
 40
0.0625
  9
$DIMDLI
 40
0.38
  9
$DIMRND
 40
0.0
  9
$DIMDLE
 40
0.0
  9
$DIMEXE
 40
1.5
  9
$DIMTP
 40
0.0
  9
$DIMTM
 40
0.0
  9
$DIMTXT
 40
3.0
  9
$DIMCEN
 40
0.09
  9
$DIMTSZ
 40
0.0
  9
$DIMTOL
 70
     0
  9
$DIMLIM
 70
     0
  9
$DIMTIH
 70
     1
  9
$DIMTOH
 70
     1
  9
$DIMSE1
 70
     0
  9
$DIMSE2
 70
     0
  9
$DIMTAD
 70
     1
  9
$DIMZIN
 70
     0
  9
$DIMBLK
  1

  9
$DIMASO
 70
     1
  9
$DIMSHO
 70
     1
  9
$DIMPOST
  1

  9
$DIMAPOST
  1

  9
$DIMALT
 70
     0
  9
$DIMALTD
 70
     2
  9
$DIMALTF
 40
25.4
  9
$DIMLFAC
 40
1.0
  9
$DIMTOFL
 70
     0
  9
$DIMTVP
 40
0.0
  9
$DIMTIX
 70
     0
  9
$DIMSOXD
 70
     0
  9
$DIMSAH
 70
     0
  9
$DIMBLK1
  1

  9
$DIMBLK2
  1

  9
$LUNITS
 70
     2
  9
$LUPREC
 70
     4
  9
$SKETCHINC
 40
0.1
  9
$FILLETRAD
 40
0.5
  9
$AUNITS
 70
     0
  9
$AUPREC
 70
     0
  9
$MENU
  1
.
  9
$ELEVATION
 40
0.0
  9
$THICKNESS
 40
0.0
  9
$LIMCHECK
 70
     0
  9
$CHAMFERA
 40
0.0
  9
$CHAMFERB
 40
0.0
  9
$SKPOLY
 70
     0
  9
$TDCREATE
 40
2460557.365743831
  9
$TDUPDATE
 40
2460557.365743982
  9
$TDINDWG
 40
0.0000000116
  9
$TDUSRTIMER
 40
0.0000000116
  9
$USRTIMER
 70
     1
  9
$ANGBASE
 50
0.0
  9
$ANGDIR
 70
     0
  9
$PDMODE
 70
     0
  9
$PDSIZE
 40
0.0
  9
$PLINEWID
 40
0.0
  9
$COORDS
 70
     1
  9
$SPLFRAME
 70
     0
  9
$SPLINETYPE
 70
     6
  9
$SPLINESEGS
 70
     8
  9
$ATTDIA
 70
     0
  9
$ATTREQ
 70
     1
  9
$HANDLING
 70
     1
  9
$HANDSEED
  5
15E
  9
$SURFTAB1
 70
     6
  9
$SURFTAB2
 70
     6
  9
$SURFTYPE
 70
     6
  9
$SURFU
 70
     6
  9
$SURFV
 70
     6
  9
$UCSNAME
  2

  9
$UCSORG
 10
0.0
 20
0.0
 30
0.0
  9
$UCSXDIR
 10
1.0
 20
0.0
 30
0.0
  9
$UCSYDIR
 10
0.0
 20
1.0
 30
0.0
  9
$USERI1
 70
     0
  9
$USERI2
 70
     0
  9
$USERI3
 70
     0
  9
$USERI4
 70
     0
  9
$USERI5
 70
     0
  9
$USERR1
 40
0.0
  9
$USERR2
 40
0.0
  9
$USERR3
 40
0.0
  9
$USERR4
 40
0.0
  9
$USERR5
 40
0.0
  9
$WORLDVIEW
 70
     1
  0
ENDSEC
  0
SECTION
  2
TABLES
  0
TABLE
  2
VPORT
 70
     1
  0
VPORT
  2
*ACTIVE
 70
     0
 10
0.0
 20
0.0
 11
1.0
 21
1.0
 12
1371.547978733656
 22
185.8832060063836
 13
0.0
 23
0.0
 14
0.5
 24
0.5
 15
0.5
 25
0.5
 16
0.0
 26
0.0
 36
1.0
 17
0.0
 27
0.0
 37
0.0
 40
34.42550292185805
 41
1.6
 42
50.0
 43
0.0
 44
0.0
 50
0.0
 51
0.0
 71
     0
 72
   100
 73
     1
 74
     3
 75
     0
 76
     0
 77
     0
 78
     0
  0
ENDTAB
  0
TABLE
  2
LTYPE
 70
     2
  0
LTYPE
  2
CONTINUOUS
 70
     0
  3
Solid line
 72
    65
 73
     0
 40
0.0
  0
LTYPE
  2
CENTER
 70
     0
  3

 72
    65
 73
     0
 40
0.0
  0
ENDTAB
  0
TABLE
  2
LAYER
 70
     1
  0
LAYER
  2
0
 70
     0
 62
     7
  6
CONTINUOUS
  0
ENDTAB
  0
TABLE
  2
STYLE
 70
     2
  0
STYLE
  2
STANDARD
 70
     0
 40
0.0
 41
1.0
 50
0.0
 71
     0
 42
0.2
  3
txt
  4

  0
STYLE
  2
ＭＳ_ゴシック
 70
     0
 40
0.0
 41
1.0
 50
0.0
 71
     0
 42
0.2
  3
ＭＳ ゴシック.shx
  4

  0
ENDTAB
  0
TABLE
  2
VIEW
 70
     0
  0
ENDTAB
  0
TABLE
  2
UCS
 70
     0
  0
ENDTAB
  0
ENDSEC
  0
SECTION
  2
BLOCKS
  0
ENDSEC
  0
SECTION
  2
ENTITIES
  0
LINE
  5
6F
  8
0
  6
CONTINUOUS
 62
     7
 10
1922.482706123139
 20
193.1470340615563
 30
0.0
 11
1922.368194989069
 21
193.1459189334167
 31
0.0
  0
LINE
  5
70
  8
0
  6
CONTINUOUS
 62
     7
 10
1924.709651779952
 20
197.2014410589487
 30
0.0
 11
1924.765941617687
 21
197.1017139437581
 31
0.0
  0
LINE
  5
71
  8
0
  6
CONTINUOUS
 62
     7
 10
862.6066630261555
 20
181.5045950101222
 30
0.0
 11
865.2543632677491
 21
181.5277011400802
 31
0.0
  0
ARC
  5
72
  8
0
  6
CONTINUOUS
 62
     7
 10
865.25
 20
197.9723178983878
 30
0.0
 40
0.500000000000056
 50
0.0
 51
89.50000000000111
  0
LINE
  5
73
  8
0
  6
CONTINUOUS
 62
     7
 10
865.2543632677491
 20
198.4722988599199
 30
0.0
 11
862.6066630261555
 21
198.4954049898778
 31
0.0
  0
ARC
  5
74
  8
0
  6
CONTINUOUS
 62
     7
 10
862.6241160971523
 20
200.4953288360062
 30
0.0
 40
2.000000000000006
 50
240.0000000000002
 51
269.5000000000001
  0
ARC
  5
75
  8
0
  6
CONTINUOUS
 62
     7
 10
862.6241160971523
 20
179.5046711639939
 30
0.0
 40
1.999999999999984
 50
90.4999999999999
 51
119.9999999999998
  0
ARC
  5
76
  8
0
  6
CONTINUOUS
 62
     7
 10
865.25
 20
182.0276821016122
 30
0.0
 40
0.5000000000000018
 50
270.4999999999989
 51
0.0
  0
TEXT
  5
77
  8
0
  6
CONTINUOUS
 62
     7
 10
1924.78908653245
 20
168.3284200325122
 30
0.0
 40
3.0
  1
AGST-LG2W
  0
LINE
  5
78
  8
0
  6
CONTINUOUS
 62
     7
 10
1940.234058382313
 20
197.1017139437581
 30
0.0
 11
1940.290348220054
 21
197.2014410589475
 31
0.0
  0
LINE
  5
79
  8
0
  6
CONTINUOUS
 62
     7
 10
1942.631805010932
 20
193.1459189334198
 30
0.0
 11
1942.517293876861
 21
193.1470340615563
 31
0.0
  0
LINE
  5
7A
  8
0
  6
CONTINUOUS
 62
     7
 10
1934.841456790878
 20
200.3473599923672
 30
0.0
 11
1934.783235494548
 21
200.2487480053144
 31
0.0
  0
LINE
  5
7B
  8
0
  6
CONTINUOUS
 62
     7
 10
1942.517293876861
 20
186.8529659384437
 30
0.0
 11
1942.631805010931
 21
186.8540810665833
 31
0.0
  0
LINE
  5
7C
  8
0
  6
CONTINUOUS
 62
     7
 10
1922.36819498907
 20
186.8540810665858
 30
0.0
 11
1922.482706123139
 21
186.8529659384437
 31
0.0
  0
ARC
  5
7D
  8
0
  6
CONTINUOUS
 62
     7
 10
857.2060109217699
 20
199.0046711639939
 30
0.0
 40
1.999999999999952
 50
60.00000000000043
 51
89.49999999999874
  0
LINE
  5
7E
  8
0
  6
CONTINUOUS
 62
     7
 10
815.2499999999999
 20
191.5
 30
0.0
 11
811.2499999999999
 21
191.5
 31
0.0
  0
LINE
  5
7F
  8
0
  6
CONTINUOUS
 62
     7
 10
815.2500000000001
 20
189.4
 30
0.0
 11
843.75
 21
189.4
 31
0.0
  0
LINE
  5
80
  8
0
  6
CONTINUOUS
 62
     7
 10
811.2499999999999
 20
188.5
 30
0.0
 11
815.2499999999999
 21
188.5
 31
0.0
  0
ARC
  5
81
  8
0
  6
CONTINUOUS
 62
     7
 10
846.75
 20
179.9040425326874
 30
0.0
 40
1.000000000000001
 50
180.0
 51
270.4999999999846
  0
ARC
  5
82
  8
0
  6
CONTINUOUS
 62
     7
 10
846.75
 20
200.0959574673126
 30
0.0
 40
1.000000000000001
 50
89.50000000001543
 51
180.0
  0
LINE
  5
83
  8
0
  6
CONTINUOUS
 62
     7
 10
846.7587265354981
 20
178.9040806096232
 30
0.0
 11
857.2234639927667
 21
178.9954049898778
 31
0.0
  0
ARC
  5
84
  8
0
  6
CONTINUOUS
 62
     7
 10
857.2060109217699
 20
180.9953288360062
 30
0.0
 40
2.000000000000006
 50
270.5000000000013
 51
299.9999999999995
  0
LINE
  5
85
  8
0
  6
CONTINUOUS
 62
     7
 10
861.6241160971523
 20
198.7632780284373
 30
0.0
 11
858.2060109217698
 21
200.7367219715628
 31
0.0
  0
LINE
  5
86
  8
0
  6
CONTINUOUS
 62
     7
 10
857.2234639927667
 20
201.0045950101222
 30
0.0
 11
846.7587265354981
 21
201.0959193903768
 31
0.0
  0
LINE
  5
87
  8
0
  6
CONTINUOUS
 62
     7
 10
858.2060109217698
 20
179.2632780284373
 30
0.0
 11
861.6241160971523
 21
181.2367219715628
 31
0.0
  0
LINE
  5
88
  8
0
  6
CONTINUOUS
 62
     7
 10
843.75
 20
190.6
 30
0.0
 11
815.2500000000001
 21
190.6
 31
0.0
  0
LINE
  5
89
  8
0
  6
CONTINUOUS
 62
     7
 10
844.2499999999999
 20
185.1
 30
0.0
 11
845.75
 21
185.1
 31
0.0
  0
LINE
  5
8A
  8
0
  6
CONTINUOUS
 62
     7
 10
843.75
 20
185.6
 30
0.0
 11
844.2499999999999
 21
185.1
 31
0.0
  0
LINE
  5
8B
  8
0
  6
CONTINUOUS
 62
     7
 10
811.2499999999999
 20
191.5
 30
0.0
 11
811.2499999999999
 21
188.5
 31
0.0
  0
LINE
  5
8C
  8
0
  6
CONTINUOUS
 62
     7
 10
860.75
 20
188.75
 30
0.0
 11
860.75
 21
191.25
 31
0.0
  0
LINE
  5
8D
  8
0
  6
CONTINUOUS
 62
     7
 10
859.2303847577292
 20
188.75
 30
0.0
 11
859.2303847577292
 21
191.25
 31
0.0
  0
LINE
  5
8E
  8
0
  6
CONTINUOUS
 62
     7
 10
859.75
 20
188.75
 30
0.0
 11
859.75
 21
191.25
 31
0.0
  0
LINE
  5
8F
  8
0
  6
CONTINUOUS
 62
     7
 10
843.75
 20
185.6
 30
0.0
 11
843.75
 21
194.2667520462045
 31
0.0
  0
LINE
  5
90
  8
0
  6
CONTINUOUS
 62
     7
 10
844.2499999999999
 20
194.7786909885056
 30
0.0
 11
845.75
 21
194.7786909885056
 31
0.0
  0
LINE
  5
91
  8
0
  6
CONTINUOUS
 62
     7
 10
858.3499999999999
 20
191.5
 30
0.0
 11
860.85
 21
191.5
 31
0.0
  0
LINE
  5
92
  8
0
  6
CONTINUOUS
 62
     7
 10
858.3499999999999
 20
188.5
 30
0.0
 11
858.3499999999999
 21
191.5
 31
0.0
  0
LINE
  5
93
  8
0
  6
CONTINUOUS
 62
     7
 10
844.2499999999999
 20
194.7786909885056
 30
0.0
 11
844.2499999999999
 21
185.1
 31
0.0
  0
LINE
  5
94
  8
0
  6
CONTINUOUS
 62
     7
 10
865.75
 20
197.9723178983878
 30
0.0
 11
865.75
 21
182.0276821016122
 31
0.0
  0
LINE
  5
95
  8
0
  6
CONTINUOUS
 62
     7
 10
860.85
 20
191.5
 30
0.0
 11
860.85
 21
188.5
 31
0.0
  0
LINE
  5
96
  8
0
  6
CONTINUOUS
 62
     7
 10
843.75
 20
194.2667520462045
 30
0.0
 11
844.2499999999999
 21
194.7786909885056
 31
0.0
  0
LINE
  5
97
  8
0
  6
CONTINUOUS
 62
     7
 10
815.2499999999999
 20
191.5
 30
0.0
 11
815.2499999999999
 21
188.5
 31
0.0
  0
LINE
  5
98
  8
0
  6
CONTINUOUS
 62
     7
 10
860.85
 20
188.5
 30
0.0
 11
858.3499999999999
 21
188.5
 31
0.0
  0
LINE
  5
99
  8
0
  6
CONTINUOUS
 62
     7
 10
1850.85
 20
188.6
 30
0.0
 11
1850.85
 21
191.4
 31
0.0
  0
LINE
  5
9A
  8
0
  6
CONTINUOUS
 62
     7
 10
1830.763089803248
 20
197.2014410589487
 30
0.0
 11
1843.25
 21
197.1017139437581
 31
0.0
  0
LINE
  5
9B
  8
0
  6
CONTINUOUS
 62
     7
 10
1830.763089803248
 20
179.6526400076328
 30
0.0
 11
1843.25
 21
179.7512519946856
 31
0.0
  0
ARC
  5
9C
  8
0
  6
CONTINUOUS
 62
     7
 10
1840.131526952209
 20
197.3875245751601
 30
0.0
 40
4.232194899465887
 50
14.16272898621219
 51
42.53662505984204
  0
LINE
  5
9D
  8
0
  6
CONTINUOUS
 62
     7
 10
1844.235083092932
 20
198.4230440906658
 30
0.0
 11
1844.25
 21
198.2272413359522
 31
0.0
  0
LINE
  5
9E
  8
0
  6
CONTINUOUS
 62
     7
 10
1843.25
 20
200.2487480053144
 30
0.0
 11
1830.763089803248
 21
200.3473599923648
 31
0.0
  0
ARC
  5
9F
  8
0
  6
CONTINUOUS
 62
     7
 10
1840.742077316796
 20
182.249966130482
 30
0.0
 40
3.540232833777905
 50
315.1053821808994
 51
352.2532049974968
  0
LINE
  5
A0
  8
0
  6
CONTINUOUS
 62
     7
 10
1843.25
 20
179.5
 30
0.0
 11
1843.25
 21
179.7512519946856
 31
0.0
  0
LINE
  5
A1
  8
0
  6
CONTINUOUS
 62
     7
 10
1843.25
 20
200.2487480053144
 30
0.0
 11
1843.25
 21
200.5
 31
0.0
  0
LINE
  5
A2
  8
0
  6
CONTINUOUS
 62
     7
 10
1851.29401848243
 20
188.6000000000018
 30
0.0
 11
1851.294018482431
 21
191.4
 31
0.0
  0
LINE
  5
A3
  8
0
  6
CONTINUOUS
 62
     7
 10
1843.25
 20
182.8982860562419
 30
0.0
 11
1830.763089803248
 21
182.7985589410519
 31
0.0
  0
LINE
  5
A4
  8
0
  6
CONTINUOUS
 62
     7
 10
1843.25
 20
193.1470340615563
 30
0.0
 11
1843.25
 21
197.1017139437581
 31
0.0
  0
LINE
  5
A5
  8
0
  6
CONTINUOUS
 62
     7
 10
1843.25
 20
182.8982860562419
 30
0.0
 11
1843.25
 21
186.8529659384437
 31
0.0
  0
LINE
  5
A6
  8
0
  6
CONTINUOUS
 62
     7
 10
1870.701020852866
 20
179.7003610169871
 30
0.0
 11
1870.629582702802
 21
179.5000837900131
 31
0.0
  0
LINE
  5
A7
  8
0
  6
CONTINUOUS
 62
     7
 10
1869.479469207716
 20
200.5
 30
0.0
 11
1868.620530792283
 21
200.5
 31
0.0
  0
LINE
  5
A8
  8
0
  6
CONTINUOUS
 62
     7
 10
1874.150980922099
 20
200.300260131344
 30
0.0
 11
1874.079469253315
 21
200.4995570877209
 31
0.0
  0
LINE
  5
A9
  8
0
  6
CONTINUOUS
 62
     7
 10
1873.001044293369
 20
179.7002181348122
 30
0.0
 11
1872.929550696536
 21
179.5003887702081
 31
0.0
  0
LINE
  5
AA
  8
0
  6
CONTINUOUS
 62
     7
 10
1876.450853796115
 20
200.3007956374502
 30
0.0
 11
1876.379339059841
 21
200.4997521569323
 31
0.0
  0
LINE
  5
AB
  8
0
  6
CONTINUOUS
 62
     7
 10
1869.582310180275
 20
200.0881456032274
 30
0.0
 11
1869.479469207716
 21
200.5
 31
0.0
  0
LINE
  5
AC
  8
0
  6
CONTINUOUS
 62
     7
 10
1871.851067778241
 20
200.2994893505113
 30
0.0
 11
1871.779599452189
 21
200.4997521579189
 31
0.0
  0
LINE
  5
AD
  8
0
  6
CONTINUOUS
 62
     7
 10
1877.820530792284
 20
200.5
 30
0.0
 11
1878.679469207717
 21
200.5
 31
0.0
  0
POINT
  5
AE
  8
0
 62
     7
 10
797.5
 20
190.0
 30
0.0
  0
LINE
  5
AF
  8
0
  6
CONTINUOUS
 62
     7
 10
1924.765941617687
 20
182.8982860562419
 30
0.0
 11
1924.70965177995
 21
182.7985589410519
 31
0.0
  0
LINE
  5
B0
  8
0
  6
CONTINUOUS
 62
     7
 10
1922.108753948946
 20
188.5
 30
0.0
 11
1921.952536966327
 21
188.5
 31
0.0
  0
LINE
  5
B1
  8
0
  6
CONTINUOUS
 62
     7
 10
1921.952536966327
 20
191.5
 30
0.0
 11
1922.108915549347
 21
191.5
 31
0.0
  0
ARC
  5
B2
  8
0
  6
CONTINUOUS
 62
     7
 10
1932.5
 20
190.0
 30
0.0
 40
10.60897161440202
 50
317.2495350532758
 51
342.7504649467372
  0
LINE
  5
B3
  8
0
  6
CONTINUOUS
 62
     7
 10
1934.783235494548
 20
179.7512519946856
 30
0.0
 11
1934.84145679088
 21
179.6526400076352
 31
0.0
  0
LINE
  5
B4
  8
0
  6
CONTINUOUS
 62
     7
 10
1930.158543209122
 20
179.6526400076328
 30
0.0
 11
1930.216764505452
 21
179.7512519946856
 31
0.0
  0
ARC
  5
B5
  8
0
  6
CONTINUOUS
 62
     7
 10
1932.5
 20
190.0
 30
0.0
 40
10.60897161440234
 50
197.2495350532504
 51
222.7504649467375
  0
ARC
  5
B6
  8
0
  6
CONTINUOUS
 62
     7
 10
1932.5
 20
190.0
 30
0.0
 40
10.60897161440216
 50
257.2495350532764
 51
282.7504649467377
  0
LINE
  5
B7
  8
0
  6
CONTINUOUS
 62
     7
 10
1930.216764505452
 20
200.2487480053144
 30
0.0
 11
1930.15854320912
 21
200.3473599923648
 31
0.0
  0
ARC
  5
B8
  8
0
  6
CONTINUOUS
 62
     7
 10
1932.5
 20
190.0
 30
0.0
 40
10.60897161440199
 50
17.24953505327674
 51
42.75046494672378
  0
CIRCLE
  5
B9
  8
0
  6
CONTINUOUS
 62
     7
 10
1932.5
 20
190.0
 30
0.0
 40
8.49999999999973
  0
CIRCLE
  5
BA
  8
0
  6
CONTINUOUS
 62
     7
 10
1932.5
 20
190.0
 30
0.0
 40
9.500000000000064
  0
CIRCLE
  5
BB
  8
0
  6
CONTINUOUS
 62
     7
 10
1932.5
 20
190.0
 30
0.0
 40
4.000000000000004
  0
LINE
  5
BC
  8
0
  6
CONTINUOUS
 62
     7
 10
1932.5
 20
200.5
 30
0.0
 11
1932.5
 21
199.5
 31
0.0
  0
CIRCLE
  5
BD
  8
0
  6
CONTINUOUS
 62
     7
 10
1932.5
 20
190.0
 30
0.0
 40
4.121817169476572
  0
ARC
  5
BE
  8
0
  6
CONTINUOUS
 62
     7
 10
1932.964792349471
 20
190.5317227397146
 30
0.0
 40
9.979107348157463
 50
92.66960531599236
 51
183.069338449781
  0
LINE
  5
BF
  8
0
  6
CONTINUOUS
 62
     7
 10
1940.290348220054
 20
182.7985589410525
 30
0.0
 11
1940.234058382313
 21
182.8982860562419
 31
0.0
  0
CIRCLE
  5
C0
  8
0
  6
CONTINUOUS
 62
     7
 10
1932.5
 20
190.0
 30
0.0
 40
4.09999999999977
  0
ARC
  5
C1
  8
0
  6
CONTINUOUS
 62
     7
 10
1932.5
 20
190.0
 30
0.0
 40
10.60897161440216
 50
77.24953505327639
 51
102.7504649467378
  0
ARC
  5
C2
  8
0
  6
CONTINUOUS
 62
     7
 10
1932.5
 20
190.0
 30
0.0
 40
10.60897161440209
 50
137.2495350532506
 51
162.7504649467377
  0
LINE
  5
C3
  8
0
  6
CONTINUOUS
 62
     7
 10
1932.499999980661
 20
200.4997514833983
 30
0.0
 11
1932.967552696281
 21
200.489501634052
 31
0.0
  0
ARC
  5
C4
  8
0
  6
CONTINUOUS
 62
     7
 10
1932.5
 20
190.0
 30
0.0
 40
10.65358983848634
 50
171.9059968127863
 51
188.0940031872135
  0
CIRCLE
  5
C5
  8
0
  6
CONTINUOUS
 62
     7
 10
1932.5
 20
190.0
 30
0.0
 40
11.09595746731262
  0
ARC
  5
C6
  8
0
  6
CONTINUOUS
 62
     7
 10
1838.392917121637
 20
190.1287469973759
 30
0.0
 40
5.858497728372611
 50
326.0029408274975
 51
358.7407602077007
  0
LINE
  5
C7
  8
0
  6
CONTINUOUS
 62
     7
 10
1943.047463033673
 20
188.5
 30
0.0
 11
1942.891248481185
 21
188.5
 31
0.0
  0
ARC
  5
C8
  8
0
  6
CONTINUOUS
 62
     7
 10
1932.5
 20
190.0
 30
0.0
 40
10.65358983848634
 50
351.9059968127863
 51
8.09400318721356
  0
LINE
  5
C9
  8
0
  6
CONTINUOUS
 62
     7
 10
1830.763089803248
 20
186.8540810665858
 30
0.0
 11
1843.25
 21
186.8529659384437
 31
0.0
  0
LINE
  5
CA
  8
0
  6
CONTINUOUS
 62
     7
 10
1843.25
 20
193.1470340615563
 30
0.0
 11
1830.763089803248
 21
193.1459189334167
 31
0.0
  0
ARC
  5
CB
  8
0
  6
CONTINUOUS
 62
     7
 10
1838.359988791348
 20
189.8607897125404
 30
0.0
 40
5.891656095036801
 50
1.353932438757113
 51
33.90236652604483
  0
LINE
  5
CC
  8
0
  6
CONTINUOUS
 62
     7
 10
1942.891289285204
 20
191.5
 30
0.0
 11
1943.047463033673
 21
191.5
 31
0.0
  0
LINE
  5
CD
  8
0
  6
CONTINUOUS
 62
     7
 10
1844.25
 20
180.5
 30
0.0
 11
1844.25
 21
199.5
 31
0.0
  0
LINE
  5
CE
  8
0
  6
CONTINUOUS
 62
     7
 10
859.2303847577292
 20
188.75
 30
0.0
 11
860.75
 21
188.75
 31
0.0
  0
LINE
  5
CF
  8
0
  6
CONTINUOUS
 62
     7
 10
1934.982309036786
 20
179.7968789482534
 30
0.0
 11
1934.84145679088
 21
179.6526400076352
 31
0.0
  0
LINE
  5
D0
  8
0
  6
CONTINUOUS
 62
     7
 10
1930.157614619733
 20
179.6517711432903
 30
0.0
 11
1930.019642731746
 21
179.7992271095851
 31
0.0
  0
LINE
  5
D1
  8
0
  6
CONTINUOUS
 62
     7
 10
1870.880178992491
 20
200.4731734346591
 30
0.0
 11
1870.704975410538
 21
199.4999701438215
 31
0.0
  0
LINE
  5
D2
  8
0
  6
CONTINUOUS
 62
     7
 10
1875.256576350572
 20
179.5291946349034
 30
0.0
 11
1875.229387622262
 21
179.5003887708314
 31
0.0
  0
LINE
  5
D3
  8
0
  6
CONTINUOUS
 62
     7
 10
1875.269845361277
 20
179.5268059504634
 30
0.0
 11
1875.445044958103
 21
180.5000300762239
 31
0.0
  0
ARC
  5
D4
  8
0
  6
CONTINUOUS
 62
     7
 10
179.8305690160409
 20
102.139969050594
 30
0.0
 40
1698.540153196496
 50
2.617205656393879
 51
3.319765459353505
  0
LINE
  5
D5
  8
0
  6
CONTINUOUS
 62
     7
 10
1942.633020629363
 20
193.1455495559047
 30
0.0
 11
1942.574035476196
 21
192.9514298912179
 31
0.0
  0
LINE
  5
D6
  8
0
  6
CONTINUOUS
 62
     7
 10
1868.444203811575
 20
199.5
 30
0.0
 11
1844.25
 21
199.5
 31
0.0
  0
LINE
  5
D7
  8
0
  6
CONTINUOUS
 62
     7
 10
860.75
 20
191.25
 30
0.0
 11
859.2303847577292
 21
191.25
 31
0.0
  0
LINE
  5
D8
  8
0
  6
CONTINUOUS
 62
     7
 10
1924.907423840179
 20
182.7480761681326
 30
0.0
 11
1924.709651779949
 21
182.7985589410519
 31
0.0
  0
LINE
  5
D9
  8
0
  6
CONTINUOUS
 62
     7
 10
1942.577202279645
 20
187.0485892083313
 30
0.0
 11
1942.631805010931
 21
186.8540810665833
 31
0.0
  0
LINE
  5
DA
  8
0
  6
CONTINUOUS
 62
     7
 10
1849.249767856074
 20
191.4
 30
0.0
 11
1851.29401848243
 21
191.4
 31
0.0
  0
ARC
  5
DB
  8
0
  6
CONTINUOUS
 62
     7
 10
408.4611481815701
 20
114.354930775176
 30
0.0
 40
1462.698326921122
 50
2.560476327270919
 51
3.376367226108072
  0
LINE
  5
DC
  8
0
  6
CONTINUOUS
 62
     7
 10
1924.709364338874
 20
197.2026762249
 30
0.0
 11
1924.908742992475
 21
197.2490745357871
 31
0.0
  0
LINE
  5
DD
  8
0
  6
CONTINUOUS
 62
     7
 10
1877.569778188377
 20
179.5267458239156
 30
0.0
 11
1877.744997230852
 21
180.5000298981893
 31
0.0
  0
ARC
  5
DE
  8
0
  6
CONTINUOUS
 62
     7
 10
1831.233397770587
 20
181.4981604599708
 30
0.0
 40
1.904503957501955
 50
146.3489922992973
 51
255.7031862563394
  0
POLYLINE
  5
DF
  8
0
  6
CONTINUOUS
 62
     7
 66
     1
 10
0.0
 20
0.0
 30
0.0
  0
VERTEX
  5
15A
  8
0
  6
CONTINUOUS
 62
     7
 10
1829.648034869177
 20
182.5535086465769
 30
0.0
  0
VERTEX
  5
15B
  8
0
  6
CONTINUOUS
 62
     7
 10
1830.245137153023
 20
182.7620711873814
 30
0.0
  0
VERTEX
  5
15C
  8
0
  6
CONTINUOUS
 62
     7
 10
1830.763089803248
 20
182.7985589410519
 30
0.0
  0
SEQEND
  5
15D
  8
0
  6
CONTINUOUS
 62
     7
  0
ARC
  5
E0
  8
0
  6
CONTINUOUS
 62
     7
 10
1830.767070522083
 20
198.6916789376653
 30
0.0
 40
1.490243195349099
 50
133.4206795845601
 51
269.8469520541131
  0
ARC
  5
E1
  8
0
  6
CONTINUOUS
 62
     7
 10
1830.752602325669
 20
199.1713728791237
 30
0.0
 40
1.176033876083084
 50
89.4890485897273
 51
149.1699551626263
  0
ARC
  5
E2
  8
0
  6
CONTINUOUS
 62
     7
 10
593.768567947305
 20
123.8555153551566
 30
0.0
 40
1279.449806720726
 50
2.501569894608053
 51
3.434305851756903
  0
ARC
  5
E3
  8
0
  6
CONTINUOUS
 62
     7
 10
3736.121694238484
 20
286.2950639770974
 30
0.0
 40
1861.658037604892
 50
182.6475659915282
 51
183.2886075262954
  0
LINE
  5
E4
  8
0
  6
CONTINUOUS
 62
     7
 10
1934.8423856065
 20
200.3482290592362
 30
0.0
 11
1934.980192031481
 21
200.2009483781733
 31
0.0
  0
LINE
  5
E5
  8
0
  6
CONTINUOUS
 62
     7
 10
1870.893423649429
 20
200.4707890290995
 30
0.0
 11
1870.92066103676
 21
200.4997521569268
 31
0.0
  0
LINE
  5
E6
  8
0
  6
CONTINUOUS
 62
     7
 10
1851.29401848242
 20
188.6000000000018
 30
0.0
 11
1849.249767856074
 21
188.5999999999935
 31
0.0
  0
ARC
  5
E7
  8
0
  6
CONTINUOUS
 62
     7
 10
1843.058724603034
 20
198.2786567364814
 30
0.0
 40
1.192384424096398
 50
279.2309388491612
 51
357.5286501169999
  0
LINE
  5
E8
  8
0
  6
CONTINUOUS
 62
     7
 10
1829.25
 20
180.8909712701941
 30
0.0
 11
1829.25
 21
199.1090287298059
 31
0.0
  0
LINE
  5
E9
  8
0
  6
CONTINUOUS
 62
     7
 10
1868.603843494174
 20
200.5029733001361
 30
0.0
 11
1868.425137585564
 21
199.5000073584255
 31
0.0
  0
ARC
  5
EA
  8
0
  6
CONTINUOUS
 62
     7
 10
1798.308272508273
 20
188.4477035266202
 30
0.0
 40
80.10208020456025
 50
1.108638325403658
 51
7.930838196133601
  0
LINE
  5
EB
  8
0
  6
CONTINUOUS
 62
     7
 10
1940.092323559195
 20
197.2519883100346
 30
0.0
 11
1940.290348220054
 21
197.2014410589475
 31
0.0
  0
LINE
  5
EC
  8
0
  6
CONTINUOUS
 62
     7
 10
1922.366979492101
 20
186.8544504042493
 30
0.0
 11
1922.425993483209
 21
187.0486665192127
 31
0.0
  0
ARC
  5
ED
  8
0
  6
CONTINUOUS
 62
     7
 10
1842.997075872484
 20
181.666570069212
 30
0.0
 40
1.257415956231101
 50
4.844390120406899
 51
78.39602091343274
  0
LINE
  5
EE
  8
0
  6
CONTINUOUS
 62
     7
 10
1846.25
 20
180.5
 30
0.0
 11
1846.25
 21
199.5
 31
0.0
  0
ARC
  5
EF
  8
0
  6
CONTINUOUS
 62
     7
 10
1932.504995303098
 20
190.0003592794108
 30
0.0
 40
10.49964190887042
 50
95.09792126616762
 51
90.0272590054178
  0
LINE
  5
F0
  8
0
  6
CONTINUOUS
 62
     7
 10
1931.572016445656
 20
200.4584676488089
 30
0.0
 11
1932.499999980661
 21
200.4997514833983
 31
0.0
  0
LINE
  5
F1
  8
0
  6
CONTINUOUS
 62
     7
 10
1885.25
 20
198.5
 30
0.0
 11
1885.25
 21
181.5
 31
0.0
  0
LINE
  5
F2
  8
0
  6
CONTINUOUS
 62
     7
 10
1849.249767856074
 20
188.6
 30
0.0
 11
1849.249767856074
 21
191.4
 31
0.0
  0
LINE
  5
F3
  8
0
  6
CONTINUOUS
 62
     7
 10
1930.017868496119
 20
200.2033028533085
 30
0.0
 11
1930.15854320912
 21
200.3473599923648
 31
0.0
  0
ARC
  5
F4
  8
0
  6
CONTINUOUS
 62
     7
 10
1832.483683903966
 20
189.743007488174
 30
0.0
 40
3.362490138093435
 50
161.8144970239666
 51
239.2227110048912
  0
ARC
  5
F5
  8
0
  6
CONTINUOUS
 62
     7
 10
1831.685886428065
 20
190.9296942889698
 30
0.0
 40
2.400667674924417
 50
112.6059787633395
 51
183.2780033806286
  0
LINE
  5
F6
  8
0
  6
CONTINUOUS
 62
     7
 10
845.75
 20
179.9040425326874
 30
0.0
 11
845.75
 21
200.0959574673126
 31
0.0
  0
ARC
  5
F7
  8
0
  6
CONTINUOUS
 62
     7
 10
-157.7081000050169
 20
84.77031693578229
 30
0.0
 40
2034.223281894978
 50
2.674759864314581
 51
3.261381962374003
  0
ARC
  5
F8
  8
0
  6
CONTINUOUS
 62
     7
 10
2839.370538674984
 20
239.0986186229155
 30
0.0
 40
970.5725244061496
 50
182.3035246228867
 51
183.5204933554071
  0
LINE
  5
F9
  8
0
  6
CONTINUOUS
 62
     7
 10
1877.556576350572
 20
179.5291225332859
 30
0.0
 11
1877.529355616072
 21
179.5000837908847
 31
0.0
  0
LINE
  5
FA
  8
0
  6
CONTINUOUS
 62
     7
 10
1922.422718558878
 20
192.9516927840066
 30
0.0
 11
1922.368194989069
 21
193.1459189334167
 31
0.0
  0
LINE
  5
FB
  8
0
  6
CONTINUOUS
 62
     7
 10
1884.25
 20
180.5
 30
0.0
 11
1884.25
 21
199.5
 31
0.0
  0
LINE
  5
FC
  8
0
  6
CONTINUOUS
 62
     7
 10
1940.290635672744
 20
182.7973237196885
 30
0.0
 11
1940.091299868559
 21
182.7509355864088
 31
0.0
  0
ARC
  5
FD
  8
0
  6
CONTINUOUS
 62
     7
 10
3230.724646613347
 20
260.3328106423448
 30
0.0
 40
1360.199030628039
 50
182.529610417942
 51
183.4069182829706
  0
LINE
  5
FE
  8
0
  6
CONTINUOUS
 62
     7
 10
1844.25
 20
180.5
 30
0.0
 11
1869.554977522591
 21
180.5
 31
0.0
  0
ARC
  5
FF
  8
0
  6
CONTINUOUS
 62
     7
 10
3446.536700837966
 20
271.3955311143139
 30
0.0
 40
1573.992182239633
 50
182.5888599784658
 51
183.347030347602
  0
LINE
  5
100
  8
0
  6
CONTINUOUS
 62
     7
 10
865.75
 20
188.0
 30
0.0
 11
1829.25
 21
188.0
 31
0.0
  0
LINE
  5
101
  8
0
  6
CONTINUOUS
 62
     7
 10
1870.805780817702
 20
180.5
 30
0.0
 11
1871.854930013725
 21
180.5
 31
0.0
  0
LINE
  5
102
  8
0
  6
CONTINUOUS
 62
     7
 10
1873.149022284302
 20
200.3002779978164
 30
0.0
 11
1873.004960736484
 21
199.4999695446784
 31
0.0
  0
LINE
  5
103
  8
0
  6
CONTINUOUS
 62
     7
 10
1871.814650832025
 20
180.7234452653651
 30
0.0
 11
1871.999095815063
 21
179.6993360079023
 31
0.0
  0
LINE
  5
104
  8
0
  6
CONTINUOUS
 62
     7
 10
1870.74424145834
 20
199.5
 30
0.0
 11
1869.68944240001
 21
199.5
 31
0.0
  0
LINE
  5
105
  8
0
  6
CONTINUOUS
 62
     7
 10
1885.25
 20
198.5
 30
0.0
 11
1884.25
 21
199.5
 31
0.0
  0
LINE
  5
106
  8
0
  6
CONTINUOUS
 62
     7
 10
1875.448935041621
 20
200.2995050951456
 30
0.0
 11
1875.305010809102
 21
199.4999690334459
 31
0.0
  0
LINE
  5
107
  8
0
  6
CONTINUOUS
 62
     7
 10
1874.11451029963
 20
180.7244062902012
 30
0.0
 11
1874.298958634872
 21
179.7002017877992
 31
0.0
  0
LINE
  5
108
  8
0
  6
CONTINUOUS
 62
     7
 10
1885.25
 20
186.0392709050584
 30
0.0
 11
1890.258726535498
 21
186.0829813993338
 31
0.0
  0
LINE
  5
109
  8
0
  6
CONTINUOUS
 62
     7
 10
1884.25
 20
199.5
 30
0.0
 11
1878.874864129301
 21
199.5
 31
0.0
  0
ARC
  5
10A
  8
0
  6
CONTINUOUS
 62
     7
 10
1890.25
 20
187.082943322398
 30
0.0
 40
1.000000000000004
 50
270.5000000000036
 51
0.0000000000063665
  0
LINE
  5
10B
  8
0
  6
CONTINUOUS
 62
     7
 10
1829.25
 20
192.0
 30
0.0
 11
865.75
 21
192.0
 31
0.0
  0
LINE
  5
10C
  8
0
  6
CONTINUOUS
 62
     7
 10
1876.414541171002
 20
180.7244364005101
 30
0.0
 11
1876.598982145918
 21
179.7003442988371
 31
0.0
  0
LINE
  5
10D
  8
0
  6
CONTINUOUS
 62
     7
 10
1873.105733946892
 20
180.5
 30
0.0
 11
1874.154960102431
 21
180.5
 31
0.0
  0
LINE
  5
10E
  8
0
  6
CENTER
 62
     1
 10
1891.25
 20
190.0
 30
0.0
 11
797.5
 21
190.0
 31
0.0
  0
LINE
  5
110
  8
0
  6
CONTINUOUS
 62
     7
 10
1875.344245037737
 20
199.5
 30
0.0
 11
1874.295064433769
 21
199.5
 31
0.0
  0
LINE
  5
111
  8
0
  6
CONTINUOUS
 62
     7
 10
1890.258726535498
 20
193.9170186006662
 30
0.0
 11
1885.25
 21
193.9607290949416
 31
0.0
  0
LINE
  5
112
  8
0
  6
CONTINUOUS
 62
     7
 10
1877.705782738504
 20
180.5
 30
0.0
 11
1884.25
 21
180.5
 31
0.0
  0
LINE
  5
113
  8
0
  6
CONTINUOUS
 62
     7
 10
1878.893981341891
 20
199.3928250239386
 30
0.0
 11
1878.729722252518
 21
200.3145894856215
 31
0.0
  0
LINE
  5
114
  8
0
  6
CONTINUOUS
 62
     7
 10
1884.25
 20
180.5
 30
0.0
 11
1885.25
 21
181.5
 31
0.0
  0
LINE
  5
115
  8
0
  6
CONTINUOUS
 62
     7
 10
1877.644203811575
 20
199.5
 30
0.0
 11
1876.595049732842
 21
199.5
 31
0.0
  0
LINE
  5
116
  8
0
  6
CONTINUOUS
 62
     7
 10
1875.405736910485
 20
180.5
 30
0.0
 11
1876.454999328344
 21
180.5
 31
0.0
  0
LINE
  5
117
  8
0
  6
CONTINUOUS
 62
     7
 10
1877.717698885535
 20
200.088217607544
 30
0.0
 11
1877.61055759999
 21
199.4999119244262
 31
0.0
  0
LINE
  5
118
  8
0
  6
CONTINUOUS
 62
     7
 10
1869.514717582628
 20
180.723325428238
 30
0.0
 11
1869.69915636487
 21
179.6993041495256
 31
0.0
  0
ARC
  5
119
  8
0
  6
CONTINUOUS
 62
     7
 10
1890.25
 20
192.9170566776021
 30
0.0
 40
1.000000000000112
 50
0.0
 51
89.5000000000027
  0
LINE
  5
11A
  8
0
  6
CONTINUOUS
 62
     7
 10
1873.044274359794
 20
199.5
 30
0.0
 11
1871.99501457978
 21
199.5
 31
0.0
  0
LINE
  5
11B
  8
0
  6
CENTER
 62
     1
 10
1919.404042532687
 20
190.0
 30
0.0
 11
1945.595957467312
 21
190.0
 31
0.0
  0
LINE
  5
11C
  8
0
  6
CENTER
 62
     1
 10
1932.5
 20
176.9040425326874
 30
0.0
 11
1932.5
 21
203.0959574673126
 31
0.0
  0
LINE
  5
11D
  8
0
  6
CONTINUOUS
 62
     7
 10
1877.705783523823
 20
180.5000000000104
 30
0.0
 11
1877.650593272597
 21
180.6076210401414
 31
0.0
  0
ARC
  5
11E
  8
0
  6
CONTINUOUS
 62
     7
 10
4928.112832610886
 20
355.9998393419243
 30
0.0
 40
3055.500336093843
 50
182.939992568304
 51
183.2907084511139
  0
LINE
  5
11F
  8
0
  6
CONTINUOUS
 62
     7
 10
1869.69915267232
 20
179.6993246413628
 30
0.0
 11
1869.770644287374
 21
179.500083790876
 31
0.0
  0
LINE
  5
120
  8
0
  6
CONTINUOUS
 62
     7
 10
1875.448932221758
 20
200.2994893505112
 30
0.0
 11
1875.520400644413
 21
200.4997521579236
 31
0.0
  0
ARC
  5
121
  8
0
  6
CONTINUOUS
 62
     7
 10
1752.095955090431
 20
188.3518026773581
 30
0.0
 40
126.3101248261625
 50
0.7465440870529159
 51
5.51909836154744
  0
LINE
  5
122
  8
0
  6
CONTINUOUS
 62
     7
 10
1877.644203811575
 20
199.5
 30
0.0
 11
1877.820530792284
 21
200.5
 31
0.0
  0
LINE
  5
123
  8
0
  6
CONTINUOUS
 62
     7
 10
1871.999092323
 20
179.6993554088065
 30
0.0
 11
1872.070612281108
 21
179.5003887708296
 31
0.0
  0
ARC
  5
124
  8
0
  6
CONTINUOUS
 62
     7
 10
1695.090300618323
 20
187.6336993918034
 30
0.0
 40
184.17929292909
 50
0.7353357278028056
 51
3.661032110227097
  0
LINE
  5
125
  8
0
  6
CONTINUOUS
 62
     7
 10
1875.344245342157
 20
199.4999999999973
 30
0.0
 11
1875.407697112425
 21
199.3576258493857
 31
0.0
  0
ARC
  5
126
  8
0
  6
CONTINUOUS
 62
     7
 10
-26554.89421069378
 20
-1347.496579104211
 30
0.0
 40
28472.35193131035
 50
3.076750789393315
 51
3.11431504919608
  0
LINE
  5
127
  8
0
  6
CONTINUOUS
 62
     7
 10
1870.744241712613
 20
199.5
 30
0.0
 11
1870.804358288185
 21
199.3721534680869
 31
0.0
  0
ARC
  5
128
  8
0
  6
CONTINUOUS
 62
     7
 10
-14407.62005448156
 20
-692.5453637773184
 30
0.0
 40
16302.84080213713
 50
3.07052136851695
 51
3.13617959650685
  0
LINE
  5
129
  8
0
  6
CONTINUOUS
 62
     7
 10
1873.044274373109
 20
199.5
 30
0.0
 11
1873.098131610346
 21
199.3971162905576
 31
0.0
  0
ARC
  5
12A
  8
0
  6
CONTINUOUS
 62
     7
 10
-962.816407457315
 20
35.54545623779015
 30
0.0
 40
2840.644053625409
 50
2.929406303485507
 51
3.306722719631864
  0
LINE
  5
12B
  8
0
  6
CONTINUOUS
 62
     7
 10
1851.35
 20
188.5
 30
0.0
 11
1849.15
 21
188.5
 31
0.0
  0
LINE
  5
12C
  8
0
  6
CONTINUOUS
 62
     7
 10
1877.717689819725
 20
200.0881456032272
 30
0.0
 11
1877.820530792284
 21
200.5
 31
0.0
  0
LINE
  5
12D
  8
0
  6
CONTINUOUS
 62
     7
 10
1874.298955706631
 20
179.7002181348123
 30
0.0
 11
1874.370449206834
 21
179.5003887702093
 31
0.0
  0
LINE
  5
12E
  8
0
  6
CONTINUOUS
 62
     7
 10
1878.679469207717
 20
200.5
 30
0.0
 11
1878.729726822348
 21
200.3145638139204
 31
0.0
  0
LINE
  5
12F
  8
0
  6
CONTINUOUS
 62
     7
 10
1876.598979147134
 20
179.7003610169874
 30
0.0
 11
1876.670417200644
 21
179.5000837900211
 31
0.0
  0
LINE
  5
130
  8
0
  6
CONTINUOUS
 62
     7
 10
1873.149019077901
 20
200.3002601313437
 30
0.0
 11
1873.220530837887
 21
200.4995570877206
 31
0.0
  0
LINE
  5
131
  8
0
  6
CONTINUOUS
 62
     7
 10
1879.254425456784
 20
189.9973969915753
 30
0.0
 11
1878.395358117141
 21
189.9975331222786
 31
0.0
  0
LINE
  5
132
  8
0
  6
CONTINUOUS
 62
     7
 10
1870.805782087155
 20
180.5000000000097
 30
0.0
 11
1870.752986037086
 21
180.5984330056021
 31
0.0
  0
ARC
  5
133
  8
0
  6
CONTINUOUS
 62
     7
 10
3575.686234964367
 20
281.1733497981421
 30
0.0
 40
1707.897156501398
 50
182.7543716942744
 51
183.3759960318787
  0
LINE
  5
134
  8
0
  6
CONTINUOUS
 62
     7
 10
1873.105732898794
 20
180.5000000000008
 30
0.0
 11
1873.050405139685
 21
180.6084503263018
 31
0.0
  0
ARC
  5
135
  8
0
  6
CONTINUOUS
 62
     7
 10
8624.930265709705
 20
557.3616953268225
 30
0.0
 40
6762.383060666519
 50
183.0353296632448
 51
183.1937785027003
  0
LINE
  5
136
  8
0
  6
CONTINUOUS
 62
     7
 10
1875.405735188475
 20
180.5000000000009
 30
0.0
 11
1875.352812236
 21
180.5993341848899
 31
0.0
  0
ARC
  5
137
  8
0
  6
CONTINUOUS
 62
     7
 10
6333.212377245773
 20
432.9922794603113
 30
0.0
 40
4464.998779414607
 50
183.000384632131
 51
183.240485291645
  0
LINE
  5
138
  8
0
  6
CONTINUOUS
 62
     7
 10
1868.444203811575
 20
199.5
 30
0.0
 11
1868.504550715989
 21
199.3715865823014
 31
0.0
  0
ARC
  5
139
  8
0
  6
CONTINUOUS
 62
     7
 10
-4894.438285103296
 20
-176.6252495647132
 30
0.0
 40
6773.386850118039
 50
3.024144893127811
 51
3.182176312867568
  0
ARC
  5
13A
  8
0
  6
CONTINUOUS
 62
     7
 10
1681.022696111964
 20
185.0878807830135
 30
0.0
 40
198.2925159163612
 50
1.418728811032622
 51
4.404020672388184
  0
LINE
  5
13B
  8
0
  6
CONTINUOUS
 62
     7
 10
1843.25
 20
179.5
 30
0.0
 11
1844.25
 21
180.5
 31
0.0
  0
LINE
  5
13C
  8
0
  6
CONTINUOUS
 62
     7
 10
1872.03551185732
 20
199.2753372759805
 30
0.0
 11
1871.85106495838
 21
200.2995050951457
 31
0.0
  0
LINE
  5
13D
  8
0
  6
CONTINUOUS
 62
     7
 10
1869.763306589766
 20
199.0952771477849
 30
0.0
 11
1869.582301114466
 21
200.0882176075442
 31
0.0
  0
LINE
  5
13E
  8
0
  6
CONTINUOUS
 62
     7
 10
1891.25
 20
192.9170566776021
 30
0.0
 11
1891.25
 21
187.082943322398
 31
0.0
  0
LINE
  5
13F
  8
0
  6
CONTINUOUS
 62
     7
 10
1851.35
 20
191.5
 30
0.0
 11
1851.35
 21
188.5
 31
0.0
  0
ARC
  5
140
  8
0
  6
CONTINUOUS
 62
     7
 10
1830.75
 20
180.8909712701941
 30
0.0
 40
1.500000000000057
 50
180.0
 51
270.4999999999994
  0
LINE
  5
141
  8
0
  6
CONTINUOUS
 62
     7
 10
1876.670417200644
 20
179.5000837900211
 30
0.0
 11
1877.529355712627
 21
179.500083790876
 31
0.0
  0
LINE
  5
142
  8
0
  6
CONTINUOUS
 62
     7
 10
1876.635292027816
 20
199.2767701364027
 30
0.0
 11
1876.450850110321
 21
200.3008160853907
 31
0.0
  0
LINE
  5
143
  8
0
  6
CONTINUOUS
 62
     7
 10
1874.335425099073
 20
199.2760891409136
 30
0.0
 11
1874.150977715698
 21
200.3002779978167
 31
0.0
  0
LINE
  5
144
  8
0
  6
CONTINUOUS
 62
     7
 10
1869.770644287374
 20
179.500083790876
 30
0.0
 11
1870.629582799356
 21
179.5000837900211
 31
0.0
  0
ARC
  5
145
  8
0
  6
CONTINUOUS
 62
     7
 10
1830.75
 20
199.1090287298059
 30
0.0
 40
1.500000000000004
 50
89.5000000000006
 51
180.0
  0
LINE
  5
146
  8
0
  6
CONTINUOUS
 62
     7
 10
1844.25
 20
199.5
 30
0.0
 11
1843.25
 21
200.5
 31
0.0
  0
LINE
  5
147
  8
0
  6
CONTINUOUS
 62
     7
 10
1874.370449206836
 20
179.5003887702093
 30
0.0
 11
1875.229387718895
 21
179.5003887708296
 31
0.0
  0
LINE
  5
148
  8
0
  6
CONTINUOUS
 62
     7
 10
1876.37933905712
 20
200.4997521569321
 30
0.0
 11
1875.52040054509
 21
200.4997521579187
 31
0.0
  0
LINE
  5
149
  8
0
  6
CONTINUOUS
 62
     7
 10
1874.079469256034
 20
200.4995570877209
 30
0.0
 11
1873.220530743966
 21
200.4995570877209
 31
0.0
  0
LINE
  5
14A
  8
0
  6
CONTINUOUS
 62
     7
 10
1870.701017854082
 20
179.7003442988368
 30
0.0
 11
1870.844975299575
 21
180.5000308227563
 31
0.0
  0
LINE
  5
14B
  8
0
  6
CONTINUOUS
 62
     7
 10
1849.15
 20
191.5
 30
0.0
 11
1851.35
 21
191.5
 31
0.0
  0
LINE
  5
14C
  8
0
  6
CONTINUOUS
 62
     7
 10
1830.763089803248
 20
179.3910283855979
 30
0.0
 11
1843.25
 21
179.5
 31
0.0
  0
LINE
  5
14D
  8
0
  6
CONTINUOUS
 62
     7
 10
1843.25
 20
200.5
 30
0.0
 11
1830.763089803248
 21
200.6089716144022
 31
0.0
  0
LINE
  5
14E
  8
0
  6
CONTINUOUS
 62
     7
 10
1868.570273319017
 20
200.3145646080818
 30
0.0
 11
1868.620530792283
 21
200.5
 31
0.0
  0
LINE
  5
14F
  8
0
  6
CONTINUOUS
 62
     7
 10
1849.15
 20
188.5
 30
0.0
 11
1849.15
 21
191.5
 31
0.0
  0
LINE
  5
150
  8
0
  6
CONTINUOUS
 62
     7
 10
1871.77959945491
 20
200.4997521579187
 30
0.0
 11
1870.92066094288
 21
200.4997521569321
 31
0.0
  0
LINE
  5
151
  8
0
  6
CONTINUOUS
 62
     7
 10
1873.001041365128
 20
179.7002017877991
 30
0.0
 11
1873.145014573961
 21
180.5000308041865
 31
0.0
  0
LINE
  5
152
  8
0
  6
CONTINUOUS
 62
     7
 10
1872.070612281105
 20
179.5003887708296
 30
0.0
 11
1872.929550793164
 21
179.5003887702093
 31
0.0
  0
ENDSEC
  0
EOF
