  0
SECTION
  2
HEADER
  9
$ACADVER
  1
AC1006
  9
$DWGCODEPAGE
  3
ansi_932
  9
$INSBASE
 10
0.0
 20
0.0
 30
0.0
  9
$EXTMIN
 10
-195.0
 20
341.4545454545456
  9
$EXTMAX
 10
370.0
 20
1025.0
  9
$LIMMIN
 10
0.0
 20
0.0
  9
$LIMMAX
 10
12.0
 20
9.0
  9
$ORTHOMODE
 70
     0
  9
$REGENMODE
 70
     1
  9
$FILLMODE
 70
     1
  9
$QTEXTMODE
 70
     0
  9
$MIRRTEXT
 70
     1
  9
$DRAGMODE
 70
     2
  9
$LTSCALE
 40
1.0
  9
$OSMODE
 70
    37
  9
$ATTMODE
 70
     1
  9
$TEXTSIZE
 40
0.2
  9
$TRACEWID
 40
0.05
  9
$TEXTSTYLE
  7
STANDARD
  9
$CLAYER
  8
0
  9
$CELTYPE
  6
BYLAYER
  9
$CECOLOR
 62
   256
  9
$DIMSCALE
 40
1.0
  9
$DIMASZ
 40
3.0
  9
$DIMEXO
 40
0.0625
  9
$DIMDLI
 40
0.38
  9
$DIMRND
 40
0.0
  9
$DIMDLE
 40
0.0
  9
$DIMEXE
 40
1.5
  9
$DIMTP
 40
0.0
  9
$DIMTM
 40
0.0
  9
$DIMTXT
 40
3.0
  9
$DIMCEN
 40
0.09
  9
$DIMTSZ
 40
0.0
  9
$DIMTOL
 70
     0
  9
$DIMLIM
 70
     0
  9
$DIMTIH
 70
     1
  9
$DIMTOH
 70
     1
  9
$DIMSE1
 70
     0
  9
$DIMSE2
 70
     0
  9
$DIMTAD
 70
     1
  9
$DIMZIN
 70
     0
  9
$DIMBLK
  1

  9
$DIMASO
 70
     1
  9
$DIMSHO
 70
     1
  9
$DIMPOST
  1

  9
$DIMAPOST
  1

  9
$DIMALT
 70
     0
  9
$DIMALTD
 70
     2
  9
$DIMALTF
 40
25.4
  9
$DIMLFAC
 40
1.0
  9
$DIMTOFL
 70
     0
  9
$DIMTVP
 40
0.0
  9
$DIMTIX
 70
     0
  9
$DIMSOXD
 70
     0
  9
$DIMSAH
 70
     0
  9
$DIMBLK1
  1

  9
$DIMBLK2
  1

  9
$LUNITS
 70
     2
  9
$LUPREC
 70
     4
  9
$SKETCHINC
 40
0.1
  9
$FILLETRAD
 40
0.5
  9
$AUNITS
 70
     0
  9
$AUPREC
 70
     0
  9
$MENU
  1
.
  9
$ELEVATION
 40
0.0
  9
$THICKNESS
 40
0.0
  9
$LIMCHECK
 70
     0
  9
$CHAMFERA
 40
0.0
  9
$CHAMFERB
 40
0.0
  9
$SKPOLY
 70
     0
  9
$TDCREATE
 40
2459314.363335371
  9
$TDUPDATE
 40
2459314.363335555
  9
$TDINDWG
 40
0.0000000116
  9
$TDUSRTIMER
 40
0.0000000116
  9
$USRTIMER
 70
     1
  9
$ANGBASE
 50
0.0
  9
$ANGDIR
 70
     0
  9
$PDMODE
 70
     0
  9
$PDSIZE
 40
0.0
  9
$PLINEWID
 40
0.0
  9
$COORDS
 70
     1
  9
$SPLFRAME
 70
     0
  9
$SPLINETYPE
 70
     6
  9
$SPLINESEGS
 70
     8
  9
$ATTDIA
 70
     0
  9
$ATTREQ
 70
     1
  9
$HANDLING
 70
     1
  9
$HANDSEED
  5
204
  9
$SURFTAB1
 70
     6
  9
$SURFTAB2
 70
     6
  9
$SURFTYPE
 70
     6
  9
$SURFU
 70
     6
  9
$SURFV
 70
     6
  9
$UCSNAME
  2

  9
$UCSORG
 10
0.0
 20
0.0
 30
0.0
  9
$UCSXDIR
 10
1.0
 20
0.0
 30
0.0
  9
$UCSYDIR
 10
0.0
 20
1.0
 30
0.0
  9
$USERI1
 70
     0
  9
$USERI2
 70
     0
  9
$USERI3
 70
     0
  9
$USERI4
 70
     0
  9
$USERI5
 70
     0
  9
$USERR1
 40
0.0
  9
$USERR2
 40
0.0
  9
$USERR3
 40
0.0
  9
$USERR4
 40
0.0
  9
$USERR5
 40
0.0
  9
$WORLDVIEW
 70
     1
  0
ENDSEC
  0
SECTION
  2
TABLES
  0
TABLE
  2
VPORT
 70
     1
  0
VPORT
  2
*ACTIVE
 70
     0
 10
0.0
 20
0.0
 11
1.0
 21
1.0
 12
87.5
 22
683.2272727272727
 13
0.0
 23
0.0
 14
0.5
 24
0.5
 15
0.5
 25
0.5
 16
0.0
 26
0.0
 36
1.0
 17
0.0
 27
0.0
 37
0.0
 40
683.5454545454545
 41
1.6
 42
50.0
 43
0.0
 44
0.0
 50
0.0
 51
0.0
 71
     0
 72
   100
 73
     1
 74
     3
 75
     0
 76
     0
 77
     0
 78
     0
  0
ENDTAB
  0
TABLE
  2
LTYPE
 70
     2
  0
LTYPE
  2
CONTINUOUS
 70
     0
  3
Solid line
 72
    65
 73
     0
 40
0.0
  0
LTYPE
  2
CENTER
 70
     0
  3

 72
    65
 73
     0
 40
0.0
  0
ENDTAB
  0
TABLE
  2
LAYER
 70
     2
  0
LAYER
  2
0
 70
     0
 62
     7
  6
CONTINUOUS
  0
LAYER
  2
1
 70
     0
 62
     7
  6
CONTINUOUS
  0
ENDTAB
  0
TABLE
  2
STYLE
 70
     2
  0
STYLE
  2
STANDARD
 70
     0
 40
0.0
 41
1.0
 50
0.0
 71
     0
 42
0.2
  3
txt
  4

  0
STYLE
  2
ＭＳ_ゴシック
 70
     0
 40
0.0
 41
1.0
 50
0.0
 71
     0
 42
0.2
  3
ＭＳ ゴシック.shx
  4

  0
ENDTAB
  0
TABLE
  2
VIEW
 70
     0
  0
ENDTAB
  0
TABLE
  2
UCS
 70
     0
  0
ENDTAB
  0
ENDSEC
  0
SECTION
  2
BLOCKS
  0
BLOCK
  8
0
  2
D_FRAME_VIEW_1473
 70
     0
 10
0.0
 20
0.0
 30
0.0
  0
LINE
  5
74
  8
1
  6
CONTINUOUS
 62
     7
 10
-95.0
 20
769.9393824730881
 30
0.0
 11
-95.0
 21
770.0257021838985
 31
0.0
  0
LINE
  5
75
  8
1
  6
CONTINUOUS
 62
     7
 10
-94.9136802891895
 20
769.9393824730881
 30
0.0
 11
-95.0
 21
770.0257021838985
 31
0.0
  0
LINE
  5
76
  8
1
  6
CONTINUOUS
 62
     7
 10
-85.10381939662796
 20
769.9393824730881
 30
0.0
 11
-84.99999999999999
 21
770.0432018697161
 31
0.0
  0
LINE
  5
77
  8
1
  6
CONTINUOUS
 62
     7
 10
-84.99999999999999
 20
769.9393824730881
 30
0.0
 11
-84.99999999999999
 21
770.0432018697161
 31
0.0
  0
LINE
  5
78
  8
1
  6
CONTINUOUS
 62
     7
 10
-95.0
 20
770.0257021838986
 30
0.0
 11
-96.81381094191335
 21
769.939382473088
 31
0.0
  0
LINE
  5
79
  8
1
  6
CONTINUOUS
 62
     7
 10
-94.99195851560425
 20
770.0605794499761
 30
0.0
 11
-97.19036365267449
 21
769.9393824730881
 31
0.0
  0
LINE
  5
7A
  8
1
  6
CONTINUOUS
 62
     7
 10
-84.99999999999999
 20
770.0432018697161
 30
0.0
 11
-70.02599021869312
 21
770.0432018697161
 31
0.0
  0
LINE
  5
7B
  8
1
  6
CONTINUOUS
 62
     7
 10
-70.00861263843318
 20
770.0605794499761
 30
0.0
 11
-94.99195851560424
 21
770.0605794499761
 31
0.0
  0
LINE
  5
7C
  8
1
  6
CONTINUOUS
 62
     7
 10
-69.01236356245914
 20
769.9393824730881
 30
0.0
 11
-70.02599021869312
 21
770.043201869716
 31
0.0
  0
LINE
  5
7D
  8
1
  6
CONTINUOUS
 62
     7
 10
-68.9144782798876
 20
769.9393824730881
 30
0.0
 11
-70.00861263843318
 21
770.060579449976
 31
0.0
  0
LINE
  5
7E
  8
1
  6
CONTINUOUS
 62
     7
 10
-94.99999999999997
 20
769.9393824730881
 30
0.0
 11
-95.00076153871659
 21
769.9393824730881
 31
0.0
  0
LINE
  5
7F
  8
1
  6
CONTINUOUS
 62
     7
 10
-95.00076153871659
 20
769.9393824730881
 30
0.0
 11
-195.0
 21
769.9393824730881
 31
0.0
  0
LINE
  5
80
  8
1
  6
CONTINUOUS
 62
     7
 10
-195.0
 20
359.9393824730882
 30
0.0
 11
-114.0000380769359
 21
359.9393824730882
 31
0.0
  0
LINE
  5
81
  8
1
  6
CONTINUOUS
 62
     7
 10
-114.0000380769359
 20
359.9393824730882
 30
0.0
 11
-94.99999999999997
 21
359.9393824730882
 31
0.0
  0
LINE
  5
82
  8
1
  6
CONTINUOUS
 62
     7
 10
-195.0
 20
769.9393824730881
 30
0.0
 11
-195.0
 21
359.9393824730882
 31
0.0
  0
LINE
  5
83
  8
1
  6
CONTINUOUS
 62
     7
 10
205.0
 20
769.9393824730881
 30
0.0
 11
105.0007615387165
 21
769.9393824730881
 31
0.0
  0
LINE
  5
84
  8
1
  6
CONTINUOUS
 62
     7
 10
105.0007615387165
 20
769.9393824730881
 30
0.0
 11
105.0
 21
769.9393824730881
 31
0.0
  0
LINE
  5
85
  8
1
  6
CONTINUOUS
 62
     7
 10
205.0
 20
359.9393824730882
 30
0.0
 11
205.0
 21
769.939382473088
 31
0.0
  0
LINE
  5
86
  8
1
  6
CONTINUOUS
 62
     7
 10
105.0
 20
359.9393824730882
 30
0.0
 11
124.0000380769359
 21
359.9393824730882
 31
0.0
  0
LINE
  5
87
  8
1
  6
CONTINUOUS
 62
     7
 10
124.0000380769359
 20
359.9393824730882
 30
0.0
 11
205.0
 21
359.9393824730882
 31
0.0
  0
CIRCLE
  5
88
  8
1
  6
CONTINUOUS
 62
     7
 10
5.000000000000097
 20
474.9393824730883
 30
0.0
 40
82.49999999999991
  0
CIRCLE
  5
89
  8
1
  6
CONTINUOUS
 62
     7
 10
5.000000000000097
 20
474.9393824730883
 30
0.0
 40
76.17094755987776
  0
CIRCLE
  5
8A
  8
1
  6
CONTINUOUS
 62
     7
 10
114.9999999999998
 20
509.9393824730882
 30
0.0
 40
2.000000000000002
  0
CIRCLE
  5
8B
  8
1
  6
CONTINUOUS
 62
     7
 10
114.9999999999998
 20
619.9393824730884
 30
0.0
 40
2.000000000000002
  0
CIRCLE
  5
8C
  8
1
  6
CONTINUOUS
 62
     7
 10
-105.0
 20
509.9393824730882
 30
0.0
 40
2.000000000000002
  0
CIRCLE
  5
8D
  8
1
  6
CONTINUOUS
 62
     7
 10
-105.0
 20
619.9393824730884
 30
0.0
 40
2.000000000000002
  0
CIRCLE
  5
8E
  8
1
  6
CONTINUOUS
 62
     7
 10
-105.0
 20
729.9393824730884
 30
0.0
 40
2.000000000000002
  0
CIRCLE
  5
8F
  8
1
  6
CONTINUOUS
 62
     7
 10
114.9999999999998
 20
399.9393824730882
 30
0.0
 40
2.000000000000002
  0
CIRCLE
  5
90
  8
1
  6
CONTINUOUS
 62
     7
 10
-105.0
 20
399.9393824730882
 30
0.0
 40
2.000000000000002
  0
CIRCLE
  5
91
  8
1
  6
CONTINUOUS
 62
     7
 10
114.9999999999998
 20
729.9393824730884
 30
0.0
 40
2.000000000000002
  0
POLYLINE
  5
92
  8
1
  6
CONTINUOUS
 62
     7
 66
     1
 10
0.0
 20
0.0
 30
0.0
  0
VERTEX
  5
176
  8
1
  6
CONTINUOUS
 62
     7
 10
124.0000380769358
 20
359.9393824730882
 30
0.0
  0
VERTEX
  5
177
  8
1
  6
CONTINUOUS
 62
     7
 10
124.1951250274379
 20
359.9585960672492
 30
0.0
  0
VERTEX
  5
178
  8
1
  6
CONTINUOUS
 62
     7
 10
124.3827126940797
 20
360.0154985534439
 30
0.0
  0
VERTEX
  5
179
  8
1
  6
CONTINUOUS
 62
     7
 10
124.5555928847445
 20
360.1079034123787
 30
0.0
  0
VERTEX
  5
17A
  8
1
  6
CONTINUOUS
 62
     7
 10
124.7071225527451
 20
360.2322599203431
 30
0.0
  0
VERTEX
  5
17B
  8
1
  6
CONTINUOUS
 62
     7
 10
124.8314790607096
 20
360.3837895883437
 30
0.0
  0
VERTEX
  5
17C
  8
1
  6
CONTINUOUS
 62
     7
 10
124.9238839196443
 20
360.5566697790085
 30
0.0
  0
VERTEX
  5
17D
  8
1
  6
CONTINUOUS
 62
     7
 10
124.9807864058391
 20
360.7442574456503
 30
0.0
  0
VERTEX
  5
17E
  8
1
  6
CONTINUOUS
 62
     7
 10
125.0
 20
360.9393443961524
 30
0.0
  0
SEQEND
  5
1F6
  8
1
  6
CONTINUOUS
 62
     7
  0
POLYLINE
  5
93
  8
1
  6
CONTINUOUS
 62
     7
 66
     1
 10
0.0
 20
0.0
 30
0.0
  0
VERTEX
  5
17F
  8
1
  6
CONTINUOUS
 62
     7
 10
21.00000000000002
 20
750.9393443961525
 30
0.0
  0
VERTEX
  5
180
  8
1
  6
CONTINUOUS
 62
     7
 10
21.01921359416097
 20
750.7442574456503
 30
0.0
  0
VERTEX
  5
181
  8
1
  6
CONTINUOUS
 62
     7
 10
21.07611608035575
 20
750.5566697790086
 30
0.0
  0
VERTEX
  5
182
  8
1
  6
CONTINUOUS
 62
     7
 10
21.16852093929049
 20
750.3837895883437
 30
0.0
  0
VERTEX
  5
183
  8
1
  6
CONTINUOUS
 62
     7
 10
21.29287744725488
 20
750.2322599203432
 30
0.0
  0
VERTEX
  5
184
  8
1
  6
CONTINUOUS
 62
     7
 10
21.44440711525548
 20
750.1079034123787
 30
0.0
  0
VERTEX
  5
185
  8
1
  6
CONTINUOUS
 62
     7
 10
21.6172873059203
 20
750.0154985534441
 30
0.0
  0
VERTEX
  5
186
  8
1
  6
CONTINUOUS
 62
     7
 10
21.80487497256205
 20
749.9585960672493
 30
0.0
  0
VERTEX
  5
187
  8
1
  6
CONTINUOUS
 62
     7
 10
21.99996192306414
 20
749.9393824730884
 30
0.0
  0
SEQEND
  5
1F7
  8
1
  6
CONTINUOUS
 62
     7
  0
POLYLINE
  5
94
  8
1
  6
CONTINUOUS
 62
     7
 66
     1
 10
0.0
 20
0.0
 30
0.0
  0
VERTEX
  5
188
  8
1
  6
CONTINUOUS
 62
     7
 10
-11.99996192306423
 20
749.9393824730884
 30
0.0
  0
VERTEX
  5
189
  8
1
  6
CONTINUOUS
 62
     7
 10
-11.80487497256213
 20
749.9585960672493
 30
0.0
  0
VERTEX
  5
18A
  8
1
  6
CONTINUOUS
 62
     7
 10
-11.61728730592038
 20
750.015498553444
 30
0.0
  0
VERTEX
  5
18B
  8
1
  6
CONTINUOUS
 62
     7
 10
-11.44440711525554
 20
750.1079034123787
 30
0.0
  0
VERTEX
  5
18C
  8
1
  6
CONTINUOUS
 62
     7
 10
-11.29287744725493
 20
750.2322599203432
 30
0.0
  0
VERTEX
  5
18D
  8
1
  6
CONTINUOUS
 62
     7
 10
-11.16852093929053
 20
750.3837895883437
 30
0.0
  0
VERTEX
  5
18E
  8
1
  6
CONTINUOUS
 62
     7
 10
-11.07611608035577
 20
750.5566697790086
 30
0.0
  0
VERTEX
  5
18F
  8
1
  6
CONTINUOUS
 62
     7
 10
-11.01921359416099
 20
750.7442574456503
 30
0.0
  0
VERTEX
  5
190
  8
1
  6
CONTINUOUS
 62
     7
 10
-11.00000000000003
 20
750.9393443961525
 30
0.0
  0
SEQEND
  5
1F8
  8
1
  6
CONTINUOUS
 62
     7
  0
POLYLINE
  5
95
  8
1
  6
CONTINUOUS
 62
     7
 66
     1
 10
0.0
 20
0.0
 30
0.0
  0
VERTEX
  5
191
  8
1
  6
CONTINUOUS
 62
     7
 10
21.00000000000004
 20
764.9395728577673
 30
0.0
  0
VERTEX
  5
192
  8
1
  6
CONTINUOUS
 62
     7
 10
20.90393202919538
 20
765.9150076102777
 30
0.0
  0
VERTEX
  5
193
  8
1
  6
CONTINUOUS
 62
     7
 10
20.61941959822154
 20
766.8529459434867
 30
0.0
  0
VERTEX
  5
194
  8
1
  6
CONTINUOUS
 62
     7
 10
20.15739530354782
 20
767.7173468968108
 30
0.0
  0
VERTEX
  5
195
  8
1
  6
CONTINUOUS
 62
     7
 10
19.5356127637258
 20
768.4749952368139
 30
0.0
  0
VERTEX
  5
196
  8
1
  6
CONTINUOUS
 62
     7
 10
18.77796442372274
 20
769.0967777766359
 30
0.0
  0
VERTEX
  5
197
  8
1
  6
CONTINUOUS
 62
     7
 10
17.91356347039853
 20
769.5588020713096
 30
0.0
  0
VERTEX
  5
198
  8
1
  6
CONTINUOUS
 62
     7
 10
16.97562513718968
 20
769.8433145022834
 30
0.0
  0
VERTEX
  5
199
  8
1
  6
CONTINUOUS
 62
     7
 10
16.00019038467912
 20
769.9393824730881
 30
0.0
  0
SEQEND
  5
1F9
  8
1
  6
CONTINUOUS
 62
     7
  0
POLYLINE
  5
96
  8
1
  6
CONTINUOUS
 62
     7
 66
     1
 10
0.0
 20
0.0
 30
0.0
  0
VERTEX
  5
19A
  8
1
  6
CONTINUOUS
 62
     7
 10
-95.00076153871657
 20
769.9393824730881
 30
0.0
  0
VERTEX
  5
19B
  8
1
  6
CONTINUOUS
 62
     7
 10
-98.90250054875877
 20
769.5551105898694
 30
0.0
  0
VERTEX
  5
19C
  8
1
  6
CONTINUOUS
 62
     7
 10
-102.6542538815941
 20
768.417060865974
 30
0.0
  0
VERTEX
  5
19D
  8
1
  6
CONTINUOUS
 62
     7
 10
-106.1118576948909
 20
766.5689636872792
 30
0.0
  0
VERTEX
  5
19E
  8
1
  6
CONTINUOUS
 62
     7
 10
-109.1424510549031
 20
764.0818335279911
 30
0.0
  0
VERTEX
  5
19F
  8
1
  6
CONTINUOUS
 62
     7
 10
-111.6295812141911
 20
761.0512401679789
 30
0.0
  0
VERTEX
  5
1A0
  8
1
  6
CONTINUOUS
 62
     7
 10
-113.477678392886
 20
757.5936363546821
 30
0.0
  0
VERTEX
  5
1A1
  8
1
  6
CONTINUOUS
 62
     7
 10
-114.6157281167814
 20
753.8418830218468
 30
0.0
  0
VERTEX
  5
1A2
  8
1
  6
CONTINUOUS
 62
     7
 10
-115.0
 20
749.9401440118046
 30
0.0
  0
SEQEND
  5
1FA
  8
1
  6
CONTINUOUS
 62
     7
  0
POLYLINE
  5
97
  8
1
  6
CONTINUOUS
 62
     7
 66
     1
 10
0.0
 20
0.0
 30
0.0
  0
VERTEX
  5
1A3
  8
1
  6
CONTINUOUS
 62
     7
 10
-19.00000000000001
 20
764.9395728577673
 30
0.0
  0
VERTEX
  5
1A4
  8
1
  6
CONTINUOUS
 62
     7
 10
-19.09606797080467
 20
765.9150076102777
 30
0.0
  0
VERTEX
  5
1A5
  8
1
  6
CONTINUOUS
 62
     7
 10
-19.38058040177851
 20
766.8529459434867
 30
0.0
  0
VERTEX
  5
1A6
  8
1
  6
CONTINUOUS
 62
     7
 10
-19.84260469645222
 20
767.7173468968108
 30
0.0
  0
VERTEX
  5
1A7
  8
1
  6
CONTINUOUS
 62
     7
 10
-20.46438723627423
 20
768.4749952368139
 30
0.0
  0
VERTEX
  5
1A8
  8
1
  6
CONTINUOUS
 62
     7
 10
-21.22203557627729
 20
769.0967777766359
 30
0.0
  0
VERTEX
  5
1A9
  8
1
  6
CONTINUOUS
 62
     7
 10
-22.0864365296015
 20
769.5588020713096
 30
0.0
  0
VERTEX
  5
1AA
  8
1
  6
CONTINUOUS
 62
     7
 10
-23.02437486281034
 20
769.8433145022834
 30
0.0
  0
VERTEX
  5
1AB
  8
1
  6
CONTINUOUS
 62
     7
 10
-23.99980961532088
 20
769.9393824730881
 30
0.0
  0
SEQEND
  5
1FB
  8
1
  6
CONTINUOUS
 62
     7
  0
POLYLINE
  5
98
  8
1
  6
CONTINUOUS
 62
     7
 66
     1
 10
0.0
 20
0.0
 30
0.0
  0
VERTEX
  5
1AC
  8
1
  6
CONTINUOUS
 62
     7
 10
-19.0
 20
750.9393443961525
 30
0.0
  0
VERTEX
  5
1AD
  8
1
  6
CONTINUOUS
 62
     7
 10
-18.98078640583905
 20
750.7442574456503
 30
0.0
  0
VERTEX
  5
1AE
  8
1
  6
CONTINUOUS
 62
     7
 10
-18.92388391964427
 20
750.5566697790086
 30
0.0
  0
VERTEX
  5
1AF
  8
1
  6
CONTINUOUS
 62
     7
 10
-18.83147906070953
 20
750.3837895883437
 30
0.0
  0
VERTEX
  5
1B0
  8
1
  6
CONTINUOUS
 62
     7
 10
-18.70712255274513
 20
750.2322599203432
 30
0.0
  0
VERTEX
  5
1B1
  8
1
  6
CONTINUOUS
 62
     7
 10
-18.55559288474453
 20
750.1079034123787
 30
0.0
  0
VERTEX
  5
1B2
  8
1
  6
CONTINUOUS
 62
     7
 10
-18.3827126940797
 20
750.0154985534441
 30
0.0
  0
VERTEX
  5
1B3
  8
1
  6
CONTINUOUS
 62
     7
 10
-18.19512502743795
 20
749.9585960672493
 30
0.0
  0
VERTEX
  5
1B4
  8
1
  6
CONTINUOUS
 62
     7
 10
-18.00003807693586
 20
749.9393824730884
 30
0.0
  0
SEQEND
  5
1FC
  8
1
  6
CONTINUOUS
 62
     7
  0
POLYLINE
  5
99
  8
1
  6
CONTINUOUS
 62
     7
 66
     1
 10
0.0
 20
0.0
 30
0.0
  0
VERTEX
  5
1B5
  8
1
  6
CONTINUOUS
 62
     7
 10
33.99980961532081
 20
769.9393824730882
 30
0.0
  0
VERTEX
  5
1B6
  8
1
  6
CONTINUOUS
 62
     7
 10
33.02437486281026
 20
769.8433145022835
 30
0.0
  0
VERTEX
  5
1B7
  8
1
  6
CONTINUOUS
 62
     7
 10
32.08643652960144
 20
769.5588020713096
 30
0.0
  0
VERTEX
  5
1B8
  8
1
  6
CONTINUOUS
 62
     7
 10
31.22203557627725
 20
769.0967777766359
 30
0.0
  0
VERTEX
  5
1B9
  8
1
  6
CONTINUOUS
 62
     7
 10
30.46438723627421
 20
768.4749952368139
 30
0.0
  0
VERTEX
  5
1BA
  8
1
  6
CONTINUOUS
 62
     7
 10
29.84260469645222
 20
767.7173468968108
 30
0.0
  0
VERTEX
  5
1BB
  8
1
  6
CONTINUOUS
 62
     7
 10
29.38058040177852
 20
766.8529459434866
 30
0.0
  0
VERTEX
  5
1BC
  8
1
  6
CONTINUOUS
 62
     7
 10
29.09606797080468
 20
765.9150076102777
 30
0.0
  0
VERTEX
  5
1BD
  8
1
  6
CONTINUOUS
 62
     7
 10
29.00000000000003
 20
764.9395728577673
 30
0.0
  0
SEQEND
  5
1FD
  8
1
  6
CONTINUOUS
 62
     7
  0
POLYLINE
  5
9A
  8
1
  6
CONTINUOUS
 62
     7
 66
     1
 10
0.0
 20
0.0
 30
0.0
  0
VERTEX
  5
1BE
  8
1
  6
CONTINUOUS
 62
     7
 10
-6.000190384679186
 20
769.9393824730881
 30
0.0
  0
VERTEX
  5
1BF
  8
1
  6
CONTINUOUS
 62
     7
 10
-6.975625137189737
 20
769.8433145022835
 30
0.0
  0
VERTEX
  5
1C0
  8
1
  6
CONTINUOUS
 62
     7
 10
-7.913563470398568
 20
769.5588020713096
 30
0.0
  0
VERTEX
  5
1C1
  8
1
  6
CONTINUOUS
 62
     7
 10
-8.777964423722766
 20
769.0967777766359
 30
0.0
  0
VERTEX
  5
1C2
  8
1
  6
CONTINUOUS
 62
     7
 10
-9.535612763725808
 20
768.4749952368139
 30
0.0
  0
VERTEX
  5
1C3
  8
1
  6
CONTINUOUS
 62
     7
 10
-10.15739530354781
 20
767.7173468968108
 30
0.0
  0
VERTEX
  5
1C4
  8
1
  6
CONTINUOUS
 62
     7
 10
-10.61941959822151
 20
766.8529459434866
 30
0.0
  0
VERTEX
  5
1C5
  8
1
  6
CONTINUOUS
 62
     7
 10
-10.90393202919535
 20
765.9150076102777
 30
0.0
  0
VERTEX
  5
1C6
  8
1
  6
CONTINUOUS
 62
     7
 10
-11.00000000000001
 20
764.9395728577673
 30
0.0
  0
SEQEND
  5
1FE
  8
1
  6
CONTINUOUS
 62
     7
  0
POLYLINE
  5
9B
  8
1
  6
CONTINUOUS
 62
     7
 66
     1
 10
0.0
 20
0.0
 30
0.0
  0
VERTEX
  5
1C7
  8
1
  6
CONTINUOUS
 62
     7
 10
28.00003807693579
 20
749.9393824730884
 30
0.0
  0
VERTEX
  5
1C8
  8
1
  6
CONTINUOUS
 62
     7
 10
28.1951250274379
 20
749.9585960672492
 30
0.0
  0
VERTEX
  5
1C9
  8
1
  6
CONTINUOUS
 62
     7
 10
28.38271269407966
 20
750.015498553444
 30
0.0
  0
VERTEX
  5
1CA
  8
1
  6
CONTINUOUS
 62
     7
 10
28.5555928847445
 20
750.1079034123787
 30
0.0
  0
VERTEX
  5
1CB
  8
1
  6
CONTINUOUS
 62
     7
 10
28.70712255274512
 20
750.2322599203432
 30
0.0
  0
VERTEX
  5
1CC
  8
1
  6
CONTINUOUS
 62
     7
 10
28.83147906070953
 20
750.3837895883437
 30
0.0
  0
VERTEX
  5
1CD
  8
1
  6
CONTINUOUS
 62
     7
 10
28.92388391964428
 20
750.5566697790086
 30
0.0
  0
VERTEX
  5
1CE
  8
1
  6
CONTINUOUS
 62
     7
 10
28.98078640583907
 20
750.7442574456503
 30
0.0
  0
VERTEX
  5
1CF
  8
1
  6
CONTINUOUS
 62
     7
 10
29.00000000000002
 20
750.9393443961525
 30
0.0
  0
SEQEND
  5
1FF
  8
1
  6
CONTINUOUS
 62
     7
  0
POLYLINE
  5
9C
  8
1
  6
CONTINUOUS
 62
     7
 66
     1
 10
0.0
 20
0.0
 30
0.0
  0
VERTEX
  5
1D0
  8
1
  6
CONTINUOUS
 62
     7
 10
-115.0
 20
360.9393443961524
 30
0.0
  0
VERTEX
  5
1D1
  8
1
  6
CONTINUOUS
 62
     7
 10
-114.9807864058391
 20
360.7442574456504
 30
0.0
  0
VERTEX
  5
1D2
  8
1
  6
CONTINUOUS
 62
     7
 10
-114.9238839196443
 20
360.5566697790086
 30
0.0
  0
VERTEX
  5
1D3
  8
1
  6
CONTINUOUS
 62
     7
 10
-114.8314790607096
 20
360.3837895883437
 30
0.0
  0
VERTEX
  5
1D4
  8
1
  6
CONTINUOUS
 62
     7
 10
-114.7071225527452
 20
360.2322599203431
 30
0.0
  0
VERTEX
  5
1D5
  8
1
  6
CONTINUOUS
 62
     7
 10
-114.5555928847446
 20
360.1079034123787
 30
0.0
  0
VERTEX
  5
1D6
  8
1
  6
CONTINUOUS
 62
     7
 10
-114.3827126940797
 20
360.0154985534439
 30
0.0
  0
VERTEX
  5
1D7
  8
1
  6
CONTINUOUS
 62
     7
 10
-114.195125027438
 20
359.9585960672492
 30
0.0
  0
VERTEX
  5
1D8
  8
1
  6
CONTINUOUS
 62
     7
 10
-114.0000380769359
 20
359.9393824730882
 30
0.0
  0
SEQEND
  5
200
  8
1
  6
CONTINUOUS
 62
     7
  0
POLYLINE
  5
9D
  8
1
  6
CONTINUOUS
 62
     7
 66
     1
 10
0.0
 20
0.0
 30
0.0
  0
VERTEX
  5
1D9
  8
1
  6
CONTINUOUS
 62
     7
 10
125.0
 20
749.9401440118046
 30
0.0
  0
VERTEX
  5
1DA
  8
1
  6
CONTINUOUS
 62
     7
 10
124.6157281167814
 20
753.8418830218468
 30
0.0
  0
VERTEX
  5
1DB
  8
1
  6
CONTINUOUS
 62
     7
 10
123.4776783928859
 20
757.5936363546821
 30
0.0
  0
VERTEX
  5
1DC
  8
1
  6
CONTINUOUS
 62
     7
 10
121.6295812141911
 20
761.0512401679789
 30
0.0
  0
VERTEX
  5
1DD
  8
1
  6
CONTINUOUS
 62
     7
 10
119.142451054903
 20
764.0818335279911
 30
0.0
  0
VERTEX
  5
1DE
  8
1
  6
CONTINUOUS
 62
     7
 10
116.1118576948908
 20
766.5689636872792
 30
0.0
  0
VERTEX
  5
1DF
  8
1
  6
CONTINUOUS
 62
     7
 10
112.654253881594
 20
768.417060865974
 30
0.0
  0
VERTEX
  5
1E0
  8
1
  6
CONTINUOUS
 62
     7
 10
108.9025005487587
 20
769.5551105898694
 30
0.0
  0
VERTEX
  5
1E1
  8
1
  6
CONTINUOUS
 62
     7
 10
105.0007615387165
 20
769.9393824730881
 30
0.0
  0
SEQEND
  5
201
  8
1
  6
CONTINUOUS
 62
     7
  0
LINE
  5
9E
  8
1
  6
CONTINUOUS
 62
     7
 10
-11.00000000000003
 20
764.9395728577672
 30
0.0
 11
-11.00000000000003
 21
750.9393443961525
 31
0.0
  0
LINE
  5
9F
  8
1
  6
CONTINUOUS
 62
     7
 10
28.00003807693579
 20
749.9393824730884
 30
0.0
 11
21.99996192306413
 21
749.9393824730884
 31
0.0
  0
LINE
  5
A0
  8
1
  6
CONTINUOUS
 62
     7
 10
21.00000000000001
 20
750.9393443961525
 30
0.0
 11
21.00000000000001
 21
764.9395728577672
 31
0.0
  0
LINE
  5
A1
  8
1
  6
CONTINUOUS
 62
     7
 10
16.00019038467912
 20
769.9393824730881
 30
0.0
 11
-6.000190384679184
 21
769.9393824730881
 31
0.0
  0
LINE
  5
A2
  8
1
  6
CONTINUOUS
 62
     7
 10
125.0
 20
360.9393443961524
 30
0.0
 11
125.0
 21
749.9401440118045
 31
0.0
  0
LINE
  5
A3
  8
1
  6
CONTINUOUS
 62
     7
 10
-23.99980961532089
 20
769.9393824730881
 30
0.0
 11
-94.99999999999997
 21
769.9393824730881
 31
0.0
  0
LINE
  5
A4
  8
1
  6
CONTINUOUS
 62
     7
 10
-94.99999999999997
 20
769.9393824730881
 30
0.0
 11
-95.00076153871659
 21
769.9393824730881
 31
0.0
  0
LINE
  5
A5
  8
1
  6
CONTINUOUS
 62
     7
 10
-11.99996192306423
 20
749.9393824730884
 30
0.0
 11
-18.00003807693586
 21
749.9393824730884
 31
0.0
  0
LINE
  5
A6
  8
1
  6
CONTINUOUS
 62
     7
 10
29.00000000000002
 20
764.9395728577672
 30
0.0
 11
29.00000000000002
 21
750.9393443961525
 31
0.0
  0
LINE
  5
A7
  8
1
  6
CONTINUOUS
 62
     7
 10
-114.0000380769358
 20
359.9393824730882
 30
0.0
 11
-94.99999999999997
 21
359.9393824730882
 31
0.0
  0
LINE
  5
A8
  8
1
  6
CONTINUOUS
 62
     7
 10
-94.99999999999997
 20
359.9393824730882
 30
0.0
 11
105.0
 21
359.9393824730882
 31
0.0
  0
LINE
  5
A9
  8
1
  6
CONTINUOUS
 62
     7
 10
105.0
 20
359.9393824730882
 30
0.0
 11
124.0000380769358
 21
359.9393824730882
 31
0.0
  0
LINE
  5
AA
  8
1
  6
CONTINUOUS
 62
     7
 10
105.0007615387165
 20
769.9393824730881
 30
0.0
 11
105.0
 21
769.9393824730881
 31
0.0
  0
LINE
  5
AB
  8
1
  6
CONTINUOUS
 62
     7
 10
105.0
 20
769.9393824730881
 30
0.0
 11
33.99980961532081
 21
769.9393824730881
 31
0.0
  0
LINE
  5
AC
  8
1
  6
CONTINUOUS
 62
     7
 10
-19.00000000000002
 20
750.9393443961525
 30
0.0
 11
-19.00000000000002
 21
764.9395728577672
 31
0.0
  0
LINE
  5
AD
  8
1
  6
CONTINUOUS
 62
     7
 10
-115.0
 20
749.9401440118045
 30
0.0
 11
-115.0
 21
360.9393443961524
 31
0.0
  0
ENDBLK
  8
0
  0
BLOCK
  8
0
  2
D_FRAME_VIEW_1802
 70
     0
 10
0.0
 20
0.0
 30
0.0
  0
LINE
  5
B2
  8
1
  6
CONTINUOUS
 62
     7
 10
76.00876494617653
 20
1005.0
 30
0.0
 11
80.0086126384332
 21
1005.0
 31
0.0
  0
ARC
  5
B3
  8
1
  6
CONTINUOUS
 62
     7
 10
76.00876494617651
 20
1004.0
 30
0.0
 40
1.000000000000001
 50
90.0
 51
180.4999999999999
  0
LINE
  5
B4
  8
1
  6
CONTINUOUS
 62
     7
 10
80.00861263843322
 20
1005.0
 30
0.0
 11
104.9919585156043
 21
1005.0
 31
0.0
  0
LINE
  5
B5
  8
1
  6
CONTINUOUS
 62
     7
 10
104.9919585156043
 20
1005.0
 30
0.0
 11
123.9912350538235
 21
1005.0
 31
0.0
  0
ARC
  5
B6
  8
1
  6
CONTINUOUS
 62
     7
 10
123.9912350538235
 20
1004.0
 30
0.0
 40
1.000000000000001
 50
359.5000000000001
 51
90.0
  0
LINE
  5
B7
  8
1
  6
CONTINUOUS
 62
     7
 10
80.02599021869318
 20
1002.0
 30
0.0
 11
75.02618060337231
 21
1002.0
 31
0.0
  0
LINE
  5
B8
  8
1
  6
CONTINUOUS
 62
     7
 10
75.02618060337231
 20
1002.0
 30
0.0
 11
75.00880302311235
 21
1003.991273464502
 31
0.0
  0
LINE
  5
B9
  8
1
  6
CONTINUOUS
 62
     7
 10
105.0
 20
1000.0
 30
0.0
 11
104.9127313220924
 21
990.0
 31
0.0
  0
LINE
  5
BA
  8
1
  6
CONTINUOUS
 62
     7
 10
104.9127313220924
 20
990.0
 30
0.0
 11
104.8698585218552
 21
990.0
 31
0.0
  0
LINE
  5
BB
  8
1
  6
CONTINUOUS
 62
     7
 10
124.9911969768877
 20
1003.991273464502
 30
0.0
 11
124.9563656610462
 21
1000.0
 31
0.0
  0
LINE
  5
BC
  8
1
  6
CONTINUOUS
 62
     7
 10
95.10472241348913
 20
990.0
 30
0.0
 11
95.00000000000003
 21
1002.0
 31
0.0
  0
LINE
  5
BD
  8
1
  6
CONTINUOUS
 62
     7
 10
95.00000000000003
 20
1002.0
 30
0.0
 11
80.02599021869317
 21
1002.0
 31
0.0
  0
LINE
  5
BE
  8
1
  6
CONTINUOUS
 62
     7
 10
105.0
 20
999.4999999999999
 30
0.0
 11
104.9956365661047
 21
999.4999999999999
 31
0.0
  0
LINE
  5
BF
  8
1
  6
CONTINUOUS
 62
     7
 10
81.19578518960274
 20
1001.5
 30
0.0
 11
81.17673552908488
 21
1001.506803038084
 31
0.0
  0
LINE
  5
C0
  8
1
  6
CONTINUOUS
 62
     7
 10
-94.99195851560424
 20
1005.0
 30
0.0
 11
-70.00861263843318
 21
1005.0
 31
0.0
  0
ARC
  5
C1
  8
1
  6
CONTINUOUS
 62
     7
 10
-113.9912350538235
 20
1004.0
 30
0.0
 40
1.000000000000003
 50
90.0
 51
180.5
  0
LINE
  5
C2
  8
1
  6
CONTINUOUS
 62
     7
 10
-113.9912350538235
 20
1005.0
 30
0.0
 11
-94.99195851560422
 21
1005.0
 31
0.0
  0
LINE
  5
C3
  8
1
  6
CONTINUOUS
 62
     7
 10
-70.00861263843319
 20
1005.0
 30
0.0
 11
-66.0087649461765
 21
1005.0
 31
0.0
  0
ARC
  5
C4
  8
1
  6
CONTINUOUS
 62
     7
 10
-66.0087649461765
 20
1004.0
 30
0.0
 40
1.000000000000003
 50
359.4999999999999
 51
90.0
  0
LINE
  5
C5
  8
1
  6
CONTINUOUS
 62
     7
 10
-84.99999999999999
 20
1002.0
 30
0.0
 11
-70.02599021869312
 21
1002.0
 31
0.0
  0
LINE
  5
C6
  8
1
  6
CONTINUOUS
 62
     7
 10
-85.1047224134891
 20
990.0
 30
0.0
 11
-84.99999999999999
 21
1002.0
 31
0.0
  0
LINE
  5
C7
  8
1
  6
CONTINUOUS
 62
     7
 10
-65.02618060337227
 20
1002.0
 30
0.0
 11
-70.02599021869314
 21
1002.0
 31
0.0
  0
LINE
  5
C8
  8
1
  6
CONTINUOUS
 62
     7
 10
-65.00880302311232
 20
1003.991273464502
 30
0.0
 11
-65.02618060337227
 21
1002.0
 31
0.0
  0
LINE
  5
C9
  8
1
  6
CONTINUOUS
 62
     7
 10
-94.86985852185518
 20
990.0
 30
0.0
 11
-94.91273132209241
 21
990.0
 31
0.0
  0
LINE
  5
CA
  8
1
  6
CONTINUOUS
 62
     7
 10
-94.91273132209241
 20
990.0
 30
0.0
 11
-95.0
 21
1000.0
 31
0.0
  0
LINE
  5
CB
  8
1
  6
CONTINUOUS
 62
     7
 10
-95.0
 20
1000.0
 30
0.0
 11
-96.81381094191335
 21
1000.0
 31
0.0
  0
LINE
  5
CC
  8
1
  6
CONTINUOUS
 62
     7
 10
-114.9563656610462
 20
1000.0
 30
0.0
 11
-114.9911969768877
 21
1003.991273464502
 31
0.0
  0
LINE
  5
CD
  8
1
  6
CONTINUOUS
 62
     7
 10
-94.99563656610461
 20
999.5
 30
0.0
 11
-94.99999999999997
 21
999.5
 31
0.0
  0
LINE
  5
CE
  8
1
  6
CONTINUOUS
 62
     7
 10
22.96898030632303
 20
995.0
 30
0.0
 11
-12.96898030632303
 21
995.0
 31
0.0
  0
LINE
  5
CF
  8
1
  6
CONTINUOUS
 62
     7
 10
22.97572724319915
 20
997.7813824366133
 30
0.0
 11
22.97462350482817
 21
997.8441890492214
 31
0.0
  0
LINE
  5
D0
  8
1
  6
CONTINUOUS
 62
     7
 10
22.99995555550069
 20
995.0
 30
0.0
 11
22.96898030632304
 21
995.0
 31
0.0
  0
LINE
  5
D1
  8
1
  6
CONTINUOUS
 62
     7
 10
-12.96898030632303
 20
995.0
 30
0.0
 11
-12.99995555550068
 21
995.0
 31
0.0
  0
LINE
  5
D2
  8
1
  6
CONTINUOUS
 62
     7
 10
-10.96676425368805
 20
1000.0
 30
0.0
 11
20.96676425368805
 21
1000.0
 31
0.0
  0
POLYLINE
  5
D3
  8
1
  6
CONTINUOUS
 62
     7
 66
     1
 10
0.0
 20
0.0
 30
0.0
  0
VERTEX
  5
1E2
  8
1
  6
CONTINUOUS
 62
     7
 10
22.99996251592797
 20
994.6258134113677
 30
0.0
  0
VERTEX
  5
1E3
  8
1
  6
CONTINUOUS
 62
     7
 10
22.99116466067283
 20
994.4978301914205
 30
0.0
  0
VERTEX
  5
1E4
  8
1
  6
CONTINUOUS
 62
     7
 10
22.96598790948606
 20
994.3695311581723
 30
0.0
  0
VERTEX
  5
1E5
  8
1
  6
CONTINUOUS
 62
     7
 10
22.90940562222452
 20
994.1980875047847
 30
0.0
  0
VERTEX
  5
1E6
  8
1
  6
CONTINUOUS
 62
     7
 10
22.8314147297763
 20
994.030286768107
 30
0.0
  0
SEQEND
  5
202
  8
1
  6
CONTINUOUS
 62
     7
  0
ARC
  5
D4
  8
1
  6
CONTINUOUS
 62
     7
 10
17.71355127024517
 20
996.9748856286957
 30
0.0
 40
5.904505808294579
 50
324.053025886016
 51
330.0857258894794
  0
LINE
  5
D5
  8
1
  6
CONTINUOUS
 62
     7
 10
22.99996251592797
 20
994.6258134113679
 30
0.0
 11
22.99995555550069
 21
994.9999999999999
 31
0.0
  0
LINE
  5
D6
  8
1
  6
CONTINUOUS
 62
     7
 10
-12.99995555550068
 20
995.0000000000003
 30
0.0
 11
-12.99996251592797
 21
994.6258134113679
 31
0.0
  0
LINE
  5
D7
  8
1
  6
CONTINUOUS
 62
     7
 10
22.96581432585807
 20
998.0174530709969
 30
0.0
 11
22.96217369907107
 21
998.1354294845156
 31
0.0
  0
LINE
  5
D8
  8
1
  6
CONTINUOUS
 62
     7
 10
-12.96217369907113
 20
998.1354294845149
 30
0.0
 11
-12.96581432585806
 21
998.0174530709972
 31
0.0
  0
LINE
  5
D9
  8
1
  6
CONTINUOUS
 62
     7
 10
23.00000000000001
 20
995.0
 30
0.0
 11
23.00000000000001
 21
990.2082269974122
 31
0.0
  0
LINE
  5
DA
  8
1
  6
CONTINUOUS
 62
     7
 10
-12.99999999999999
 20
990.2082269974132
 30
0.0
 11
-12.99999999999999
 21
995.0
 31
0.0
  0
LINE
  5
DB
  8
1
  6
CONTINUOUS
 62
     7
 10
-77.54803585050996
 20
995.4956367322508
 30
0.0
 11
-77.5043253562346
 21
1000.504363267749
 31
0.0
  0
LINE
  5
DC
  8
1
  6
CONTINUOUS
 62
     7
 10
23.00000000000001
 20
990.2082269974122
 30
0.0
 11
23.00000000000001
 21
990.0
 31
0.0
  0
LINE
  5
DD
  8
1
  6
CONTINUOUS
 62
     7
 10
72.95770423689697
 20
995.0
 30
0.0
 11
22.99997362019869
 21
995.0
 31
0.0
  0
ARC
  5
DE
  8
1
  6
CONTINUOUS
 62
     7
 10
-61.95198318795796
 20
995.4999999999999
 30
0.0
 40
0.5000000000000008
 50
180.5000000000002
 51
269.9999999999984
  0
ARC
  5
DF
  8
1
  6
CONTINUOUS
 62
     7
 10
-62.67923134543701
 20
998.3395630338745
 30
0.0
 40
3.351153295284944
 50
238.064170333701
 51
265.2333600507308
  0
LINE
  5
E0
  8
1
  6
CONTINUOUS
 62
     7
 10
-12.99997362019869
 20
995.0
 30
0.0
 11
-62.95770423689695
 21
995.0
 31
0.0
  0
LINE
  5
E1
  8
1
  6
CONTINUOUS
 62
     7
 10
-12.99999999999999
 20
990.0
 30
0.0
 11
-12.99999999999999
 21
990.2082269974132
 31
0.0
  0
ARC
  5
E2
  8
1
  6
CONTINUOUS
 62
     7
 10
71.95198318795798
 20
995.4999999999999
 30
0.0
 40
0.4999999999999449
 50
270.0
 51
359.5000000000001
  0
LINE
  5
E3
  8
1
  6
CONTINUOUS
 62
     7
 10
87.50432535623462
 20
1000.504363267749
 30
0.0
 11
87.54803585050998
 21
995.4956367322507
 31
0.0
  0
LINE
  5
E4
  8
1
  6
CONTINUOUS
 62
     7
 10
-82.5
 20
990.0
 30
0.0
 11
-82.46069101728081
 21
994.5043632677491
 31
0.0
  0
LINE
  5
E5
  8
1
  6
CONTINUOUS
 62
     7
 10
92.46069101728081
 20
994.5043632677491
 30
0.0
 11
92.50000000000001
 21
990.0
 31
0.0
  0
ARC
  5
E6
  8
1
  6
CONTINUOUS
 62
     7
 10
91.96071005574875
 20
994.4999999999999
 30
0.0
 40
0.500000000000056
 50
0.5
 51
90.0
  0
LINE
  5
E7
  8
1
  6
CONTINUOUS
 62
     7
 10
87.5420920428918
 20
995.0
 30
0.0
 11
91.96071005574875
 21
995.0
 31
0.0
  0
ARC
  5
E8
  8
1
  6
CONTINUOUS
 62
     7
 10
-81.96071005574872
 20
994.4999999999999
 30
0.0
 40
0.5000000000000018
 50
90.0
 51
179.5
  0
LINE
  5
E9
  8
1
  6
CONTINUOUS
 62
     7
 10
-81.96071005574873
 20
995.0
 30
0.0
 11
-77.54209204289178
 21
995.0
 31
0.0
  0
LINE
  5
EA
  8
1
  6
CONTINUOUS
 62
     7
 10
-62.49567464376541
 20
1000.504363267749
 30
0.0
 11
-62.45196414949005
 21
995.4956367322507
 31
0.0
  0
LINE
  5
EB
  8
1
  6
CONTINUOUS
 62
     7
 10
72.45196414949005
 20
995.4956367322508
 30
0.0
 11
72.49567464376541
 21
1000.504363267749
 31
0.0
  0
LINE
  5
EC
  8
1
  6
CONTINUOUS
 62
     7
 10
72.9956556052975
 20
1001.0
 30
0.0
 11
74.49559848989375
 21
1001.0
 31
0.0
  0
ARC
  5
ED
  8
1
  6
CONTINUOUS
 62
     7
 10
72.9956556052975
 20
1000.5
 30
0.0
 40
0.500000000000056
 50
89.99999999999841
 51
179.4999999999999
  0
LINE
  5
EE
  8
1
  6
CONTINUOUS
 62
     7
 10
-75.50440151010626
 20
1001.0
 30
0.0
 11
-64.49559848989375
 21
1001.0
 31
0.0
  0
LINE
  5
EF
  8
1
  6
CONTINUOUS
 62
     7
 10
74.49559848989375
 20
1001.0
 30
0.0
 11
85.5044015101063
 21
1001.0
 31
0.0
  0
LINE
  5
F0
  8
1
  6
CONTINUOUS
 62
     7
 10
-64.49559848989375
 20
1001.0
 30
0.0
 11
-62.99565560529749
 21
1001.0
 31
0.0
  0
ARC
  5
F1
  8
1
  6
CONTINUOUS
 62
     7
 10
-62.99565560529749
 20
1000.5
 30
0.0
 40
0.4999999999999948
 50
0.5000000000000812
 51
90.0
  0
LINE
  5
F2
  8
1
  6
CONTINUOUS
 62
     7
 10
85.5044015101063
 20
1001.0
 30
0.0
 11
87.00434439470253
 21
1001.0
 31
0.0
  0
ARC
  5
F3
  8
1
  6
CONTINUOUS
 62
     7
 10
87.00434439470253
 20
1000.5
 30
0.0
 40
0.5000000000000018
 50
0.5000000000000812
 51
90.0
  0
LINE
  5
F4
  8
1
  6
CONTINUOUS
 62
     7
 10
-77.00434439470253
 20
1001.0
 30
0.0
 11
-75.50440151010626
 21
1001.0
 31
0.0
  0
ARC
  5
F5
  8
1
  6
CONTINUOUS
 62
     7
 10
-77.00434439470253
 20
1000.5
 30
0.0
 40
0.500000000000056
 50
89.99999999999841
 51
179.4999999999999
  0
ARC
  5
F6
  8
1
  6
CONTINUOUS
 62
     7
 10
-78.04801681204204
 20
995.4999999999999
 30
0.0
 40
0.4999999999999449
 50
270.0
 51
359.5000000000001
  0
ARC
  5
F7
  8
1
  6
CONTINUOUS
 62
     7
 10
88.04801681204206
 20
995.4999999999999
 30
0.0
 40
0.4999999999999449
 50
180.5000000000001
 51
270.0
  0
ARC
  5
F8
  8
1
  6
CONTINUOUS
 62
     7
 10
46.67819926235455
 20
997.0
 30
0.0
 40
2.000000000000002
 50
189.9999999999987
 51
270.0
  0
ARC
  5
F9
  8
1
  6
CONTINUOUS
 62
     7
 10
-36.67819926235457
 20
997.0
 30
0.0
 40
2.000000000000002
 50
311.378425723937
 51
350.0000000000013
  0
LINE
  5
FA
  8
1
  6
CONTINUOUS
 62
     7
 10
44.70858375633014
 20
996.6527036446662
 30
0.0
 11
44.63518834835492
 21
997.0689496875594
 31
0.0
  0
LINE
  5
FB
  8
1
  6
CONTINUOUS
 62
     7
 10
-34.63518834835492
 20
997.0689496875594
 30
0.0
 11
-34.70858375633014
 21
996.6527036446662
 31
0.0
  0
LINE
  5
FC
  8
1
  6
CONTINUOUS
 62
     7
 10
-34.63518834835492
 20
997.0689496875594
 30
0.0
 11
-31.16727179709534
 21
1016.736481776669
 31
0.0
  0
LINE
  5
FD
  8
1
  6
CONTINUOUS
 62
     7
 10
41.16727179709532
 20
1016.736481776669
 30
0.0
 11
44.63518834835492
 21
997.0689496875594
 31
0.0
  0
ARC
  5
FE
  8
1
  6
CONTINUOUS
 62
     7
 10
31.31919426697324
 20
1015.0
 30
0.0
 40
10.0
 50
9.999999999999945
 51
90.0
  0
ARC
  5
FF
  8
1
  6
CONTINUOUS
 62
     7
 10
-21.31919426697325
 20
1015.0
 30
0.0
 40
10.0
 50
90.0
 51
170.0
  0
LINE
  5
100
  8
1
  6
CONTINUOUS
 62
     7
 10
-21.31919426697325
 20
1025.0
 30
0.0
 11
31.31919426697324
 21
1025.0
 31
0.0
  0
LINE
  5
101
  8
1
  6
CONTINUOUS
 62
     7
 10
-94.99999999999997
 20
990.0
 30
0.0
 11
-195.0
 21
990.0
 31
0.0
  0
LINE
  5
102
  8
1
  6
CONTINUOUS
 62
     7
 10
-195.0
 20
990.0
 30
0.0
 11
-195.0
 21
1000.0
 31
0.0
  0
LINE
  5
103
  8
1
  6
CONTINUOUS
 62
     7
 10
-94.99999999999997
 20
990.0
 30
0.0
 11
-94.99999999999997
 21
1000.0
 31
0.0
  0
LINE
  5
104
  8
1
  6
CONTINUOUS
 62
     7
 10
-96.81381094191335
 20
1000.0
 30
0.0
 11
-195.0
 21
1000.0
 31
0.0
  0
LINE
  5
105
  8
1
  6
CONTINUOUS
 62
     7
 10
205.0
 20
990.0
 30
0.0
 11
105.0
 21
990.0
 31
0.0
  0
LINE
  5
106
  8
1
  6
CONTINUOUS
 62
     7
 10
105.0
 20
990.0
 30
0.0
 11
105.0
 21
1000.0
 31
0.0
  0
LINE
  5
107
  8
1
  6
CONTINUOUS
 62
     7
 10
205.0
 20
990.0
 30
0.0
 11
205.0
 21
1000.0
 31
0.0
  0
LINE
  5
108
  8
1
  6
CONTINUOUS
 62
     7
 10
205.0
 20
1000.0
 30
0.0
 11
105.0
 21
1000.0
 31
0.0
  0
LINE
  5
109
  8
1
  6
CONTINUOUS
 62
     7
 10
-23.9998096153209
 20
990.0
 30
0.0
 11
-19.00000000000001
 21
990.0
 31
0.0
  0
LINE
  5
10A
  8
1
  6
CONTINUOUS
 62
     7
 10
-19.00000000000002
 20
990.0
 30
0.0
 11
-19.03498362648461
 21
985.9912734645017
 31
0.0
  0
LINE
  5
10B
  8
1
  6
CONTINUOUS
 62
     7
 10
16.00019038467911
 20
990.0
 30
0.0
 11
21.00000000000004
 21
990.0
 31
0.0
  0
LINE
  5
10C
  8
1
  6
CONTINUOUS
 62
     7
 10
21.00000000000001
 20
990.0
 30
0.0
 11
20.96501637351541
 21
985.9912734645017
 31
0.0
  0
LINE
  5
10D
  8
1
  6
CONTINUOUS
 62
     7
 10
-114.9650163735154
 20
985.9912734645017
 30
0.0
 11
-115.0
 21
990.0
 31
0.0
  0
LINE
  5
10E
  8
1
  6
CONTINUOUS
 62
     7
 10
29.00000000000002
 20
990.0
 30
0.0
 11
33.99980961532081
 21
990.0
 31
0.0
  0
LINE
  5
10F
  8
1
  6
CONTINUOUS
 62
     7
 10
29.03498362648462
 20
985.9912734645017
 30
0.0
 11
29.00000000000002
 21
990.0
 31
0.0
  0
LINE
  5
110
  8
1
  6
CONTINUOUS
 62
     7
 10
105.0007615387165
 20
990.0
 30
0.0
 11
105.0
 21
990.0
 31
0.0
  0
LINE
  5
111
  8
1
  6
CONTINUOUS
 62
     7
 10
105.0
 20
990.0
 30
0.0
 11
33.99980961532081
 21
990.0
 31
0.0
  0
LINE
  5
112
  8
1
  6
CONTINUOUS
 62
     7
 10
-10.96501637351541
 20
985.9912734645017
 30
0.0
 11
-11.00000000000003
 21
990.0
 31
0.0
  0
LINE
  5
113
  8
1
  6
CONTINUOUS
 62
     7
 10
-11.00000000000001
 20
990.0
 30
0.0
 11
-6.000190384679184
 21
990.0
 31
0.0
  0
LINE
  5
114
  8
1
  6
CONTINUOUS
 62
     7
 10
16.00019038467912
 20
990.0
 30
0.0
 11
-6.000190384679184
 21
990.0
 31
0.0
  0
LINE
  5
115
  8
1
  6
CONTINUOUS
 62
     7
 10
125.0
 20
990.0
 30
0.0
 11
124.9650163735154
 21
985.9912734645017
 31
0.0
  0
LINE
  5
116
  8
1
  6
CONTINUOUS
 62
     7
 10
-23.99980961532089
 20
990.0
 30
0.0
 11
-94.86985852185519
 21
990.0
 31
0.0
  0
LINE
  5
117
  8
1
  6
CONTINUOUS
 62
     7
 10
-94.86985852185519
 20
990.0
 30
0.0
 11
-94.91273132209241
 21
990.0
 31
0.0
  0
LINE
  5
118
  8
1
  6
CONTINUOUS
 62
     7
 10
-94.91273132209241
 20
990.0
 30
0.0
 11
-94.99999999999997
 21
990.0
 31
0.0
  0
LINE
  5
119
  8
1
  6
CONTINUOUS
 62
     7
 10
-94.99999999999997
 20
990.0
 30
0.0
 11
-95.00076153871659
 21
990.0
 31
0.0
  0
LINE
  5
11A
  8
1
  6
CONTINUOUS
 62
     7
 10
-24.03479324180547
 20
985.0
 30
0.0
 11
-94.96577791223199
 21
985.0
 31
0.0
  0
LINE
  5
11B
  8
1
  6
CONTINUOUS
 62
     7
 10
34.03479324180548
 20
985.0
 30
0.0
 11
30.03494554954879
 21
985.0
 31
0.0
  0
ARC
  5
11C
  8
1
  6
CONTINUOUS
 62
     7
 10
30.03494554954879
 20
986.0
 30
0.0
 40
1.000000000000001
 50
180.5
 51
270.0
  0
LINE
  5
11D
  8
1
  6
CONTINUOUS
 62
     7
 10
104.965777912232
 20
985.0
 30
0.0
 11
34.0347932418055
 21
985.0
 31
0.0
  0
LINE
  5
11E
  8
1
  6
CONTINUOUS
 62
     7
 10
19.96505445045127
 20
985.0
 30
0.0
 11
15.96520675819459
 21
985.0
 31
0.0
  0
ARC
  5
11F
  8
1
  6
CONTINUOUS
 62
     7
 10
19.96505445045124
 20
986.0
 30
0.0
 40
1.000000000000001
 50
270.0
 51
359.5000000000001
  0
LINE
  5
120
  8
1
  6
CONTINUOUS
 62
     7
 10
-94.965777912232
 20
985.0
 30
0.0
 11
-113.9650544504513
 21
985.0
 31
0.0
  0
ARC
  5
121
  8
1
  6
CONTINUOUS
 62
     7
 10
-113.9650544504512
 20
986.0
 30
0.0
 40
1.000000000000003
 50
180.5
 51
270.0
  0
LINE
  5
122
  8
1
  6
CONTINUOUS
 62
     7
 10
123.9650544504512
 20
985.0
 30
0.0
 11
104.965777912232
 21
985.0
 31
0.0
  0
ARC
  5
123
  8
1
  6
CONTINUOUS
 62
     7
 10
123.9650544504512
 20
986.0
 30
0.0
 40
1.000000000000001
 50
270.0
 51
359.5000000000001
  0
LINE
  5
124
  8
1
  6
CONTINUOUS
 62
     7
 10
15.96520675819458
 20
985.0
 30
0.0
 11
-5.965206758194556
 21
985.0
 31
0.0
  0
LINE
  5
125
  8
1
  6
CONTINUOUS
 62
     7
 10
-5.965206758194554
 20
985.0
 30
0.0
 11
-9.965054450451243
 21
985.0
 31
0.0
  0
ARC
  5
126
  8
1
  6
CONTINUOUS
 62
     7
 10
-9.96505445045124
 20
986.0
 30
0.0
 40
1.000000000000001
 50
180.5
 51
270.0
  0
LINE
  5
127
  8
1
  6
CONTINUOUS
 62
     7
 10
-20.03494554954878
 20
985.0
 30
0.0
 11
-24.03479324180546
 21
985.0
 31
0.0
  0
ARC
  5
128
  8
1
  6
CONTINUOUS
 62
     7
 10
-20.03494554954878
 20
986.0
 30
0.0
 40
1.000000000000001
 50
270.0
 51
359.5000000000001
  0
LINE
  5
129
  8
1
  6
CONTINUOUS
 62
     7
 10
29.00000000000002
 20
990.0
 30
0.0
 11
28.00003807693579
 21
990.0
 31
0.0
  0
LINE
  5
12A
  8
1
  6
CONTINUOUS
 62
     7
 10
-11.00000000000003
 20
990.0
 30
0.0
 11
-11.99996192306423
 21
990.0
 31
0.0
  0
LINE
  5
12B
  8
1
  6
CONTINUOUS
 62
     7
 10
21.99996192306413
 20
990.0
 30
0.0
 11
21.00000000000001
 21
990.0
 31
0.0
  0
LINE
  5
12C
  8
1
  6
CONTINUOUS
 62
     7
 10
-18.00003807693586
 20
990.0
 30
0.0
 11
-19.00000000000001
 21
990.0
 31
0.0
  0
LINE
  5
12D
  8
1
  6
CONTINUOUS
 62
     7
 10
-11.96497829657959
 20
985.0
 30
0.0
 11
-9.965054450451257
 21
985.0
 31
0.0
  0
LINE
  5
12E
  8
1
  6
CONTINUOUS
 62
     7
 10
-20.03494554954878
 20
985.0
 30
0.0
 11
-18.03502170342044
 21
985.0
 31
0.0
  0
LINE
  5
12F
  8
1
  6
CONTINUOUS
 62
     7
 10
19.96505445045124
 20
985.0
 30
0.0
 11
21.96497829657959
 21
985.0
 31
0.0
  0
LINE
  5
130
  8
1
  6
CONTINUOUS
 62
     7
 10
28.03502170342045
 20
985.0
 30
0.0
 11
30.03494554954879
 21
985.0
 31
0.0
  0
LINE
  5
131
  8
1
  6
CONTINUOUS
 62
     7
 10
-11.99996192306423
 20
990.0
 30
0.0
 11
-18.00003807693586
 21
990.0
 31
0.0
  0
LINE
  5
132
  8
1
  6
CONTINUOUS
 62
     7
 10
28.00003807693579
 20
990.0
 30
0.0
 11
21.99996192306413
 21
990.0
 31
0.0
  0
LINE
  5
133
  8
1
  6
CONTINUOUS
 62
     7
 10
28.03502170342045
 20
985.0
 30
0.0
 11
21.96497829657959
 21
985.0
 31
0.0
  0
LINE
  5
134
  8
1
  6
CONTINUOUS
 62
     7
 10
-11.96497829657959
 20
985.0
 30
0.0
 11
-18.03502170342044
 21
985.0
 31
0.0
  0
LINE
  5
135
  8
1
  6
CONTINUOUS
 62
     7
 10
87.50000000000003
 20
895.0
 30
0.0
 11
-77.4999999999998
 21
895.0
 31
0.0
  0
LINE
  5
136
  8
1
  6
CONTINUOUS
 62
     7
 10
23.0
 20
995.0
 30
0.0
 11
22.97572690130871
 21
997.7814216134906
 31
0.0
  0
LINE
  5
137
  8
1
  6
CONTINUOUS
 62
     7
 10
-12.97572690109945
 20
997.7814216374697
 30
0.0
 11
-13.00000000000001
 21
995.0
 31
0.0
  0
LINE
  5
138
  8
1
  6
CONTINUOUS
 62
     7
 10
22.97462567765146
 20
997.8441067767927
 30
0.0
 11
22.91818742985129
 21
998.4147560491052
 31
0.0
  0
ARC
  5
139
  8
1
  6
CONTINUOUS
 62
     7
 10
-10.96676425368804
 20
998.0
 30
0.0
 40
2.000000000000002
 50
90.00000000000009
 51
176.1172599479451
  0
ARC
  5
13A
  8
1
  6
CONTINUOUS
 62
     7
 10
20.96676425368804
 20
998.0
 30
0.0
 40
1.999999999999998
 50
3.882740052054567
 51
90.00000000000004
  0
LINE
  5
13B
  8
1
  6
CONTINUOUS
 62
     7
 10
-12.96798938940323
 20
997.9262596684991
 30
0.0
 11
-12.97441072410275
 21
997.6488906128476
 31
0.0
  0
ARC
  5
13C
  8
1
  6
CONTINUOUS
 62
     7
 10
90.2680405223582
 20
983.0
 30
0.0
 40
2.000000000000006
 50
89.99999999999955
 51
179.5000000000001
  0
ARC
  5
13D
  8
1
  6
CONTINUOUS
 62
     7
 10
-80.268040522358
 20
983.0
 30
0.0
 40
2.000000000000002
 50
0.4999999999998295
 51
90.0000000000004
  0
LINE
  5
13E
  8
1
  6
CONTINUOUS
 62
     7
 10
-78.26811667622977
 20
983.0174530709967
 30
0.0
 11
-77.49999999999986
 21
895.0
 31
0.0
  0
LINE
  5
13F
  8
1
  6
CONTINUOUS
 62
     7
 10
87.50000000000006
 20
895.0
 30
0.0
 11
88.26811667622997
 21
983.0174530709967
 31
0.0
  0
ENDBLK
  8
0
  0
BLOCK
  8
0
  2
D_FRAME_VIEW_1581
 70
     0
 10
0.0
 20
0.0
 30
0.0
  0
LINE
  5
144
  8
1
  6
CONTINUOUS
 62
     7
 10
349.9999999999999
 20
749.9313409886925
 30
0.0
 11
350.0
 21
364.9479951115216
 31
0.0
  0
LINE
  5
145
  8
1
  6
CONTINUOUS
 62
     7
 10
349.9999999999999
 20
768.9306175269118
 30
0.0
 11
349.9999999999999
 21
749.9313409886925
 31
0.0
  0
ARC
  5
146
  8
1
  6
CONTINUOUS
 62
     7
 10
348.9999999999999
 20
768.9306175269118
 30
0.0
 40
1.000000000000001
 50
0.0
 51
90.4999999999999
  0
LINE
  5
147
  8
1
  6
CONTINUOUS
 62
     7
 10
350.0000000000001
 20
364.9479951115216
 30
0.0
 11
350.0000000000001
 21
360.948147419265
 31
0.0
  0
ARC
  5
148
  8
1
  6
CONTINUOUS
 62
     7
 10
349.0000000000001
 20
360.948147419265
 30
0.0
 40
1.000000000000001
 50
269.5000000000001
 51
0.0
  0
LINE
  5
149
  8
1
  6
CONTINUOUS
 62
     7
 10
345.0
 20
769.8957481341345
 30
0.0
 11
348.9912734645017
 21
769.930579449976
 31
0.0
  0
LINE
  5
14A
  8
1
  6
CONTINUOUS
 62
     7
 10
348.9912734645017
 20
359.9481854962008
 30
0.0
 11
345.0
 21
359.9830168120423
 31
0.0
  0
ARC
  5
14B
  8
1
  6
CONTINUOUS
 62
     7
 10
349.0000000000001
 20
769.0606175269119
 30
0.0
 40
1.000000000000003
 50
0.0000000000031832
 51
90.4999999999999
  0
LINE
  5
14C
  8
1
  6
CONTINUOUS
 62
     7
 10
347.0000000000001
 20
769.913201869716
 30
0.0
 11
347.0000000000001
 21
770.0432018697161
 31
0.0
  0
LINE
  5
14D
  8
1
  6
CONTINUOUS
 62
     7
 10
347.0000000000001
 20
770.0432018697161
 30
0.0
 11
348.9912734645017
 21
770.0605794499761
 31
0.0
  0
LINE
  5
14E
  8
1
  6
CONTINUOUS
 62
     7
 10
335.1034754831597
 20
769.9393824730881
 30
0.0
 11
347.0
 21
770.0432018697161
 31
0.0
  0
LINE
  5
14F
  8
1
  6
CONTINUOUS
 62
     7
 10
361.8011764183805
 20
518.0303384384001
 30
0.0
 11
361.8095096884603
 21
518.0339780856634
 31
0.0
  0
LINE
  5
150
  8
1
  6
CONTINUOUS
 62
     7
 10
349.9999999999999
 20
537.0501747781708
 30
0.0
 11
361.5977330957049
 21
536.645173014109
 31
0.0
  0
LINE
  5
151
  8
1
  6
CONTINUOUS
 62
     7
 10
361.630775402784
 20
536.6249401058338
 30
0.0
 11
361.5977330957049
 21
536.645173014109
 31
0.0
  0
LINE
  5
152
  8
1
  6
CONTINUOUS
 62
     7
 10
370.0
 20
535.3860706135288
 30
0.0
 11
369.9950887366039
 21
535.386224968116
 31
0.0
  0
LINE
  5
153
  8
1
  6
CONTINUOUS
 62
     7
 10
370.0
 20
535.3860706135288
 30
0.0
 11
370.0
 21
520.8184031218282
 31
0.0
  0
LINE
  5
154
  8
1
  6
CONTINUOUS
 62
     7
 10
362.6883365088062
 20
518.265018395667
 30
0.0
 11
362.699782927871
 21
518.2692858911167
 31
0.0
  0
LINE
  5
155
  8
1
  6
CONTINUOUS
 62
     7
 10
368.3861997955717
 20
520.1203641119932
 30
0.0
 11
368.3507714863733
 21
520.1139348759613
 31
0.0
  0
LINE
  5
156
  8
1
  6
CONTINUOUS
 62
     7
 10
370.0
 20
520.3215925111134
 30
0.0
 11
370.0
 21
520.8184031218282
 31
0.0
  0
LINE
  5
157
  8
1
  6
CONTINUOUS
 62
     7
 10
370.0
 20
520.3215925111134
 30
0.0
 11
370.0
 21
519.5282915255196
 31
0.0
  0
LINE
  5
158
  8
1
  6
CONTINUOUS
 62
     7
 10
345.0
 20
359.9393824730883
 30
0.0
 11
345.0
 21
769.9393824730881
 31
0.0
  0
LINE
  5
159
  8
1
  6
CONTINUOUS
 62
     7
 10
335.0
 20
359.9393824730883
 30
0.0
 11
345.0
 21
359.9393824730883
 31
0.0
  0
LINE
  5
15A
  8
1
  6
CONTINUOUS
 62
     7
 10
335.0
 20
359.9393824730883
 30
0.0
 11
335.0
 21
769.9393824730881
 31
0.0
  0
LINE
  5
15B
  8
1
  6
CONTINUOUS
 62
     7
 10
335.0
 20
769.9393824730881
 30
0.0
 11
345.0
 21
769.9393824730881
 31
0.0
  0
LINE
  5
15C
  8
1
  6
CONTINUOUS
 62
     7
 10
335.0
 20
359.9393824730883
 30
0.0
 11
330.9912734645016
 21
359.9743660995729
 31
0.0
  0
LINE
  5
15D
  8
1
  6
CONTINUOUS
 62
     7
 10
330.9912734645016
 20
769.9043988466035
 30
0.0
 11
334.9999999999999
 21
769.9393824730882
 31
0.0
  0
LINE
  5
15E
  8
1
  6
CONTINUOUS
 62
     7
 10
330.0
 20
360.9743280226371
 30
0.0
 11
330.0
 21
749.9051603853201
 31
0.0
  0
LINE
  5
15F
  8
1
  6
CONTINUOUS
 62
     7
 10
330.0
 20
749.9051603853201
 30
0.0
 11
330.0
 21
768.9044369235394
 31
0.0
  0
ARC
  5
160
  8
1
  6
CONTINUOUS
 62
     7
 10
331.0
 20
768.9044369235394
 30
0.0
 40
1.000000000000001
 50
90.5
 51
180.0000000000016
  0
ARC
  5
161
  8
1
  6
CONTINUOUS
 62
     7
 10
331.0
 20
360.9743280226371
 30
0.0
 40
1.000000000000003
 50
180.0
 51
269.5000000000001
  0
LINE
  5
162
  8
1
  6
CONTINUOUS
 62
     7
 10
240.0000000000001
 20
392.4393824730884
 30
0.0
 11
240.0000000000001
 21
474.9393824730883
 31
0.0
  0
LINE
  5
163
  8
1
  6
CONTINUOUS
 62
     7
 10
240.0000000000001
 20
474.9393824730884
 30
0.0
 11
240.0000000000001
 21
557.4393824730882
 31
0.0
  0
POLYLINE
  5
164
  8
1
  6
CONTINUOUS
 62
     7
 66
     1
 10
0.0
 20
0.0
 30
0.0
  0
VERTEX
  5
1E9
  8
1
  6
CONTINUOUS
 62
     7
 10
369.9950889490348
 20
535.3862249614396
 30
0.0
  0
VERTEX
  5
1EA
  8
1
  6
CONTINUOUS
 62
     7
 10
369.986937685107
 20
535.5130270088874
 30
0.0
  0
VERTEX
  5
1EB
  8
1
  6
CONTINUOUS
 62
     7
 10
369.9645752062094
 20
535.6300723526147
 30
0.0
  0
VERTEX
  5
1EC
  8
1
  6
CONTINUOUS
 62
     7
 10
369.9312758072907
 20
535.7357281179105
 30
0.0
  0
VERTEX
  5
1ED
  8
1
  6
CONTINUOUS
 62
     7
 10
369.8886247079779
 20
535.8324710689777
 30
0.0
  0
VERTEX
  5
1EE
  8
1
  6
CONTINUOUS
 62
     7
 10
369.8229888421664
 20
535.9433150946735
 30
0.0
  0
VERTEX
  5
1EF
  8
1
  6
CONTINUOUS
 62
     7
 10
369.7472390427579
 20
536.0402591674847
 30
0.0
  0
VERTEX
  5
1F0
  8
1
  6
CONTINUOUS
 62
     7
 10
369.6651496495078
 20
536.1222403948848
 30
0.0
  0
VERTEX
  5
1F1
  8
1
  6
CONTINUOUS
 62
     7
 10
369.5807668338953
 20
536.1889365302936
 30
0.0
  0
VERTEX
  5
1F2
  8
1
  6
CONTINUOUS
 62
     7
 10
369.4810029105321
 20
536.2500920872133
 30
0.0
  0
VERTEX
  5
1F3
  8
1
  6
CONTINUOUS
 62
     7
 10
369.3792444103709
 20
536.2953435106521
 30
0.0
  0
VERTEX
  5
1F4
  8
1
  6
CONTINUOUS
 62
     7
 10
369.2738074331569
 20
536.3273535552281
 30
0.0
  0
VERTEX
  5
1F5
  8
1
  6
CONTINUOUS
 62
     7
 10
369.1453172566448
 20
536.3533332198675
 30
0.0
  0
SEQEND
  5
203
  8
1
  6
CONTINUOUS
 62
     7
  0
ARC
  5
165
  8
1
  6
CONTINUOUS
 62
     7
 10
319.1894723265321
 20
-741.6848252354273
 30
0.0
 40
1279.014120684554
 50
87.76156707270167
 51
88.0984150417274
  0
LINE
  5
166
  8
1
  6
CONTINUOUS
 62
     7
 10
368.3546918803063
 20
520.1146157807999
 30
0.0
 11
368.3857651859705
 21
520.1202874072494
 31
0.0
  0
LINE
  5
167
  8
1
  6
CONTINUOUS
 62
     7
 10
349.9999999999999
 20
515.162652280173
 30
0.0
 11
369.1736481776669
 21
518.5434837725073
 31
0.0
  0
ARC
  5
168
  8
1
  6
CONTINUOUS
 62
     7
 10
369.0
 20
519.5282915255196
 30
0.0
 40
1.000000000000028
 50
280.0000000000003
 51
0.0
  0
ARC
  5
169
  8
1
  6
CONTINUOUS
 62
     7
 10
327.9999999999999
 20
389.6713419507303
 30
0.0
 40
2.000000000000006
 50
0.0
 51
89.50000000000011
  0
ARC
  5
16A
  8
1
  6
CONTINUOUS
 62
     7
 10
327.9999999999999
 20
560.2074229954464
 30
0.0
 40
2.000000000000002
 50
270.4999999999999
 51
0.0
  0
LINE
  5
16B
  8
1
  6
CONTINUOUS
 62
     7
 10
328.0174530709967
 20
558.2074991493182
 30
0.0
 11
240.0
 21
557.4393824730884
 31
0.0
  0
LINE
  5
16C
  8
1
  6
CONTINUOUS
 62
     7
 10
240.0000000000001
 20
392.4393824730884
 30
0.0
 11
328.0174530709968
 21
391.6712657968585
 31
0.0
  0
ENDBLK
  8
0
  0
ENDSEC
  0
SECTION
  2
ENTITIES
  0
LINE
  5
70
  8
1
  6
CENTER
 62
     1
 10
-73.17094755987769
 20
474.9393824730884
 30
0.0
 11
83.17094755987789
 21
474.9393824730884
 31
0.0
  0
LINE
  5
72
  8
1
  6
CENTER
 62
     1
 10
5.000000000000097
 20
396.7684349132106
 30
0.0
 11
5.000000000000097
 21
553.1103300329662
 31
0.0
  0
INSERT
  5
AE
  8
1
  6
CONTINUOUS
 62
     7
  2
D_FRAME_VIEW_1473
 10
0.0
 20
0.0
 30
0.0
  0
INSERT
  5
140
  8
1
  6
CONTINUOUS
 62
     7
  2
D_FRAME_VIEW_1802
 10
0.0
 20
0.0
 30
0.0
  0
INSERT
  5
16D
  8
1
  6
CONTINUOUS
 62
     7
  2
D_FRAME_VIEW_1581
 10
0.0
 20
0.0
 30
0.0
  0
TEXT
  5
16E
  8
1
  6
CONTINUOUS
 62
     7
 10
269.8921095410779
 20
340.5424534200326
 30
0.0
 40
8.0
  1
AGST-MCV150
  0
ENDSEC
  0
EOF
