  0
SECTION
  2
HEADER
  9
$ACADVER
  1
AC1021
  9
$ACADMAINTVER
 70
    25
  9
$DWGCODEPAGE
  3
ANSI_932
  9
$INSBASE
 10
0.0
 20
0.0
 30
0.0
  9
$EXTMIN
 10
-277.0833333333333
 20
56.95909090909095
 30
0.0
  9
$EXTMAX
 10
225.4166666666668
 20
403.666666666667
 30
0.0
  9
$LIMMIN
 10
0.0
 20
0.0
  9
$LIMMAX
 10
12.0
 20
9.0
  9
$ORTHOMODE
 70
     0
  9
$REGENMODE
 70
     1
  9
$FILLMODE
 70
     1
  9
$QTEXTMODE
 70
     0
  9
$MIRRTEXT
 70
     1
  9
$LTSCALE
 40
1.0
  9
$ATTMODE
 70
     1
  9
$TEXTSIZE
 40
0.2
  9
$TRACEWID
 40
0.05
  9
$TEXTSTYLE
  7
Standard
  9
$CLAYER
  8
0
  9
$CELTYPE
  6
ByLayer
  9
$CECOLOR
 62
   256
  9
$CELTSCALE
 40
1.0
  9
$DISPSILH
 70
     0
  9
$DIMSCALE
 40
1.0
  9
$DIMASZ
 40
3.0
  9
$DIMEXO
 40
0.0625
  9
$DIMDLI
 40
0.38
  9
$DIMRND
 40
0.0
  9
$DIMDLE
 40
0.0
  9
$DIMEXE
 40
0.18
  9
$DIMTP
 40
0.0
  9
$DIMTM
 40
0.0
  9
$DIMTXT
 40
3.0
  9
$DIMCEN
 40
0.09
  9
$DIMTSZ
 40
0.0
  9
$DIMTOL
 70
     0
  9
$DIMLIM
 70
     0
  9
$DIMTIH
 70
     1
  9
$DIMTOH
 70
     1
  9
$DIMSE1
 70
     0
  9
$DIMSE2
 70
     0
  9
$DIMTAD
 70
     1
  9
$DIMZIN
 70
     0
  9
$DIMBLK
  1

  9
$DIMASO
 70
     1
  9
$DIMSHO
 70
     1
  9
$DIMPOST
  1

  9
$DIMAPOST
  1

  9
$DIMALT
 70
     0
  9
$DIMALTD
 70
     2
  9
$DIMALTF
 40
25.4
  9
$DIMLFAC
 40
1.0
  9
$DIMTOFL
 70
     0
  9
$DIMTVP
 40
0.0
  9
$DIMTIX
 70
     0
  9
$DIMSOXD
 70
     0
  9
$DIMSAH
 70
     0
  9
$DIMBLK1
  1

  9
$DIMBLK2
  1

  9
$DIMSTYLE
  2
Standard
  9
$DIMCLRD
 70
     0
  9
$DIMCLRE
 70
     0
  9
$DIMCLRT
 70
     0
  9
$DIMTFAC
 40
1.0
  9
$DIMGAP
 40
0.09
  9
$DIMJUST
 70
     0
  9
$DIMSD1
 70
     0
  9
$DIMSD2
 70
     0
  9
$DIMTOLJ
 70
     1
  9
$DIMTZIN
 70
     0
  9
$DIMALTZ
 70
     0
  9
$DIMALTTZ
 70
     0
  9
$DIMUPT
 70
     0
  9
$DIMDEC
 70
     2
  9
$DIMTDEC
 70
     4
  9
$DIMALTU
 70
     2
  9
$DIMALTTD
 70
     2
  9
$DIMTXSTY
  7
Standard
  9
$DIMAUNIT
 70
     0
  9
$DIMADEC
 70
     2
  9
$DIMALTRND
 40
0.0
  9
$DIMAZIN
 70
     0
  9
$DIMDSEP
 70
    46
  9
$DIMATFIT
 70
     3
  9
$DIMFRAC
 70
     0
  9
$DIMLDRBLK
  1

  9
$DIMLUNIT
 70
     2
  9
$DIMLWD
 70
    -2
  9
$DIMLWE
 70
    -2
  9
$DIMTMOVE
 70
     0
  9
$DIMFXL
 40
1.0
  9
$DIMFXLON
 70
     0
  9
$DIMJOGANG
 40
0.7853981633974483
  9
$DIMTFILL
 70
     0
  9
$DIMTFILLCLR
 70
     0
  9
$DIMARCSYM
 70
     0
  9
$DIMLTYPE
  6

  9
$DIMLTEX1
  6

  9
$DIMLTEX2
  6

  9
$LUNITS
 70
     2
  9
$LUPREC
 70
     4
  9
$SKETCHINC
 40
0.1
  9
$FILLETRAD
 40
0.5
  9
$AUNITS
 70
     0
  9
$AUPREC
 70
     0
  9
$MENU
  1
.
  9
$ELEVATION
 40
0.0
  9
$PELEVATION
 40
0.0
  9
$THICKNESS
 40
0.0
  9
$LIMCHECK
 70
     0
  9
$CHAMFERA
 40
0.5
  9
$CHAMFERB
 40
0.5
  9
$CHAMFERC
 40
1.0
  9
$CHAMFERD
 40
0.0
  9
$SKPOLY
 70
     0
  9
$TDCREATE
 40
2459593.584997928
  9
$TDUCREATE
 40
2459593.209997928
  9
$TDUPDATE
 40
2459593.58499794
  9
$TDUUPDATE
 40
2459593.20999794
  9
$TDINDWG
 40
0.0000000116
  9
$TDUSRTIMER
 40
0.0000000116
  9
$USRTIMER
 70
     1
  9
$ANGBASE
 50
0.0
  9
$ANGDIR
 70
     0
  9
$PDMODE
 70
     0
  9
$PDSIZE
 40
0.0
  9
$PLINEWID
 40
0.0
  9
$SPLFRAME
 70
     0
  9
$SPLINETYPE
 70
     6
  9
$SPLINESEGS
 70
     8
  9
$HANDSEED
  5
1B9
  9
$SURFTAB1
 70
     6
  9
$SURFTAB2
 70
     6
  9
$SURFTYPE
 70
     6
  9
$SURFU
 70
     6
  9
$SURFV
 70
     6
  9
$UCSBASE
  2

  9
$UCSNAME
  2

  9
$UCSORG
 10
0.0
 20
0.0
 30
0.0
  9
$UCSXDIR
 10
1.0
 20
0.0
 30
0.0
  9
$UCSYDIR
 10
0.0
 20
1.0
 30
0.0
  9
$UCSORTHOREF
  2

  9
$UCSORTHOVIEW
 70
     0
  9
$UCSORGTOP
 10
0.0
 20
0.0
 30
0.0
  9
$UCSORGBOTTOM
 10
0.0
 20
0.0
 30
0.0
  9
$UCSORGLEFT
 10
0.0
 20
0.0
 30
0.0
  9
$UCSORGRIGHT
 10
0.0
 20
0.0
 30
0.0
  9
$UCSORGFRONT
 10
0.0
 20
0.0
 30
0.0
  9
$UCSORGBACK
 10
0.0
 20
0.0
 30
0.0
  9
$PUCSBASE
  2

  9
$PUCSNAME
  2

  9
$PUCSORG
 10
0.0
 20
0.0
 30
0.0
  9
$PUCSXDIR
 10
1.0
 20
0.0
 30
0.0
  9
$PUCSYDIR
 10
0.0
 20
1.0
 30
0.0
  9
$PUCSORTHOREF
  2

  9
$PUCSORTHOVIEW
 70
     0
  9
$PUCSORGTOP
 10
0.0
 20
0.0
 30
0.0
  9
$PUCSORGBOTTOM
 10
0.0
 20
0.0
 30
0.0
  9
$PUCSORGLEFT
 10
0.0
 20
0.0
 30
0.0
  9
$PUCSORGRIGHT
 10
0.0
 20
0.0
 30
0.0
  9
$PUCSORGFRONT
 10
0.0
 20
0.0
 30
0.0
  9
$PUCSORGBACK
 10
0.0
 20
0.0
 30
0.0
  9
$USERI1
 70
     0
  9
$USERI2
 70
     0
  9
$USERI3
 70
     0
  9
$USERI4
 70
     0
  9
$USERI5
 70
     0
  9
$USERR1
 40
0.0
  9
$USERR2
 40
0.0
  9
$USERR3
 40
0.0
  9
$USERR4
 40
0.0
  9
$USERR5
 40
0.0
  9
$WORLDVIEW
 70
     1
  9
$SHADEDGE
 70
     3
  9
$SHADEDIF
 70
    70
  9
$TILEMODE
 70
     1
  9
$MAXACTVP
 70
    64
  9
$PINSBASE
 10
0.0
 20
0.0
 30
0.0
  9
$PLIMCHECK
 70
     0
  9
$PEXTMIN
 10
1.000000000000000E+20
 20
1.000000000000000E+20
 30
1.000000000000000E+20
  9
$PEXTMAX
 10
-1.000000000000000E+20
 20
-1.000000000000000E+20
 30
-1.000000000000000E+20
  9
$PLIMMIN
 10
0.0
 20
0.0
  9
$PLIMMAX
 10
12.0
 20
9.0
  9
$UNITMODE
 70
     0
  9
$VISRETAIN
 70
     1
  9
$PLINEGEN
 70
     0
  9
$PSLTSCALE
 70
     1
  9
$TREEDEPTH
 70
  3020
  9
$CMLSTYLE
  2
Standard
  9
$CMLJUST
 70
     0
  9
$CMLSCALE
 40
1.0
  9
$PROXYGRAPHICS
 70
     1
  9
$MEASUREMENT
 70
     1
  9
$CELWEIGHT
370
    -1
  9
$ENDCAPS
280
     0
  9
$JOINSTYLE
280
     0
  9
$LWDISPLAY
290
     1
  9
$INSUNITS
 70
     4
  9
$HYPERLINKBASE
  1

  9
$STYLESHEET
  1

  9
$XEDIT
290
     1
  9
$CEPSNTYPE
380
     0
  9
$PSTYLEMODE
290
     1
  9
$FINGERPRINTGUID
  2
{414B1088-F804-4BA8-BF43-833A256E11DC}
  9
$VERSIONGUID
  2
{FAEB1C32-E019-11D5-929B-00C0DF256EC4}
  9
$EXTNAMES
290
     1
  9
$PSVPSCALE
 40
0.0
  9
$OLESTARTUP
290
     0
  9
$SORTENTS
280
   127
  9
$INDEXCTL
280
     0
  9
$HIDETEXT
280
     1
  9
$XCLIPFRAME
290
     0
  9
$HALOGAP
280
     0
  9
$OBSCOLOR
 70
   257
  9
$OBSLTYPE
280
     0
  9
$INTERSECTIONDISPLAY
280
     0
  9
$INTERSECTIONCOLOR
 70
   257
  9
$DIMASSOC
280
     2
  9
$PROJECTNAME
  1

  9
$CAMERADISPLAY
290
     0
  9
$LENSLENGTH
 40
50.0
  9
$CAMERAHEIGHT
 40
0.0
  9
$STEPSPERSEC
 40
2.0
  9
$STEPSIZE
 40
6.0
  9
$3DDWFPREC
 40
2.0
  9
$PSOLWIDTH
 40
0.25
  9
$PSOLHEIGHT
 40
4.0
  9
$LOFTANG1
 40
1.570796326794897
  9
$LOFTANG2
 40
1.570796326794897
  9
$LOFTMAG1
 40
0.0
  9
$LOFTMAG2
 40
0.0
  9
$LOFTPARAM
 70
     7
  9
$LOFTNORMALS
280
     1
  9
$LATITUDE
 40
37.795
  9
$LONGITUDE
 40
-122.394
  9
$NORTHDIRECTION
 40
0.0
  9
$TIMEZONE
 70
 -8000
  9
$LIGHTGLYPHDISPLAY
280
     1
  9
$TILEMODELIGHTSYNCH
280
     1
  9
$SOLIDHIST
280
     1
  9
$SHOWHIST
280
     1
  9
$DWFFRAME
280
     2
  9
$DGNFRAME
280
     2
  9
$REALWORLDSCALE
290
     1
  9
$INTERFERECOLOR
 62
   256
  9
$CSHADOW
280
     0
  9
$SHADOWPLANELOCATION
 40
0.0
  0
ENDSEC
  0
SECTION
  2
CLASSES
  0
CLASS
  1
ACDBDICTIONARYWDFLT
  2
AcDbDictionaryWithDefault
  3
ObjectDBX Classes
 90
        0
 91
        4
280
     0
281
     0
  0
CLASS
  1
VISUALSTYLE
  2
AcDbVisualStyle
  3
ObjectDBX Classes
 90
     4095
 91
        4
280
     0
281
     0
  0
ENDSEC
  0
SECTION
  2
TABLES
  0
TABLE
  2
VPORT
  5
8
330
0
100
AcDbSymbolTable
 70
     1
  0
VPORT
  5
29
330
8
100
AcDbSymbolTableRecord
100
AcDbViewportTableRecord
  2
*Active
 70
     0
 10
0.0
 20
0.0
 11
1.0
 21
1.0
 12
-25.83333333333324
 22
230.312878787879
 13
0.0
 23
0.0
 14
0.5
 24
0.5
 15
0.5
 25
0.5
 16
0.0
 26
0.0
 36
1.0
 17
0.0
 27
0.0
 37
0.0
 40
346.7075757575761
 41
1.6
 42
50.0
 43
0.0
 44
0.0
 50
0.0
 51
0.0
 71
     0
 72
   100
 73
     1
 74
     3
 75
     0
 76
     0
 77
     0
 78
     0
281
     0
 65
     1
110
0.0
120
0.0
130
0.0
111
1.0
121
0.0
131
0.0
112
0.0
122
1.0
132
0.0
 79
     0
146
0.0
 60
     3
 61
     5
292
     1
282
     1
141
0.0
142
0.0
 63
   250
  0
ENDTAB
  0
TABLE
  2
LTYPE
  5
5
330
0
100
AcDbSymbolTable
 70
     2
  0
LTYPE
  5
14
330
5
100
AcDbSymbolTableRecord
100
AcDbLinetypeTableRecord
  2
ByBlock
 70
     0
  3

 72
    65
 73
     0
 40
0.0
  0
LTYPE
  5
15
330
5
100
AcDbSymbolTableRecord
100
AcDbLinetypeTableRecord
  2
ByLayer
 70
     0
  3

 72
    65
 73
     0
 40
0.0
  0
LTYPE
  5
16
330
5
100
AcDbSymbolTableRecord
100
AcDbLinetypeTableRecord
  2
Continuous
 70
     0
  3
Solid line
 72
    65
 73
     0
 40
0.0
  0
LTYPE
  5
3E
330
5
100
AcDbSymbolTableRecord
100
AcDbLinetypeTableRecord
  2
________________
 70
     0
  3

 72
    65
 73
     0
 40
0.0
  0
ENDTAB
  0
TABLE
  2
LAYER
  5
2
330
0
100
AcDbSymbolTable
 70
     2
  0
LAYER
  5
10
330
2
100
AcDbSymbolTableRecord
100
AcDbLayerTableRecord
  2
0
 70
     0
 62
     7
  6
Continuous
370
    -3
390
F
347
0
  0
LAYER
  5
3B
330
2
100
AcDbSymbolTableRecord
100
AcDbLayerTableRecord
  2
1
 70
     0
 62
     7
  6
Continuous
370
    -3
390
F
347
0
  0
ENDTAB
  0
TABLE
  2
STYLE
  5
3
330
0
100
AcDbSymbolTable
 70
     1
  0
STYLE
  5
11
330
3
100
AcDbSymbolTableRecord
100
AcDbTextStyleTableRecord
  2
Standard
 70
     0
 40
0.0
 41
1.0
 50
0.0
 71
     0
 42
0.2
  3
txt
  4

  0
ENDTAB
  0
TABLE
  2
VIEW
  5
6
330
0
100
AcDbSymbolTable
 70
     0
  0
ENDTAB
  0
TABLE
  2
UCS
  5
7
330
0
100
AcDbSymbolTable
 70
     0
  0
ENDTAB
  0
TABLE
  2
APPID
  5
9
330
0
100
AcDbSymbolTable
 70
     1
  0
APPID
  5
12
330
9
100
AcDbSymbolTableRecord
100
AcDbRegAppTableRecord
  2
ACAD
 70
     0
  0
ENDTAB
  0
TABLE
  2
DIMSTYLE
  5
A
330
0
100
AcDbSymbolTable
 70
     1
100
AcDbDimStyleTable
  0
DIMSTYLE
105
27
330
A
100
AcDbSymbolTableRecord
100
AcDbDimStyleTableRecord
  2
Standard
 70
     0
340
11
  0
ENDTAB
  0
TABLE
  2
BLOCK_RECORD
  5
1
330
0
100
AcDbSymbolTable
 70
     1
  0
BLOCK_RECORD
  5
1F
330
1
100
AcDbSymbolTableRecord
100
AcDbBlockTableRecord
  2
*Model_Space
340
22
 70
     0
280
     1
281
     0
  0
BLOCK_RECORD
  5
1B
330
1
100
AcDbSymbolTableRecord
100
AcDbBlockTableRecord
  2
*Paper_Space
340
1E
 70
     0
280
     1
281
     0
  0
BLOCK_RECORD
  5
23
330
1
100
AcDbSymbolTableRecord
100
AcDbBlockTableRecord
  2
*Paper_Space0
340
26
 70
     0
280
     1
281
     0
  0
ENDTAB
  0
ENDSEC
  0
SECTION
  2
BLOCKS
  0
BLOCK
  5
20
330
1F
100
AcDbEntity
  8
0
100
AcDbBlockBegin
  2
*Model_Space
 70
     0
 10
0.0
 20
0.0
 30
0.0
  3
*Model_Space
  1

  0
ENDBLK
  5
21
330
1F
100
AcDbEntity
  8
0
100
AcDbBlockEnd
  0
BLOCK
  5
1C
330
1B
100
AcDbEntity
 67
     1
  8
0
100
AcDbBlockBegin
  2
*Paper_Space
 70
     0
 10
0.0
 20
0.0
 30
0.0
  3
*Paper_Space
  1

  0
ENDBLK
  5
1D
330
1B
100
AcDbEntity
 67
     1
  8
0
100
AcDbBlockEnd
  0
BLOCK
  5
24
330
23
100
AcDbEntity
  8
0
100
AcDbBlockBegin
  2
*Paper_Space0
 70
     0
 10
0.0
 20
0.0
 30
0.0
  3
*Paper_Space0
  1

  0
ENDBLK
  5
25
330
23
100
AcDbEntity
  8
0
100
AcDbBlockEnd
  0
ENDSEC
  0
SECTION
  2
ENTITIES
  0
MTEXT
  5
3C
330
1F
100
AcDbEntity
  8
0
 62
     7
100
AcDbMText
 10
179.5696094368722
 20
61.78636363636368
 30
0.0
 40
6.0
 41
0.0
 46
0.0
 71
     1
 72
     1
  1
{\Ftxt;ＡＧＵＧ－ＳＥＭ}
 73
     1
 44
1.0
  0
LINE
  5
3D
330
1F
100
AcDbEntity
  8
1
  6
________________
 62
     9
420
 12632256
370
     9
100
AcDbLine
 10
-210.1958687493044
 20
293.7791259287661
 30
0.0
 11
-205.1957925954328
 21
293.7791259287661
 31
0.0
  0
LINE
  5
3F
330
1F
100
AcDbEntity
  8
1
  6
________________
 62
     9
420
 12632256
370
     9
100
AcDbLine
 10
152.3041312506956
 20
293.7791259287661
 30
0.0
 11
157.3042074045671
 21
293.7791259287661
 31
0.0
  0
LINE
  5
40
330
1F
100
AcDbEntity
  8
1
  6
________________
 62
     9
420
 12632256
370
     9
100
AcDbLine
 10
157.3042074045672
 20
213.5542074045673
 30
0.0
 11
152.3041312506957
 21
213.5542074045673
 31
0.0
  0
LINE
  5
41
330
1F
100
AcDbEntity
  8
1
  6
________________
 62
     9
420
 12632256
370
     9
100
AcDbLine
 10
-205.1957925954327
 20
213.5542074045673
 30
0.0
 11
-210.1958687493044
 21
213.5542074045673
 31
0.0
  0
LINE
  5
42
330
1F
100
AcDbEntity
  8
1
  6
________________
 62
     7
370
     9
100
AcDbLine
 10
-252.8568360252296
 20
76.74722325026748
 30
0.0
 11
-252.8568360252296
 21
73.25758622134929
 31
0.0
  0
LINE
  5
43
330
1F
100
AcDbEntity
  8
1
  6
________________
 62
     7
370
     9
100
AcDbLine
 10
-241.3098306414371
 20
76.74722325026748
 30
0.0
 11
-241.3098306414371
 21
73.25758622134933
 31
0.0
  0
LINE
  5
44
330
1F
100
AcDbEntity
  8
1
  6
________________
 62
     7
370
     9
100
AcDbLine
 10
-251.8333333333332
 20
72.66666666666669
 30
0.0
 11
-247.0833333333332
 21
72.66666666666669
 31
0.0
  0
LINE
  5
45
330
1F
100
AcDbEntity
  8
1
  6
________________
 62
     7
370
     9
100
AcDbLine
 10
-247.0833333333333
 20
72.66666666666669
 30
0.0
 11
-242.3333333333333
 21
72.66666666666669
 31
0.0
  0
LINE
  5
46
330
1F
100
AcDbEntity
  8
1
  6
________________
 62
     7
370
     9
100
AcDbLine
 10
-250.5833333333333
 20
95.7631787661028
 30
0.0
 11
-251.4134603522556
 21
93.66666666666673
 31
0.0
  0
LINE
  5
47
330
1F
100
AcDbEntity
  8
1
  6
________________
 62
     7
370
     9
100
AcDbLine
 10
-243.5833333333333
 20
98.16666666666667
 30
0.0
 11
-250.5833333333333
 21
98.16666666666667
 31
0.0
  0
LINE
  5
48
330
1F
100
AcDbEntity
  8
1
  6
________________
 62
     7
370
     9
100
AcDbLine
 10
-242.7532063144112
 20
93.66666666666673
 30
0.0
 11
-243.5833333333333
 21
95.7631787661028
 31
0.0
  0
LINE
  5
49
330
1F
100
AcDbEntity
  8
1
  6
________________
 62
     7
370
     9
100
AcDbLine
 10
-244.3333333333333
 20
71.66666666666671
 30
0.0
 11
-249.8333333333333
 21
71.66666666666671
 31
0.0
  0
LINE
  5
4A
330
1F
100
AcDbEntity
  8
1
  6
________________
 62
     7
370
     9
100
AcDbLine
 10
-243.5833333333333
 20
95.7631787661028
 30
0.0
 11
-243.5833333333333
 21
98.16666666666673
 31
0.0
  0
LINE
  5
4B
330
1F
100
AcDbEntity
  8
1
  6
________________
 62
     7
370
     9
100
AcDbLine
 10
-243.5833333333333
 20
98.16666666666667
 30
0.0
 11
-240.4895863420707
 21
106.6666666666667
 31
0.0
  0
LINE
  5
4C
330
1F
100
AcDbEntity
  8
1
  6
________________
 62
     7
370
     9
100
AcDbLine
 10
-240.4895863420707
 20
106.6666666666667
 30
0.0
 11
-234.6572912584772
 21
106.6666666666667
 31
0.0
  0
ARC
  5
4D
330
1F
100
AcDbEntity
  8
1
  6
________________
 62
     7
370
     9
100
AcDbCircle
 10
-234.6572912584772
 20
105.6666666666667
 30
0.0
 40
0.9999999999999731
100
AcDbArc
 50
353.7551496460802
 51
90.0
  0
ARC
  5
4E
330
1F
100
AcDbEntity
  8
1
  6
________________
 62
     7
370
     9
100
AcDbCircle
 10
-248.5742169241223
 20
107.1895520914133
 30
0.0
 40
15.00000000000001
100
AcDbArc
 50
295.6406566017986
 51
353.7551496460802
  0
ARC
  5
4F
330
1F
100
AcDbEntity
  8
1
  6
________________
 62
     7
370
     9
100
AcDbCircle
 10
-245.5924497425443
 20
107.1895520914133
 30
0.0
 40
15.00000000000001
100
AcDbArc
 50
186.2448503539198
 51
244.3593433982014
  0
ARC
  5
50
330
1F
100
AcDbEntity
  8
1
  6
________________
 62
     7
370
     9
100
AcDbCircle
 10
-259.5093754081895
 20
105.6666666666667
 30
0.0
 40
1.000000000000001
100
AcDbArc
 50
90.0
 51
186.2448503539198
  0
LINE
  5
51
330
1F
100
AcDbEntity
  8
1
  6
________________
 62
     7
370
     9
100
AcDbLine
 10
-253.6770803245961
 20
106.6666666666667
 30
0.0
 11
-259.5093754081895
 21
106.6666666666667
 31
0.0
  0
LINE
  5
52
330
1F
100
AcDbEntity
  8
1
  6
________________
 62
     7
370
     9
100
AcDbLine
 10
-250.5833333333333
 20
98.16666666666667
 30
0.0
 11
-253.6770803245961
 21
106.6666666666667
 31
0.0
  0
LINE
  5
53
330
1F
100
AcDbEntity
  8
1
  6
________________
 62
     7
370
     9
100
AcDbLine
 10
-250.5833333333333
 20
95.7631787661028
 30
0.0
 11
-250.5833333333333
 21
98.16666666666673
 31
0.0
  0
LINE
  5
54
330
1F
100
AcDbEntity
  8
1
  6
________________
 62
     7
370
     9
100
AcDbLine
 10
200.1666666666669
 20
72.66666666666669
 30
0.0
 11
195.4166666666668
 21
72.66666666666669
 31
0.0
  0
LINE
  5
55
330
1F
100
AcDbEntity
  8
1
  6
________________
 62
     7
370
     9
100
AcDbLine
 10
195.4166666666668
 20
72.66666666666669
 30
0.0
 11
190.6666666666668
 21
72.66666666666669
 31
0.0
  0
LINE
  5
56
330
1F
100
AcDbEntity
  8
1
  6
________________
 62
     7
370
     9
100
AcDbLine
 10
201.1901693585631
 20
76.74722325026748
 30
0.0
 11
201.1901693585631
 21
73.25758622134929
 31
0.0
  0
LINE
  5
57
330
1F
100
AcDbEntity
  8
1
  6
________________
 62
     7
370
     9
100
AcDbLine
 10
189.6431639747705
 20
76.74722325026748
 30
0.0
 11
189.6431639747705
 21
73.25758622134933
 31
0.0
  0
LINE
  5
58
330
1F
100
AcDbEntity
  8
1
  6
________________
 62
     7
370
     9
100
AcDbLine
 10
191.0865396477447
 20
93.66666666666673
 30
0.0
 11
191.9166666666669
 21
95.7631787661028
 31
0.0
  0
LINE
  5
59
330
1F
100
AcDbEntity
  8
1
  6
________________
 62
     7
370
     9
100
AcDbLine
 10
191.9166666666669
 20
98.16666666666667
 30
0.0
 11
198.9166666666669
 21
98.16666666666667
 31
0.0
  0
LINE
  5
5A
330
1F
100
AcDbEntity
  8
1
  6
________________
 62
     7
370
     9
100
AcDbLine
 10
198.9166666666669
 20
95.7631787661028
 30
0.0
 11
199.7467936855891
 21
93.66666666666673
 31
0.0
  0
LINE
  5
5B
330
1F
100
AcDbEntity
  8
1
  6
________________
 62
     7
370
     9
100
AcDbLine
 10
192.6666666666669
 20
71.66666666666671
 30
0.0
 11
198.1666666666668
 21
71.66666666666671
 31
0.0
  0
LINE
  5
5C
330
1F
100
AcDbEntity
  8
1
  6
________________
 62
     7
370
     9
100
AcDbLine
 10
198.9166666666669
 20
95.7631787661028
 30
0.0
 11
198.9166666666669
 21
98.16666666666673
 31
0.0
  0
LINE
  5
5D
330
1F
100
AcDbEntity
  8
1
  6
________________
 62
     7
370
     9
100
AcDbLine
 10
198.9166666666669
 20
98.16666666666667
 30
0.0
 11
202.0104136579296
 21
106.6666666666667
 31
0.0
  0
LINE
  5
5E
330
1F
100
AcDbEntity
  8
1
  6
________________
 62
     7
370
     9
100
AcDbLine
 10
202.0104136579296
 20
106.6666666666667
 30
0.0
 11
207.842708741523
 21
106.6666666666667
 31
0.0
  0
ARC
  5
5F
330
1F
100
AcDbEntity
  8
1
  6
________________
 62
     7
370
     9
100
AcDbCircle
 10
207.842708741523
 20
105.6666666666667
 30
0.0
 40
1.000000000000001
100
AcDbArc
 50
353.7551496460803
 51
90.0
  0
ARC
  5
60
330
1F
100
AcDbEntity
  8
1
  6
________________
 62
     7
370
     9
100
AcDbCircle
 10
193.9257830758778
 20
107.1895520914133
 30
0.0
 40
15.00000000000012
100
AcDbArc
 50
295.6406566017987
 51
353.7551496460802
  0
ARC
  5
61
330
1F
100
AcDbEntity
  8
1
  6
________________
 62
     7
370
     9
100
AcDbCircle
 10
196.9075502574558
 20
107.1895520914133
 30
0.0
 40
15.00000000000001
100
AcDbArc
 50
186.2448503539198
 51
244.3593433982012
  0
LINE
  5
62
330
1F
100
AcDbEntity
  8
1
  6
________________
 62
     7
370
     9
100
AcDbLine
 10
188.8229196754041
 20
106.6666666666667
 30
0.0
 11
182.9906245918107
 21
106.6666666666667
 31
0.0
  0
ARC
  5
63
330
1F
100
AcDbEntity
  8
1
  6
________________
 62
     7
370
     9
100
AcDbCircle
 10
182.9906245918107
 20
105.6666666666667
 30
0.0
 40
1.000000000000001
100
AcDbArc
 50
90.0
 51
186.2448503539196
  0
LINE
  5
64
330
1F
100
AcDbEntity
  8
1
  6
________________
 62
     7
370
     9
100
AcDbLine
 10
191.9166666666669
 20
95.7631787661028
 30
0.0
 11
191.9166666666669
 21
98.16666666666673
 31
0.0
  0
LINE
  5
65
330
1F
100
AcDbEntity
  8
1
  6
________________
 62
     7
370
     9
100
AcDbLine
 10
191.9166666666669
 20
98.16666666666667
 30
0.0
 11
188.8229196754042
 21
106.6666666666667
 31
0.0
  0
LINE
  5
66
330
1F
100
AcDbEntity
  8
1
  6
________________
 62
     7
370
     9
100
AcDbLine
 10
210.1079178003145
 20
95.76666666666672
 30
0.0
 11
205.4166666666669
 21
95.76666666666672
 31
0.0
  0
LINE
  5
67
330
1F
100
AcDbEntity
  8
1
  6
________________
 62
     7
370
     9
100
AcDbLine
 10
205.4166666666669
 20
95.76666666666672
 30
0.0
 11
203.6478038829483
 21
95.76666666666672
 31
0.0
  0
LINE
  5
68
330
1F
100
AcDbEntity
  8
1
  6
________________
 62
     7
370
     9
100
AcDbLine
 10
205.9166666666667
 20
96.9666666666667
 30
0.0
 11
205.9166666666667
 21
98.09234438539337
 31
0.0
  0
LINE
  5
69
330
1F
100
AcDbEntity
  8
1
  6
________________
 62
     7
370
     9
100
AcDbLine
 10
205.9166666666667
 20
98.09234438539337
 30
0.0
 11
206.7166666666667
 21
98.09234438539337
 31
0.0
  0
ARC
  5
6A
330
1F
100
AcDbEntity
  8
1
  6
________________
 62
     7
370
     9
100
AcDbCircle
 10
205.4166666666669
 20
92.61509922687705
 30
0.0
 40
5.62940623214303
100
AcDbArc
 50
67.06459180323037
 51
76.64815634296252
  0
LINE
  5
6B
330
1F
100
AcDbEntity
  8
1
  6
________________
 62
     7
370
     9
100
AcDbLine
 10
207.610407763515
 20
97.79947137078132
 30
0.0
 11
207.6666666666669
 21
97.79947137078132
 31
0.0
  0
LINE
  5
6C
330
1F
100
AcDbEntity
  8
1
  6
________________
 62
     7
370
     9
100
AcDbLine
 10
205.9166666666667
 20
96.9666666666667
 30
0.0
 11
204.9166666666668
 21
96.9666666666667
 31
0.0
  0
LINE
  5
6D
330
1F
100
AcDbEntity
  8
1
  6
________________
 62
     7
370
     9
100
AcDbLine
 10
95.10791780031447
 20
95.76666666666672
 30
0.0
 11
90.41666666666696
 21
95.76666666666672
 31
0.0
  0
LINE
  5
6E
330
1F
100
AcDbEntity
  8
1
  6
________________
 62
     7
370
     9
100
AcDbLine
 10
90.41666666666703
 20
95.76666666666672
 30
0.0
 11
85.72541553301951
 21
95.76666666666672
 31
0.0
  0
LINE
  5
6F
330
1F
100
AcDbEntity
  8
1
  6
________________
 62
     7
370
     9
100
AcDbLine
 10
88.16666666666694
 20
97.79947137078132
 30
0.0
 11
88.22292556981878
 21
97.79947137078132
 31
0.0
  0
LINE
  5
70
330
1F
100
AcDbEntity
  8
1
  6
________________
 62
     7
370
     9
100
AcDbLine
 10
90.91666666666676
 20
96.9666666666667
 30
0.0
 11
90.91666666666676
 21
98.09234438539337
 31
0.0
  0
LINE
  5
71
330
1F
100
AcDbEntity
  8
1
  6
________________
 62
     7
370
     9
100
AcDbLine
 10
90.91666666666676
 20
98.09234438539337
 30
0.0
 11
91.71666666666691
 21
98.09234438539337
 31
0.0
  0
ARC
  5
72
330
1F
100
AcDbEntity
  8
1
  6
________________
 62
     7
370
     9
100
AcDbCircle
 10
90.41666666666703
 20
92.61509922687705
 30
0.0
 40
5.62940623214303
100
AcDbArc
 50
67.06459180323043
 51
76.64815634296252
  0
LINE
  5
73
330
1F
100
AcDbEntity
  8
1
  6
________________
 62
     7
370
     9
100
AcDbLine
 10
92.61040776351503
 20
97.79947137078132
 30
0.0
 11
92.66666666666696
 21
97.79947137078132
 31
0.0
  0
ARC
  5
74
330
1F
100
AcDbEntity
  8
1
  6
________________
 62
     7
370
     9
100
AcDbCircle
 10
90.41666666666703
 20
92.61509922687705
 30
0.0
 40
5.629406232142919
100
AcDbArc
 50
103.3518436570375
 51
112.9354081967696
  0
LINE
  5
75
330
1F
100
AcDbEntity
  8
1
  6
________________
 62
     7
370
     9
100
AcDbLine
 10
89.11666666666684
 20
98.09234438539337
 30
0.0
 11
89.91666666666693
 21
98.09234438539337
 31
0.0
  0
LINE
  5
76
330
1F
100
AcDbEntity
  8
1
  6
________________
 62
     7
370
     9
100
AcDbLine
 10
89.91666666666687
 20
98.09234438539337
 30
0.0
 11
89.91666666666687
 21
96.9666666666667
 31
0.0
  0
LINE
  5
77
330
1F
100
AcDbEntity
  8
1
  6
________________
 62
     7
370
     9
100
AcDbLine
 10
90.91666666666676
 20
96.9666666666667
 30
0.0
 11
89.91666666666687
 21
96.9666666666667
 31
0.0
  0
LINE
  5
78
330
1F
100
AcDbEntity
  8
1
  6
________________
 62
     7
370
     9
100
AcDbLine
 10
-19.89208219968564
 20
95.76666666666672
 30
0.0
 11
-24.5833333333329
 21
95.76666666666672
 31
0.0
  0
LINE
  5
79
330
1F
100
AcDbEntity
  8
1
  6
________________
 62
     7
370
     9
100
AcDbLine
 10
-24.5833333333329
 20
95.76666666666672
 30
0.0
 11
-29.27458446698042
 21
95.76666666666672
 31
0.0
  0
LINE
  5
7A
330
1F
100
AcDbEntity
  8
1
  6
________________
 62
     7
370
     9
100
AcDbLine
 10
-26.83333333333326
 20
97.79947137078132
 30
0.0
 11
-26.77707443018135
 21
97.79947137078132
 31
0.0
  0
LINE
  5
7B
330
1F
100
AcDbEntity
  8
1
  6
________________
 62
     7
370
     9
100
AcDbLine
 10
-24.08333333333301
 20
96.9666666666667
 30
0.0
 11
-24.08333333333301
 21
98.09234438539337
 31
0.0
  0
LINE
  5
7C
330
1F
100
AcDbEntity
  8
1
  6
________________
 62
     7
370
     9
100
AcDbLine
 10
-24.08333333333301
 20
98.09234438539337
 30
0.0
 11
-23.28333333333302
 21
98.09234438539337
 31
0.0
  0
ARC
  5
7D
330
1F
100
AcDbEntity
  8
1
  6
________________
 62
     7
370
     9
100
AcDbCircle
 10
-24.5833333333329
 20
92.61509922687705
 30
0.0
 40
5.62940623214303
100
AcDbArc
 50
67.06459180323043
 51
76.64815634296252
  0
LINE
  5
7E
330
1F
100
AcDbEntity
  8
1
  6
________________
 62
     7
370
     9
100
AcDbLine
 10
-22.38959223648507
 20
97.79947137078132
 30
0.0
 11
-22.33333333333323
 21
97.79947137078132
 31
0.0
  0
ARC
  5
7F
330
1F
100
AcDbEntity
  8
1
  6
________________
 62
     7
370
     9
100
AcDbCircle
 10
-24.5833333333329
 20
92.61509922687705
 30
0.0
 40
5.62940623214303
100
AcDbArc
 50
103.3518436570375
 51
112.9354081967696
  0
LINE
  5
80
330
1F
100
AcDbEntity
  8
1
  6
________________
 62
     7
370
     9
100
AcDbLine
 10
-25.88333333333315
 20
98.09234438539337
 30
0.0
 11
-25.08333333333324
 21
98.09234438539337
 31
0.0
  0
LINE
  5
81
330
1F
100
AcDbEntity
  8
1
  6
________________
 62
     7
370
     9
100
AcDbLine
 10
-25.08333333333324
 20
98.09234438539337
 30
0.0
 11
-25.08333333333324
 21
96.9666666666667
 31
0.0
  0
LINE
  5
82
330
1F
100
AcDbEntity
  8
1
  6
________________
 62
     7
370
     9
100
AcDbLine
 10
-24.08333333333301
 20
96.9666666666667
 30
0.0
 11
-25.08333333333298
 21
96.9666666666667
 31
0.0
  0
LINE
  5
83
330
1F
100
AcDbEntity
  8
1
  6
________________
 62
     7
370
     9
100
AcDbLine
 10
-134.8920821996856
 20
95.76666666666672
 30
0.0
 11
-139.5833333333331
 21
95.76666666666672
 31
0.0
  0
LINE
  5
84
330
1F
100
AcDbEntity
  8
1
  6
________________
 62
     7
370
     9
100
AcDbLine
 10
-139.5833333333331
 20
95.76666666666672
 30
0.0
 11
-144.2745844669806
 21
95.76666666666672
 31
0.0
  0
LINE
  5
85
330
1F
100
AcDbEntity
  8
1
  6
________________
 62
     7
370
     9
100
AcDbLine
 10
-141.8333333333331
 20
97.79947137078132
 30
0.0
 11
-141.7770744301812
 21
97.79947137078132
 31
0.0
  0
LINE
  5
86
330
1F
100
AcDbEntity
  8
1
  6
________________
 62
     7
370
     9
100
AcDbLine
 10
-139.083333333333
 20
96.9666666666667
 30
0.0
 11
-139.083333333333
 21
98.09234438539337
 31
0.0
  0
LINE
  5
87
330
1F
100
AcDbEntity
  8
1
  6
________________
 62
     7
370
     9
100
AcDbLine
 10
-139.083333333333
 20
98.09234438539337
 30
0.0
 11
-138.2833333333332
 21
98.09234438539337
 31
0.0
  0
ARC
  5
88
330
1F
100
AcDbEntity
  8
1
  6
________________
 62
     7
370
     9
100
AcDbCircle
 10
-139.5833333333331
 20
92.61509922687705
 30
0.0
 40
5.629406232142975
100
AcDbArc
 50
67.06459180323014
 51
76.64815634296224
  0
LINE
  5
89
330
1F
100
AcDbEntity
  8
1
  6
________________
 62
     7
370
     9
100
AcDbLine
 10
-137.389592236485
 20
97.79947137078132
 30
0.0
 11
-137.3333333333331
 21
97.79947137078132
 31
0.0
  0
ARC
  5
8A
330
1F
100
AcDbEntity
  8
1
  6
________________
 62
     7
370
     9
100
AcDbCircle
 10
-139.5833333333331
 20
92.61509922687705
 30
0.0
 40
5.629406232142975
100
AcDbArc
 50
103.3518436570378
 51
112.9354081967698
  0
LINE
  5
8B
330
1F
100
AcDbEntity
  8
1
  6
________________
 62
     7
370
     9
100
AcDbLine
 10
-140.8833333333333
 20
98.09234438539337
 30
0.0
 11
-140.0833333333332
 21
98.09234438539337
 31
0.0
  0
LINE
  5
8C
330
1F
100
AcDbEntity
  8
1
  6
________________
 62
     7
370
     9
100
AcDbLine
 10
-140.0833333333332
 20
98.09234438539337
 30
0.0
 11
-140.0833333333332
 21
96.9666666666667
 31
0.0
  0
LINE
  5
8D
330
1F
100
AcDbEntity
  8
1
  6
________________
 62
     7
370
     9
100
AcDbLine
 10
-139.083333333333
 20
96.9666666666667
 30
0.0
 11
-140.0833333333332
 21
96.9666666666667
 31
0.0
  0
LINE
  5
8E
330
1F
100
AcDbEntity
  8
1
  6
________________
 62
     7
370
     9
100
AcDbLine
 10
-255.3144705496148
 20
95.76666666666672
 30
0.0
 11
-259.2745844669805
 21
95.76666666666672
 31
0.0
  0
LINE
  5
8F
330
1F
100
AcDbEntity
  8
1
  6
________________
 62
     7
370
     9
100
AcDbLine
 10
-217.0833333333333
 20
78.66666666666669
 30
0.0
 11
-217.0833333333333
 21
88.66666666666671
 31
0.0
  0
LINE
  5
90
330
1F
100
AcDbEntity
  8
1
  6
________________
 62
     7
370
     9
100
AcDbLine
 10
-217.0833333333333
 20
88.66666666666673
 30
0.0
 11
225.4166666666667
 21
88.66666666666673
 31
0.0
  0
LINE
  5
91
330
1F
100
AcDbEntity
  8
1
  6
________________
 62
     7
370
     9
100
AcDbLine
 10
-217.0833333333333
 20
78.66666666666669
 30
0.0
 11
225.4166666666667
 21
78.66666666666669
 31
0.0
  0
LINE
  5
92
330
1F
100
AcDbEntity
  8
1
  6
________________
 62
     7
370
     9
100
AcDbLine
 10
225.4166666666667
 20
78.66666666666669
 30
0.0
 11
225.4166666666667
 21
88.66666666666671
 31
0.0
  0
LINE
  5
93
330
1F
100
AcDbEntity
  8
1
  6
________________
 62
     7
370
     9
100
AcDbLine
 10
-277.0833333333333
 20
78.66666666666669
 30
0.0
 11
-277.0833333333333
 21
88.66666666666671
 31
0.0
  0
LINE
  5
94
330
1F
100
AcDbEntity
  8
1
  6
________________
 62
     7
370
     9
100
AcDbLine
 10
-277.0833333333333
 20
88.66666666666673
 30
0.0
 11
-217.0833333333333
 21
88.66666666666673
 31
0.0
  0
LINE
  5
95
330
1F
100
AcDbEntity
  8
1
  6
________________
 62
     7
370
     9
100
AcDbLine
 10
-277.0833333333333
 20
78.66666666666669
 30
0.0
 11
-217.0833333333333
 21
78.66666666666669
 31
0.0
  0
ARC
  5
96
330
1F
100
AcDbEntity
  8
1
  6
________________
 62
     7
370
     9
100
AcDbCircle
 10
224.4166666666668
 20
92.66666666666667
 30
0.0
 40
1.000000000000001
100
AcDbArc
 50
0.0
 51
90.00000000000006
  0
LINE
  5
97
330
1F
100
AcDbEntity
  8
1
  6
________________
 62
     7
370
     9
100
AcDbLine
 10
225.4166666666667
 20
92.66666666666667
 30
0.0
 11
225.4166666666667
 21
88.6666666666667
 31
0.0
  0
LINE
  5
98
330
1F
100
AcDbEntity
  8
1
  6
________________
 62
     7
370
     9
100
AcDbLine
 10
-259.6691197709602
 20
93.66666666666673
 30
0.0
 11
224.4166666666667
 21
93.66666666666673
 31
0.0
  0
LINE
  5
99
330
1F
100
AcDbEntity
  8
1
  6
________________
 62
     9
420
 12632256
370
     9
100
AcDbLine
 10
-260.3762265521466
 20
88.66666666666673
 30
0.0
 11
-260.3762265521466
 21
92.6666666666667
 31
0.0
  0
LWPOLYLINE
  5
9A
330
1F
100
AcDbEntity
  8
1
  6
________________
 62
     9
420
 12632256
370
     9
100
AcDbPolyline
 90
        9
 70
     0
 43
0.0
 10
-259.6691197709602
 20
93.66666666666673
 10
-259.8070694606016
 20
93.64745194706991
 10
-259.9397178210332
 20
93.59054619917801
 10
-260.0619672501537
 20
93.49813627896924
 10
-260.1691197709602
 20
93.37377344785324
 10
-260.2570575721697
 20
93.22223689968628
 10
-260.3224012533983
 20
93.04935009903176
 10
-260.3626396936211
 20
92.86175698868281
 10
-260.3762265521466
 20
92.66666666666667
  0
LINE
  5
9B
330
1F
100
AcDbEntity
  8
1
  6
________________
 62
     7
370
     9
100
AcDbLine
 10
-276.0833333333333
 20
93.66666666666673
 30
0.0
 11
-259.6691197709602
 21
93.66666666666673
 31
0.0
  0
ARC
  5
9C
330
1F
100
AcDbEntity
  8
1
  6
________________
 62
     7
370
     9
100
AcDbCircle
 10
-276.0833333333333
 20
92.66666666666667
 30
0.0
 40
0.9999999999999454
100
AcDbArc
 50
90.0
 51
180.0
  0
LINE
  5
9D
330
1F
100
AcDbEntity
  8
1
  6
________________
 62
     7
370
     9
100
AcDbLine
 10
-277.0833333333333
 20
88.66666666666673
 30
0.0
 11
-277.0833333333333
 21
92.6666666666667
 31
0.0
  0
ARC
  5
9E
330
1F
100
AcDbEntity
  8
1
  6
________________
 62
     7
370
     9
100
AcDbCircle
 10
163.5651376542669
 20
96.66666666666673
 30
0.0
 40
3.000000000000003
100
AcDbArc
 50
180.5000000000005
 51
270.0
  0
ARC
  5
9F
330
1F
100
AcDbEntity
  8
1
  6
________________
 62
     7
370
     9
100
AcDbCircle
 10
147.2681956790667
 20
96.66666666666673
 30
0.0
 40
3.000000000000003
100
AcDbArc
 50
270.0
 51
359.4999999999995
  0
ARC
  5
A0
330
1F
100
AcDbEntity
  8
1
  6
________________
 62
     7
370
     9
100
AcDbCircle
 10
-215.2318043209333
 20
96.66666666666673
 30
0.0
 40
3.000000000000003
100
AcDbArc
 50
270.0
 51
359.4999999999995
  0
ARC
  5
A1
330
1F
100
AcDbEntity
  8
1
  6
________________
 62
     7
370
     9
100
AcDbCircle
 10
-198.9348623457331
 20
96.66666666666673
 30
0.0
 40
3.000000000000003
100
AcDbArc
 50
180.5000000000005
 51
270.0
  0
LINE
  5
A2
330
1F
100
AcDbEntity
  8
1
  6
________________
 62
     7
370
     9
100
AcDbLine
 10
150.2680814482593
 20
96.64048706017152
 30
0.0
 11
150.3042074045673
 21
100.7801116281455
 31
0.0
  0
LINE
  5
A3
330
1F
100
AcDbEntity
  8
1
  6
________________
 62
     7
370
     9
100
AcDbLine
 10
150.3426618080365
 20
100.7831808228519
 30
0.0
 11
150.3042074045673
 21
100.7801116281456
 31
0.0
  0
LINE
  5
A4
330
1F
100
AcDbEntity
  8
1
  6
________________
 62
     7
370
     9
100
AcDbLine
 10
160.5291259287663
 20
100.7801116281455
 30
0.0
 11
160.5652518850742
 21
96.64048706017152
 31
0.0
  0
LINE
  5
A5
330
1F
100
AcDbEntity
  8
1
  6
________________
 62
     7
370
     9
100
AcDbLine
 10
-201.9708740712337
 20
100.7801116281455
 30
0.0
 11
-201.9347481149256
 21
96.64048706017152
 31
0.0
  0
LINE
  5
A6
330
1F
100
AcDbEntity
  8
1
  6
________________
 62
     7
370
     9
100
AcDbLine
 10
-212.2319185517408
 20
96.64048706017152
 30
0.0
 11
-212.1957925954327
 21
100.7801116281455
 31
0.0
  0
LINE
  5
A7
330
1F
100
AcDbEntity
  8
1
  6
________________
 62
     7
370
     9
100
AcDbLine
 10
152.3992890878568
 20
113.6666666666667
 30
0.0
 11
153.4166666666667
 21
113.6666666666667
 31
0.0
  0
LINE
  5
A8
330
1F
100
AcDbEntity
  8
1
  6
________________
 62
     7
370
     9
100
AcDbLine
 10
157.416666666667
 20
113.6666666666667
 30
0.0
 11
158.4340442454768
 21
113.6666666666667
 31
0.0
  0
LINE
  5
A9
330
1F
100
AcDbEntity
  8
1
  6
________________
 62
     7
370
     9
100
AcDbLine
 10
160.4339680916052
 20
111.6841197376635
 30
0.0
 11
160.5291259287663
 21
100.7801116281456
 31
0.0
  0
ARC
  5
AA
330
1F
100
AcDbEntity
  8
1
  6
________________
 62
     7
370
     9
100
AcDbCircle
 10
158.4340442454768
 20
111.6666666666667
 30
0.0
 40
1.999999999999891
100
AcDbArc
 50
0.4999999999998823
 51
90.00000000000001
  0
LINE
  5
AB
330
1F
100
AcDbEntity
  8
1
  6
________________
 62
     7
370
     9
100
AcDbLine
 10
-210.1007109121433
 20
113.6666666666667
 30
0.0
 11
-209.0833333333332
 21
113.6666666666667
 31
0.0
  0
LINE
  5
AC
330
1F
100
AcDbEntity
  8
1
  6
________________
 62
     7
370
     9
100
AcDbLine
 10
-205.0833333333333
 20
113.6666666666667
 30
0.0
 11
-204.0659557545232
 21
113.6666666666667
 31
0.0
  0
LINE
  5
AD
330
1F
100
AcDbEntity
  8
1
  6
________________
 62
     7
370
     9
100
AcDbLine
 10
-212.1957925954327
 20
100.7801116281455
 30
0.0
 11
-212.1006347582716
 21
111.6841197376634
 31
0.0
  0
ARC
  5
AE
330
1F
100
AcDbEntity
  8
1
  6
________________
 62
     7
370
     9
100
AcDbCircle
 10
-210.1007109121433
 20
111.6666666666667
 30
0.0
 40
1.999999999999974
100
AcDbArc
 50
90.0
 51
179.5000000000001
  0
LINE
  5
AF
330
1F
100
AcDbEntity
  8
1
  6
________________
 62
     7
370
     9
100
AcDbLine
 10
-202.0627611760015
 20
111.3093309277804
 30
0.0
 11
-201.9708740712337
 21
100.7801116281456
 31
0.0
  0
LINE
  5
B0
330
1F
100
AcDbEntity
  8
1
  6
________________
 62
     7
370
     9
100
AcDbLine
 10
154.4166285897308
 20
113.6666666666667
 30
0.0
 11
153.4166666666667
 21
113.6666666666667
 31
0.0
  0
LINE
  5
B1
330
1F
100
AcDbEntity
  8
1
  6
________________
 62
     7
370
     9
100
AcDbLine
 10
157.416666666667
 20
113.6666666666667
 30
0.0
 11
156.4167047436028
 21
113.6666666666667
 31
0.0
  0
LINE
  5
B2
330
1F
100
AcDbEntity
  8
1
  6
________________
 62
     7
370
     9
100
AcDbLine
 10
-208.083371410269
 20
113.6666666666667
 30
0.0
 11
-209.0833333333332
 21
113.6666666666667
 31
0.0
  0
LINE
  5
B3
330
1F
100
AcDbEntity
  8
1
  6
________________
 62
     7
370
     9
100
AcDbLine
 10
-205.0833333333333
 20
113.6666666666667
 30
0.0
 11
-206.0832952563974
 21
113.6666666666667
 31
0.0
  0
LINE
  5
B4
330
1F
100
AcDbEntity
  8
1
  6
________________
 62
     7
370
     9
100
AcDbLine
 10
154.4166285897308
 20
113.6666666666667
 30
0.0
 11
156.4167047436027
 21
113.6666666666667
 31
0.0
  0
LINE
  5
B5
330
1F
100
AcDbEntity
  8
1
  6
________________
 62
     7
370
     9
100
AcDbLine
 10
-206.0832952563974
 20
113.6666666666667
 30
0.0
 11
-208.083371410269
 21
113.6666666666667
 31
0.0
  0
LINE
  5
B6
330
1F
100
AcDbEntity
  8
1
  6
________________
 62
     7
370
     9
100
AcDbLine
 10
150.3293979887592
 20
103.6666666666667
 30
0.0
 11
150.3032173853871
 21
100.6666666666667
 31
0.0
  0
LINE
  5
B7
330
1F
100
AcDbEntity
  8
1
  6
________________
 62
     7
370
     9
100
AcDbLine
 10
203.5290695699985
 20
95.66666666666667
 30
0.0
 11
210.2166666666669
 21
95.66666666666667
 31
0.0
  0
LINE
  5
B8
330
1F
100
AcDbEntity
  8
1
  6
________________
 62
     7
370
     9
100
AcDbLine
 10
85.61666666666667
 20
95.66666666666667
 30
0.0
 11
95.2166666666667
 21
95.66666666666667
 31
0.0
  0
LINE
  5
B9
330
1F
100
AcDbEntity
  8
1
  6
________________
 62
     7
370
     9
100
AcDbLine
 10
-29.3833333333332
 20
95.66666666666667
 30
0.0
 11
-19.78333333333326
 21
95.66666666666667
 31
0.0
  0
LINE
  5
BA
330
1F
100
AcDbEntity
  8
1
  6
________________
 62
     7
370
     9
100
AcDbLine
 10
-144.3833333333334
 20
95.66666666666667
 30
0.0
 11
-134.7833333333331
 21
95.66666666666667
 31
0.0
  0
LINE
  5
BB
330
1F
100
AcDbEntity
  8
1
  6
________________
 62
     7
370
     9
100
AcDbLine
 10
-259.3833333333333
 20
95.66666666666667
 30
0.0
 11
-255.1027253142909
 21
95.66666666666667
 31
0.0
  0
LINE
  5
BC
330
1F
100
AcDbEntity
  8
1
  6
________________
 62
     7
370
     9
100
AcDbLine
 10
-253.5833333333333
 20
77.16666666666669
 30
0.0
 11
-252.8568360252296
 21
76.74722325026744
 31
0.0
  0
LINE
  5
BD
330
1F
100
AcDbEntity
  8
1
  6
________________
 62
     7
370
     9
100
AcDbLine
 10
-241.3098306414371
 20
76.74722325026748
 30
0.0
 11
-240.5833333333333
 21
77.16666666666669
 31
0.0
  0
LINE
  5
BE
330
1F
100
AcDbEntity
  8
1
  6
________________
 62
     7
370
     9
100
AcDbLine
 10
-253.5833333333333
 20
78.66666666666669
 30
0.0
 11
-253.5833333333333
 21
77.16666666666669
 31
0.0
  0
LINE
  5
BF
330
1F
100
AcDbEntity
  8
1
  6
________________
 62
     7
370
     9
100
AcDbLine
 10
-240.5833333333333
 20
77.16666666666669
 30
0.0
 11
-240.5833333333333
 21
78.66666666666669
 31
0.0
  0
LINE
  5
C0
330
1F
100
AcDbEntity
  8
1
  6
________________
 62
     7
370
     9
100
AcDbLine
 10
-252.8568360252296
 20
73.25758622134929
 30
0.0
 11
-251.8333333333332
 21
72.66666666666669
 31
0.0
  0
LINE
  5
C1
330
1F
100
AcDbEntity
  8
1
  6
________________
 62
     7
370
     9
100
AcDbLine
 10
-242.3333333333333
 20
72.66666666666669
 30
0.0
 11
-241.3098306414371
 21
73.25758622134929
 31
0.0
  0
LINE
  5
C2
330
1F
100
AcDbEntity
  8
1
  6
________________
 62
     7
370
     9
100
AcDbLine
 10
-249.8333333333333
 20
72.66666666666671
 30
0.0
 11
-249.8333333333333
 21
71.6666666666667
 31
0.0
  0
LINE
  5
C3
330
1F
100
AcDbEntity
  8
1
  6
________________
 62
     7
370
     9
100
AcDbLine
 10
-244.3333333333333
 20
71.66666666666671
 30
0.0
 11
-244.3333333333333
 21
72.66666666666673
 31
0.0
  0
LINE
  5
C4
330
1F
100
AcDbEntity
  8
1
  6
________________
 62
     7
370
     9
100
AcDbLine
 10
188.9166666666668
 20
77.16666666666669
 30
0.0
 11
189.6431639747705
 21
76.74722325026748
 31
0.0
  0
LINE
  5
C5
330
1F
100
AcDbEntity
  8
1
  6
________________
 62
     7
370
     9
100
AcDbLine
 10
201.1901693585631
 20
76.74722325026748
 30
0.0
 11
201.9166666666668
 21
77.16666666666669
 31
0.0
  0
LINE
  5
C6
330
1F
100
AcDbEntity
  8
1
  6
________________
 62
     7
370
     9
100
AcDbLine
 10
188.9166666666668
 20
78.66666666666669
 30
0.0
 11
188.9166666666668
 21
77.16666666666669
 31
0.0
  0
LINE
  5
C7
330
1F
100
AcDbEntity
  8
1
  6
________________
 62
     7
370
     9
100
AcDbLine
 10
201.9166666666667
 20
77.16666666666669
 30
0.0
 11
201.9166666666667
 21
78.66666666666669
 31
0.0
  0
LINE
  5
C8
330
1F
100
AcDbEntity
  8
1
  6
________________
 62
     7
370
     9
100
AcDbLine
 10
189.6431639747705
 20
73.25758622134931
 30
0.0
 11
190.6666666666668
 21
72.66666666666667
 31
0.0
  0
LINE
  5
C9
330
1F
100
AcDbEntity
  8
1
  6
________________
 62
     7
370
     9
100
AcDbLine
 10
200.1666666666669
 20
72.66666666666669
 30
0.0
 11
201.1901693585631
 21
73.25758622134929
 31
0.0
  0
LINE
  5
CA
330
1F
100
AcDbEntity
  8
1
  6
________________
 62
     7
370
     9
100
AcDbLine
 10
192.6666666666669
 20
72.66666666666671
 30
0.0
 11
192.6666666666669
 21
71.6666666666667
 31
0.0
  0
LINE
  5
CB
330
1F
100
AcDbEntity
  8
1
  6
________________
 62
     7
370
     9
100
AcDbLine
 10
198.1666666666668
 20
71.66666666666671
 30
0.0
 11
198.1666666666668
 21
72.66666666666673
 31
0.0
  0
LINE
  5
CC
330
1F
100
AcDbEntity
  8
1
  6
________________
 62
     7
370
     9
100
AcDbLine
 10
210.116666666667
 20
95.66666666666667
 30
0.0
 11
210.1079178003144
 21
95.76666666666671
 31
0.0
  0
ARC
  5
CD
330
1F
100
AcDbEntity
  8
1
  6
________________
 62
     7
370
     9
100
AcDbCircle
 10
205.4166666666669
 20
92.61509922687705
 30
0.0
 40
5.651567439789562
100
AcDbArc
 50
33.89307894244401
 51
66.53931933134987
  0
LINE
  5
CE
330
1F
100
AcDbEntity
  8
1
  6
________________
 62
     7
370
     9
100
AcDbLine
 10
95.11666666666684
 20
95.66666666666667
 30
0.0
 11
95.10791780031455
 21
95.76666666666671
 31
0.0
  0
LINE
  5
CF
330
1F
100
AcDbEntity
  8
1
  6
________________
 62
     7
370
     9
100
AcDbLine
 10
85.72541553301949
 20
95.76666666666672
 30
0.0
 11
85.71666666666694
 21
95.66666666666669
 31
0.0
  0
ARC
  5
D0
330
1F
100
AcDbEntity
  8
1
  6
________________
 62
     7
370
     9
100
AcDbCircle
 10
90.41666666666703
 20
92.61509922687705
 30
0.0
 40
5.651567439789673
100
AcDbArc
 50
33.89307894244401
 51
66.53931933134987
  0
ARC
  5
D1
330
1F
100
AcDbEntity
  8
1
  6
________________
 62
     7
370
     9
100
AcDbCircle
 10
90.41666666666703
 20
92.61509922687705
 30
0.0
 40
5.651567439789673
100
AcDbArc
 50
113.4606806686501
 51
146.106921057556
  0
LINE
  5
D2
330
1F
100
AcDbEntity
  8
1
  6
________________
 62
     7
370
     9
100
AcDbLine
 10
-19.88333333333314
 20
95.66666666666667
 30
0.0
 11
-19.89208219968561
 21
95.76666666666671
 31
0.0
  0
LINE
  5
D3
330
1F
100
AcDbEntity
  8
1
  6
________________
 62
     7
370
     9
100
AcDbLine
 10
-29.27458446698039
 20
95.76666666666672
 30
0.0
 11
-29.28333333333302
 21
95.66666666666669
 31
0.0
  0
ARC
  5
D4
330
1F
100
AcDbEntity
  8
1
  6
________________
 62
     7
370
     9
100
AcDbCircle
 10
-24.5833333333329
 20
92.61509922687705
 30
0.0
 40
5.651567439789617
100
AcDbArc
 50
33.89307894244401
 51
66.53931933134987
  0
ARC
  5
D5
330
1F
100
AcDbEntity
  8
1
  6
________________
 62
     7
370
     9
100
AcDbCircle
 10
-24.5833333333329
 20
92.61509922687705
 30
0.0
 40
5.651567439789673
100
AcDbArc
 50
113.4606806686501
 51
146.106921057556
  0
LINE
  5
D6
330
1F
100
AcDbEntity
  8
1
  6
________________
 62
     7
370
     9
100
AcDbLine
 10
-134.8833333333333
 20
95.66666666666667
 30
0.0
 11
-134.8920821996856
 21
95.76666666666671
 31
0.0
  0
LINE
  5
D7
330
1F
100
AcDbEntity
  8
1
  6
________________
 62
     7
370
     9
100
AcDbLine
 10
-144.2745844669806
 20
95.76666666666672
 30
0.0
 11
-144.2833333333332
 21
95.66666666666669
 31
0.0
  0
ARC
  5
D8
330
1F
100
AcDbEntity
  8
1
  6
________________
 62
     7
370
     9
100
AcDbCircle
 10
-139.5833333333331
 20
92.61509922687705
 30
0.0
 40
5.651567439789617
100
AcDbArc
 50
33.89307894244386
 51
66.53931933134965
  0
ARC
  5
D9
330
1F
100
AcDbEntity
  8
1
  6
________________
 62
     7
370
     9
100
AcDbCircle
 10
-139.5833333333331
 20
92.61509922687705
 30
0.0
 40
5.651567439789617
100
AcDbArc
 50
113.4606806686504
 51
146.1069210575561
  0
LINE
  5
DA
330
1F
100
AcDbEntity
  8
1
  6
________________
 62
     7
370
     9
100
AcDbLine
 10
-259.2745844669805
 20
95.76666666666672
 30
0.0
 11
-259.2833333333331
 21
95.66666666666669
 31
0.0
  0
ARC
  5
DB
330
1F
100
AcDbEntity
  8
1
  6
________________
 62
     7
370
     9
100
AcDbCircle
 10
-254.5833333333331
 20
92.61509922687705
 30
0.0
 40
5.651567439789673
100
AcDbArc
 50
117.1571996535584
 51
146.1069210575561
  0
LINE
  5
DC
330
1F
100
AcDbEntity
  8
1
  6
________________
 62
     7
370
     9
100
AcDbLine
 10
1.433313961315519
 20
93.7041666666667
 30
0.0
 11
1.433313961315519
 21
93.6666666666667
 31
0.0
  0
LINE
  5
DD
330
1F
100
AcDbEntity
  8
1
  6
________________
 62
     7
370
     9
100
AcDbLine
 10
2.342404870406378
 20
93.66666666666673
 30
0.0
 11
2.342404870406378
 21
93.70416666666672
 31
0.0
  0
LWPOLYLINE
  5
DE
330
1F
100
AcDbEntity
  8
1
  6
________________
 62
     7
370
     9
100
AcDbPolyline
 90
       10
 70
     0
 43
0.0
 10
152.3992793741019
 20
113.6653512013236
 10
152.0669522364224
 20
113.6374629109095
 10
151.7667943306428
 20
113.5623526092132
 10
151.4688358632369
 20
113.4347875268769
 10
151.2114080602716
 20
113.2723566031145
 10
150.9369914468454
 20
113.0251621305199
 10
150.7490160201741
 20
112.7860467475794
 10
150.5950775861375
 20
112.5078712538985
 10
150.4780155888171
 20
112.1506992307645
 10
150.4384729092291
 20
111.8091898656563
  0
ARC
  5
DF
330
1F
100
AcDbEntity
  8
1
  6
________________
 62
     7
370
     9
100
AcDbCircle
 10
60045109.89430533
 20
-521659.9684384618
 30
0.0
 40
60047226.42920731
100
AcDbArc
 50
179.5021302610457
 51
179.502140782225
  0
LWPOLYLINE
  5
E0
330
1F
100
AcDbEntity
  8
1
  6
________________
 62
     7
370
     9
100
AcDbPolyline
 90
       34
 70
     0
 43
0.0
 10
-202.0734291099999
 20
111.4668278099279
 10
-202.0983232647747
 20
111.771490338382
 10
-202.1137317823406
 20
111.8860258463242
 10
-202.133261895572
 20
111.9996250381609
 10
-202.1574882609341
 20
112.1124957864937
 10
-202.1869678472336
 20
112.2247104258353
 10
-202.2141604840929
 20
112.3123860757518
 10
-202.2451607171013
 20
112.3995432840513
 10
-202.2801873408461
 20
112.4860574490801
 10
-202.3194362907709
 20
112.5717628995508
 10
-202.3567375231618
 20
112.6447427785837
 10
-202.3973853922287
 20
112.7168224516076
 10
-202.4414535708531
 20
112.787834230532
 10
-202.4889970661766
 20
112.8575951441109
 10
-202.5400511078925
 20
112.9259089413035
 10
-202.5946301849758
 20
112.9925681990841
 10
-202.652727246436
 20
113.0573565228903
 10
-202.7143130804495
 20
113.1200508255395
 10
-202.7793358846822
 20
113.180423668217
 10
-202.8477210387595
 20
113.2382456450828
 10
-202.9193710876983
 20
113.2932877912213
 10
-202.9941659427303
 20
113.3453239920867
 10
-203.0719633033385
 20
113.394133371347
 10
-203.1525993015532
 20
113.4395026331141
 10
-203.2358893666548
 20
113.4812283340073
 10
-203.321629305458
 20
113.519119060364
 10
-203.4095965903621
 20
113.552997486179
 10
-203.4995518444006
 20
113.5827022880587
 10
-203.5912405096651
 20
113.6080898945903
 10
-203.684394682776
 20
113.6290360490562
 10
-203.7787350985628
 20
113.6454371663418
 10
-203.8739732408764
 20
113.6572114671626
 10
-203.9698135575005
 20
113.6642998753319
 10
-204.0659557545232
 20
113.6666666666667
  0
ARC
  5
E1
330
1F
100
AcDbEntity
  8
1
  6
________________
 62
     7
370
     9
100
AcDbCircle
 10
210.2166666666669
 20
95.4666666666667
 30
0.0
 40
0.199999999999978
100
AcDbArc
 50
0.0
 51
90.0
  0
LINE
  5
E2
330
1F
100
AcDbEntity
  8
1
  6
________________
 62
     7
370
     9
100
AcDbLine
 10
210.4166666666667
 20
93.66666666666673
 30
0.0
 11
210.4166666666667
 21
95.46666666666674
 31
0.0
  0
ARC
  5
E3
330
1F
100
AcDbEntity
  8
1
  6
________________
 62
     7
370
     9
100
AcDbCircle
 10
85.61666666666667
 20
95.4666666666667
 30
0.0
 40
0.200000000000089
100
AcDbArc
 50
90.0
 51
180.0
  0
ARC
  5
E4
330
1F
100
AcDbEntity
  8
1
  6
________________
 62
     7
370
     9
100
AcDbCircle
 10
95.21666666666673
 20
95.4666666666667
 30
0.0
 40
0.199999999999978
100
AcDbArc
 50
0.0
 51
90.0
  0
LINE
  5
E5
330
1F
100
AcDbEntity
  8
1
  6
________________
 62
     7
370
     9
100
AcDbLine
 10
85.41666666666691
 20
95.4666666666667
 30
0.0
 11
85.41666666666691
 21
93.66666666666669
 31
0.0
  0
LINE
  5
E6
330
1F
100
AcDbEntity
  8
1
  6
________________
 62
     7
370
     9
100
AcDbLine
 10
95.41666666666681
 20
93.66666666666673
 30
0.0
 11
95.41666666666681
 21
95.46666666666674
 31
0.0
  0
LINE
  5
E7
330
1F
100
AcDbEntity
  8
1
  6
________________
 62
     7
370
     9
100
AcDbLine
 10
-29.58333333333329
 20
95.4666666666667
 30
0.0
 11
-29.58333333333329
 21
93.66666666666669
 31
0.0
  0
LINE
  5
E8
330
1F
100
AcDbEntity
  8
1
  6
________________
 62
     7
370
     9
100
AcDbLine
 10
-19.58333333333306
 20
93.66666666666673
 30
0.0
 11
-19.58333333333306
 21
95.46666666666674
 31
0.0
  0
ARC
  5
E9
330
1F
100
AcDbEntity
  8
1
  6
________________
 62
     7
370
     9
100
AcDbCircle
 10
-29.3833333333332
 20
95.4666666666667
 30
0.0
 40
0.199999999999978
100
AcDbArc
 50
90.0
 51
180.0
  0
ARC
  5
EA
330
1F
100
AcDbEntity
  8
1
  6
________________
 62
     7
370
     9
100
AcDbCircle
 10
-19.78333333333326
 20
95.4666666666667
 30
0.0
 40
0.199999999999978
100
AcDbArc
 50
0.0
 51
90.0
  0
LINE
  5
EB
330
1F
100
AcDbEntity
  8
1
  6
________________
 62
     7
370
     9
100
AcDbLine
 10
-144.5833333333332
 20
95.4666666666667
 30
0.0
 11
-144.5833333333332
 21
93.66666666666669
 31
0.0
  0
LINE
  5
EC
330
1F
100
AcDbEntity
  8
1
  6
________________
 62
     7
370
     9
100
AcDbLine
 10
-134.5833333333333
 20
93.66666666666673
 30
0.0
 11
-134.5833333333333
 21
95.46666666666674
 31
0.0
  0
ARC
  5
ED
330
1F
100
AcDbEntity
  8
1
  6
________________
 62
     7
370
     9
100
AcDbCircle
 10
-144.3833333333334
 20
95.4666666666667
 30
0.0
 40
0.2000000000000335
100
AcDbArc
 50
90.0
 51
180.0
  0
ARC
  5
EE
330
1F
100
AcDbEntity
  8
1
  6
________________
 62
     7
370
     9
100
AcDbCircle
 10
-134.7833333333331
 20
95.4666666666667
 30
0.0
 40
0.199999999999978
100
AcDbArc
 50
0.0
 51
90.0
  0
ARC
  5
EF
330
1F
100
AcDbEntity
  8
1
  6
________________
 62
     7
370
     9
100
AcDbCircle
 10
-259.3833333333333
 20
95.4666666666667
 30
0.0
 40
0.2000000000000335
100
AcDbArc
 50
90.0
 51
180.0
  0
LINE
  5
F0
330
1F
100
AcDbEntity
  8
1
  6
________________
 62
     7
370
     9
100
AcDbLine
 10
-259.5833333333333
 20
95.4666666666667
 30
0.0
 11
-259.5833333333333
 21
93.66666666666669
 31
0.0
  0
LINE
  5
F1
330
1F
100
AcDbEntity
  8
1
  6
________________
 62
     7
370
     9
100
AcDbLine
 10
-234.6572912584772
 20
282.916666666667
 30
0.0
 11
-233.6572912584772
 21
282.916666666667
 31
0.0
  0
LINE
  5
F2
330
1F
100
AcDbEntity
  8
1
  6
________________
 62
     7
370
     9
100
AcDbLine
 10
-234.6572912584772
 20
287.9166666666667
 30
0.0
 11
-233.6572912584772
 21
287.9166666666667
 31
0.0
  0
LINE
  5
F3
330
1F
100
AcDbEntity
  8
1
  6
________________
 62
     7
370
     9
100
AcDbLine
 10
-240.4895863420707
 20
282.916666666667
 30
0.0
 11
-234.6572912584772
 21
282.916666666667
 31
0.0
  0
LINE
  5
F4
330
1F
100
AcDbEntity
  8
1
  6
________________
 62
     7
370
     9
100
AcDbLine
 10
-240.4895863420707
 20
287.9166666666667
 30
0.0
 11
-234.6572912584772
 21
287.9166666666667
 31
0.0
  0
LINE
  5
F5
330
1F
100
AcDbEntity
  8
1
  6
________________
 62
     7
370
     9
100
AcDbLine
 10
-259.5093754081895
 20
282.916666666667
 30
0.0
 11
-260.5093754081896
 21
282.916666666667
 31
0.0
  0
LINE
  5
F6
330
1F
100
AcDbEntity
  8
1
  6
________________
 62
     7
370
     9
100
AcDbLine
 10
-259.5093754081895
 20
287.9166666666667
 30
0.0
 11
-260.5093754081896
 21
287.9166666666667
 31
0.0
  0
LINE
  5
F7
330
1F
100
AcDbEntity
  8
1
  6
________________
 62
     7
370
     9
100
AcDbLine
 10
-253.6770803245961
 20
282.916666666667
 30
0.0
 11
-259.5093754081895
 21
282.916666666667
 31
0.0
  0
LINE
  5
F8
330
1F
100
AcDbEntity
  8
1
  6
________________
 62
     7
370
     9
100
AcDbLine
 10
-253.6770803245961
 20
287.9166666666667
 30
0.0
 11
-259.5093754081895
 21
287.9166666666667
 31
0.0
  0
LINE
  5
F9
330
1F
100
AcDbEntity
  8
1
  6
________________
 62
     7
370
     9
100
AcDbLine
 10
-243.5833333333333
 20
282.916666666667
 30
0.0
 11
-243.5833333333333
 21
285.4166666666667
 31
0.0
  0
LINE
  5
FA
330
1F
100
AcDbEntity
  8
1
  6
________________
 62
     7
370
     9
100
AcDbLine
 10
-243.5833333333333
 20
285.4166666666668
 30
0.0
 11
-243.5833333333333
 21
287.9166666666668
 31
0.0
  0
LINE
  5
FB
330
1F
100
AcDbEntity
  8
1
  6
________________
 62
     7
370
     9
100
AcDbLine
 10
-243.5833333333333
 20
282.916666666667
 30
0.0
 11
-240.4895863420707
 21
282.916666666667
 31
0.0
  0
LINE
  5
FC
330
1F
100
AcDbEntity
  8
1
  6
________________
 62
     7
370
     9
100
AcDbLine
 10
-243.5833333333333
 20
287.9166666666667
 30
0.0
 11
-240.4895863420707
 21
287.9166666666667
 31
0.0
  0
LINE
  5
FD
330
1F
100
AcDbEntity
  8
1
  6
________________
 62
     7
370
     9
100
AcDbLine
 10
-250.5833333333333
 20
285.4166666666668
 30
0.0
 11
-250.5833333333334
 21
287.9166666666668
 31
0.0
  0
LINE
  5
FE
330
1F
100
AcDbEntity
  8
1
  6
________________
 62
     7
370
     9
100
AcDbLine
 10
-250.5833333333333
 20
282.916666666667
 30
0.0
 11
-250.5833333333333
 21
285.4166666666667
 31
0.0
  0
LINE
  5
FF
330
1F
100
AcDbEntity
  8
1
  6
________________
 62
     7
370
     9
100
AcDbLine
 10
-250.5833333333333
 20
282.916666666667
 30
0.0
 11
-253.6770803245961
 21
282.916666666667
 31
0.0
  0
LINE
  5
100
330
1F
100
AcDbEntity
  8
1
  6
________________
 62
     7
370
     9
100
AcDbLine
 10
-250.5833333333334
 20
287.9166666666667
 30
0.0
 11
-253.6770803245961
 21
287.9166666666667
 31
0.0
  0
ARC
  5
101
330
1F
100
AcDbEntity
  8
1
  6
________________
 62
     7
370
     9
100
AcDbCircle
 10
-247.0833333333333
 20
285.4166666666668
 30
0.0
 40
3.499999999999948
100
AcDbArc
 50
180.0
 51
0.0
  0
ARC
  5
102
330
1F
100
AcDbEntity
  8
1
  6
________________
 62
     7
370
     9
100
AcDbCircle
 10
-247.0833333333333
 20
285.4166666666668
 30
0.0
 40
4.999999999999921
100
AcDbArc
 50
310.5416018735059
 51
329.9999999999998
  0
ARC
  5
103
330
1F
100
AcDbEntity
  8
1
  6
________________
 62
     7
370
     9
100
AcDbCircle
 10
-247.0833333333333
 20
285.4166666666668
 30
0.0
 40
5.000000000000004
100
AcDbArc
 50
229.4583981264975
 51
310.5416018735058
  0
ARC
  5
104
330
1F
100
AcDbEntity
  8
1
  6
________________
 62
     7
370
     9
100
AcDbCircle
 10
-247.0833333333333
 20
285.4166666666668
 30
0.0
 40
5.00000000000006
100
AcDbArc
 50
209.9999999999999
 51
229.4583981264976
  0
ARC
  5
105
330
1F
100
AcDbEntity
  8
1
  6
________________
 62
     7
370
     9
100
AcDbCircle
 10
-247.0833333333333
 20
285.4166666666668
 30
0.0
 40
3.500000000000059
100
AcDbArc
 50
0.0
 51
180.0
  0
ARC
  5
106
330
1F
100
AcDbEntity
  8
1
  6
________________
 62
     7
370
     9
100
AcDbCircle
 10
-247.0833333333333
 20
285.4166666666668
 30
0.0
 40
5.000000000000088
100
AcDbArc
 50
30.00000000000023
 51
150.0000000000001
  0
LINE
  5
107
330
1F
100
AcDbEntity
  8
1
  6
________________
 62
     7
370
     9
100
AcDbLine
 10
182.9906245918107
 20
282.916666666667
 30
0.0
 11
181.9906245918105
 21
282.916666666667
 31
0.0
  0
LINE
  5
108
330
1F
100
AcDbEntity
  8
1
  6
________________
 62
     7
370
     9
100
AcDbLine
 10
182.9906245918107
 20
287.9166666666667
 30
0.0
 11
181.9906245918105
 21
287.9166666666667
 31
0.0
  0
LINE
  5
109
330
1F
100
AcDbEntity
  8
1
  6
________________
 62
     7
370
     9
100
AcDbLine
 10
188.8229196754041
 20
282.916666666667
 30
0.0
 11
182.9906245918107
 21
282.916666666667
 31
0.0
  0
LINE
  5
10A
330
1F
100
AcDbEntity
  8
1
  6
________________
 62
     7
370
     9
100
AcDbLine
 10
188.8229196754041
 20
287.9166666666667
 30
0.0
 11
182.9906245918107
 21
287.9166666666667
 31
0.0
  0
LINE
  5
10B
330
1F
100
AcDbEntity
  8
1
  6
________________
 62
     7
370
     9
100
AcDbLine
 10
198.9166666666669
 20
282.916666666667
 30
0.0
 11
202.0104136579296
 21
282.916666666667
 31
0.0
  0
LINE
  5
10C
330
1F
100
AcDbEntity
  8
1
  6
________________
 62
     7
370
     9
100
AcDbLine
 10
198.9166666666669
 20
282.916666666667
 30
0.0
 11
198.9166666666669
 21
285.4166666666667
 31
0.0
  0
LINE
  5
10D
330
1F
100
AcDbEntity
  8
1
  6
________________
 62
     7
370
     9
100
AcDbLine
 10
198.9166666666669
 20
285.4166666666668
 30
0.0
 11
198.9166666666669
 21
287.9166666666668
 31
0.0
  0
LINE
  5
10E
330
1F
100
AcDbEntity
  8
1
  6
________________
 62
     7
370
     9
100
AcDbLine
 10
198.9166666666669
 20
287.9166666666667
 30
0.0
 11
202.0104136579296
 21
287.9166666666667
 31
0.0
  0
LINE
  5
10F
330
1F
100
AcDbEntity
  8
1
  6
________________
 62
     7
370
     9
100
AcDbLine
 10
191.9166666666669
 20
285.4166666666668
 30
0.0
 11
191.9166666666669
 21
287.9166666666668
 31
0.0
  0
LINE
  5
110
330
1F
100
AcDbEntity
  8
1
  6
________________
 62
     7
370
     9
100
AcDbLine
 10
191.9166666666669
 20
282.916666666667
 30
0.0
 11
191.9166666666669
 21
285.4166666666667
 31
0.0
  0
LINE
  5
111
330
1F
100
AcDbEntity
  8
1
  6
________________
 62
     7
370
     9
100
AcDbLine
 10
191.9166666666669
 20
282.916666666667
 30
0.0
 11
188.8229196754042
 21
282.916666666667
 31
0.0
  0
LINE
  5
112
330
1F
100
AcDbEntity
  8
1
  6
________________
 62
     7
370
     9
100
AcDbLine
 10
191.9166666666669
 20
287.9166666666667
 30
0.0
 11
188.8229196754042
 21
287.9166666666667
 31
0.0
  0
LINE
  5
113
330
1F
100
AcDbEntity
  8
1
  6
________________
 62
     7
370
     9
100
AcDbLine
 10
202.0104136579296
 20
287.9166666666667
 30
0.0
 11
207.842708741523
 21
287.9166666666667
 31
0.0
  0
LINE
  5
114
330
1F
100
AcDbEntity
  8
1
  6
________________
 62
     7
370
     9
100
AcDbLine
 10
202.0104136579296
 20
282.916666666667
 30
0.0
 11
207.842708741523
 21
282.916666666667
 31
0.0
  0
LINE
  5
115
330
1F
100
AcDbEntity
  8
1
  6
________________
 62
     7
370
     9
100
AcDbLine
 10
207.842708741523
 20
287.9166666666667
 30
0.0
 11
208.8427087415229
 21
287.9166666666667
 31
0.0
  0
LINE
  5
116
330
1F
100
AcDbEntity
  8
1
  6
________________
 62
     7
370
     9
100
AcDbLine
 10
207.842708741523
 20
282.916666666667
 30
0.0
 11
208.8427087415229
 21
282.916666666667
 31
0.0
  0
ARC
  5
117
330
1F
100
AcDbEntity
  8
1
  6
________________
 62
     7
370
     9
100
AcDbCircle
 10
195.4166666666668
 20
285.4166666666668
 30
0.0
 40
3.499999999999948
100
AcDbArc
 50
180.0
 51
0.0
  0
ARC
  5
118
330
1F
100
AcDbEntity
  8
1
  6
________________
 62
     7
370
     9
100
AcDbCircle
 10
195.4166666666668
 20
285.4166666666668
 30
0.0
 40
5.000000000000004
100
AcDbArc
 50
210.0
 51
229.4583981264956
  0
ARC
  5
119
330
1F
100
AcDbEntity
  8
1
  6
________________
 62
     7
370
     9
100
AcDbCircle
 10
195.4166666666668
 20
285.4166666666668
 30
0.0
 40
5.000000000000004
100
AcDbArc
 50
229.4583981264954
 51
310.5416018735046
  0
ARC
  5
11A
330
1F
100
AcDbEntity
  8
1
  6
________________
 62
     7
370
     9
100
AcDbCircle
 10
195.4166666666668
 20
285.4166666666668
 30
0.0
 40
5.000000000000004
100
AcDbArc
 50
310.5416018735046
 51
330.0
  0
ARC
  5
11B
330
1F
100
AcDbEntity
  8
1
  6
________________
 62
     7
370
     9
100
AcDbCircle
 10
195.4166666666668
 20
285.4166666666668
 30
0.0
 40
4.999999999999893
100
AcDbArc
 50
29.99999999999994
 51
150.0
  0
ARC
  5
11C
330
1F
100
AcDbEntity
  8
1
  6
________________
 62
     7
370
     9
100
AcDbCircle
 10
195.4166666666668
 20
285.4166666666668
 30
0.0
 40
3.500000000000059
100
AcDbArc
 50
0.0
 51
180.0
  0
LINE
  5
11D
330
1F
100
AcDbEntity
  8
1
  6
________________
 62
     7
370
     9
100
AcDbLine
 10
205.9166666666667
 20
310.0953818357617
 30
0.0
 11
205.9166666666667
 21
312.3666666666667
 31
0.0
  0
LWPOLYLINE
  5
11E
330
1F
100
AcDbEntity
  8
1
  6
________________
 62
     7
370
     9
100
AcDbPolyline
 90
       35
 70
     0
 43
0.0
 10
-205.9166666666667
 20
312.3666666666667
 10
-205.9175425694679
 20
312.4036999583621
 10
-205.9201647628575
 20
312.4408527047327
 10
-205.9245249743146
 20
312.4779986413253
 10
-205.9306149313186
 20
312.5150115036872
 10
-205.9384263613491
 20
312.5517650273651
 10
-205.9479509918856
 20
312.5881329479065
 10
-205.959180550407
 20
312.6239890008577
 10
-205.9721791872587
 20
312.6594190256033
 10
-205.9869272342054
 20
312.6943624935421
 10
-206.003365257186
 20
312.7286930909971
 10
-206.0214338221391
 20
312.7622845042897
 10
-206.0410734950042
 20
312.7950104197425
 10
-206.0622248417199
 20
312.8267445236777
 10
-206.0848284282252
 20
312.8573605024168
 10
-206.1082179565674
 20
312.8860489377853
 10
-206.1330062763676
 20
312.9137049039766
 10
-206.1590960173869
 20
312.9402393504571
 10
-206.1863898093879
 20
312.965563226693
 10
-206.2147902821316
 20
312.9895874821507
 10
-206.2442000653799
 20
313.0122230662963
 10
-206.2745217888945
 20
313.0333809285958
 10
-206.305345348917
 20
313.052805542998
 10
-206.3370780009863
 20
313.0708213398235
 10
-206.3696063097735
 20
313.0873854769983
 10
-206.4028168399488
 20
313.1024551124494
 10
-206.4365961561834
 20
313.1159874041029
 10
-206.4708308231481
 20
313.1279395098851
 10
-206.5054074055132
 20
313.1382685877223
 10
-206.5401138376041
 20
313.146931193722
 10
-206.5751667135595
 20
313.1540266297171
 10
-206.6104572339117
 20
313.1595513953587
 10
-206.6458765991924
 20
313.1635019902969
 10
-206.6813160099336
 20
313.1658749141827
 10
-206.7166666666668
 20
313.1666666666668
210
0.0
220
0.0
230
-1.0
  0
LINE
  5
11F
330
1F
100
AcDbEntity
  8
1
  6
________________
 62
     7
370
     9
100
AcDbLine
 10
206.7166666666668
 20
313.1666666666669
 30
0.0
 11
207.610407763515
 21
313.1666666666669
 31
0.0
  0
ARC
  5
120
330
1F
100
AcDbEntity
  8
1
  6
________________
 62
     7
370
     9
100
AcDbCircle
 10
205.4166666666669
 20
313.6666666666669
 30
0.0
 40
2.249999999999974
100
AcDbArc
 50
347.1604115930957
 51
12.83958840690394
  0
LINE
  5
121
330
1F
100
AcDbEntity
  8
1
  6
________________
 62
     7
370
     9
100
AcDbLine
 10
207.610407763515
 20
314.1666666666667
 30
0.0
 11
206.7166666666668
 21
314.1666666666667
 31
0.0
  0
LWPOLYLINE
  5
122
330
1F
100
AcDbEntity
  8
1
  6
________________
 62
     7
370
     9
100
AcDbPolyline
 90
       35
 70
     0
 43
0.0
 10
-206.7166666666668
 20
314.1666666666667
 10
-206.6796333749715
 20
314.1675425694679
 10
-206.6424806286009
 20
314.1701647628572
 10
-206.6053346920083
 20
314.1745249743142
 10
-206.5683218296465
 20
314.1806149313185
 10
-206.5315683059685
 20
314.1884263613491
 10
-206.4952003854274
 20
314.1979509918854
 10
-206.4593443324758
 20
314.209180550407
 10
-206.4239143077307
 20
314.2221791872588
 10
-206.3889708397917
 20
314.2369272342055
 10
-206.3546402423366
 20
314.253365257186
 10
-206.3210488290438
 20
314.2714338221392
 10
-206.2883229135909
 20
314.2910734950042
 10
-206.2565888096559
 20
314.3122248417199
 10
-206.2259728309169
 20
314.3348284282252
 10
-206.1972843955485
 20
314.3582179565671
 10
-206.1696284293573
 20
314.3830062763673
 10
-206.1430939828767
 20
314.4090960173869
 10
-206.1177701066407
 20
314.4363898093877
 10
-206.0937458511831
 20
314.4647902821316
 10
-206.0711102670375
 20
314.4942000653797
 10
-206.0499524047377
 20
314.5245217888945
 10
-206.0305277903358
 20
314.5553453489168
 10
-206.01251199351
 20
314.5870780009862
 10
-205.9959478563351
 20
314.6196063097732
 10
-205.9808782208841
 20
314.6528168399489
 10
-205.9673459292309
 20
314.6865961561834
 10
-205.9553938234485
 20
314.7208308231478
 10
-205.9450647456111
 20
314.7554074055132
 10
-205.9364021396118
 20
314.7901138376038
 10
-205.9293067036164
 20
314.8251667135595
 10
-205.9237819379751
 20
314.8604572339117
 10
-205.9198313430366
 20
314.8958765991925
 10
-205.9174584191509
 20
314.9313160099335
 10
-205.9166666666668
 20
314.9666666666668
210
0.0
220
0.0
230
-1.0
  0
LINE
  5
123
330
1F
100
AcDbEntity
  8
1
  6
________________
 62
     7
370
     9
100
AcDbLine
 10
205.9166666666667
 20
314.9666666666668
 30
0.0
 11
205.9166666666667
 21
317.2379514975717
 31
0.0
  0
ARC
  5
124
330
1F
100
AcDbEntity
  8
1
  6
________________
 62
     7
370
     9
100
AcDbCircle
 10
205.4166666666669
 20
313.6666666666669
 30
0.0
 40
3.606116379632485
100
AcDbArc
 50
82.03007295878035
 51
97.96992704121966
  0
LINE
  5
125
330
1F
100
AcDbEntity
  8
1
  6
________________
 62
     7
370
     9
100
AcDbLine
 10
204.9166666666669
 20
317.2379514975718
 30
0.0
 11
204.9166666666669
 21
314.9666666666668
 31
0.0
  0
LWPOLYLINE
  5
126
330
1F
100
AcDbEntity
  8
1
  6
________________
 62
     7
370
     9
100
AcDbPolyline
 90
       35
 70
     0
 43
0.0
 10
-204.9166666666669
 20
314.9666666666668
 10
-204.9157907638659
 20
314.9296333749712
 10
-204.9131685704762
 20
314.8924806286009
 10
-204.9088083590192
 20
314.8553346920081
 10
-204.9027184020152
 20
314.8183218296465
 10
-204.8949069719848
 20
314.7815683059682
 10
-204.8853823414483
 20
314.745200385427
 10
-204.8741527829268
 20
314.7093443324758
 10
-204.861154146075
 20
314.6739143077306
 10
-204.8464060991283
 20
314.6389708397915
 10
-204.8299680761478
 20
314.6046402423364
 10
-204.8118995111946
 20
314.5710488290435
 10
-204.7922598383295
 20
314.5383229135909
 10
-204.7711084916136
 20
314.5065888096559
 10
-204.7485049051083
 20
314.4759728309167
 10
-204.7251153767664
 20
314.4472843955482
 10
-204.7003270569663
 20
314.4196284293572
 10
-204.6742373159469
 20
314.3930939828765
 10
-204.6469435239459
 20
314.3677701066403
 10
-204.6185430512022
 20
314.3437458511829
 10
-204.5891332679538
 20
314.3211102670372
 10
-204.5588115444392
 20
314.2999524047377
 10
-204.5279879844169
 20
314.2805277903355
 10
-204.4962553323474
 20
314.26251199351
 10
-204.4637270235603
 20
314.2459478563351
 10
-204.4305164933851
 20
314.2308782208841
 10
-204.3967371771504
 20
314.2173459292306
 10
-204.3625025101856
 20
314.2053938234486
 10
-204.3279259278203
 20
314.1950647456111
 10
-204.2932194957297
 20
314.1864021396115
 10
-204.2581666197741
 20
314.1793067036163
 10
-204.2228760994218
 20
314.1737819379751
 10
-204.1874567341413
 20
314.1698313430366
 10
-204.1520173234001
 20
314.1674584191508
 10
-204.1166666666669
 20
314.1666666666667
210
0.0
220
0.0
230
-1.0
  0
LINE
  5
127
330
1F
100
AcDbEntity
  8
1
  6
________________
 62
     7
370
     9
100
AcDbLine
 10
204.1166666666669
 20
314.1666666666667
 30
0.0
 11
203.2229255698188
 21
314.1666666666667
 31
0.0
  0
ARC
  5
128
330
1F
100
AcDbEntity
  8
1
  6
________________
 62
     7
370
     9
100
AcDbCircle
 10
205.4166666666669
 20
313.6666666666669
 30
0.0
 40
2.250000000000085
100
AcDbArc
 50
167.160411593096
 51
192.8395884069043
  0
LINE
  5
129
330
1F
100
AcDbEntity
  8
1
  6
________________
 62
     7
370
     9
100
AcDbLine
 10
203.2229255698188
 20
313.1666666666669
 30
0.0
 11
204.1166666666669
 21
313.1666666666669
 31
0.0
  0
LWPOLYLINE
  5
12A
330
1F
100
AcDbEntity
  8
1
  6
________________
 62
     7
370
     9
100
AcDbPolyline
 90
       35
 70
     0
 43
0.0
 10
-204.1166666666669
 20
313.1666666666669
 10
-204.1536999583623
 20
313.1657907638656
 10
-204.1908527047329
 20
313.1631685704763
 10
-204.2279986413256
 20
313.1588083590193
 10
-204.2650115036874
 20
313.152718402015
 10
-204.3017650273653
 20
313.1449069719844
 10
-204.3381329479064
 20
313.1353823414483
 10
-204.373989000858
 20
313.1241527829265
 10
-204.4094190256032
 20
313.1111541460747
 10
-204.4443624935424
 20
313.0964060991283
 10
-204.4786930909971
 20
313.0799680761475
 10
-204.5122845042901
 20
313.0618995111943
 10
-204.5450104197429
 20
313.0422598383295
 10
-204.5767445236779
 20
313.0211084916136
 10
-204.607360502417
 20
312.9985049051083
 10
-204.6360489377852
 20
312.9751153767662
 10
-204.6637049039766
 20
312.9503270569663
 10
-204.690239350457
 20
312.9242373159467
 10
-204.7155632266931
 20
312.8969435239459
 10
-204.7395874821507
 20
312.868543051202
 10
-204.7622230662962
 20
312.8391332679538
 10
-204.7833809285962
 20
312.8088115444393
 10
-204.8028055429982
 20
312.7779879844169
 10
-204.8208213398235
 20
312.7462553323474
 10
-204.8373854769986
 20
312.7137270235603
 10
-204.8524551124497
 20
312.6805164933847
 10
-204.8659874041029
 20
312.6467371771502
 10
-204.8779395098853
 20
312.6125025101857
 10
-204.8882685877227
 20
312.5779259278204
 10
-204.8969311937223
 20
312.5432194957298
 10
-204.9040266297174
 20
312.5081666197742
 10
-204.9095513953587
 20
312.4728760994218
 10
-204.9135019902968
 20
312.437456734141
 10
-204.915874914183
 20
312.4020173233999
 10
-204.9166666666668
 20
312.3666666666667
210
0.0
220
0.0
230
-1.0
  0
LINE
  5
12B
330
1F
100
AcDbEntity
  8
1
  6
________________
 62
     7
370
     9
100
AcDbLine
 10
204.9166666666669
 20
312.3666666666667
 30
0.0
 11
204.9166666666669
 21
310.0953818357617
 31
0.0
  0
ARC
  5
12C
330
1F
100
AcDbEntity
  8
1
  6
________________
 62
     7
370
     9
100
AcDbCircle
 10
205.4166666666669
 20
313.6666666666669
 30
0.0
 40
3.606116379632485
100
AcDbArc
 50
262.0300729587804
 51
277.9699270412195
  0
ARC
  5
12D
330
1F
100
AcDbEntity
  8
1
  6
________________
 62
     7
370
     9
100
AcDbCircle
 10
205.4166666666669
 20
313.6666666666669
 30
0.0
 40
1.834778891428024
100
AcDbArc
 50
74.18617583029146
 51
105.8138241697085
  0
ARC
  5
12E
330
1F
100
AcDbEntity
  8
1
  6
________________
 62
     7
370
     9
100
AcDbCircle
 10
205.4166666666669
 20
313.6666666666669
 30
0.0
 40
1.834778891428024
100
AcDbArc
 50
254.1861758302914
 51
285.8138241697084
  0
CIRCLE
  5
12F
330
1F
100
AcDbEntity
  8
1
  6
________________
 62
     7
370
     9
100
AcDbCircle
 10
205.4166666666669
 20
313.6666666666669
 30
0.0
 40
4.700000000000037
  0
LINE
  5
130
330
1F
100
AcDbEntity
  8
1
  6
________________
 62
     7
370
     9
100
AcDbLine
 10
90.91666666666676
 20
310.0953818357617
 30
0.0
 11
90.91666666666676
 21
312.3666666666667
 31
0.0
  0
LWPOLYLINE
  5
131
330
1F
100
AcDbEntity
  8
1
  6
________________
 62
     7
370
     9
100
AcDbPolyline
 90
       35
 70
     0
 43
0.0
 10
-90.91666666666676
 20
312.3666666666667
 10
-90.91754256946793
 20
312.4036999583621
 10
-90.92016476285735
 20
312.4408527047327
 10
-90.92452497431458
 20
312.4779986413256
 10
-90.9306149313186
 20
312.5150115036872
 10
-90.93842636134919
 20
312.5517650273653
 10
-90.94795099188568
 20
312.5881329479065
 10
-90.95918055040708
 20
312.6239890008577
 10
-90.97217918725886
 20
312.6594190256033
 10
-90.98692723420565
 20
312.6943624935421
 10
-91.0033652571861
 20
312.7286930909971
 10
-91.02143382213934
 20
312.7622845042901
 10
-91.04107349500445
 20
312.7950104197425
 10
-91.06222484172
 20
312.8267445236777
 10
-91.0848284282253
 20
312.8573605024168
 10
-91.10821795656743
 20
312.8860489377853
 10
-91.13300627636755
 20
312.9137049039766
 10
-91.15909601738703
 20
312.9402393504571
 10
-91.18638980938809
 20
312.965563226693
 10
-91.21479028213164
 20
312.9895874821507
 10
-91.24420006538014
 20
313.0122230662963
 10
-91.27452178889462
 20
313.0333809285958
 10
-91.30534534891699
 20
313.052805542998
 10
-91.33707800098655
 20
313.0708213398235
 10
-91.3696063097733
 20
313.0873854769983
 10
-91.40281683994888
 20
313.1024551124494
 10
-91.43659615618348
 20
313.1159874041029
 10
-91.47083082314822
 20
313.1279395098851
 10
-91.50540740551315
 20
313.1382685877223
 10
-91.54011383760385
 20
313.146931193722
 10
-91.57516671355947
 20
313.1540266297171
 10
-91.6104572339117
 20
313.1595513953587
 10
-91.64587659919265
 20
313.1635019902969
 10
-91.68131600993368
 20
313.1658749141827
 10
-91.71666666666688
 20
313.1666666666668
210
0.0
220
0.0
230
-1.0
  0
LINE
  5
132
330
1F
100
AcDbEntity
  8
1
  6
________________
 62
     7
370
     9
100
AcDbLine
 10
91.71666666666688
 20
313.1666666666669
 30
0.0
 11
92.61040776351503
 21
313.1666666666669
 31
0.0
  0
ARC
  5
133
330
1F
100
AcDbEntity
  8
1
  6
________________
 62
     7
370
     9
100
AcDbCircle
 10
90.41666666666703
 20
313.6666666666669
 30
0.0
 40
2.249999999999974
100
AcDbArc
 50
347.1604115930957
 51
12.83958840690406
  0
LINE
  5
134
330
1F
100
AcDbEntity
  8
1
  6
________________
 62
     7
370
     9
100
AcDbLine
 10
92.61040776351503
 20
314.1666666666667
 30
0.0
 11
91.71666666666688
 21
314.1666666666667
 31
0.0
  0
LWPOLYLINE
  5
135
330
1F
100
AcDbEntity
  8
1
  6
________________
 62
     7
370
     9
100
AcDbPolyline
 90
       35
 70
     0
 43
0.0
 10
-91.71666666666688
 20
314.1666666666667
 10
-91.67963337497153
 20
314.1675425694679
 10
-91.64248062860092
 20
314.1701647628572
 10
-91.60533469200827
 20
314.1745249743142
 10
-91.56832182964646
 20
314.1806149313185
 10
-91.53156830596853
 20
314.1884263613491
 10
-91.49520038542703
 20
314.1979509918854
 10
-91.45934433247594
 20
314.209180550407
 10
-91.42391430773067
 20
314.2221791872588
 10
-91.38897083979147
 20
314.2369272342055
 10
-91.35464024233653
 20
314.253365257186
 10
-91.3210488290439
 20
314.2714338221392
 10
-91.28832291359102
 20
314.2910734950042
 10
-91.25658880965592
 20
314.3122248417199
 10
-91.22597283091682
 20
314.3348284282252
 10
-91.19728439554864
 20
314.3582179565671
 10
-91.16962842935705
 20
314.3830062763673
 10
-91.14309398287645
 20
314.4090960173869
 10
-91.11777010664068
 20
314.4363898093877
 10
-91.09374585118324
 20
314.4647902821316
 10
-91.07111026703762
 20
314.4942000653797
 10
-91.04995240473778
 20
314.5245217888945
 10
-91.0305277903356
 20
314.5553453489168
 10
-91.01251199351012
 20
314.5870780009862
 10
-90.99594785633525
 20
314.6196063097732
 10
-90.98087822088418
 20
314.6528168399489
 10
-90.96734592923072
 20
314.6865961561834
 10
-90.95539382344853
 20
314.7208308231478
 10
-90.94506474561126
 20
314.7554074055132
 10
-90.93640213961163
 20
314.7901138376038
 10
-90.92930670361653
 20
314.8251667135595
 10
-90.9237819379749
 20
314.8604572339117
 10
-90.91983134303672
 20
314.8958765991925
 10
-90.91745841915089
 20
314.9313160099335
 10
-90.91666666666681
 20
314.9666666666668
210
0.0
220
0.0
230
-1.0
  0
LINE
  5
136
330
1F
100
AcDbEntity
  8
1
  6
________________
 62
     7
370
     9
100
AcDbLine
 10
90.91666666666676
 20
314.9666666666668
 30
0.0
 11
90.91666666666676
 21
317.2379514975717
 31
0.0
  0
ARC
  5
137
330
1F
100
AcDbEntity
  8
1
  6
________________
 62
     7
370
     9
100
AcDbCircle
 10
90.41666666666703
 20
313.6666666666669
 30
0.0
 40
3.606116379632374
100
AcDbArc
 50
82.03007295878035
 51
97.96992704121966
  0
LINE
  5
138
330
1F
100
AcDbEntity
  8
1
  6
________________
 62
     7
370
     9
100
AcDbLine
 10
89.91666666666687
 20
317.2379514975718
 30
0.0
 11
89.91666666666687
 21
314.9666666666668
 31
0.0
  0
LWPOLYLINE
  5
139
330
1F
100
AcDbEntity
  8
1
  6
________________
 62
     7
370
     9
100
AcDbPolyline
 90
       35
 70
     0
 43
0.0
 10
-89.91666666666687
 20
314.9666666666668
 10
-89.91579076386601
 20
314.9296333749712
 10
-89.91316857047637
 20
314.8924806286009
 10
-89.90880835901937
 20
314.8553346920081
 10
-89.90271840201547
 20
314.8183218296465
 10
-89.89490697198477
 20
314.7815683059682
 10
-89.88538234144826
 20
314.745200385427
 10
-89.87415278292687
 20
314.7093443324758
 10
-89.86115414607521
 20
314.6739143077306
 10
-89.84640609912842
 20
314.6389708397915
 10
-89.82996807614785
 20
314.6046402423364
 10
-89.8118995111945
 20
314.5710488290435
 10
-89.79225983832927
 20
314.5383229135909
 10
-89.77110849161396
 20
314.5065888096559
 10
-89.74850490510843
 20
314.4759728309167
 10
-89.72511537676652
 20
314.4472843955482
 10
-89.70032705696629
 20
314.4196284293572
 10
-89.6742373159467
 20
314.3930939828765
 10
-89.64694352394598
 20
314.3677701066403
 10
-89.61854305120231
 20
314.3437458511829
 10
-89.58913326795393
 20
314.3211102670372
 10
-89.55881154443945
 20
314.2999524047377
 10
-89.52798798441685
 20
314.2805277903355
 10
-89.4962553323475
 20
314.26251199351
 10
-89.46372702356042
 20
314.2459478563351
 10
-89.43051649338473
 20
314.2308782208841
 10
-89.39673717715024
 20
314.2173459292306
 10
-89.36250251018585
 20
314.2053938234486
 10
-89.32792592782046
 20
314.1950647456111
 10
-89.29321949572977
 20
314.1864021396115
 10
-89.25816661977414
 20
314.1793067036163
 10
-89.22287609942225
 20
314.1737819379751
 10
-89.18745673414108
 20
314.1698313430366
 10
-89.15201732340006
 20
314.1674584191508
 10
-89.11666666666684
 20
314.1666666666667
210
0.0
220
0.0
230
-1.0
  0
LINE
  5
13A
330
1F
100
AcDbEntity
  8
1
  6
________________
 62
     7
370
     9
100
AcDbLine
 10
89.11666666666684
 20
314.1666666666667
 30
0.0
 11
88.22292556981887
 21
314.1666666666667
 31
0.0
  0
ARC
  5
13B
330
1F
100
AcDbEntity
  8
1
  6
________________
 62
     7
370
     9
100
AcDbCircle
 10
90.41666666666703
 20
313.6666666666669
 30
0.0
 40
2.249999999999974
100
AcDbArc
 50
167.1604115930959
 51
192.8395884069042
  0
LINE
  5
13C
330
1F
100
AcDbEntity
  8
1
  6
________________
 62
     7
370
     9
100
AcDbLine
 10
88.22292556981881
 20
313.1666666666669
 30
0.0
 11
89.11666666666679
 21
313.1666666666669
 31
0.0
  0
LWPOLYLINE
  5
13D
330
1F
100
AcDbEntity
  8
1
  6
________________
 62
     7
370
     9
100
AcDbPolyline
 90
       35
 70
     0
 43
0.0
 10
-89.11666666666684
 20
313.1666666666669
 10
-89.15369995836242
 20
313.1657907638656
 10
-89.19085270473303
 20
313.1631685704763
 10
-89.22799864132557
 20
313.1588083590193
 10
-89.26501150368715
 20
313.152718402015
 10
-89.30176502736542
 20
313.1449069719844
 10
-89.3381329479066
 20
313.1353823414483
 10
-89.37398900085813
 20
313.1241527829265
 10
-89.40941902560328
 20
313.1111541460747
 10
-89.44436249354214
 20
313.0964060991283
 10
-89.47869309099721
 20
313.0799680761475
 10
-89.51228450429005
 20
313.0618995111943
 10
-89.54501041974294
 20
313.0422598383295
 10
-89.57674452367803
 20
313.0211084916136
 10
-89.60736050241691
 20
312.9985049051083
 10
-89.63604893778543
 20
312.9751153767664
 10
-89.6637049039768
 20
312.9503270569663
 10
-89.69023935045716
 20
312.9242373159467
 10
-89.71556322669294
 20
312.8969435239459
 10
-89.73958748215071
 20
312.868543051202
 10
-89.76222306629644
 20
312.8391332679538
 10
-89.78338092859595
 20
312.8088115444393
 10
-89.80280554299813
 20
312.7779879844169
 10
-89.82082133982361
 20
312.7462553323474
 10
-89.83738547699849
 20
312.7137270235603
 10
-89.85245511244955
 20
312.6805164933847
 10
-89.86598740410301
 20
312.6467371771502
 10
-89.87793950988498
 20
312.6125025101857
 10
-89.88826858772248
 20
312.5779259278204
 10
-89.89693119372211
 20
312.5432194957298
 10
-89.9040266297174
 20
312.5081666197742
 10
-89.90955139535883
 20
312.4728760994218
 10
-89.91350199029702
 20
312.437456734141
 10
-89.91587491418274
 20
312.4020173233999
 10
-89.9166666666669
 20
312.3666666666667
210
0.0
220
0.0
230
-1.0
  0
LINE
  5
13E
330
1F
100
AcDbEntity
  8
1
  6
________________
 62
     7
370
     9
100
AcDbLine
 10
89.91666666666687
 20
312.3666666666667
 30
0.0
 11
89.91666666666687
 21
310.0953818357617
 31
0.0
  0
ARC
  5
13F
330
1F
100
AcDbEntity
  8
1
  6
________________
 62
     7
370
     9
100
AcDbCircle
 10
90.41666666666703
 20
313.6666666666669
 30
0.0
 40
3.606116379632374
100
AcDbArc
 50
262.0300729587804
 51
277.9699270412195
  0
ARC
  5
140
330
1F
100
AcDbEntity
  8
1
  6
________________
 62
     7
370
     9
100
AcDbCircle
 10
90.41666666666703
 20
313.6666666666669
 30
0.0
 40
1.834778891428024
100
AcDbArc
 50
74.18617583029146
 51
105.8138241697085
  0
ARC
  5
141
330
1F
100
AcDbEntity
  8
1
  6
________________
 62
     7
370
     9
100
AcDbCircle
 10
90.41666666666703
 20
313.6666666666669
 30
0.0
 40
1.834778891428024
100
AcDbArc
 50
254.1861758302914
 51
285.8138241697085
  0
CIRCLE
  5
142
330
1F
100
AcDbEntity
  8
1
  6
________________
 62
     7
370
     9
100
AcDbCircle
 10
90.41666666666703
 20
313.6666666666669
 30
0.0
 40
4.699999999999926
  0
LINE
  5
143
330
1F
100
AcDbEntity
  8
1
  6
________________
 62
     7
370
     9
100
AcDbLine
 10
-24.08333333333301
 20
310.0953818357617
 30
0.0
 11
-24.08333333333301
 21
312.3666666666667
 31
0.0
  0
LWPOLYLINE
  5
144
330
1F
100
AcDbEntity
  8
1
  6
________________
 62
     7
370
     9
100
AcDbPolyline
 90
       35
 70
     0
 43
0.0
 10
24.08333333333301
 20
312.3666666666667
 10
24.08245743053228
 20
312.4036999583621
 10
24.07983523714263
 20
312.4408527047327
 10
24.07547502568563
 20
312.4779986413256
 10
24.06938506868162
 20
312.5150115036872
 10
24.06157363865091
 20
312.5517650273653
 10
24.05204900811453
 20
312.5881329479065
 10
24.04081944959313
 20
312.6239890008577
 10
24.02782081274102
 20
312.6594190256033
 10
24.01307276579434
 20
312.6943624935421
 10
23.99663474281411
 20
312.7286930909971
 10
23.97856617786059
 20
312.7622845042901
 10
23.95892650499576
 20
312.7950104197425
 10
23.93777515827988
 20
312.8267445236777
 10
23.91517157177464
 20
312.8573605024168
 10
23.89178204343278
 20
312.8860489377853
 10
23.86699372363255
 20
312.9137049039766
 10
23.84090398261285
 20
312.9402393504571
 10
23.81361019061223
 20
312.965563226693
 10
23.78520971786857
 20
312.9895874821507
 10
23.75579993462007
 20
313.0122230662963
 10
23.72547821110527
 20
313.0333809285958
 10
23.69465465108311
 20
313.052805542998
 10
23.66292199901365
 20
313.0708213398235
 10
23.63039369022668
 20
313.0873854769983
 10
23.59718316005099
 20
313.1024551124494
 10
23.56340384381633
 20
313.1159874041029
 10
23.52916917685205
 20
313.1279395098851
 10
23.49459259448672
 20
313.1382685877223
 10
23.45988616239602
 20
313.146931193722
 10
23.42483328644035
 20
313.1540266297171
 10
23.38954276608807
 20
313.1595513953587
 10
23.35412340080728
 20
313.1635019902969
 10
23.3186839900662
 20
313.1658749141827
 10
23.28333333333307
 20
313.1666666666668
210
0.0
220
0.0
230
-1.0
  0
LINE
  5
145
330
1F
100
AcDbEntity
  8
1
  6
________________
 62
     7
370
     9
100
AcDbLine
 10
-23.28333333333304
 20
313.1666666666669
 30
0.0
 11
-22.38959223648507
 21
313.1666666666669
 31
0.0
  0
ARC
  5
146
330
1F
100
AcDbEntity
  8
1
  6
________________
 62
     7
370
     9
100
AcDbCircle
 10
-24.5833333333329
 20
313.6666666666669
 30
0.0
 40
2.25000000000003
100
AcDbArc
 50
347.1604115930957
 51
12.83958840690406
  0
LINE
  5
147
330
1F
100
AcDbEntity
  8
1
  6
________________
 62
     7
370
     9
100
AcDbLine
 10
-22.38959223648507
 20
314.1666666666667
 30
0.0
 11
-23.28333333333304
 21
314.1666666666667
 31
0.0
  0
LWPOLYLINE
  5
148
330
1F
100
AcDbEntity
  8
1
  6
________________
 62
     7
370
     9
100
AcDbPolyline
 90
       35
 70
     0
 43
0.0
 10
23.28333333333304
 20
314.1666666666667
 10
23.32036662502862
 20
314.1675425694679
 10
23.35751937139896
 20
314.1701647628572
 10
23.39466530799184
 20
314.1745249743142
 10
23.43167817035335
 20
314.1806149313185
 10
23.46843169403168
 20
314.1884263613491
 10
23.50479961457286
 20
314.1979509918854
 10
23.54065566752428
 20
314.209180550407
 10
23.57608569226943
 20
314.2221791872588
 10
23.61102916020841
 20
314.2369272342055
 10
23.64535975766341
 20
314.253365257186
 10
23.67895117095631
 20
314.2714338221392
 10
23.7116770864092
 20
314.2910734950042
 10
23.74341119034423
 20
314.3122248417199
 10
23.77402716908311
 20
314.3348284282252
 10
23.80271560445168
 20
314.3582179565674
 10
23.83037157064288
 20
314.3830062763673
 10
23.85690601712342
 20
314.4090960173869
 10
23.88222989335953
 20
314.4363898093877
 10
23.90625414881697
 20
314.4647902821316
 10
23.92888973296264
 20
314.4942000653797
 10
23.95004759526214
 20
314.5245217888945
 10
23.96947220966461
 20
314.5553453489168
 10
23.98748800648981
 20
314.5870780009862
 10
24.00405214366469
 20
314.6196063097732
 10
24.01912177911569
 20
314.6528168399489
 10
24.03265407076915
 20
314.6865961561834
 10
24.04460617655124
 20
314.7208308231478
 10
24.05493525438873
 20
314.7554074055132
 10
24.06359786038836
 20
314.7901138376038
 10
24.07069329638345
 20
314.8251667135595
 10
24.07621806202509
 20
314.8604572339117
 10
24.08016865696327
 20
314.8958765991925
 10
24.08254158084899
 20
314.9313160099335
 10
24.08333333333307
 20
314.9666666666668
210
0.0
220
0.0
230
-1.0
  0
LINE
  5
149
330
1F
100
AcDbEntity
  8
1
  6
________________
 62
     7
370
     9
100
AcDbLine
 10
-24.08333333333301
 20
314.9666666666668
 30
0.0
 11
-24.08333333333301
 21
317.2379514975717
 31
0.0
  0
ARC
  5
14A
330
1F
100
AcDbEntity
  8
1
  6
________________
 62
     7
370
     9
100
AcDbCircle
 10
-24.5833333333329
 20
313.6666666666669
 30
0.0
 40
3.606116379632429
100
AcDbArc
 50
82.03007295878041
 51
97.9699270412192
  0
LINE
  5
14B
330
1F
100
AcDbEntity
  8
1
  6
________________
 62
     7
370
     9
100
AcDbLine
 10
-25.08333333333301
 20
317.2379514975718
 30
0.0
 11
-25.08333333333301
 21
314.9666666666668
 31
0.0
  0
LWPOLYLINE
  5
14C
330
1F
100
AcDbEntity
  8
1
  6
________________
 62
     7
370
     9
100
AcDbPolyline
 90
       35
 70
     0
 43
0.0
 10
25.08333333333301
 20
314.9666666666668
 10
25.08420923613419
 20
314.9296333749712
 10
25.08683142952356
 20
314.8924806286009
 10
25.0911916409805
 20
314.8553346920084
 10
25.0972815979848
 20
314.8183218296465
 10
25.10509302801545
 20
314.7815683059685
 10
25.11461765855155
 20
314.7452003854274
 10
25.12584721707334
 20
314.7093443324758
 10
25.13884585392512
 20
314.6739143077306
 10
25.15359390087185
 20
314.6389708397915
 10
25.17003192385231
 20
314.6046402423364
 10
25.18810048880554
 20
314.5710488290435
 10
25.2077401616706
 20
314.5383229135909
 10
25.22889150838625
 20
314.5065888096559
 10
25.2514950948915
 20
314.4759728309167
 10
25.27488462323369
 20
314.4472843955482
 10
25.29967294303348
 20
314.4196284293572
 10
25.32576268405318
 20
314.3930939828765
 10
25.35305647605423
 20
314.3677701066403
 10
25.3814569487979
 20
314.3437458511829
 10
25.41086673204607
 20
314.3211102670372
 10
25.44118845556081
 20
314.2999524047377
 10
25.47201201558325
 20
314.2805277903355
 10
25.50374466765282
 20
314.26251199351
 10
25.53627297643957
 20
314.2459478563351
 10
25.56948350661503
 20
314.2308782208841
 10
25.60326282284975
 20
314.2173459292306
 10
25.63749748981436
 20
314.2053938234486
 10
25.67207407217969
 20
314.1950647456111
 10
25.70678050427011
 20
314.1864021396115
 10
25.74183338022573
 20
314.1793067036163
 10
25.77712390057796
 20
314.1737819379751
 10
25.81254326585886
 20
314.1698313430366
 10
25.84798267659993
 20
314.1674584191508
 10
25.88333333333315
 20
314.1666666666667
210
0.0
220
0.0
230
-1.0
  0
LINE
  5
14D
330
1F
100
AcDbEntity
  8
1
  6
________________
 62
     7
370
     9
100
AcDbLine
 10
-25.88333333333315
 20
314.1666666666667
 30
0.0
 11
-26.77707443018129
 21
314.1666666666667
 31
0.0
  0
ARC
  5
14E
330
1F
100
AcDbEntity
  8
1
  6
________________
 62
     7
370
     9
100
AcDbCircle
 10
-24.5833333333329
 20
313.6666666666669
 30
0.0
 40
2.250000000000085
100
AcDbArc
 50
167.1604115930959
 51
192.8395884069042
  0
LINE
  5
14F
330
1F
100
AcDbEntity
  8
1
  6
________________
 62
     7
370
     9
100
AcDbLine
 10
-26.77707443018129
 20
313.1666666666669
 30
0.0
 11
-25.88333333333315
 21
313.1666666666669
 31
0.0
  0
LWPOLYLINE
  5
150
330
1F
100
AcDbEntity
  8
1
  6
________________
 62
     7
370
     9
100
AcDbPolyline
 90
       35
 70
     0
 43
0.0
 10
25.88333333333315
 20
313.1666666666669
 10
25.84630004163779
 20
313.1657907638656
 10
25.80914729526718
 20
313.1631685704763
 10
25.77200135867452
 20
313.1588083590193
 10
25.73498849631273
 20
313.152718402015
 10
25.69823497263479
 20
313.1449069719844
 10
25.66186705209356
 20
313.1353823414483
 10
25.62601099914214
 20
313.1241527829265
 10
25.59058097439659
 20
313.1111541460747
 10
25.55563750645773
 20
313.0964060991283
 10
25.52130690900267
 20
313.0799680761475
 10
25.48771549571011
 20
313.0618995111943
 10
25.45498958025721
 20
313.0422598383295
 10
25.42325547632218
 20
313.0211084916136
 10
25.39263949758302
 20
312.9985049051083
 10
25.36395106221478
 20
312.9751153767664
 10
25.33629509602325
 20
312.9503270569663
 10
25.30976064954304
 20
312.9242373159467
 10
25.28443677330688
 20
312.8969435239459
 10
25.26041251784916
 20
312.868543051202
 10
25.23777693370377
 20
312.8391332679538
 10
25.21661907140399
 20
312.8088115444393
 10
25.19719445700186
 20
312.7779879844169
 10
25.17917866017633
 20
312.7462553323474
 10
25.16261452300139
 20
312.7137270235603
 10
25.14754488755044
 20
312.6805164933847
 10
25.13401259589698
 20
312.6467371771502
 10
25.12206049011478
 20
312.6125025101857
 10
25.11173141227751
 20
312.5779259278204
 10
25.10306880627788
 20
312.5432194957298
 10
25.09597337028269
 20
312.5081666197742
 10
25.09044860464138
 20
312.4728760994218
 10
25.08649800970297
 20
312.437456734141
 10
25.08412508581709
 20
312.4020173233999
 10
25.08333333333326
 20
312.3666666666667
210
0.0
220
0.0
230
-1.0
  0
LINE
  5
151
330
1F
100
AcDbEntity
  8
1
  6
________________
 62
     7
370
     9
100
AcDbLine
 10
-25.08333333333324
 20
312.3666666666667
 30
0.0
 11
-25.08333333333324
 21
310.0953818357617
 31
0.0
  0
ARC
  5
152
330
1F
100
AcDbEntity
  8
1
  6
________________
 62
     7
370
     9
100
AcDbCircle
 10
-24.5833333333329
 20
313.6666666666669
 30
0.0
 40
3.606116379632374
100
AcDbArc
 50
262.0300729587808
 51
277.9699270412195
  0
ARC
  5
153
330
1F
100
AcDbEntity
  8
1
  6
________________
 62
     7
370
     9
100
AcDbCircle
 10
-24.5833333333329
 20
313.6666666666669
 30
0.0
 40
1.834778891428079
100
AcDbArc
 50
74.18617583029146
 51
105.8138241697077
  0
ARC
  5
154
330
1F
100
AcDbEntity
  8
1
  6
________________
 62
     7
370
     9
100
AcDbCircle
 10
-24.5833333333329
 20
313.6666666666669
 30
0.0
 40
1.834778891428079
100
AcDbArc
 50
254.1861758302923
 51
285.8138241697085
  0
CIRCLE
  5
155
330
1F
100
AcDbEntity
  8
1
  6
________________
 62
     7
370
     9
100
AcDbCircle
 10
-24.5833333333329
 20
313.6666666666669
 30
0.0
 40
4.699999999999982
  0
LINE
  5
156
330
1F
100
AcDbEntity
  8
1
  6
________________
 62
     7
370
     9
100
AcDbLine
 10
-139.083333333333
 20
310.0953818357617
 30
0.0
 11
-139.083333333333
 21
312.3666666666667
 31
0.0
  0
LWPOLYLINE
  5
157
330
1F
100
AcDbEntity
  8
1
  6
________________
 62
     7
370
     9
100
AcDbPolyline
 90
       35
 70
     0
 43
0.0
 10
139.083333333333
 20
312.3666666666667
 10
139.0824574305321
 20
312.4036999583621
 10
139.0798352371428
 20
312.4408527047327
 10
139.0754750256855
 20
312.4779986413256
 10
139.0693850686816
 20
312.5150115036872
 10
139.0615736386509
 20
312.5517650273653
 10
139.0520490081144
 20
312.5881329479065
 10
139.040819449593
 20
312.6239890008577
 10
139.0278208127412
 20
312.6594190256033
 10
139.0130727657945
 20
312.6943624935421
 10
138.996634742814
 20
312.7286930909971
 10
138.9785661778608
 20
312.7622845042901
 10
138.9589265049957
 20
312.7950104197425
 10
138.9377751582801
 20
312.8267445236777
 10
138.9151715717745
 20
312.8573605024168
 10
138.8917820434326
 20
312.8860489377853
 10
138.8669937236325
 20
312.9137049039766
 10
138.8409039826131
 20
312.9402393504571
 10
138.8136101906121
 20
312.965563226693
 10
138.7852097178684
 20
312.9895874821507
 10
138.75579993462
 20
313.0122230662963
 10
138.7254782111055
 20
313.0333809285958
 10
138.694654651083
 20
313.052805542998
 10
138.6629219990136
 20
313.0708213398235
 10
138.6303936902265
 20
313.0873854769983
 10
138.5971831600512
 20
313.1024551124494
 10
138.5634038438166
 20
313.1159874041029
 10
138.5291691768519
 20
313.1279395098851
 10
138.4945925944866
 20
313.1382685877223
 10
138.4598861623959
 20
313.146931193722
 10
138.4248332864403
 20
313.1540266297171
 10
138.3895427660883
 20
313.1595513953587
 10
138.3541234008075
 20
313.1635019902969
 10
138.3186839900664
 20
313.1658749141827
 10
138.2833333333332
 20
313.1666666666668
210
0.0
220
0.0
230
-1.0
  0
LINE
  5
158
330
1F
100
AcDbEntity
  8
1
  6
________________
 62
     7
370
     9
100
AcDbLine
 10
-138.2833333333332
 20
313.1666666666669
 30
0.0
 11
-137.389592236485
 21
313.1666666666669
 31
0.0
  0
ARC
  5
159
330
1F
100
AcDbEntity
  8
1
  6
________________
 62
     7
370
     9
100
AcDbCircle
 10
-139.5833333333331
 20
313.6666666666669
 30
0.0
 40
2.25000000000003
100
AcDbArc
 50
347.1604115930959
 51
12.83958840690389
  0
LINE
  5
15A
330
1F
100
AcDbEntity
  8
1
  6
________________
 62
     7
370
     9
100
AcDbLine
 10
-137.389592236485
 20
314.1666666666667
 30
0.0
 11
-138.2833333333332
 21
314.1666666666667
 31
0.0
  0
LWPOLYLINE
  5
15B
330
1F
100
AcDbEntity
  8
1
  6
________________
 62
     7
370
     9
100
AcDbPolyline
 90
       35
 70
     0
 43
0.0
 10
138.2833333333332
 20
314.1666666666667
 10
138.3203666250286
 20
314.1675425694679
 10
138.3575193713991
 20
314.1701647628572
 10
138.3946653079917
 20
314.1745249743142
 10
138.4316781703536
 20
314.1806149313185
 10
138.4684316940315
 20
314.1884263613491
 10
138.5047996145727
 20
314.1979509918854
 10
138.5406556675243
 20
314.209180550407
 10
138.5760856922694
 20
314.2221791872588
 10
138.6110291602086
 20
314.2369272342055
 10
138.6453597576633
 20
314.253365257186
 10
138.6789511709562
 20
314.2714338221392
 10
138.7116770864091
 20
314.2910734950042
 10
138.7434111903441
 20
314.3122248417199
 10
138.7740271690833
 20
314.3348284282252
 10
138.8027156044515
 20
314.3582179565674
 10
138.8303715706428
 20
314.3830062763673
 10
138.8569060171233
 20
314.4090960173869
 10
138.8822298933594
 20
314.4363898093877
 10
138.9062541488169
 20
314.4647902821316
 10
138.9288897329625
 20
314.4942000653797
 10
138.9500475952623
 20
314.5245217888945
 10
138.9694722096645
 20
314.5553453489168
 10
138.9874880064897
 20
314.5870780009862
 10
139.0040521436649
 20
314.6196063097732
 10
139.0191217791159
 20
314.6528168399489
 10
139.0326540707692
 20
314.6865961561834
 10
139.0446061765515
 20
314.7208308231478
 10
139.0549352543889
 20
314.7554074055132
 10
139.0635978603885
 20
314.7901138376038
 10
139.0706932963836
 20
314.8251667135595
 10
139.0762180620249
 20
314.8604572339117
 10
139.0801686569634
 20
314.8958765991925
 10
139.0825415808492
 20
314.9313160099335
 10
139.083333333333
 20
314.9666666666668
210
0.0
220
0.0
230
-1.0
  0
LINE
  5
15C
330
1F
100
AcDbEntity
  8
1
  6
________________
 62
     7
370
     9
100
AcDbLine
 10
-139.083333333333
 20
314.9666666666668
 30
0.0
 11
-139.083333333333
 21
317.2379514975717
 31
0.0
  0
ARC
  5
15D
330
1F
100
AcDbEntity
  8
1
  6
________________
 62
     7
370
     9
100
AcDbCircle
 10
-139.5833333333331
 20
313.6666666666669
 30
0.0
 40
3.606116379632429
100
AcDbArc
 50
82.03007295878035
 51
97.96992704121966
  0
LINE
  5
15E
330
1F
100
AcDbEntity
  8
1
  6
________________
 62
     7
370
     9
100
AcDbLine
 10
-140.0833333333332
 20
317.2379514975718
 30
0.0
 11
-140.0833333333332
 21
314.9666666666668
 31
0.0
  0
LWPOLYLINE
  5
15F
330
1F
100
AcDbEntity
  8
1
  6
________________
 62
     7
370
     9
100
AcDbPolyline
 90
       35
 70
     0
 43
0.0
 10
140.0833333333332
 20
314.9666666666668
 10
140.0842092361341
 20
314.9296333749712
 10
140.0868314295237
 20
314.8924806286009
 10
140.0911916409807
 20
314.8553346920084
 10
140.0972815979847
 20
314.8183218296465
 10
140.1050930280153
 20
314.7815683059685
 10
140.1146176585518
 20
314.7452003854274
 10
140.1258472170732
 20
314.7093443324758
 10
140.138845853925
 20
314.6739143077306
 10
140.1535939008717
 20
314.6389708397915
 10
140.1700319238522
 20
314.6046402423364
 10
140.1881004888054
 20
314.5710488290438
 10
140.2077401616705
 20
314.5383229135909
 10
140.2288915083863
 20
314.5065888096559
 10
140.2514950948918
 20
314.4759728309167
 10
140.2748846232336
 20
314.4472843955482
 10
140.2996729430337
 20
314.4196284293572
 10
140.3257626840531
 20
314.3930939828765
 10
140.3530564760541
 20
314.3677701066403
 10
140.3814569487978
 20
314.3437458511829
 10
140.4108667320462
 20
314.3211102670372
 10
140.4411884555607
 20
314.2999524047377
 10
140.4720120155832
 20
314.2805277903355
 10
140.5037446676526
 20
314.26251199351
 10
140.5362729764397
 20
314.2459478563351
 10
140.569483506615
 20
314.2308782208841
 10
140.6032628228496
 20
314.2173459292306
 10
140.6374974898144
 20
314.2053938234486
 10
140.6720740721796
 20
314.1950647456111
 10
140.7067805042703
 20
314.1864021396115
 10
140.7418333802259
 20
314.1793067036163
 10
140.7771239005779
 20
314.1737819379751
 10
140.8125432658587
 20
314.1698313430366
 10
140.8479826765998
 20
314.1674584191508
 10
140.8833333333333
 20
314.1666666666667
210
0.0
220
0.0
230
-1.0
  0
LINE
  5
160
330
1F
100
AcDbEntity
  8
1
  6
________________
 62
     7
370
     9
100
AcDbLine
 10
-140.8833333333333
 20
314.1666666666667
 30
0.0
 11
-141.7770744301812
 21
314.1666666666667
 31
0.0
  0
ARC
  5
161
330
1F
100
AcDbEntity
  8
1
  6
________________
 62
     7
370
     9
100
AcDbCircle
 10
-139.5833333333331
 20
313.6666666666669
 30
0.0
 40
2.25000000000003
100
AcDbArc
 50
167.1604115930961
 51
192.8395884069041
  0
LINE
  5
162
330
1F
100
AcDbEntity
  8
1
  6
________________
 62
     7
370
     9
100
AcDbLine
 10
-141.7770744301812
 20
313.1666666666669
 30
0.0
 11
-140.8833333333333
 21
313.1666666666669
 31
0.0
  0
LWPOLYLINE
  5
163
330
1F
100
AcDbEntity
  8
1
  6
________________
 62
     7
370
     9
100
AcDbPolyline
 90
       35
 70
     0
 43
0.0
 10
140.8833333333333
 20
313.1666666666669
 10
140.8463000416377
 20
313.1657907638656
 10
140.8091472952671
 20
313.1631685704763
 10
140.7720013586745
 20
313.1588083590193
 10
140.7349884963126
 20
313.152718402015
 10
140.6982349726347
 20
313.1449069719844
 10
140.6618670520935
 20
313.1353823414483
 10
140.626010999142
 20
313.1241527829265
 10
140.5905809743968
 20
313.1111541460747
 10
140.5556375064579
 20
313.0964060991283
 10
140.5213069090029
 20
313.0799680761475
 10
140.48771549571
 20
313.0618995111943
 10
140.4549895802571
 20
313.0422598383295
 10
140.4232554763222
 20
313.0211084916136
 10
140.3926394975832
 20
312.9985049051083
 10
140.3639510622147
 20
312.9751153767664
 10
140.3362950960234
 20
312.9503270569663
 10
140.3097606495429
 20
312.9242373159467
 10
140.2844367733068
 20
312.8969435239459
 10
140.2604125178493
 20
312.8685430512022
 10
140.2377769337038
 20
312.8391332679538
 10
140.2166190714039
 20
312.8088115444393
 10
140.1971944570017
 20
312.7779879844169
 10
140.1791786601765
 20
312.7462553323474
 10
140.1626145230013
 20
312.7137270235603
 10
140.1475448875503
 20
312.6805164933847
 10
140.1340125958971
 20
312.6467371771502
 10
140.1220604901146
 20
312.6125025101857
 10
140.1117314122776
 20
312.5779259278204
 10
140.1030688062777
 20
312.5432194957298
 10
140.0959733702826
 20
312.5081666197742
 10
140.0904486046413
 20
312.4728760994218
 10
140.0864980097031
 20
312.437456734141
 10
140.084125085817
 20
312.4020173233999
 10
140.0833333333332
 20
312.3666666666667
210
0.0
220
0.0
230
-1.0
  0
LINE
  5
164
330
1F
100
AcDbEntity
  8
1
  6
________________
 62
     7
370
     9
100
AcDbLine
 10
-140.0833333333332
 20
312.3666666666667
 30
0.0
 11
-140.0833333333332
 21
310.0953818357617
 31
0.0
  0
ARC
  5
165
330
1F
100
AcDbEntity
  8
1
  6
________________
 62
     7
370
     9
100
AcDbCircle
 10
-139.5833333333331
 20
313.6666666666669
 30
0.0
 40
3.606116379632318
100
AcDbArc
 50
262.0300729587804
 51
277.9699270412195
  0
ARC
  5
166
330
1F
100
AcDbEntity
  8
1
  6
________________
 62
     7
370
     9
100
AcDbCircle
 10
-139.5833333333331
 20
313.6666666666669
 30
0.0
 40
1.834778891428079
100
AcDbArc
 50
74.18617583029146
 51
105.8138241697085
  0
ARC
  5
167
330
1F
100
AcDbEntity
  8
1
  6
________________
 62
     7
370
     9
100
AcDbCircle
 10
-139.5833333333331
 20
313.6666666666669
 30
0.0
 40
1.834778891428079
100
AcDbArc
 50
254.1861758302914
 51
285.8138241697085
  0
CIRCLE
  5
168
330
1F
100
AcDbEntity
  8
1
  6
________________
 62
     7
370
     9
100
AcDbCircle
 10
-139.5833333333331
 20
313.6666666666669
 30
0.0
 40
4.699999999999982
  0
LINE
  5
169
330
1F
100
AcDbEntity
  8
1
  6
________________
 62
     7
370
     9
100
AcDbLine
 10
-254.0833333333331
 20
310.0953818357617
 30
0.0
 11
-254.0833333333331
 21
312.3666666666667
 31
0.0
  0
LWPOLYLINE
  5
16A
330
1F
100
AcDbEntity
  8
1
  6
________________
 62
     7
370
     9
100
AcDbPolyline
 90
       35
 70
     0
 43
0.0
 10
254.0833333333331
 20
312.3666666666667
 10
254.082457430532
 20
312.4036999583621
 10
254.0798352371426
 20
312.4408527047327
 10
254.0754750256856
 20
312.4779986413256
 10
254.0693850686814
 20
312.5150115036872
 10
254.0615736386509
 20
312.5517650273653
 10
254.0520490081145
 20
312.5881329479065
 10
254.0408194495929
 20
312.6239890008577
 10
254.0278208127412
 20
312.6594190256033
 10
254.0130727657945
 20
312.6943624935421
 10
253.996634742814
 20
312.7286930909971
 10
253.9785661778606
 20
312.7622845042901
 10
253.9589265049956
 20
312.7950104197425
 10
253.93777515828
 20
312.8267445236777
 10
253.9151715717746
 20
312.8573605024168
 10
253.8917820434325
 20
312.8860489377853
 10
253.8669937236326
 20
312.9137049039766
 10
253.840903982613
 20
312.9402393504571
 10
253.8136101906122
 20
312.965563226693
 10
253.7852097178684
 20
312.9895874821507
 10
253.7557999346201
 20
313.0122230662963
 10
253.7254782111056
 20
313.0333809285958
 10
253.694654651083
 20
313.052805542998
 10
253.6629219990136
 20
313.0708213398235
 10
253.6303936902267
 20
313.0873854769983
 10
253.5971831600511
 20
313.1024551124494
 10
253.5634038438165
 20
313.1159874041029
 10
253.529169176852
 20
313.1279395098851
 10
253.4945925944868
 20
313.1382685877223
 10
253.459886162396
 20
313.146931193722
 10
253.4248332864404
 20
313.1540266297171
 10
253.3895427660882
 20
313.1595513953587
 10
253.3541234008074
 20
313.1635019902969
 10
253.3186839900663
 20
313.1658749141827
 10
253.2833333333331
 20
313.1666666666668
210
0.0
220
0.0
230
-1.0
  0
LINE
  5
16B
330
1F
100
AcDbEntity
  8
1
  6
________________
 62
     7
370
     9
100
AcDbLine
 10
-253.2833333333331
 20
313.1666666666669
 30
0.0
 11
-252.389592236485
 21
313.1666666666669
 31
0.0
  0
ARC
  5
16C
330
1F
100
AcDbEntity
  8
1
  6
________________
 62
     7
370
     9
100
AcDbCircle
 10
-254.5833333333331
 20
313.6666666666669
 30
0.0
 40
2.250000000000085
100
AcDbArc
 50
347.1604115930959
 51
12.83958840690389
  0
LINE
  5
16D
330
1F
100
AcDbEntity
  8
1
  6
________________
 62
     7
370
     9
100
AcDbLine
 10
-252.389592236485
 20
314.1666666666667
 30
0.0
 11
-253.2833333333331
 21
314.1666666666667
 31
0.0
  0
LWPOLYLINE
  5
16E
330
1F
100
AcDbEntity
  8
1
  6
________________
 62
     7
370
     9
100
AcDbPolyline
 90
       35
 70
     0
 43
0.0
 10
253.2833333333331
 20
314.1666666666667
 10
253.3203666250286
 20
314.1675425694679
 10
253.357519371399
 20
314.1701647628572
 10
253.3946653079917
 20
314.1745249743142
 10
253.4316781703535
 20
314.1806149313185
 10
253.4684316940315
 20
314.1884263613491
 10
253.5047996145727
 20
314.1979509918854
 10
253.5406556675242
 20
314.209180550407
 10
253.5760856922694
 20
314.2221791872588
 10
253.6110291602085
 20
314.2369272342055
 10
253.6453597576633
 20
314.253365257186
 10
253.6789511709562
 20
314.2714338221392
 10
253.7116770864091
 20
314.2910734950042
 10
253.743411190344
 20
314.3122248417199
 10
253.7740271690832
 20
314.3348284282252
 10
253.8027156044515
 20
314.3582179565674
 10
253.8303715706429
 20
314.3830062763673
 10
253.8569060171234
 20
314.4090960173869
 10
253.8822298933593
 20
314.4363898093877
 10
253.9062541488169
 20
314.4647902821316
 10
253.9288897329626
 20
314.4942000653797
 10
253.9500475952622
 20
314.5245217888945
 10
253.9694722096644
 20
314.5553453489168
 10
253.9874880064899
 20
314.5870780009862
 10
254.0040521436648
 20
314.6196063097732
 10
254.0191217791158
 20
314.6528168399489
 10
254.0326540707692
 20
314.6865961561834
 10
254.0446061765514
 20
314.7208308231478
 10
254.0549352543888
 20
314.7554074055132
 10
254.0635978603884
 20
314.7901138376038
 10
254.0706932963835
 20
314.8251667135595
 10
254.076218062025
 20
314.8604572339117
 10
254.0801686569633
 20
314.8958765991925
 10
254.0825415808491
 20
314.9313160099335
 10
254.0833333333331
 20
314.9666666666668
210
0.0
220
0.0
230
-1.0
  0
LINE
  5
16F
330
1F
100
AcDbEntity
  8
1
  6
________________
 62
     7
370
     9
100
AcDbLine
 10
-254.0833333333331
 20
314.9666666666668
 30
0.0
 11
-254.0833333333331
 21
317.2379514975717
 31
0.0
  0
ARC
  5
170
330
1F
100
AcDbEntity
  8
1
  6
________________
 62
     7
370
     9
100
AcDbCircle
 10
-254.5833333333331
 20
313.6666666666669
 30
0.0
 40
3.606116379632429
100
AcDbArc
 50
82.03007295878035
 51
97.96992704121966
  0
LINE
  5
171
330
1F
100
AcDbEntity
  8
1
  6
________________
 62
     7
370
     9
100
AcDbLine
 10
-255.0833333333331
 20
317.2379514975718
 30
0.0
 11
-255.0833333333331
 21
314.9666666666668
 31
0.0
  0
LWPOLYLINE
  5
172
330
1F
100
AcDbEntity
  8
1
  6
________________
 62
     7
370
     9
100
AcDbPolyline
 90
       35
 70
     0
 43
0.0
 10
255.0833333333331
 20
314.9666666666668
 10
255.0842092361342
 20
314.9296333749712
 10
255.0868314295235
 20
314.8924806286009
 10
255.0911916409806
 20
314.8553346920084
 10
255.0972815979848
 20
314.8183218296465
 10
255.1050930280153
 20
314.7815683059685
 10
255.1146176585517
 20
314.7452003854274
 10
255.1258472170733
 20
314.7093443324758
 10
255.1388458539251
 20
314.6739143077306
 10
255.1535939008718
 20
314.6389708397915
 10
255.1700319238522
 20
314.6046402423364
 10
255.1881004888055
 20
314.5710488290438
 10
255.2077401616705
 20
314.5383229135909
 10
255.2288915083862
 20
314.5065888096559
 10
255.2514950948915
 20
314.4759728309167
 10
255.2748846232336
 20
314.4472843955482
 10
255.2996729430337
 20
314.4196284293572
 10
255.3257626840533
 20
314.3930939828765
 10
255.3530564760541
 20
314.3677701066403
 10
255.3814569487978
 20
314.3437458511829
 10
255.4108667320461
 20
314.3211102670372
 10
255.4411884555607
 20
314.2999524047377
 10
255.4720120155832
 20
314.2805277903355
 10
255.5037446676525
 20
314.26251199351
 10
255.5362729764396
 20
314.2459478563351
 10
255.569483506615
 20
314.2308782208841
 10
255.6032628228497
 20
314.2173459292306
 10
255.6374974898142
 20
314.2053938234486
 10
255.6720740721794
 20
314.1950647456111
 10
255.7067805042702
 20
314.1864021396115
 10
255.7418333802258
 20
314.1793067036163
 10
255.777123900578
 20
314.1737819379751
 10
255.8125432658588
 20
314.1698313430366
 10
255.8479826765999
 20
314.1674584191508
 10
255.8833333333331
 20
314.1666666666667
210
0.0
220
0.0
230
-1.0
  0
LINE
  5
173
330
1F
100
AcDbEntity
  8
1
  6
________________
 62
     7
370
     9
100
AcDbLine
 10
-255.8833333333331
 20
314.1666666666667
 30
0.0
 11
-256.7770744301811
 21
314.1666666666667
 31
0.0
  0
ARC
  5
174
330
1F
100
AcDbEntity
  8
1
  6
________________
 62
     7
370
     9
100
AcDbCircle
 10
-254.5833333333331
 20
313.6666666666669
 30
0.0
 40
2.249999999999974
100
AcDbArc
 50
167.1604115930961
 51
192.8395884069041
  0
LINE
  5
175
330
1F
100
AcDbEntity
  8
1
  6
________________
 62
     7
370
     9
100
AcDbLine
 10
-256.7770744301811
 20
313.1666666666669
 30
0.0
 11
-255.8833333333332
 21
313.1666666666669
 31
0.0
  0
LWPOLYLINE
  5
176
330
1F
100
AcDbEntity
  8
1
  6
________________
 62
     7
370
     9
100
AcDbPolyline
 90
       35
 70
     0
 43
0.0
 10
255.8833333333331
 20
313.1666666666669
 10
255.8463000416378
 20
313.1657907638659
 10
255.8091472952672
 20
313.1631685704763
 10
255.7720013586745
 20
313.1588083590193
 10
255.7349884963127
 20
313.152718402015
 10
255.6982349726347
 20
313.1449069719844
 10
255.6618670520935
 20
313.1353823414483
 10
255.6260109991421
 20
313.1241527829265
 10
255.5905809743968
 20
313.1111541460747
 10
255.5556375064578
 20
313.0964060991283
 10
255.5213069090029
 20
313.0799680761478
 10
255.48771549571
 20
313.0618995111943
 10
255.4549895802571
 20
313.0422598383295
 10
255.4232554763222
 20
313.0211084916136
 10
255.392639497583
 20
312.9985049051083
 10
255.3639510622147
 20
312.9751153767664
 10
255.3362950960233
 20
312.9503270569663
 10
255.3097606495428
 20
312.9242373159467
 10
255.2844367733069
 20
312.8969435239459
 10
255.2604125178492
 20
312.8685430512022
 10
255.2377769337037
 20
312.8391332679538
 10
255.216619071404
 20
312.8088115444393
 10
255.1971944570018
 20
312.7779879844169
 10
255.1791786601763
 20
312.7462553323474
 10
255.1626145230014
 20
312.7137270235603
 10
255.1475448875503
 20
312.680516493385
 10
255.134012595897
 20
312.6467371771502
 10
255.1220604901148
 20
312.6125025101857
 10
255.1117314122775
 20
312.5779259278204
 10
255.1030688062777
 20
312.5432194957298
 10
255.0959733702827
 20
312.5081666197742
 10
255.0904486046412
 20
312.4728760994218
 10
255.086498009703
 20
312.437456734141
 10
255.0841250858171
 20
312.4020173233999
 10
255.0833333333331
 20
312.3666666666667
210
0.0
220
0.0
230
-1.0
  0
LINE
  5
177
330
1F
100
AcDbEntity
  8
1
  6
________________
 62
     7
370
     9
100
AcDbLine
 10
-255.0833333333331
 20
312.3666666666667
 30
0.0
 11
-255.0833333333331
 21
310.0953818357617
 31
0.0
  0
ARC
  5
178
330
1F
100
AcDbEntity
  8
1
  6
________________
 62
     7
370
     9
100
AcDbCircle
 10
-254.5833333333331
 20
313.6666666666669
 30
0.0
 40
3.606116379632374
100
AcDbArc
 50
262.0300729587804
 51
277.9699270412195
  0
ARC
  5
179
330
1F
100
AcDbEntity
  8
1
  6
________________
 62
     7
370
     9
100
AcDbCircle
 10
-254.5833333333331
 20
313.6666666666669
 30
0.0
 40
1.834778891428079
100
AcDbArc
 50
74.18617583029146
 51
105.8138241697085
  0
ARC
  5
17A
330
1F
100
AcDbEntity
  8
1
  6
________________
 62
     7
370
     9
100
AcDbCircle
 10
-254.5833333333331
 20
313.6666666666669
 30
0.0
 40
1.834778891428135
100
AcDbArc
 50
254.1861758302914
 51
285.8138241697085
  0
CIRCLE
  5
17B
330
1F
100
AcDbEntity
  8
1
  6
________________
 62
     7
370
     9
100
AcDbCircle
 10
-254.5833333333331
 20
313.6666666666669
 30
0.0
 40
4.700000000000093
  0
LINE
  5
17C
330
1F
100
AcDbEntity
  8
1
  6
________________
 62
     7
370
     9
100
AcDbLine
 10
225.4166666666667
 20
403.6666666666666
 30
0.0
 11
-217.0833333333333
 21
403.6666666666669
 31
0.0
  0
LINE
  5
17D
330
1F
100
AcDbEntity
  8
1
  6
________________
 62
     7
370
     9
100
AcDbLine
 10
-217.0833333333333
 20
403.666666666667
 30
0.0
 11
-277.0833333333333
 21
343.666666666667
 31
0.0
  0
LINE
  5
17E
330
1F
100
AcDbEntity
  8
1
  6
________________
 62
     7
370
     9
100
AcDbLine
 10
225.4166666666667
 20
322.6666666666666
 30
0.0
 11
225.4166666666667
 21
403.6666666666666
 31
0.0
  0
LINE
  5
17F
330
1F
100
AcDbEntity
  8
1
  6
________________
 62
     7
370
     9
100
AcDbLine
 10
-277.0833333333333
 20
343.666666666667
 30
0.0
 11
-277.0833333333333
 21
322.6666666666669
 31
0.0
  0
LINE
  5
180
330
1F
100
AcDbEntity
  8
1
  6
________________
 62
     7
370
     9
100
AcDbLine
 10
225.4166666666667
 20
141.6666666666667
 30
0.0
 11
225.4166666666667
 21
186.6666666666667
 31
0.0
  0
LINE
  5
181
330
1F
100
AcDbEntity
  8
1
  6
________________
 62
     7
370
     9
100
AcDbLine
 10
-217.0833333333333
 20
141.6666666666668
 30
0.0
 11
225.4166666666667
 21
141.6666666666667
 31
0.0
  0
LINE
  5
182
330
1F
100
AcDbEntity
  8
1
  6
________________
 62
     7
370
     9
100
AcDbLine
 10
-277.0833333333333
 20
201.6666666666667
 30
0.0
 11
-217.0833333333333
 21
141.6666666666668
 31
0.0
  0
LINE
  5
183
330
1F
100
AcDbEntity
  8
1
  6
________________
 62
     7
370
     9
100
AcDbLine
 10
-277.0833333333333
 20
203.08088022904
 30
0.0
 11
-277.0833333333333
 21
201.6666666666667
 31
0.0
  0
LINE
  5
184
330
1F
100
AcDbEntity
  8
1
  6
________________
 62
     9
420
 12632256
370
     9
100
AcDbLine
 10
150.3993652417284
 20
280.779620928932
 30
0.0
 11
150.3042074045672
 21
291.7792020826378
 31
0.0
  0
LWPOLYLINE
  5
185
330
1F
100
AcDbEntity
  8
1
  6
________________
 62
     9
420
 12632256
370
     9
100
AcDbPolyline
 90
        9
 70
     0
 43
0.0
 10
152.3041312506956
 20
293.7791259287661
 10
151.9139841340158
 20
293.7406719561203
 10
151.5388287032026
 20
293.62684708126
 10
151.1930805777224
 20
293.4420251075413
 10
150.8900253800101
 20
293.1933079533235
 10
150.6413082257921
 20
292.890252755611
 10
150.4564862520734
 20
292.5445046301311
 10
150.3426613772133
 20
292.1693491993177
 10
150.3042074045673
 20
291.7792020826378
  0
LINE
  5
186
330
1F
100
AcDbEntity
  8
1
  6
________________
 62
     9
420
 12632256
370
     9
100
AcDbLine
 10
160.4339680916052
 20
226.5537124044016
 30
0.0
 11
160.5291259287663
 21
215.5541312506957
 31
0.0
  0
LWPOLYLINE
  5
187
330
1F
100
AcDbEntity
  8
1
  6
________________
 62
     9
420
 12632256
370
     9
100
AcDbPolyline
 90
        9
 70
     0
 43
0.0
 10
158.5292020826379
 20
213.5542074045673
 10
158.9193491993178
 20
213.5926613772136
 10
159.2945046301308
 20
213.7064862520735
 10
159.6402527556111
 20
213.8913082257925
 10
159.9433079533236
 20
214.14002538001
 10
160.1920251075412
 20
214.4430805777225
 10
160.3768470812601
 20
214.7888287032025
 10
160.49067195612
 20
215.1639841340158
 10
160.5291259287663
 20
215.5541312506957
  0
LINE
  5
188
330
1F
100
AcDbEntity
  8
1
  6
________________
 62
     9
420
 12632256
370
     9
100
AcDbLine
 10
150.3993652417284
 20
226.5537124044016
 30
0.0
 11
150.3993652417284
 21
280.7796209289319
 31
0.0
  0
LINE
  5
189
330
1F
100
AcDbEntity
  8
1
  6
________________
 62
     9
420
 12632256
370
     9
100
AcDbLine
 10
150.3042074045673
 20
215.5541312506957
 30
0.0
 11
150.3993652417284
 21
226.5537124044014
 31
0.0
  0
LWPOLYLINE
  5
18A
330
1F
100
AcDbEntity
  8
1
  6
________________
 62
     9
420
 12632256
370
     9
100
AcDbPolyline
 90
        9
 70
     0
 43
0.0
 10
150.3042074045673
 20
215.5541312506957
 10
150.3426613772136
 20
215.1639841340158
 10
150.4564862520732
 20
214.7888287032025
 10
150.6413082257921
 20
214.4430805777225
 10
150.8900253800101
 20
214.14002538001
 10
151.1930805777224
 20
213.8913082257925
 10
151.5388287032026
 20
213.7064862520735
 10
151.9139841340158
 20
213.5926613772136
 10
152.3041312506957
 20
213.5542074045673
  0
LINE
  5
18B
330
1F
100
AcDbEntity
  8
1
  6
________________
 62
     9
420
 12632256
370
     9
100
AcDbLine
 10
-202.0660319083949
 20
280.779620928932
 30
0.0
 11
-202.0660319083949
 21
226.5537124044017
 31
0.0
  0
LINE
  5
18C
330
1F
100
AcDbEntity
  8
1
  6
________________
 62
     9
420
 12632256
370
     9
100
AcDbLine
 10
160.4339680916052
 20
280.779620928932
 30
0.0
 11
160.4339680916052
 21
226.5537124044017
 31
0.0
  0
LINE
  5
18D
330
1F
100
AcDbEntity
  8
1
  6
________________
 62
     9
420
 12632256
370
     9
100
AcDbLine
 10
-212.1006347582716
 20
226.5537124044016
 30
0.0
 11
-212.1006347582716
 21
280.7796209289319
 31
0.0
  0
LWPOLYLINE
  5
18E
330
1F
100
AcDbEntity
  8
1
  6
________________
 62
     9
420
 12632256
370
     9
100
AcDbPolyline
 90
        9
 70
     0
 43
0.0
 10
-212.1957925954327
 20
215.5541312506957
 10
-212.1573386227865
 20
215.1639841340158
 10
-212.0435137479267
 20
214.7888287032025
 10
-211.8586917742076
 20
214.4430805777225
 10
-211.6099746199901
 20
214.14002538001
 10
-211.3069194222777
 20
213.8913082257925
 10
-210.9611712967975
 20
213.7064862520735
 10
-210.5860158659844
 20
213.5926613772136
 10
-210.1958687493044
 20
213.5542074045673
  0
LINE
  5
18F
330
1F
100
AcDbEntity
  8
1
  6
________________
 62
     9
420
 12632256
370
     9
100
AcDbLine
 10
-212.1957925954327
 20
215.5541312506957
 30
0.0
 11
-212.1006347582716
 21
226.5537124044017
 31
0.0
  0
LINE
  5
190
330
1F
100
AcDbEntity
  8
1
  6
________________
 62
     9
420
 12632256
370
     9
100
AcDbLine
 10
-202.0660319083949
 20
226.5537124044016
 30
0.0
 11
-201.9708740712337
 21
215.5541312506957
 31
0.0
  0
LWPOLYLINE
  5
191
330
1F
100
AcDbEntity
  8
1
  6
________________
 62
     9
420
 12632256
370
     9
100
AcDbPolyline
 90
        9
 70
     0
 43
0.0
 10
-203.9707979173621
 20
213.5542074045673
 10
-203.5806508006821
 20
213.5926613772136
 10
-203.205495369869
 20
213.7064862520735
 10
-202.8597472443888
 20
213.8913082257925
 10
-202.5566920466763
 20
214.14002538001
 10
-202.3079748924588
 20
214.4430805777225
 10
-202.1231529187398
 20
214.7888287032025
 10
-202.0093280438799
 20
215.1639841340158
 10
-201.9708740712337
 20
215.5541312506957
  0
LINE
  5
192
330
1F
100
AcDbEntity
  8
1
  6
________________
 62
     9
420
 12632256
370
     9
100
AcDbLine
 10
-212.1006347582716
 20
280.779620928932
 30
0.0
 11
-212.1957925954327
 21
291.7792020826378
 31
0.0
  0
LWPOLYLINE
  5
193
330
1F
100
AcDbEntity
  8
1
  6
________________
 62
     9
420
 12632256
370
     9
100
AcDbPolyline
 90
        9
 70
     0
 43
0.0
 10
-210.1958687493044
 20
293.7791259287661
 10
-210.5860158659843
 20
293.7406719561203
 10
-210.9611712967975
 20
293.62684708126
 10
-211.3069194222776
 20
293.4420251075411
 10
-211.6099746199901
 20
293.1933079533235
 10
-211.8586917742076
 20
292.890252755611
 10
-212.0435137479266
 20
292.5445046301311
 10
-212.1573386227865
 20
292.1693491993177
 10
-212.1957925954327
 20
291.7792020826378
  0
LINE
  5
194
330
1F
100
AcDbEntity
  8
1
  6
________________
 62
     9
420
 12632256
370
     9
100
AcDbLine
 10
160.5291259287663
 20
291.7792020826378
 30
0.0
 11
160.4339680916052
 21
280.779620928932
 31
0.0
  0
LWPOLYLINE
  5
195
330
1F
100
AcDbEntity
  8
1
  6
________________
 62
     9
420
 12632256
370
     9
100
AcDbPolyline
 90
        9
 70
     0
 43
0.0
 10
160.5291259287663
 20
291.7792020826381
 10
160.49067195612
 20
292.1693491993177
 10
160.3768470812601
 20
292.5445046301311
 10
160.1920251075415
 20
292.890252755611
 10
159.9433079533236
 20
293.1933079533238
 10
159.6402527556111
 20
293.4420251075413
 10
159.2945046301311
 20
293.6268470812603
 10
158.9193491993178
 20
293.7406719561203
 10
158.5292020826379
 20
293.7791259287662
  0
LINE
  5
196
330
1F
100
AcDbEntity
  8
1
  6
________________
 62
     9
420
 12632256
370
     9
100
AcDbLine
 10
158.5292020826379
 20
213.5542074045673
 30
0.0
 11
157.3042074045672
 21
213.5542074045673
 31
0.0
  0
LINE
  5
197
330
1F
100
AcDbEntity
  8
1
  6
________________
 62
     9
420
 12632256
370
     9
100
AcDbLine
 10
-201.9708740712337
 20
291.7792020826378
 30
0.0
 11
-202.0660319083949
 21
280.779620928932
 31
0.0
  0
LWPOLYLINE
  5
198
330
1F
100
AcDbEntity
  8
1
  6
________________
 62
     9
420
 12632256
370
     9
100
AcDbPolyline
 90
        9
 70
     0
 43
0.0
 10
-201.9708740712337
 20
291.7792020826381
 10
-202.0093280438799
 20
292.1693491993177
 10
-202.1231529187398
 20
292.5445046301311
 10
-202.3079748924588
 20
292.890252755611
 10
-202.5566920466763
 20
293.1933079533238
 10
-202.8597472443888
 20
293.4420251075413
 10
-203.205495369869
 20
293.6268470812603
 10
-203.5806508006821
 20
293.7406719561203
 10
-203.9707979173621
 20
293.7791259287662
  0
LINE
  5
199
330
1F
100
AcDbEntity
  8
1
  6
________________
 62
     9
420
 12632256
370
     9
100
AcDbLine
 10
157.3042074045672
 20
293.7791259287661
 30
0.0
 11
158.5292020826379
 21
293.7791259287661
 31
0.0
  0
LINE
  5
19A
330
1F
100
AcDbEntity
  8
1
  6
________________
 62
     9
420
 12632256
370
     9
100
AcDbLine
 10
-205.1957925954328
 20
293.7791259287661
 30
0.0
 11
-203.9707979173621
 21
293.7791259287661
 31
0.0
  0
LINE
  5
19B
330
1F
100
AcDbEntity
  8
1
  6
________________
 62
     9
420
 12632256
370
     9
100
AcDbLine
 10
-203.9707979173621
 20
213.5542074045673
 30
0.0
 11
-205.1957925954327
 21
213.5542074045673
 31
0.0
  0
CIRCLE
  5
19C
330
1F
100
AcDbEntity
  8
1
  6
________________
 62
     7
370
     9
100
AcDbCircle
 10
90.41666666666681
 20
313.6666666666669
 30
0.0
 40
5.000000000000004
  0
CIRCLE
  5
19D
330
1F
100
AcDbEntity
  8
1
  6
________________
 62
     7
370
     9
100
AcDbCircle
 10
-254.5833333333332
 20
313.6666666666669
 30
0.0
 40
5.000000000000032
  0
CIRCLE
  5
19E
330
1F
100
AcDbEntity
  8
1
  6
________________
 62
     7
370
     9
100
AcDbCircle
 10
-24.58333333333323
 20
313.6666666666669
 30
0.0
 40
5.00000000000006
  0
CIRCLE
  5
19F
330
1F
100
AcDbEntity
  8
1
  6
________________
 62
     7
370
     9
100
AcDbCircle
 10
205.4166666666669
 20
313.6666666666669
 30
0.0
 40
5.000000000000004
  0
CIRCLE
  5
1A0
330
1F
100
AcDbEntity
  8
1
  6
________________
 62
     7
370
     9
100
AcDbCircle
 10
-139.5833333333331
 20
313.6666666666669
 30
0.0
 40
5.00000000000006
  0
ARC
  5
1A1
330
1F
100
AcDbEntity
  8
1
  6
________________
 62
     7
370
     9
100
AcDbCircle
 10
-259.6691197709601
 20
186.6666666666667
 30
0.0
 40
1.000000000000001
100
AcDbArc
 50
224.9999999999989
 51
270.0
  0
LINE
  5
1A2
330
1F
100
AcDbEntity
  8
1
  6
________________
 62
     7
370
     9
100
AcDbLine
 10
-260.3762265521466
 20
185.9595598854802
 30
0.0
 11
-276.7904401145198
 21
202.3737734478532
 31
0.0
  0
ARC
  5
1A3
330
1F
100
AcDbEntity
  8
1
  6
________________
 62
     7
370
     9
100
AcDbCircle
 10
195.4166666666668
 20
203.9166666666667
 30
0.0
 40
3.249999999999975
100
AcDbArc
 50
180.0000000000002
 51
270.0
  0
ARC
  5
1A4
330
1F
100
AcDbEntity
  8
1
  6
________________
 62
     7
370
     9
100
AcDbCircle
 10
195.4166666666668
 20
203.9166666666667
 30
0.0
 40
3.249999999999975
100
AcDbArc
 50
269.9999999999999
 51
0.0
  0
LINE
  5
1A5
330
1F
100
AcDbEntity
  8
1
  6
________________
 62
     7
370
     9
100
AcDbLine
 10
198.6666666666669
 20
281.616995628274
 30
0.0
 11
198.6666666666669
 21
203.9166666666667
 31
0.0
  0
LINE
  5
1A6
330
1F
100
AcDbEntity
  8
1
  6
________________
 62
     7
370
     9
100
AcDbLine
 10
192.1666666666668
 20
203.9166666666667
 30
0.0
 11
192.1666666666668
 21
281.616995628274
 31
0.0
  0
ARC
  5
1A7
330
1F
100
AcDbEntity
  8
1
  6
________________
 62
     7
370
     9
100
AcDbCircle
 10
-247.0833333333332
 20
203.9166666666667
 30
0.0
 40
3.249999999999975
100
AcDbArc
 50
180.0
 51
269.9999999999991
  0
ARC
  5
1A8
330
1F
100
AcDbEntity
  8
1
  6
________________
 62
     7
370
     9
100
AcDbCircle
 10
-247.0833333333333
 20
203.9166666666667
 30
0.0
 40
3.250000000000086
100
AcDbArc
 50
270.0
 51
0.000000000000739
  0
LINE
  5
1A9
330
1F
100
AcDbEntity
  8
1
  6
________________
 62
     7
370
     9
100
AcDbLine
 10
-243.8333333333332
 20
281.6169956282743
 30
0.0
 11
-243.8333333333332
 21
203.9166666666667
 31
0.0
  0
LINE
  5
1AA
330
1F
100
AcDbEntity
  8
1
  6
________________
 62
     7
370
     9
100
AcDbLine
 10
-250.3333333333332
 20
203.9166666666667
 30
0.0
 11
-250.3333333333332
 21
281.616995628274
 31
0.0
  0
ARC
  5
1AB
330
1F
100
AcDbEntity
  8
1
  6
________________
 62
     7
370
     9
100
AcDbCircle
 10
224.4166666666668
 20
186.6666666666667
 30
0.0
 40
1.000000000000001
100
AcDbArc
 50
270.0
 51
0.0
  0
LINE
  5
1AC
330
1F
100
AcDbEntity
  8
1
  6
________________
 62
     7
370
     9
100
AcDbLine
 10
-277.0833333333333
 20
203.08088022904
 30
0.0
 11
-277.0833333333333
 21
322.666666666667
 31
0.0
  0
ARC
  5
1AD
330
1F
100
AcDbEntity
  8
1
  6
________________
 62
     7
370
     9
100
AcDbCircle
 10
-276.0833333333333
 20
322.6666666666669
 30
0.0
 40
1.000000000000001
100
AcDbArc
 50
90.0
 51
180.0
  0
LINE
  5
1AE
330
1F
100
AcDbEntity
  8
1
  6
________________
 62
     7
370
     9
100
AcDbLine
 10
-276.0833333333333
 20
323.6666666666668
 30
0.0
 11
224.4166666666667
 21
323.6666666666668
 31
0.0
  0
LINE
  5
1AF
330
1F
100
AcDbEntity
  8
1
  6
________________
 62
     7
370
     9
100
AcDbLine
 10
224.4166666666668
 20
185.6666666666668
 30
0.0
 11
-259.66911977096
 21
185.6666666666668
 31
0.0
  0
LINE
  5
1B0
330
1F
100
AcDbEntity
  8
1
  6
________________
 62
     7
370
     9
100
AcDbLine
 10
225.4166666666667
 20
322.6666666666666
 30
0.0
 11
225.4166666666667
 21
186.6666666666667
 31
0.0
  0
ARC
  5
1B1
330
1F
100
AcDbEntity
  8
1
  6
________________
 62
     7
370
     9
100
AcDbCircle
 10
-276.0833333333333
 20
203.08088022904
 30
0.0
 40
0.9999999999999454
100
AcDbArc
 50
180.0
 51
224.9999999999989
  0
ARC
  5
1B2
330
1F
100
AcDbEntity
  8
1
  6
________________
 62
     7
370
     9
100
AcDbCircle
 10
224.4166666666668
 20
322.6666666666666
 30
0.0
 40
1.000000000000001
100
AcDbArc
 50
0.0
 51
90.0
  0
LINE
  5
1B3
330
1F
100
AcDbEntity
  8
1
  6
________________
 62
     7
370
     9
100
AcDbLine
 10
-233.6572912584772
 20
282.916666666667
 30
0.0
 11
-233.6572912584772
 21
287.9166666666667
 31
0.0
  0
LINE
  5
1B4
330
1F
100
AcDbEntity
  8
1
  6
________________
 62
     7
370
     9
100
AcDbLine
 10
-260.5093754081895
 20
287.9166666666667
 30
0.0
 11
-260.5093754081895
 21
282.916666666667
 31
0.0
  0
LINE
  5
1B5
330
1F
100
AcDbEntity
  8
1
  6
________________
 62
     7
370
     9
100
AcDbLine
 10
181.9906245918105
 20
287.9166666666667
 30
0.0
 11
181.9906245918105
 21
282.916666666667
 31
0.0
  0
LINE
  5
1B6
330
1F
100
AcDbEntity
  8
1
  6
________________
 62
     7
370
     9
100
AcDbLine
 10
208.8427087415229
 20
282.916666666667
 30
0.0
 11
208.8427087415229
 21
287.9166666666667
 31
0.0
  0
ENDSEC
  0
SECTION
  2
OBJECTS
  0
DICTIONARY
  5
C
330
0
100
AcDbDictionary
281
     1
  3
ACAD_GROUP
350
D
  3
ACAD_LAYOUT
350
1A
  3
ACAD_MLEADERSTYLE
350
1B8
  3
ACAD_MLINESTYLE
350
17
  3
ACAD_PLOTSETTINGS
350
19
  3
ACAD_PLOTSTYLENAME
350
E
  3
ACAD_TABLESTYLE
350
1B7
  3
ACAD_VISUALSTYLE
350
2A
  0
DICTIONARY
  5
D
102
{ACAD_REACTORS
330
C
102
}
330
C
100
AcDbDictionary
281
     1
  0
DICTIONARY
  5
1A
102
{ACAD_REACTORS
330
C
102
}
330
C
100
AcDbDictionary
281
     1
  3
Layout1
350
1E
  3
Layout2
350
26
  3
Model
350
22
  0
DICTIONARY
  5
1B8
102
{ACAD_REACTORS
330
C
102
}
330
C
100
AcDbDictionary
281
     1
  0
DICTIONARY
  5
17
102
{ACAD_REACTORS
330
C
102
}
330
C
100
AcDbDictionary
281
     1
  3
Standard
350
18
  0
DICTIONARY
  5
19
102
{ACAD_REACTORS
330
C
102
}
330
C
100
AcDbDictionary
281
     1
  0
ACDBDICTIONARYWDFLT
  5
E
102
{ACAD_REACTORS
330
C
102
}
330
C
100
AcDbDictionary
281
     1
  3
Normal
350
F
100
AcDbDictionaryWithDefault
340
F
  0
DICTIONARY
  5
1B7
102
{ACAD_REACTORS
330
C
102
}
330
C
100
AcDbDictionary
281
     1
  0
DICTIONARY
  5
2A
102
{ACAD_REACTORS
330
C
102
}
330
C
100
AcDbDictionary
281
     1
  3
2dWireframe
350
2F
  3
3D Hidden
350
31
  3
3dWireframe
350
30
  3
Basic
350
32
  3
Brighten
350
36
  3
ColorChange
350
3A
  3
Conceptual
350
34
  3
Dim
350
35
  3
Facepattern
350
39
  3
Flat
350
2B
  3
FlatWithEdges
350
2C
  3
Gouraud
350
2D
  3
GouraudWithEdges
350
2E
  3
Linepattern
350
38
  3
Realistic
350
33
  3
Thicken
350
37
  0
LAYOUT
  5
1E
102
{ACAD_REACTORS
330
1A
102
}
330
1A
100
AcDbPlotSettings
  1

  2
none_device
  4

  6

 40
0.0
 41
0.0
 42
0.0
 43
0.0
 44
0.0
 45
0.0
 46
0.0
 47
0.0
 48
0.0
 49
0.0
140
0.0
141
0.0
142
1.0
143
1.0
 70
   688
 72
     0
 73
     0
 74
     5
  7

 75
    16
 76
     0
 77
     2
 78
   300
147
1.0
148
0.0
149
0.0
100
AcDbLayout
  1
Layout1
 70
     1
 71
     1
 10
0.0
 20
0.0
 11
12.0
 21
9.0
 12
0.0
 22
0.0
 32
0.0
 14
1.000000000000000E+20
 24
1.000000000000000E+20
 34
1.000000000000000E+20
 15
-1.000000000000000E+20
 25
-1.000000000000000E+20
 35
-1.000000000000000E+20
146
0.0
 13
0.0
 23
0.0
 33
0.0
 16
1.0
 26
0.0
 36
0.0
 17
0.0
 27
1.0
 37
0.0
 76
     0
330
1B
  0
LAYOUT
  5
26
102
{ACAD_REACTORS
330
1A
102
}
330
1A
100
AcDbPlotSettings
  1

  2
none_device
  4

  6

 40
0.0
 41
0.0
 42
0.0
 43
0.0
 44
0.0
 45
0.0
 46
0.0
 47
0.0
 48
0.0
 49
0.0
140
0.0
141
0.0
142
1.0
143
1.0
 70
   688
 72
     0
 73
     0
 74
     5
  7

 75
    16
 76
     0
 77
     2
 78
   300
147
1.0
148
0.0
149
0.0
100
AcDbLayout
  1
Layout2
 70
     1
 71
     2
 10
0.0
 20
0.0
 11
0.0
 21
0.0
 12
0.0
 22
0.0
 32
0.0
 14
0.0
 24
0.0
 34
0.0
 15
0.0
 25
0.0
 35
0.0
146
0.0
 13
0.0
 23
0.0
 33
0.0
 16
1.0
 26
0.0
 36
0.0
 17
0.0
 27
1.0
 37
0.0
 76
     0
330
23
  0
LAYOUT
  5
22
102
{ACAD_REACTORS
330
1A
102
}
330
1A
100
AcDbPlotSettings
  1

  2
none_device
  4

  6

 40
0.0
 41
0.0
 42
0.0
 43
0.0
 44
0.0
 45
0.0
 46
0.0
 47
0.0
 48
0.0
 49
0.0
140
0.0
141
0.0
142
1.0
143
1.0
 70
  1712
 72
     0
 73
     0
 74
     0
  7

 75
     0
 76
     0
 77
     2
 78
   300
147
1.0
148
0.0
149
0.0
100
AcDbLayout
  1
Model
 70
     1
 71
     0
 10
0.0
 20
0.0
 11
12.0
 21
9.0
 12
0.0
 22
0.0
 32
0.0
 14
-277.0833333333333
 24
56.95909090909095
 34
0.0
 15
225.4166666666668
 25
403.666666666667
 35
0.0
146
0.0
 13
0.0
 23
0.0
 33
0.0
 16
1.0
 26
0.0
 36
0.0
 17
0.0
 27
1.0
 37
0.0
 76
     0
330
1F
331
29
  0
MLINESTYLE
  5
18
102
{ACAD_REACTORS
330
17
102
}
330
17
100
AcDbMlineStyle
  2
Standard
 70
     0
  3

 62
   256
 51
90.0
 52
90.0
 71
     2
 49
0.5
 62
   256
  6
BYLAYER
 49
-0.5
 62
   256
  6
BYLAYER
  0
ACDBPLACEHOLDER
  5
F
102
{ACAD_REACTORS
330
E
102
}
330
E
  0
VISUALSTYLE
  5
2F
102
{ACAD_REACTORS
330
2A
102
}
330
2A
100
AcDbVisualStyle
  2
2dWireframe
 70
     4
 71
     0
 72
     2
 73
     0
 90
        0
 40
-0.6
 41
-30.0
 62
     5
 63
     7
421
 16777215
 74
     1
 91
        4
 64
     7
 65
   257
 75
     1
175
     1
 42
1.0
 92
        0
 66
   257
 43
1.0
 76
     1
 77
     6
 78
     2
 67
     7
 79
     5
170
     0
171
     0
290
     0
174
     0
 93
        1
 44
0.0
173
     0
291
     0
 45
0.0
  0
VISUALSTYLE
  5
31
102
{ACAD_REACTORS
330
2A
102
}
330
2A
100
AcDbVisualStyle
  2
3D Hidden
 70
     6
 71
     1
 72
     2
 73
     2
 90
        0
 40
-0.6
 41
-30.0
 62
     5
 63
     7
421
 16777215
 74
     2
 91
        2
 64
     7
 65
   257
 75
     2
175
     1
 42
40.0
 92
        0
 66
   257
 43
1.0
 76
     1
 77
     6
 78
     2
 67
     7
 79
     3
170
     0
171
     0
290
     0
174
     0
 93
        1
 44
0.0
173
     0
291
     0
 45
0.0
  0
VISUALSTYLE
  5
30
102
{ACAD_REACTORS
330
2A
102
}
330
2A
100
AcDbVisualStyle
  2
3dWireframe
 70
     5
 71
     0
 72
     2
 73
     0
 90
        0
 40
-0.6
 41
-30.0
 62
     5
 63
     7
421
 16777215
 74
     1
 91
        4
 64
     7
 65
   257
 75
     1
175
     1
 42
1.0
 92
        0
 66
   257
 43
1.0
 76
     1
 77
     6
 78
     2
 67
     7
 79
     5
170
     0
171
     0
290
     0
174
     0
 93
        1
 44
0.0
173
     0
291
     0
 45
0.0
  0
VISUALSTYLE
  5
32
102
{ACAD_REACTORS
330
2A
102
}
330
2A
100
AcDbVisualStyle
  2
Basic
 70
     7
 71
     1
 72
     0
 73
     1
 90
        0
 40
-0.6
 41
-30.0
 62
     5
 63
     7
421
 16777215
 74
     0
 91
        4
 64
     7
 65
   257
 75
     1
175
     1
 42
1.0
 92
        8
 66
     7
 43
1.0
 76
     1
 77
     6
 78
     2
 67
     7
 79
     5
170
     0
171
     0
290
     0
174
     0
 93
        1
 44
0.0
173
     0
291
     1
 45
0.0
  0
VISUALSTYLE
  5
36
102
{ACAD_REACTORS
330
2A
102
}
330
2A
100
AcDbVisualStyle
  2
Brighten
 70
    12
 71
     2
 72
     2
 73
     0
 90
        0
 40
-0.6
 41
-30.0
 62
     5
 63
     7
421
 16777215
 74
     1
 91
        4
 64
     7
 65
   257
 75
     1
175
     1
 42
1.0
 92
        8
 66
     7
 43
1.0
 76
     1
 77
     6
 78
     2
 67
     7
 79
     5
170
     0
171
     0
290
     0
174
     0
 93
        1
 44
50.0
173
     0
291
     1
 45
0.0
  0
VISUALSTYLE
  5
3A
102
{ACAD_REACTORS
330
2A
102
}
330
2A
100
AcDbVisualStyle
  2
ColorChange
 70
    16
 71
     2
 72
     2
 73
     3
 90
        0
 40
-0.6
 41
-30.0
 62
     5
 63
     8
421
  8421504
 74
     1
 91
        4
 64
     7
 65
   257
 75
     1
175
     1
 42
1.0
 92
        8
 66
     8
424
  8421504
 43
1.0
 76
     1
 77
     6
 78
     2
 67
     7
 79
     5
170
     0
171
     0
290
     0
174
     0
 93
        1
 44
0.0
173
     0
291
     1
 45
0.0
  0
VISUALSTYLE
  5
34
102
{ACAD_REACTORS
330
2A
102
}
330
2A
100
AcDbVisualStyle
  2
Conceptual
 70
     9
 71
     3
 72
     2
 73
     0
 90
        0
 40
-0.6
 41
-30.0
 62
     5
 63
     7
421
 16777215
 74
     2
 91
        2
 64
     7
 65
   257
 75
     1
175
     1
 42
40.0
 92
        8
 66
     7
 43
1.0
 76
     1
 77
     6
 78
     2
 67
     7
 79
     3
170
     0
171
     0
290
     0
174
     0
 93
        1
 44
0.0
173
     0
291
     0
 45
0.0
  0
VISUALSTYLE
  5
35
102
{ACAD_REACTORS
330
2A
102
}
330
2A
100
AcDbVisualStyle
  2
Dim
 70
    11
 71
     2
 72
     2
 73
     0
 90
        0
 40
-0.6
 41
-30.0
 62
     5
 63
     7
421
 16777215
 74
     1
 91
        4
 64
     7
 65
   257
 75
     1
175
     1
 42
1.0
 92
        8
 66
     7
 43
1.0
 76
     1
 77
     6
 78
     2
 67
     7
 79
     5
170
     0
171
     0
290
     0
174
     0
 93
        1
 44
-50.0
173
     0
291
     1
 45
0.0
  0
VISUALSTYLE
  5
39
102
{ACAD_REACTORS
330
2A
102
}
330
2A
100
AcDbVisualStyle
  2
Facepattern
 70
    15
 71
     2
 72
     2
 73
     0
 90
        0
 40
-0.6
 41
-30.0
 62
     5
 63
     7
421
 16777215
 74
     1
 91
        4
 64
     7
 65
   257
 75
     1
175
     1
 42
1.0
 92
        8
 66
     7
 43
1.0
 76
     1
 77
     6
 78
     2
 67
     7
 79
     5
170
     0
171
     0
290
     0
174
     0
 93
        1
 44
0.0
173
     0
291
     1
 45
0.0
  0
VISUALSTYLE
  5
2B
102
{ACAD_REACTORS
330
2A
102
}
330
2A
100
AcDbVisualStyle
  2
Flat
 70
     0
 71
     2
 72
     1
 73
     1
 90
        2
 40
-0.6
 41
30.0
 62
     5
 63
     7
421
 16777215
 74
     0
 91
        4
 64
     7
 65
   257
 75
     1
175
     1
 42
1.0
 92
        8
 66
     7
 43
1.0
 76
     1
 77
     6
 78
     2
 67
     7
 79
     5
170
     0
171
     0
290
     0
174
     0
 93
       13
 44
0.0
173
     0
291
     1
 45
0.0
  0
VISUALSTYLE
  5
2C
102
{ACAD_REACTORS
330
2A
102
}
330
2A
100
AcDbVisualStyle
  2
FlatWithEdges
 70
     1
 71
     2
 72
     1
 73
     1
 90
        2
 40
-0.6
 41
30.0
 62
     5
 63
     7
421
 16777215
 74
     1
 91
        4
 64
     7
 65
   257
 75
     1
175
     1
 42
1.0
 92
        0
 66
   257
 43
1.0
 76
     1
 77
     6
 78
     2
 67
     7
 79
     5
170
     0
171
     0
290
     0
174
     0
 93
       13
 44
0.0
173
     0
291
     1
 45
0.0
  0
VISUALSTYLE
  5
2D
102
{ACAD_REACTORS
330
2A
102
}
330
2A
100
AcDbVisualStyle
  2
Gouraud
 70
     2
 71
     2
 72
     2
 73
     1
 90
        2
 40
-0.6
 41
30.0
 62
     5
 63
     7
421
 16777215
 74
     0
 91
        4
 64
     7
 65
   257
 75
     1
175
     1
 42
1.0
 92
        0
 66
     7
 43
1.0
 76
     1
 77
     6
 78
     2
 67
     7
 79
     5
170
     0
171
     0
290
     0
174
     0
 93
       13
 44
0.0
173
     0
291
     1
 45
0.0
  0
VISUALSTYLE
  5
2E
102
{ACAD_REACTORS
330
2A
102
}
330
2A
100
AcDbVisualStyle
  2
GouraudWithEdges
 70
     3
 71
     2
 72
     2
 73
     1
 90
        2
 40
-0.6
 41
30.0
 62
     5
 63
     7
421
 16777215
 74
     1
 91
        4
 64
     7
 65
   257
 75
     1
175
     1
 42
1.0
 92
        0
 66
   257
 43
1.0
 76
     1
 77
     6
 78
     2
 67
     7
 79
     5
170
     0
171
     0
290
     0
174
     0
 93
       13
 44
0.0
173
     0
291
     1
 45
0.0
  0
VISUALSTYLE
  5
38
102
{ACAD_REACTORS
330
2A
102
}
330
2A
100
AcDbVisualStyle
  2
Linepattern
 70
    14
 71
     2
 72
     2
 73
     0
 90
        0
 40
-0.6
 41
-30.0
 62
     5
 63
     7
421
 16777215
 74
     1
 91
        4
 64
     7
 65
   257
 75
     7
175
     7
 42
1.0
 92
        8
 66
     7
 43
1.0
 76
     1
 77
     6
 78
     2
 67
     7
 79
     5
170
     0
171
     0
290
     0
174
     0
 93
        1
 44
0.0
173
     0
291
     1
 45
0.0
  0
VISUALSTYLE
  5
33
102
{ACAD_REACTORS
330
2A
102
}
330
2A
100
AcDbVisualStyle
  2
Realistic
 70
     8
 71
     2
 72
     2
 73
     0
 90
        0
 40
-0.6
 41
-30.0
 62
     5
 63
     7
421
 16777215
 74
     1
 91
        0
 64
     7
 65
   257
 75
     1
175
     1
 42
1.0
 92
        8
 66
     8
424
  7895160
 43
1.0
 76
     1
 77
     6
 78
     2
 67
     7
 79
     5
170
     0
171
     0
290
     0
174
     0
 93
       13
 44
0.0
173
     0
291
     0
 45
0.0
  0
VISUALSTYLE
  5
37
102
{ACAD_REACTORS
330
2A
102
}
330
2A
100
AcDbVisualStyle
  2
Thicken
 70
    13
 71
     2
 72
     2
 73
     0
 90
        0
 40
-0.6
 41
-30.0
 62
     5
 63
     7
421
 16777215
 74
     1
 91
        4
 64
     7
 65
   257
 75
     1
175
     1
 42
1.0
 92
       12
 66
     7
 43
1.0
 76
     1
 77
     6
 78
     2
 67
     7
 79
     5
170
     0
171
     0
290
     0
174
     0
 93
        1
 44
0.0
173
     0
291
     1
 45
0.0
  0
ENDSEC
  0
EOF
