  0
SECTION
  2
HEADER
  9
$ACADVER
  1
AC1014
  9
$ACADMAINTVER
 70
     9
  9
$DWGCODEPAGE
  3
ANSI_932
  9
$INSBASE
 10
0.0
 20
0.0
 30
0.0
  9
$EXTMIN
 10
-59.58333333333363
 20
318.6890260931183
 30
0.0
  9
$EXTMAX
 10
442.916666666667
 20
809.2619071887366
 30
0.0
  9
$LIMMIN
 10
0.0
 20
0.0
  9
$LIMMAX
 10
12.0
 20
9.0
  9
$ORTHOMODE
 70
     0
  9
$REGENMODE
 70
     1
  9
$FILLMODE
 70
     1
  9
$QTEXTMODE
 70
     0
  9
$MIRRTEXT
 70
     1
  9
$DRAGMODE
 70
     2
  9
$LTSCALE
 40
1.0
  9
$OSMODE
 70
    37
  9
$ATTMODE
 70
     1
  9
$TEXTSIZE
 40
0.2
  9
$TRACEWID
 40
0.05
  9
$TEXTSTYLE
  7
STANDARD
  9
$CLAYER
  8
0
  9
$CELTYPE
  6
BYLAYER
  9
$CECOLOR
 62
   256
  9
$CELTSCALE
 40
1.0
  9
$DELOBJ
 70
     1
  9
$DISPSILH
 70
     0
  9
$DIMSCALE
 40
1.0
  9
$DIMASZ
 40
3.0
  9
$DIMEXO
 40
0.0625
  9
$DIMDLI
 40
0.38
  9
$DIMRND
 40
0.0
  9
$DIMDLE
 40
0.0
  9
$DIMEXE
 40
1.5
  9
$DIMTP
 40
0.0
  9
$DIMTM
 40
0.0
  9
$DIMTXT
 40
3.0
  9
$DIMCEN
 40
0.09
  9
$DIMTSZ
 40
0.0
  9
$DIMTOL
 70
     0
  9
$DIMLIM
 70
     0
  9
$DIMTIH
 70
     1
  9
$DIMTOH
 70
     1
  9
$DIMSE1
 70
     0
  9
$DIMSE2
 70
     0
  9
$DIMTAD
 70
     1
  9
$DIMZIN
 70
     0
  9
$DIMBLK
  1

  9
$DIMASO
 70
     1
  9
$DIMSHO
 70
     1
  9
$DIMPOST
  1

  9
$DIMAPOST
  1

  9
$DIMALT
 70
     0
  9
$DIMALTD
 70
     2
  9
$DIMALTF
 40
25.4
  9
$DIMLFAC
 40
1.0
  9
$DIMTOFL
 70
     0
  9
$DIMTVP
 40
0.0
  9
$DIMTIX
 70
     0
  9
$DIMSOXD
 70
     0
  9
$DIMSAH
 70
     0
  9
$DIMBLK1
  1

  9
$DIMBLK2
  1

  9
$DIMSTYLE
  2
STANDARD
  9
$DIMCLRD
 70
     0
  9
$DIMCLRE
 70
     0
  9
$DIMCLRT
 70
     0
  9
$DIMTFAC
 40
1.0
  9
$DIMGAP
 40
1.5
  9
$DIMJUST
 70
     0
  9
$DIMSD1
 70
     0
  9
$DIMSD2
 70
     0
  9
$DIMTOLJ
 70
     1
  9
$DIMTZIN
 70
     0
  9
$DIMALTZ
 70
     0
  9
$DIMALTTZ
 70
     0
  9
$DIMFIT
 70
     3
  9
$DIMUPT
 70
     0
  9
$DIMUNIT
 70
     2
  9
$DIMDEC
 70
     2
  9
$DIMTDEC
 70
     4
  9
$DIMALTU
 70
     2
  9
$DIMALTTD
 70
     2
  9
$DIMTXSTY
  7
ＭＳ_ゴシック
  9
$DIMAUNIT
 70
     0
  9
$LUNITS
 70
     2
  9
$LUPREC
 70
     4
  9
$SKETCHINC
 40
0.1
  9
$FILLETRAD
 40
0.5
  9
$AUNITS
 70
     0
  9
$AUPREC
 70
     0
  9
$MENU
  1
.
  9
$ELEVATION
 40
0.0
  9
$PELEVATION
 40
0.0
  9
$THICKNESS
 40
0.0
  9
$LIMCHECK
 70
     0
  9
$CHAMFERA
 40
0.0
  9
$CHAMFERB
 40
0.0
  9
$CHAMFERC
 40
0.0
  9
$CHAMFERD
 40
0.0
  9
$SKPOLY
 70
     0
  9
$TDCREATE
 40
2460060.541111319
  9
$TDUPDATE
 40
2460060.541111597
  9
$TDINDWG
 40
0.0000000116
  9
$TDUSRTIMER
 40
0.0000000116
  9
$USRTIMER
 70
     1
  9
$ANGBASE
 50
0.0
  9
$ANGDIR
 70
     0
  9
$PDMODE
 70
     0
  9
$PDSIZE
 40
0.0
  9
$PLINEWID
 40
0.0
  9
$COORDS
 70
     1
  9
$SPLFRAME
 70
     0
  9
$SPLINETYPE
 70
     6
  9
$SPLINESEGS
 70
     8
  9
$ATTDIA
 70
     0
  9
$ATTREQ
 70
     1
  9
$HANDLING
 70
     1
  9
$HANDSEED
  5
2F4
  9
$SURFTAB1
 70
     6
  9
$SURFTAB2
 70
     6
  9
$SURFTYPE
 70
     6
  9
$SURFU
 70
     6
  9
$SURFV
 70
     6
  9
$UCSNAME
  2

  9
$UCSORG
 10
0.0
 20
0.0
 30
0.0
  9
$UCSXDIR
 10
1.0
 20
0.0
 30
0.0
  9
$UCSYDIR
 10
0.0
 20
1.0
 30
0.0
  9
$PUCSNAME
  2

  9
$PUCSORG
 10
0.0
 20
0.0
 30
0.0
  9
$PUCSXDIR
 10
1.0
 20
0.0
 30
0.0
  9
$PUCSYDIR
 10
0.0
 20
1.0
 30
0.0
  9
$USERI1
 70
     0
  9
$USERI2
 70
     0
  9
$USERI3
 70
     0
  9
$USERI4
 70
     0
  9
$USERI5
 70
     0
  9
$USERR1
 40
0.0
  9
$USERR2
 40
0.0
  9
$USERR3
 40
0.0
  9
$USERR4
 40
0.0
  9
$USERR5
 40
0.0
  9
$WORLDVIEW
 70
     1
  9
$SHADEDGE
 70
     3
  9
$SHADEDIF
 70
    70
  9
$TILEMODE
 70
     1
  9
$MAXACTVP
 70
    64
  9
$PINSBASE
 10
0.0
 20
0.0
 30
0.0
  9
$PLIMCHECK
 70
     0
  9
$PEXTMIN
 10
1.000000000000000E+20
 20
1.000000000000000E+20
 30
1.000000000000000E+20
  9
$PEXTMAX
 10
-1.000000000000000E+20
 20
-1.000000000000000E+20
 30
-1.000000000000000E+20
  9
$PLIMMIN
 10
0.0
 20
0.0
  9
$PLIMMAX
 10
12.0
 20
9.0
  9
$UNITMODE
 70
     0
  9
$VISRETAIN
 70
     1
  9
$PLINEGEN
 70
     0
  9
$PSLTSCALE
 70
     1
  9
$TREEDEPTH
 70
  3020
  9
$PICKSTYLE
 70
     1
  9
$CMLSTYLE
  2
STANDARD
  9
$CMLJUST
 70
     0
  9
$CMLSCALE
 40
1.0
  9
$PROXYGRAPHICS
 70
     1
  9
$MEASUREMENT
 70
     1
  0
ENDSEC
  0
SECTION
  2
CLASSES
  0
CLASS
  1
ACDBDICTIONARYWDFLT
  2
AcDbDictionaryWithDefault
  3
ObjectDBX Classes
 90
        0
280
     0
281
     0
  0
CLASS
  1
VISUALSTYLE
  2
AcDbVisualStyle
  3
ObjectDBX Classes
 90
     4095
280
     0
281
     0
  0
CLASS
  1
MATERIAL
  2
AcDbMaterial
  3
ObjectDBX Classes
 90
     1153
280
     0
281
     0
  0
CLASS
  1
SCALE
  2
AcDbScale
  3
ObjectDBX Classes
 90
     1153
280
     0
281
     0
  0
CLASS
  1
TABLESTYLE
  2
AcDbTableStyle
  3
ObjectDBX Classes
 90
     4095
280
     0
281
     0
  0
CLASS
  1
MLEADERSTYLE
  2
AcDbMLeaderStyle
  3
ACDB_MLEADERSTYLE_CLASS
 90
     4095
280
     0
281
     0
  0
CLASS
  1
SUN
  2
AcDbSun
  3
SCENEOE
 90
     1153
280
     0
281
     0
  0
CLASS
  1
DICTIONARYVAR
  2
AcDbDictionaryVar
  3
ObjectDBX Classes
 90
        0
280
     0
281
     0
  0
CLASS
  1
XRECORD
  2
AcDbXrecord
  3
ObjectDBX Classes
 90
        0
280
     0
281
     0
  0
CLASS
  1
LWPOLYLINE
  2
AcDbPolyline
  3
ObjectDBX Classes
 90
        0
280
     0
281
     1
  0
CLASS
  1
HATCH
  2
AcDbHatch
  3
ObjectDBX Classes
 90
        0
280
     0
281
     1
  0
CLASS
  1
ACDBPLACEHOLDER
  2
AcDbPlaceHolder
  3
ObjectDBX Classes
 90
        0
280
     0
281
     0
  0
CLASS
  1
LAYOUT
  2
AcDbLayout
  3
ObjectDBX Classes
 90
        0
280
     0
281
     0
  0
ENDSEC
  0
SECTION
  2
TABLES
  0
TABLE
  2
VPORT
  5
8
102
{ACAD_XDICTIONARY
360
2E9
102
}
330
0
100
AcDbSymbolTable
 70
     1
  0
VPORT
  5
29
330
8
100
AcDbSymbolTableRecord
100
AcDbViewportTableRecord
  2
*ACTIVE
 70
     0
 10
0.0
 20
0.0
 11
1.0
 21
1.0
 12
191.6666666666667
 22
563.9754666409274
 13
0.0
 23
0.0
 14
0.5
 24
0.5
 15
0.5
 25
0.5
 16
0.0
 26
0.0
 36
1.0
 17
0.0
 27
0.0
 37
0.0
 40
490.5728810956183
 41
1.6
 42
50.0
 43
0.0
 44
0.0
 50
0.0
 51
0.0
 71
     0
 72
   100
 73
     1
 74
     3
 75
     0
 76
     0
 77
     0
 78
     0
  0
ENDTAB
  0
TABLE
  2
LTYPE
  5
5
330
0
100
AcDbSymbolTable
 70
     1
  0
LTYPE
  5
14
330
5
100
AcDbSymbolTableRecord
100
AcDbLinetypeTableRecord
  2
BYBLOCK
 70
     0
  3

 72
    65
 73
     0
 40
0.0
  0
LTYPE
  5
15
330
5
100
AcDbSymbolTableRecord
100
AcDbLinetypeTableRecord
  2
BYLAYER
 70
     0
  3

 72
    65
 73
     0
 40
0.0
  0
LTYPE
  5
16
330
5
100
AcDbSymbolTableRecord
100
AcDbLinetypeTableRecord
  2
CONTINUOUS
 70
     0
  3
Solid line
 72
    65
 73
     0
 40
0.0
  0
ENDTAB
  0
TABLE
  2
LAYER
  5
2
330
0
100
AcDbSymbolTable
 70
     2
  0
LAYER
  5
10
330
2
100
AcDbSymbolTableRecord
100
AcDbLayerTableRecord
  2
0
 70
     0
 62
     7
  6
CONTINUOUS
  0
LAYER
  5
6E
330
2
100
AcDbSymbolTableRecord
100
AcDbLayerTableRecord
  2
1
 70
     0
 62
     7
  6
CONTINUOUS
  0
ENDTAB
  0
TABLE
  2
STYLE
  5
3
330
0
100
AcDbSymbolTable
 70
     2
  0
STYLE
  5
11
330
3
100
AcDbSymbolTableRecord
100
AcDbTextStyleTableRecord
  2
STANDARD
 70
     0
 40
0.0
 41
1.0
 50
0.0
 71
     0
 42
0.2
  3
txt
  4

  0
STYLE
  5
6F
330
3
100
AcDbSymbolTableRecord
100
AcDbTextStyleTableRecord
  2
ＭＳ_ゴシック
 70
     0
 40
0.0
 41
1.0
 50
0.0
 71
     0
 42
0.2
  3
ＭＳ ゴシック.shx
  4

  0
ENDTAB
  0
TABLE
  2
VIEW
  5
6
330
0
100
AcDbSymbolTable
 70
     0
  0
ENDTAB
  0
TABLE
  2
UCS
  5
7
330
0
100
AcDbSymbolTable
 70
     0
  0
ENDTAB
  0
TABLE
  2
APPID
  5
9
330
0
100
AcDbSymbolTable
 70
     2
  0
APPID
  5
12
330
9
100
AcDbSymbolTableRecord
100
AcDbRegAppTableRecord
  2
ACAD
 70
     0
  0
APPID
  5
2F3
330
9
100
AcDbSymbolTableRecord
100
AcDbRegAppTableRecord
  2
ACAD_MLEADERVER
 70
     0
  0
ENDTAB
  0
TABLE
  2
DIMSTYLE
  5
A
330
0
100
AcDbSymbolTable
 70
     1
  0
DIMSTYLE
105
27
330
A
100
AcDbSymbolTableRecord
100
AcDbDimStyleTableRecord
  2
STANDARD
 70
     0
  3

  4

  5

  6

  7

 40
1.0
 41
0.18
 42
0.0625
 43
0.38
 44
0.18
 45
0.0
 46
0.0
 47
0.0
 48
0.0
140
0.18
141
0.09
142
0.0
143
25.4
144
1.0
145
0.0
146
1.0
147
0.09
 71
     0
 72
     0
 73
     1
 74
     1
 75
     0
 76
     0
 77
     0
 78
     0
170
     0
171
     2
172
     0
173
     0
174
     0
175
     0
176
     0
177
     0
178
     0
270
     2
271
     4
272
     4
273
     2
274
     2
340
11
275
     0
280
     0
281
     0
282
     0
283
     1
284
     0
285
     0
286
     0
287
     3
288
     0
  0
ENDTAB
  0
TABLE
  2
BLOCK_RECORD
  5
1
330
0
100
AcDbSymbolTable
 70
     0
  0
BLOCK_RECORD
  5
1F
330
1
100
AcDbSymbolTableRecord
100
AcDbBlockTableRecord
  2
*MODEL_SPACE
  0
BLOCK_RECORD
  5
1B
330
1
100
AcDbSymbolTableRecord
100
AcDbBlockTableRecord
  2
*PAPER_SPACE
  0
ENDTAB
  0
ENDSEC
  0
SECTION
  2
BLOCKS
  0
BLOCK
  5
20
330
1F
100
AcDbEntity
  8
0
100
AcDbBlockBegin
  2
*MODEL_SPACE
 70
     0
 10
0.0
 20
0.0
 30
0.0
  3
*MODEL_SPACE
  1

  0
ENDBLK
  5
21
330
1F
100
AcDbEntity
  8
0
100
AcDbBlockEnd
  0
BLOCK
  5
1C
330
1B
100
AcDbEntity
 67
     1
  8
0
100
AcDbBlockBegin
  2
*PAPER_SPACE
 70
     0
 10
0.0
 20
0.0
 30
0.0
  3
*PAPER_SPACE
  1

  0
ENDBLK
  5
1D
330
1B
100
AcDbEntity
 67
     1
  8
0
100
AcDbBlockEnd
  0
ENDSEC
  0
SECTION
  2
ENTITIES
  0
MTEXT
  5
70
330
1F
100
AcDbEntity
  8
1
 62
     7
100
AcDbMText
 10
209.2012077445708
 20
321.3481170022092
 30
0.0
 40
3.0
 41
0.0
 71
     1
 72
     1
  1
{\fＭＳ ゴシック;AGUG-SEVM}
  0
LINE
  5
71
330
1F
100
AcDbEntity
  8
1
  6
CONTINUOUS
 62
     7
100
AcDbLine
 10
-0.2406713077513778
 20
351.3333333333334
 30
0.0
 11
-0.2406713077513778
 21
341.3333333333334
 31
0.0
  0
LINE
  5
72
330
1F
100
AcDbEntity
  8
1
  6
CONTINUOUS
 62
     7
100
AcDbLine
 10
437.9714448312017
 20
341.3333333333334
 30
0.0
 11
437.9714448312017
 21
351.3333333333334
 31
0.0
  0
LINE
  5
73
330
1F
100
AcDbEntity
  8
1
  6
CONTINUOUS
 62
     7
100
AcDbLine
 10
-0.2406713077513778
 20
351.3333333333334
 30
0.0
 11
437.9714448312017
 21
351.3333333333334
 31
0.0
  0
LINE
  5
74
330
1F
100
AcDbEntity
  8
1
  6
CONTINUOUS
 62
     7
100
AcDbLine
 10
-0.2406713077513778
 20
341.3333333333334
 30
0.0
 11
437.9714448312017
 21
341.3333333333334
 31
0.0
  0
LINE
  5
75
330
1F
100
AcDbEntity
  8
1
  6
CONTINUOUS
 62
     7
100
AcDbLine
 10
442.916666666667
 20
351.3333333333334
 30
0.0
 11
442.916666666667
 21
341.3333333333334
 31
0.0
  0
LINE
  5
76
330
1F
100
AcDbEntity
  8
1
  6
CONTINUOUS
 62
     7
100
AcDbLine
 10
437.9714448312017
 20
351.3333333333334
 30
0.0
 11
442.916666666667
 21
351.3333333333334
 31
0.0
  0
LINE
  5
77
330
1F
100
AcDbEntity
  8
1
  6
CONTINUOUS
 62
     7
100
AcDbLine
 10
442.916666666667
 20
341.3333333333334
 30
0.0
 11
437.9714448312017
 21
341.3333333333334
 31
0.0
  0
LINE
  5
78
330
1F
100
AcDbEntity
  8
1
  6
CONTINUOUS
 62
     7
100
AcDbLine
 10
-59.58333333333307
 20
341.3333333333334
 30
0.0
 11
-59.58333333333307
 21
351.3333333333334
 31
0.0
  0
LINE
  5
79
330
1F
100
AcDbEntity
  8
1
  6
CONTINUOUS
 62
     7
100
AcDbLine
 10
-34.5904588808699
 20
351.3333333333334
 30
0.0
 11
-0.2406713077513778
 21
351.3333333333334
 31
0.0
  0
LINE
  5
7A
330
1F
100
AcDbEntity
  8
1
  6
CONTINUOUS
 62
     7
100
AcDbLine
 10
-0.2406713077513778
 20
341.3333333333334
 30
0.0
 11
-59.58333333333307
 21
341.3333333333334
 31
0.0
  0
LINE
  5
7B
330
1F
100
AcDbEntity
  8
1
  6
CONTINUOUS
 62
     7
100
AcDbLine
 10
-36.08333333333316
 20
339.8333333333334
 30
0.0
 11
-29.58333333333315
 21
339.8333333333334
 31
0.0
  0
LINE
  5
7C
330
1F
100
AcDbEntity
  8
1
  6
CONTINUOUS
 62
     7
100
AcDbLine
 10
-29.58333333333315
 20
339.8333333333334
 30
0.0
 11
-23.08333333333315
 21
339.8333333333334
 31
0.0
  0
ARC
  5
7D
330
1F
100
AcDbEntity
  8
1
  6
CONTINUOUS
 62
     7
100
AcDbCircle
 10
-33.91346035225534
 20
341.5251367564775
 30
0.0
 40
2.557478553344057
100
AcDbArc
 50
235.6411334438057
 51
304.3588665561944
  0
ARC
  5
7E
330
1F
100
AcDbEntity
  8
1
  6
CONTINUOUS
 62
     7
100
AcDbCircle
 10
-25.25320631441097
 20
341.5251367564775
 30
0.0
 40
2.557478553344057
100
AcDbArc
 50
235.6411334438057
 51
304.3588665561944
  0
ARC
  5
7F
330
1F
100
AcDbEntity
  8
1
  6
CONTINUOUS
 62
     7
100
AcDbCircle
 10
-29.58333333333315
 20
348.5207259421638
 30
0.0
 40
9.553418012614806
100
AcDbArc
 50
252.4120462260063
 51
287.5879537739937
  0
ARC
  5
80
330
1F
100
AcDbEntity
  8
1
  6
CONTINUOUS
 62
     7
100
AcDbCircle
 10
-29.58333333333315
 20
345.0436418183086
 30
0.0
 40
9.565384874393635
100
AcDbArc
 50
252.4347665769424
 51
287.5652334230577
  0
LINE
  5
81
330
1F
100
AcDbEntity
  8
1
  6
CONTINUOUS
 62
     7
100
AcDbLine
 10
-32.47008467928128
 20
339.4138899169342
 30
0.0
 11
-32.47008467928128
 21
335.924252888016
 31
0.0
  0
LINE
  5
82
330
1F
100
AcDbEntity
  8
1
  6
CONTINUOUS
 62
     7
100
AcDbLine
 10
-26.69658198738503
 20
339.4138899169342
 30
0.0
 11
-26.69658198738503
 21
335.924252888016
 31
0.0
  0
ARC
  5
83
330
1F
100
AcDbEntity
  8
1
  6
CONTINUOUS
 62
     7
100
AcDbCircle
 10
-33.98652940269316
 20
338.2899543351326
 30
0.0
 40
2.810008529533898
100
AcDbArc
 50
269.3978258834348
 51
302.660388079034
  0
ARC
  5
84
330
1F
100
AcDbEntity
  8
1
  6
CONTINUOUS
 62
     7
100
AcDbCircle
 10
-33.77979989682505
 20
338.4391046808846
 30
0.0
 40
2.968420874873898
100
AcDbArc
 50
237.9086239394865
 51
265.4348978150314
  0
LINE
  5
85
330
1F
100
AcDbEntity
  8
1
  6
CONTINUOUS
 62
     7
100
AcDbLine
 10
-35.35683602522941
 20
339.4138899169342
 30
0.0
 11
-35.35683602522941
 21
335.924252888016
 31
0.0
  0
ARC
  5
86
330
1F
100
AcDbEntity
  8
1
  6
CONTINUOUS
 62
     7
100
AcDbCircle
 10
-25.32627536484879
 20
338.2899543351326
 30
0.0
 40
2.810008529533898
100
AcDbArc
 50
269.3978258834348
 51
302.660388079034
  0
ARC
  5
87
330
1F
100
AcDbEntity
  8
1
  6
CONTINUOUS
 62
     7
100
AcDbCircle
 10
-25.11954585898067
 20
338.4391046808846
 30
0.0
 40
2.968420874873898
100
AcDbArc
 50
237.9086239394865
 51
265.4348978150314
  0
LINE
  5
88
330
1F
100
AcDbEntity
  8
1
  6
CONTINUOUS
 62
     7
100
AcDbLine
 10
-23.80983064143691
 20
339.4138899169342
 30
0.0
 11
-23.80983064143691
 21
335.924252888016
 31
0.0
  0
LINE
  5
89
330
1F
100
AcDbEntity
  8
1
  6
CONTINUOUS
 62
     7
100
AcDbLine
 10
-34.33333333333313
 20
335.3333333333334
 30
0.0
 11
-29.58333333333315
 21
335.3333333333334
 31
0.0
  0
LINE
  5
8A
330
1F
100
AcDbEntity
  8
1
  6
CONTINUOUS
 62
     7
100
AcDbLine
 10
-29.58333333333315
 20
335.3333333333334
 30
0.0
 11
-24.83333333333318
 21
335.3333333333334
 31
0.0
  0
LINE
  5
8B
330
1F
100
AcDbEntity
  8
1
  6
CONTINUOUS
 62
     7
100
AcDbLine
 10
-33.08333333333316
 20
358.4298454327694
 30
0.0
 11
-33.91346035225537
 21
356.3333333333333
 31
0.0
  0
LINE
  5
8C
330
1F
100
AcDbEntity
  8
1
  6
CONTINUOUS
 62
     7
100
AcDbLine
 10
-26.08333333333315
 20
360.8333333333334
 30
0.0
 11
-33.08333333333316
 21
360.8333333333334
 31
0.0
  0
LINE
  5
8D
330
1F
100
AcDbEntity
  8
1
  6
CONTINUOUS
 62
     7
100
AcDbLine
 10
-25.253206314411
 20
356.3333333333333
 30
0.0
 11
-26.08333333333321
 21
358.4298454327694
 31
0.0
  0
LINE
  5
8E
330
1F
100
AcDbEntity
  8
1
  6
CONTINUOUS
 62
     7
100
AcDbLine
 10
-26.83333333333318
 20
334.3333333333334
 30
0.0
 11
-32.33333333333313
 21
334.3333333333334
 31
0.0
  0
LINE
  5
8F
330
1F
100
AcDbEntity
  8
1
  6
CONTINUOUS
 62
     7
100
AcDbLine
 10
-26.08333333333321
 20
360.8333333333334
 30
0.0
 11
-22.98958634207046
 21
369.3333333333334
 31
0.0
  0
LINE
  5
90
330
1F
100
AcDbEntity
  8
1
  6
CONTINUOUS
 62
     7
100
AcDbLine
 10
-22.98958634207046
 20
369.3333333333334
 30
0.0
 11
-17.15729125847701
 21
369.3333333333334
 31
0.0
  0
ARC
  5
91
330
1F
100
AcDbEntity
  8
1
  6
CONTINUOUS
 62
     7
100
AcDbCircle
 10
-31.07421692412218
 20
369.85621875808
 30
0.0
 40
14.99999999999999
100
AcDbArc
 50
295.6406566017986
 51
353.7551496460802
  0
ARC
  5
92
330
1F
100
AcDbEntity
  8
1
  6
CONTINUOUS
 62
     7
100
AcDbCircle
 10
-17.15729125847701
 20
368.3333333333333
 30
0.0
 40
1.000000000000001
100
AcDbArc
 50
353.7551496460802
 51
90.0
  0
LINE
  5
93
330
1F
100
AcDbEntity
  8
1
  6
CONTINUOUS
 62
     7
100
AcDbLine
 10
-26.08333333333321
 20
358.4298454327694
 30
0.0
 11
-26.08333333333321
 21
360.8333333333333
 31
0.0
  0
ARC
  5
94
330
1F
100
AcDbEntity
  8
1
  6
CONTINUOUS
 62
     7
100
AcDbCircle
 10
-42.00937540818936
 20
368.3333333333333
 30
0.0
 40
1.000000000000001
100
AcDbArc
 50
90.0
 51
186.2448503539198
  0
LINE
  5
95
330
1F
100
AcDbEntity
  8
1
  6
CONTINUOUS
 62
     7
100
AcDbLine
 10
-36.17708032459591
 20
369.3333333333334
 30
0.0
 11
-42.00937540818936
 21
369.3333333333334
 31
0.0
  0
LINE
  5
96
330
1F
100
AcDbEntity
  8
1
  6
CONTINUOUS
 62
     7
100
AcDbLine
 10
-33.08333333333316
 20
360.8333333333334
 30
0.0
 11
-36.17708032459591
 21
369.3333333333334
 31
0.0
  0
LINE
  5
97
330
1F
100
AcDbEntity
  8
1
  6
CONTINUOUS
 62
     7
100
AcDbLine
 10
-33.08333333333316
 20
358.4298454327694
 30
0.0
 11
-33.08333333333316
 21
360.8333333333333
 31
0.0
  0
ARC
  5
98
330
1F
100
AcDbEntity
  8
1
  6
CONTINUOUS
 62
     7
100
AcDbCircle
 10
-28.09244974254418
 20
369.85621875808
 30
0.0
 40
14.99999999999999
100
AcDbArc
 50
186.2448503539198
 51
244.3593433982014
  0
LINE
  5
99
330
1F
100
AcDbEntity
  8
1
  6
CONTINUOUS
 62
     7
100
AcDbLine
 10
419.416666666667
 20
339.8333333333334
 30
0.0
 11
412.916666666667
 21
339.8333333333334
 31
0.0
  0
LINE
  5
9A
330
1F
100
AcDbEntity
  8
1
  6
CONTINUOUS
 62
     7
100
AcDbLine
 10
412.9166666666669
 20
339.8333333333334
 30
0.0
 11
406.4166666666669
 21
339.8333333333334
 31
0.0
  0
ARC
  5
9B
330
1F
100
AcDbEntity
  8
1
  6
CONTINUOUS
 62
     7
100
AcDbCircle
 10
408.5865396477448
 20
341.5251367564775
 30
0.0
 40
2.557478553344042
100
AcDbArc
 50
235.6411334438052
 51
304.3588665561938
  0
ARC
  5
9C
330
1F
100
AcDbEntity
  8
1
  6
CONTINUOUS
 62
     7
100
AcDbCircle
 10
417.2467936855891
 20
341.5251367564775
 30
0.0
 40
2.557478553344073
100
AcDbArc
 50
235.6411334438062
 51
304.3588665561948
  0
ARC
  5
9D
330
1F
100
AcDbEntity
  8
1
  6
CONTINUOUS
 62
     7
100
AcDbCircle
 10
412.9166666666669
 20
348.5207259421638
 30
0.0
 40
9.553418012614806
100
AcDbArc
 50
252.4120462260063
 51
287.5879537739937
  0
LINE
  5
9E
330
1F
100
AcDbEntity
  8
1
  6
CONTINUOUS
 62
     7
100
AcDbLine
 10
415.8034180126151
 20
339.4138899169342
 30
0.0
 11
415.8034180126151
 21
335.924252888016
 31
0.0
  0
ARC
  5
9F
330
1F
100
AcDbEntity
  8
1
  6
CONTINUOUS
 62
     7
100
AcDbCircle
 10
412.9166666666669
 20
345.0436418183086
 30
0.0
 40
9.565384874393635
100
AcDbArc
 50
252.4347665769424
 51
287.5652334230576
  0
LINE
  5
A0
330
1F
100
AcDbEntity
  8
1
  6
CONTINUOUS
 62
     7
100
AcDbLine
 10
410.0299153207188
 20
339.4138899169342
 30
0.0
 11
410.0299153207188
 21
335.924252888016
 31
0.0
  0
LINE
  5
A1
330
1F
100
AcDbEntity
  8
1
  6
CONTINUOUS
 62
     7
100
AcDbLine
 10
417.666666666667
 20
335.3333333333334
 30
0.0
 11
412.916666666667
 21
335.3333333333334
 31
0.0
  0
LINE
  5
A2
330
1F
100
AcDbEntity
  8
1
  6
CONTINUOUS
 62
     7
100
AcDbLine
 10
412.9166666666669
 20
335.3333333333334
 30
0.0
 11
408.166666666667
 21
335.3333333333334
 31
0.0
  0
ARC
  5
A3
330
1F
100
AcDbEntity
  8
1
  6
CONTINUOUS
 62
     7
100
AcDbCircle
 10
417.2467936855891
 20
338.0355027299524
 30
0.0
 40
2.557481031876835
100
AcDbArc
 50
235.6411714054624
 51
304.3588285945387
  0
ARC
  5
A4
330
1F
100
AcDbEntity
  8
1
  6
CONTINUOUS
 62
     7
100
AcDbCircle
 10
408.5865396477448
 20
338.0355027299526
 30
0.0
 40
2.557481031877003
100
AcDbArc
 50
235.6411714054634
 51
304.3588285945356
  0
LINE
  5
A5
330
1F
100
AcDbEntity
  8
1
  6
CONTINUOUS
 62
     7
100
AcDbLine
 10
418.6901693585632
 20
339.4138899169342
 30
0.0
 11
418.6901693585632
 21
335.924252888016
 31
0.0
  0
LINE
  5
A6
330
1F
100
AcDbEntity
  8
1
  6
CONTINUOUS
 62
     7
100
AcDbLine
 10
407.1431639747707
 20
339.4138899169342
 30
0.0
 11
407.1431639747707
 21
335.924252888016
 31
0.0
  0
LINE
  5
A7
330
1F
100
AcDbEntity
  8
1
  6
CONTINUOUS
 62
     7
100
AcDbLine
 10
408.5865396477448
 20
356.3333333333333
 30
0.0
 11
409.416666666667
 21
358.4298454327694
 31
0.0
  0
LINE
  5
A8
330
1F
100
AcDbEntity
  8
1
  6
CONTINUOUS
 62
     7
100
AcDbLine
 10
409.416666666667
 20
360.8333333333334
 30
0.0
 11
416.416666666667
 21
360.8333333333334
 31
0.0
  0
LINE
  5
A9
330
1F
100
AcDbEntity
  8
1
  6
CONTINUOUS
 62
     7
100
AcDbLine
 10
416.416666666667
 20
358.4298454327694
 30
0.0
 11
417.2467936855892
 21
356.3333333333333
 31
0.0
  0
LINE
  5
AA
330
1F
100
AcDbEntity
  8
1
  6
CONTINUOUS
 62
     7
100
AcDbLine
 10
410.166666666667
 20
334.3333333333334
 30
0.0
 11
415.666666666667
 21
334.3333333333334
 31
0.0
  0
LINE
  5
AB
330
1F
100
AcDbEntity
  8
1
  6
CONTINUOUS
 62
     7
100
AcDbLine
 10
416.416666666667
 20
358.4298454327694
 30
0.0
 11
416.416666666667
 21
360.8333333333333
 31
0.0
  0
ARC
  5
AC
330
1F
100
AcDbEntity
  8
1
  6
CONTINUOUS
 62
     7
100
AcDbCircle
 10
425.3427087415232
 20
368.3333333333333
 30
0.0
 40
1.000000000000001
100
AcDbArc
 50
353.7551496460803
 51
90.0
  0
LINE
  5
AD
330
1F
100
AcDbEntity
  8
1
  6
CONTINUOUS
 62
     7
100
AcDbLine
 10
416.416666666667
 20
360.8333333333334
 30
0.0
 11
419.5104136579297
 21
369.3333333333334
 31
0.0
  0
LINE
  5
AE
330
1F
100
AcDbEntity
  8
1
  6
CONTINUOUS
 62
     7
100
AcDbLine
 10
419.5104136579297
 20
369.3333333333334
 30
0.0
 11
425.3427087415232
 21
369.3333333333334
 31
0.0
  0
ARC
  5
AF
330
1F
100
AcDbEntity
  8
1
  6
CONTINUOUS
 62
     7
100
AcDbCircle
 10
411.425783075878
 20
369.85621875808
 30
0.0
 40
14.99999999999999
100
AcDbArc
 50
295.6406566017987
 51
353.7551496460802
  0
ARC
  5
B0
330
1F
100
AcDbEntity
  8
1
  6
CONTINUOUS
 62
     7
100
AcDbCircle
 10
414.407550257456
 20
369.85621875808
 30
0.0
 40
14.99999999999999
100
AcDbArc
 50
186.2448503539198
 51
244.3593433982012
  0
ARC
  5
B1
330
1F
100
AcDbEntity
  8
1
  6
CONTINUOUS
 62
     7
100
AcDbCircle
 10
400.4906245918108
 20
368.3333333333333
 30
0.0
 40
1.000000000000001
100
AcDbArc
 50
90.0
 51
186.2448503539196
  0
LINE
  5
B2
330
1F
100
AcDbEntity
  8
1
  6
CONTINUOUS
 62
     7
100
AcDbLine
 10
406.3229196754043
 20
369.3333333333334
 30
0.0
 11
400.4906245918108
 21
369.3333333333334
 31
0.0
  0
LINE
  5
B3
330
1F
100
AcDbEntity
  8
1
  6
CONTINUOUS
 62
     7
100
AcDbLine
 10
409.416666666667
 20
360.8333333333334
 30
0.0
 11
406.3229196754043
 21
369.3333333333334
 31
0.0
  0
LINE
  5
B4
330
1F
100
AcDbEntity
  8
1
  6
CONTINUOUS
 62
     7
100
AcDbLine
 10
409.416666666667
 20
358.4298454327694
 30
0.0
 11
409.416666666667
 21
360.8333333333333
 31
0.0
  0
LINE
  5
B5
330
1F
100
AcDbEntity
  8
1
  6
CONTINUOUS
 62
     7
100
AcDbLine
 10
427.6079178003145
 20
358.4333333333333
 30
0.0
 11
422.916666666667
 21
358.4333333333333
 31
0.0
  0
LINE
  5
B6
330
1F
100
AcDbEntity
  8
1
  6
CONTINUOUS
 62
     7
100
AcDbLine
 10
422.916666666667
 20
358.4333333333333
 30
0.0
 11
421.1478038829484
 21
358.4333333333333
 31
0.0
  0
LINE
  5
B7
330
1F
100
AcDbEntity
  8
1
  6
CONTINUOUS
 62
     7
100
AcDbLine
 10
423.4166666666671
 20
359.6333333333334
 30
0.0
 11
423.4166666666671
 21
360.7590110520601
 31
0.0
  0
LWPOLYLINE
  5
B8
330
1F
100
AcDbEntity
  8
1
  6
CONTINUOUS
 62
     7
100
AcDbPolyline
 90
        3
 70
     0
 43
0.0
 10
-423.4166666666671
 20
360.75901105206
 10
-423.4963176265837
 20
360.8223326358545
 10
-423.6049555970773
 20
360.8361449920747
210
0.0
220
0.0
230
-1.0
  0
ARC
  5
B9
330
1F
100
AcDbEntity
  8
1
  6
CONTINUOUS
 62
     7
100
AcDbCircle
 10
423.5949006329134
 20
358.292248342602
 30
0.0
 40
2.543916520938221
100
AcDbArc
 50
75.85285893854905
 51
89.77353482118076
  0
ARC
  5
BA
330
1F
100
AcDbEntity
  8
1
  6
CONTINUOUS
 62
     7
100
AcDbCircle
 10
422.916666666667
 20
355.2817658935438
 30
0.0
 40
5.629406232142964
100
AcDbArc
 50
67.06459180323037
 51
76.64815634296252
  0
LINE
  5
BB
330
1F
100
AcDbEntity
  8
1
  6
CONTINUOUS
 62
     7
100
AcDbLine
 10
425.1104077635151
 20
360.466138037448
 30
0.0
 11
425.1666666666671
 21
360.466138037448
 31
0.0
  0
LINE
  5
BC
330
1F
100
AcDbEntity
  8
1
  6
CONTINUOUS
 62
     7
100
AcDbLine
 10
423.4166666666671
 20
359.6333333333334
 30
0.0
 11
422.4166666666671
 21
359.6333333333334
 31
0.0
  0
LINE
  5
BD
330
1F
100
AcDbEntity
  8
1
  6
CONTINUOUS
 62
     7
100
AcDbLine
 10
312.6079178003145
 20
358.4333333333333
 30
0.0
 11
307.9166666666671
 21
358.4333333333333
 31
0.0
  0
LINE
  5
BE
330
1F
100
AcDbEntity
  8
1
  6
CONTINUOUS
 62
     7
100
AcDbLine
 10
307.916666666667
 20
358.4333333333333
 30
0.0
 11
303.2254155330197
 21
358.4333333333333
 31
0.0
  0
LINE
  5
BF
330
1F
100
AcDbEntity
  8
1
  6
CONTINUOUS
 62
     7
100
AcDbLine
 10
305.6666666666671
 20
360.466138037448
 30
0.0
 11
305.722925569819
 21
360.466138037448
 31
0.0
  0
LINE
  5
C0
330
1F
100
AcDbEntity
  8
1
  6
CONTINUOUS
 62
     7
100
AcDbLine
 10
308.4166666666671
 20
359.6333333333334
 30
0.0
 11
308.4166666666671
 21
360.7590110520601
 31
0.0
  0
LWPOLYLINE
  5
C1
330
1F
100
AcDbEntity
  8
1
  6
CONTINUOUS
 62
     7
100
AcDbPolyline
 90
        3
 70
     0
 43
0.0
 10
-308.4166666666671
 20
360.75901105206
 10
-308.4963176265837
 20
360.8223326358545
 10
-308.6049555970773
 20
360.8361449920747
210
0.0
220
0.0
230
-1.0
  0
ARC
  5
C2
330
1F
100
AcDbEntity
  8
1
  6
CONTINUOUS
 62
     7
100
AcDbCircle
 10
308.5949006329135
 20
358.2922483426032
 30
0.0
 40
2.543916520937166
100
AcDbArc
 50
75.85285893854689
 51
89.7735348211844
  0
ARC
  5
C3
330
1F
100
AcDbEntity
  8
1
  6
CONTINUOUS
 62
     7
100
AcDbCircle
 10
307.916666666667
 20
355.2817658935438
 30
0.0
 40
5.629406232142964
100
AcDbArc
 50
67.06459180323043
 51
76.64815634296252
  0
LINE
  5
C4
330
1F
100
AcDbEntity
  8
1
  6
CONTINUOUS
 62
     7
100
AcDbLine
 10
310.1104077635152
 20
360.466138037448
 30
0.0
 11
310.1666666666671
 21
360.466138037448
 31
0.0
  0
ARC
  5
C5
330
1F
100
AcDbEntity
  8
1
  6
CONTINUOUS
 62
     7
100
AcDbCircle
 10
307.916666666667
 20
355.2817658935438
 30
0.0
 40
5.629406232142969
100
AcDbArc
 50
103.3518436570375
 51
112.9354081967696
  0
ARC
  5
C6
330
1F
100
AcDbEntity
  8
1
  6
CONTINUOUS
 62
     7
100
AcDbCircle
 10
307.2438624607819
 20
358.256557063241
 30
0.0
 40
2.579854749847813
100
AcDbArc
 50
90.4457859596817
 51
104.0703353449774
  0
LWPOLYLINE
  5
C7
330
1F
100
AcDbEntity
  8
1
  6
CONTINUOUS
 62
     7
100
AcDbPolyline
 90
        4
 70
     0
 43
0.0
 10
-307.223790276895
 20
360.8363337275563
 10
-307.330847649065
 20
360.8238158336866
 10
-307.4158749141831
 20
360.7672072852989
 10
-307.4166666666671
 20
360.75901105206
210
0.0
220
0.0
230
-1.0
  0
LINE
  5
C8
330
1F
100
AcDbEntity
  8
1
  6
CONTINUOUS
 62
     7
100
AcDbLine
 10
307.4166666666671
 20
360.75901105206
 30
0.0
 11
307.4166666666671
 21
359.6333333333333
 31
0.0
  0
LINE
  5
C9
330
1F
100
AcDbEntity
  8
1
  6
CONTINUOUS
 62
     7
100
AcDbLine
 10
308.4166666666671
 20
359.6333333333334
 30
0.0
 11
307.4166666666671
 21
359.6333333333334
 31
0.0
  0
LINE
  5
CA
330
1F
100
AcDbEntity
  8
1
  6
CONTINUOUS
 62
     7
100
AcDbLine
 10
197.6079178003145
 20
358.4333333333333
 30
0.0
 11
192.9166666666671
 21
358.4333333333333
 31
0.0
  0
LINE
  5
CB
330
1F
100
AcDbEntity
  8
1
  6
CONTINUOUS
 62
     7
100
AcDbLine
 10
192.9166666666671
 20
358.4333333333333
 30
0.0
 11
188.2254155330197
 21
358.4333333333333
 31
0.0
  0
LINE
  5
CC
330
1F
100
AcDbEntity
  8
1
  6
CONTINUOUS
 62
     7
100
AcDbLine
 10
190.6666666666671
 20
360.466138037448
 30
0.0
 11
190.722925569819
 21
360.466138037448
 31
0.0
  0
LINE
  5
CD
330
1F
100
AcDbEntity
  8
1
  6
CONTINUOUS
 62
     7
100
AcDbLine
 10
193.4166666666671
 20
359.6333333333334
 30
0.0
 11
193.4166666666671
 21
360.7590110520601
 31
0.0
  0
LWPOLYLINE
  5
CE
330
1F
100
AcDbEntity
  8
1
  6
CONTINUOUS
 62
     7
100
AcDbPolyline
 90
        3
 70
     0
 43
0.0
 10
-193.4166666666671
 20
360.75901105206
 10
-193.4963176265836
 20
360.8223326358545
 10
-193.6049555970773
 20
360.8361449920747
210
0.0
220
0.0
230
-1.0
  0
ARC
  5
CF
330
1F
100
AcDbEntity
  8
1
  6
CONTINUOUS
 62
     7
100
AcDbCircle
 10
193.5949006329135
 20
358.292248342603
 30
0.0
 40
2.543916520937222
100
AcDbArc
 50
75.85285893854717
 51
89.77353482118315
  0
ARC
  5
D0
330
1F
100
AcDbEntity
  8
1
  6
CONTINUOUS
 62
     7
100
AcDbCircle
 10
192.9166666666671
 20
355.2817658935438
 30
0.0
 40
5.629406232142957
100
AcDbArc
 50
67.06459180323043
 51
76.64815634296252
  0
LINE
  5
D1
330
1F
100
AcDbEntity
  8
1
  6
CONTINUOUS
 62
     7
100
AcDbLine
 10
195.1104077635151
 20
360.466138037448
 30
0.0
 11
195.1666666666671
 21
360.466138037448
 31
0.0
  0
ARC
  5
D2
330
1F
100
AcDbEntity
  8
1
  6
CONTINUOUS
 62
     7
100
AcDbCircle
 10
192.9166666666671
 20
355.2817658935438
 30
0.0
 40
5.629406232142958
100
AcDbArc
 50
103.3518436570375
 51
112.9354081967696
  0
ARC
  5
D3
330
1F
100
AcDbEntity
  8
1
  6
CONTINUOUS
 62
     7
100
AcDbCircle
 10
192.243862460782
 20
358.256557063241
 30
0.0
 40
2.57985474984782
100
AcDbArc
 50
90.44578595968363
 51
104.0703353449781
  0
LWPOLYLINE
  5
D4
330
1F
100
AcDbEntity
  8
1
  6
CONTINUOUS
 62
     7
100
AcDbPolyline
 90
        4
 70
     0
 43
0.0
 10
-192.223790276895
 20
360.8363337275563
 10
-192.330847649065
 20
360.8238158336866
 10
-192.415874914183
 20
360.7672072852989
 10
-192.416666666667
 20
360.75901105206
210
0.0
220
0.0
230
-1.0
  0
LINE
  5
D5
330
1F
100
AcDbEntity
  8
1
  6
CONTINUOUS
 62
     7
100
AcDbLine
 10
192.416666666667
 20
360.75901105206
 30
0.0
 11
192.416666666667
 21
359.6333333333333
 31
0.0
  0
LINE
  5
D6
330
1F
100
AcDbEntity
  8
1
  6
CONTINUOUS
 62
     7
100
AcDbLine
 10
193.4166666666671
 20
359.6333333333334
 30
0.0
 11
192.4166666666671
 21
359.6333333333334
 31
0.0
  0
LINE
  5
D7
330
1F
100
AcDbEntity
  8
1
  6
CONTINUOUS
 62
     7
100
AcDbLine
 10
82.60791780031448
 20
358.4333333333333
 30
0.0
 11
77.91666666666706
 21
358.4333333333333
 31
0.0
  0
LINE
  5
D8
330
1F
100
AcDbEntity
  8
1
  6
CONTINUOUS
 62
     7
100
AcDbLine
 10
77.91666666666706
 20
358.4333333333333
 30
0.0
 11
73.22541553301961
 21
358.4333333333333
 31
0.0
  0
LINE
  5
D9
330
1F
100
AcDbEntity
  8
1
  6
CONTINUOUS
 62
     7
100
AcDbLine
 10
75.66666666666701
 20
360.466138037448
 30
0.0
 11
75.722925569819
 21
360.466138037448
 31
0.0
  0
LINE
  5
DA
330
1F
100
AcDbEntity
  8
1
  6
CONTINUOUS
 62
     7
100
AcDbLine
 10
78.41666666666706
 20
359.6333333333334
 30
0.0
 11
78.41666666666706
 21
360.7590110520601
 31
0.0
  0
LWPOLYLINE
  5
DB
330
1F
100
AcDbEntity
  8
1
  6
CONTINUOUS
 62
     7
100
AcDbPolyline
 90
        3
 70
     0
 43
0.0
 10
-78.41666666666706
 20
360.75901105206
 10
-78.49631762658363
 20
360.8223326358545
 10
-78.60495559707728
 20
360.8361449920747
210
0.0
220
0.0
230
-1.0
  0
ARC
  5
DC
330
1F
100
AcDbEntity
  8
1
  6
CONTINUOUS
 62
     7
100
AcDbCircle
 10
78.59490063291335
 20
358.292248342602
 30
0.0
 40
2.543916520938221
100
AcDbArc
 50
75.85285893854962
 51
89.77353482118133
  0
ARC
  5
DD
330
1F
100
AcDbEntity
  8
1
  6
CONTINUOUS
 62
     7
100
AcDbCircle
 10
77.91666666666706
 20
355.2817658935438
 30
0.0
 40
5.629406232142964
100
AcDbArc
 50
67.06459180323014
 51
76.64815634296224
  0
LINE
  5
DE
330
1F
100
AcDbEntity
  8
1
  6
CONTINUOUS
 62
     7
100
AcDbLine
 10
80.1104077635151
 20
360.466138037448
 30
0.0
 11
80.16666666666708
 21
360.466138037448
 31
0.0
  0
ARC
  5
DF
330
1F
100
AcDbEntity
  8
1
  6
CONTINUOUS
 62
     7
100
AcDbCircle
 10
77.91666666666706
 20
355.2817658935438
 30
0.0
 40
5.629406232142969
100
AcDbArc
 50
103.3518436570378
 51
112.9354081967698
  0
ARC
  5
E0
330
1F
100
AcDbEntity
  8
1
  6
CONTINUOUS
 62
     7
100
AcDbCircle
 10
77.24386246078197
 20
358.256557063241
 30
0.0
 40
2.57985474984782
100
AcDbArc
 50
90.4457859596824
 51
104.0703353449781
  0
LWPOLYLINE
  5
E1
330
1F
100
AcDbEntity
  8
1
  6
CONTINUOUS
 62
     7
100
AcDbPolyline
 90
        4
 70
     0
 43
0.0
 10
-77.22379027689499
 20
360.8363337275563
 10
-77.33084764906498
 20
360.8238158336866
 10
-77.41587491418304
 20
360.7672072852989
 10
-77.41666666666706
 20
360.75901105206
210
0.0
220
0.0
230
-1.0
  0
LINE
  5
E2
330
1F
100
AcDbEntity
  8
1
  6
CONTINUOUS
 62
     7
100
AcDbLine
 10
77.41666666666706
 20
360.75901105206
 30
0.0
 11
77.41666666666706
 21
359.6333333333333
 31
0.0
  0
LINE
  5
E3
330
1F
100
AcDbEntity
  8
1
  6
CONTINUOUS
 62
     7
100
AcDbLine
 10
78.41666666666706
 20
359.6333333333334
 30
0.0
 11
77.41666666666706
 21
359.6333333333334
 31
0.0
  0
LINE
  5
E4
330
1F
100
AcDbEntity
  8
1
  6
CONTINUOUS
 62
     7
100
AcDbLine
 10
-37.81447054961465
 20
358.4333333333333
 30
0.0
 11
-41.77458446698037
 21
358.4333333333333
 31
0.0
  0
LINE
  5
E5
330
1F
100
AcDbEntity
  8
1
  6
CONTINUOUS
 62
     7
100
AcDbLine
 10
-42.16911977095991
 20
351.3333333333334
 30
0.0
 11
-34.5904588808699
 21
351.3333333333334
 31
0.0
  0
LINE
  5
E6
330
1F
100
AcDbEntity
  8
1
  6
CONTINUOUS
 62
     7
100
AcDbLine
 10
-42.16911977096002
 20
356.3333333333333
 30
0.0
 11
441.916666666667
 21
356.3333333333333
 31
0.0
  0
LINE
  5
E7
330
1F
100
AcDbEntity
  8
1
  6
CONTINUOUS
 62
     7
100
AcDbLine
 10
442.916666666667
 20
355.3333333333334
 30
0.0
 11
442.916666666667
 21
351.3333333333334
 31
0.0
  0
ARC
  5
E8
330
1F
100
AcDbEntity
  8
1
  6
CONTINUOUS
 62
     7
100
AcDbCircle
 10
441.916666666667
 20
355.3333333333334
 30
0.0
 40
1.000000000000001
100
AcDbArc
 50
0.0
 51
90.00000000000006
  0
LINE
  5
E9
330
1F
100
AcDbEntity
  8
1
  6
CONTINUOUS
 62
     7
100
AcDbLine
 10
-42.16911977095991
 20
351.3333333333334
 30
0.0
 11
-42.87622655214648
 21
351.3333333333334
 31
0.0
  0
LINE
  5
EA
330
1F
100
AcDbEntity
  8
1
  6
CONTINUOUS
 62
     7
100
AcDbLine
 10
-58.58333333333307
 20
356.3333333333333
 30
0.0
 11
-42.16911977096002
 21
356.3333333333333
 31
0.0
  0
LINE
  5
EB
330
1F
100
AcDbEntity
  8
1
  6
CONTINUOUS
 62
     7
100
AcDbLine
 10
-42.87622655214648
 20
351.3333333333334
 30
0.0
 11
-59.29044011451964
 21
351.3333333333334
 31
0.0
  0
LINE
  5
EC
330
1F
100
AcDbEntity
  8
1
  6
CONTINUOUS
 62
     7
100
AcDbLine
 10
-59.58333333333307
 20
351.3333333333334
 30
0.0
 11
-59.58333333333307
 21
355.3333333333334
 31
0.0
  0
LINE
  5
ED
330
1F
100
AcDbEntity
  8
1
  6
CONTINUOUS
 62
     7
100
AcDbLine
 10
-59.29044011451964
 20
351.3333333333334
 30
0.0
 11
-59.58333333333307
 21
351.3333333333334
 31
0.0
  0
ARC
  5
EE
330
1F
100
AcDbEntity
  8
1
  6
CONTINUOUS
 62
     7
100
AcDbCircle
 10
-58.58333333333307
 20
355.3333333333334
 30
0.0
 40
1.000000000000001
100
AcDbArc
 50
90.0
 51
180.0
  0
ARC
  5
EF
330
1F
100
AcDbEntity
  8
1
  6
CONTINUOUS
 62
     7
100
AcDbCircle
 10
381.0651376542671
 20
359.3333333333334
 30
0.0
 40
3.000000000000003
100
AcDbArc
 50
180.5000000000005
 51
270.0
  0
ARC
  5
F0
330
1F
100
AcDbEntity
  8
1
  6
CONTINUOUS
 62
     7
100
AcDbCircle
 10
364.7681956790669
 20
359.3333333333334
 30
0.0
 40
3.000000000000004
100
AcDbArc
 50
270.0
 51
359.4999999999995
  0
LINE
  5
F1
330
1F
100
AcDbEntity
  8
1
  6
CONTINUOUS
 62
     7
100
AcDbLine
 10
371.0825533100129
 20
357.324606797835
 30
0.0
 11
371.0652518850745
 21
359.3071537268382
 31
0.0
  0
LWPOLYLINE
  5
F2
330
1F
100
AcDbEntity
  8
1
  6
CONTINUOUS
 62
     7
100
AcDbPolyline
 90
       27
 70
     0
 43
0.0
 10
-372.0825152330771
 20
356.3333333333333
 10
-372.077038017707
 20
356.3333483333894
 10
-371.9950403094029
 20
356.33716661148
 10
-371.9214200531212
 20
356.346394458329
 10
-371.84825874092
 20
356.3611585054877
 10
-371.7756182423584
 20
356.3815905965143
 10
-371.7039998141878
 20
356.4077383475739
 10
-371.6325827639993
 20
356.4402707525085
 10
-371.5628971643036
 20
356.4789346777843
 10
-371.4950896752299
 20
356.5240551277774
 10
-371.4298765713336
 20
356.5756640273709
 10
-371.3873664925403
 20
356.6144674010971
 10
-371.3464888192319
 20
356.6563805150932
 10
-371.3073490926992
 20
356.7015758998104
 10
-371.2702733168047
 20
356.7500126072743
 10
-371.2350079677986
 20
356.8025495399673
 10
-371.2024162013931
 20
356.8585431750225
 10
-371.1727194857031
 20
356.9182770744237
 10
-371.1464208919473
 20
356.9815842970809
 10
-371.1328535714382
 20
357.0200558923789
 10
-371.120686700054
 20
357.0596805002351
 10
-371.1099728320769
 20
357.1006076374143
 10
-371.1008613160391
 20
357.1426619218319
 10
-371.0933654959323
 20
357.1864229414762
 10
-371.0877365580923
 20
357.231277526073
 10
-371.0840784997378
 20
357.2774425799034
 10
-371.0825533100129
 20
357.324606797835
210
0.0
220
0.0
230
-1.0
  0
LINE
  5
F3
330
1F
100
AcDbEntity
  8
1
  6
CONTINUOUS
 62
     7
100
AcDbLine
 10
374.7680814482594
 20
359.3071537268382
 30
0.0
 11
374.7507800233209
 21
357.324606797835
 31
0.0
  0
LWPOLYLINE
  5
F4
330
1F
100
AcDbEntity
  8
1
  6
CONTINUOUS
 62
     7
100
AcDbPolyline
 90
       26
 70
     0
 43
0.0
 10
-374.7507800233209
 20
357.324606797835
 10
-374.7493186096865
 20
357.2785935226666
 10
-374.7458252155948
 20
357.2335293232602
 10
-374.7380851859808
 20
357.1742645702249
 10
-374.7271157459365
 20
357.1169038931952
 10
-374.7131866480022
 20
357.0615856961578
 10
-374.7007844521219
 20
357.0209810338768
 10
-374.6869124413867
 20
356.9815842970809
 10
-374.6615926875596
 20
356.9204294085235
 10
-374.6328801129277
 20
356.8621994673111
 10
-374.6012246912666
 20
356.8072072743253
 10
-374.5664274707782
 20
356.7547299397152
 10
-374.5291943310517
 20
356.7055352421179
 10
-374.4892593734426
 20
356.6590151956768
 10
-374.4473237225184
 20
356.6157819984743
 10
-374.4034567620002
 20
356.5756640273709
 10
-374.3406279260534
 20
356.5257911552437
 10
-374.2749180246402
 20
356.4816761021236
 10
-374.2070318171299
 20
356.4434630930529
 10
-374.1363399273106
 20
356.4106343947902
 10
-374.0641416046032
 20
356.3836868824769
 10
-373.9897604698228
 20
356.3622995026096
 10
-373.914476135775
 20
356.3468162035225
 10
-373.838293023931
 20
356.33716661148
 10
-373.756295315627
 20
356.3333483333894
 10
-373.7508181002568
 20
356.3333333333333
210
0.0
220
0.0
230
-1.0
  0
ARC
  5
F5
330
1F
100
AcDbEntity
  8
1
  6
CONTINUOUS
 62
     7
100
AcDbCircle
 10
18.56513765426707
 20
359.3333333333334
 30
0.0
 40
3.000000000000003
100
AcDbArc
 50
180.5000000000005
 51
270.0
  0
ARC
  5
F6
330
1F
100
AcDbEntity
  8
1
  6
CONTINUOUS
 62
     7
100
AcDbCircle
 10
2.268195679066803
 20
359.3333333333334
 30
0.0
 40
3.000000000000004
100
AcDbArc
 50
270.0
 51
359.4999999999995
  0
LWPOLYLINE
  5
F7
330
1F
100
AcDbEntity
  8
1
  6
CONTINUOUS
 62
     7
100
AcDbPolyline
 90
       27
 70
     0
 43
0.0
 10
-12.25078002332094
 20
357.324606797835
 10
-12.24931860968645
 20
357.2785935226666
 10
-12.24582521559478
 20
357.2335293232602
 10
-12.24037999376334
 20
357.189225291163
 10
-12.2331112113154
 20
357.1459827422835
 10
-12.22397814040568
 20
357.1032040148421
 10
-12.21318664800211
 20
357.0615856961578
 10
-12.20078445212178
 20
357.0209810338768
 10
-12.18691244138667
 20
356.9815842970809
 10
-12.16159268755954
 20
356.9204294085235
 10
-12.13296771352032
 20
356.8623640563952
 10
-12.10122469126643
 20
356.8072072743253
 10
-12.06676375151919
 20
356.7552047194541
 10
-12.02919433105157
 20
356.7055352421179
 10
-11.98934330222198
 20
356.6591074616385
 10
-11.94732372251842
 20
356.6157819984743
 10
-11.90345676200025
 20
356.5756640273709
 10
-11.84062792605331
 20
356.5257911552437
 10
-11.77510489205838
 20
356.4817915786655
 10
-11.70703181712982
 20
356.4434630930528
 10
-11.6370233773633
 20
356.4109204735273
 10
-11.56414160460309
 20
356.3836868824769
 10
-11.48993519468031
 20
356.3623425943691
 10
-11.41447613577481
 20
356.3468162035225
 10
-11.33829302393094
 20
356.33716661148
 10
-11.25629531562702
 20
356.3333483333894
 10
-11.25081810025677
 20
356.3333333333333
210
0.0
220
0.0
230
-1.0
  0
LINE
  5
F8
330
1F
100
AcDbEntity
  8
1
  6
CONTINUOUS
 62
     7
100
AcDbLine
 10
12.26808144825933
 20
359.3071537268382
 30
0.0
 11
12.25078002332094
 21
357.324606797835
 31
0.0
  0
LINE
  5
F9
330
1F
100
AcDbEntity
  8
1
  6
CONTINUOUS
 62
     7
100
AcDbLine
 10
8.582553310012925
 20
357.324606797835
 30
0.0
 11
8.565251885074538
 21
359.3071537268382
 31
0.0
  0
LWPOLYLINE
  5
FA
330
1F
100
AcDbEntity
  8
1
  6
CONTINUOUS
 62
     7
100
AcDbPolyline
 90
       25
 70
     0
 43
0.0
 10
-9.5825152330771
 20
356.3333333333333
 10
-9.577038017706846
 20
356.3333483333894
 10
-9.49504030940293
 20
356.33716661148
 10
-9.421368216687458
 20
356.3464028898822
 10
-9.348258740920018
 20
356.3611585054877
 10
-9.275562958563604
 20
356.3816082983551
 10
-9.203999814187764
 20
356.4077383475739
 10
-9.132519645621034
 20
356.4403022201259
 10
-9.062897164303669
 20
356.4789346777843
 10
-8.99501839724895
 20
356.5241061702628
 10
-8.929876571333622
 20
356.5756640273709
 10
-8.887341932812681
 20
356.6144908991305
 10
-8.846488819231862
 20
356.6563805150932
 10
-8.807322178250281
 20
356.7016085544216
 10
-8.77027331680466
 20
356.7500126072744
 10
-8.734977655071614
 20
356.8025974064798
 10
-8.702416201393087
 20
356.8585431750225
 10
-8.672687635079084
 20
356.9183462764269
 10
-8.646420891947198
 20
356.9815842970809
 10
-8.628606679147415
 20
357.0332361391094
 10
-8.613340561971079
 20
357.0869583824855
 10
-8.600861316039127
 20
357.1426619218319
 10
-8.591255854351193
 20
357.2014172316752
 10
-8.585054451397372
 20
357.262133246034
 10
-8.582553310012925
 20
357.324606797835
210
0.0
220
0.0
230
-1.0
  0
LINE
  5
FB
330
1F
100
AcDbEntity
  8
1
  6
CONTINUOUS
 62
     7
100
AcDbLine
 10
371.0291259287665
 20
363.4467782948122
 30
0.0
 11
371.0652518850745
 21
359.3071537268382
 31
0.0
  0
LINE
  5
FC
330
1F
100
AcDbEntity
  8
1
  6
CONTINUOUS
 62
     7
100
AcDbLine
 10
367.7680814482594
 20
359.3071537268382
 30
0.0
 11
367.8042074045674
 21
363.4467782948122
 31
0.0
  0
LINE
  5
FD
330
1F
100
AcDbEntity
  8
1
  6
CONTINUOUS
 62
     7
100
AcDbLine
 10
367.8426618080355
 20
363.4498474895185
 30
0.0
 11
367.8042074045674
 21
363.4467782948122
 31
0.0
  0
LINE
  5
FE
330
1F
100
AcDbEntity
  8
1
  6
CONTINUOUS
 62
     7
100
AcDbLine
 10
378.0291259287665
 20
363.4467782948122
 30
0.0
 11
378.0652518850745
 21
359.3071537268382
 31
0.0
  0
LINE
  5
FF
330
1F
100
AcDbEntity
  8
1
  6
CONTINUOUS
 62
     7
100
AcDbLine
 10
374.8042074045674
 20
363.4467782948122
 30
0.0
 11
374.7680814482594
 21
359.3071537268382
 31
0.0
  0
LINE
  5
100
330
1F
100
AcDbEntity
  8
1
  6
CONTINUOUS
 62
     7
100
AcDbLine
 10
8.529125928766396
 20
363.4467782948122
 30
0.0
 11
8.565251885074481
 21
359.3071537268382
 31
0.0
  0
LINE
  5
101
330
1F
100
AcDbEntity
  8
1
  6
CONTINUOUS
 62
     7
100
AcDbLine
 10
12.30420740456747
 20
363.4467782948122
 30
0.0
 11
12.26808144825939
 21
359.3071537268382
 31
0.0
  0
LINE
  5
102
330
1F
100
AcDbEntity
  8
1
  6
CONTINUOUS
 62
     7
100
AcDbLine
 10
5.268081448259326
 20
359.3071537268382
 30
0.0
 11
5.304207404567412
 21
363.4467782948122
 31
0.0
  0
LINE
  5
103
330
1F
100
AcDbEntity
  8
1
  6
CONTINUOUS
 62
     7
100
AcDbLine
 10
15.52912592876646
 20
363.4467782948122
 30
0.0
 11
15.56525188507454
 21
359.3071537268382
 31
0.0
  0
LWPOLYLINE
  5
104
330
1F
100
AcDbEntity
  8
1
  6
CONTINUOUS
 62
     7
100
AcDbPolyline
 90
       35
 70
     0
 43
0.0
 10
-373.8932838018915
 20
373.6495592378672
 10
-373.9280638698168
 20
373.6490895318895
 10
-373.9628097641079
 20
373.6476853872487
 10
-373.9974214358687
 20
373.6453542638822
 10
-374.0317988362034
 20
373.642103621728
 10
-374.0669991747948
 20
373.6377876367083
 10
-374.1018829442997
 20
373.6325098721435
 10
-374.1363534183345
 20
373.6262945426986
 10
-374.1703138705155
 20
373.6191658630384
 10
-374.2026828270505
 20
373.6114049804393
 10
-374.2345296459063
 20
373.6028182470176
 10
-374.265786694793
 20
373.5934371214766
 10
-374.2963863414199
 20
373.5832930625193
 10
-374.3371570126219
 20
373.5682096157357
 10
-374.3766279857506
 20
373.5517895815872
 10
-374.4146817821616
 20
373.5341230836354
 10
-374.4529496054978
 20
373.5143499679444
 10
-374.4896537458347
 20
373.4933033823365
 10
-374.5247383281034
 20
373.4710804782823
 10
-374.558147477235
 20
373.4477784072524
 10
-374.5898253181606
 20
373.4234943207177
 10
-374.6197159758113
 20
373.3983253701487
 10
-374.6506980733324
 20
373.3695439705977
 10
-374.6796465553205
 20
373.3397557291692
 10
-374.7065566581321
 20
373.3090633835018
 10
-374.7314236181237
 20
373.2775696712341
 10
-374.7622922800087
 20
373.2331460003084
 10
-374.7895208643666
 20
373.1874151405922
 10
-374.8131596467255
 20
373.1405839580625
 10
-374.8362107579093
 20
373.0850082073222
 10
-374.8547438528936
 20
373.0281373260493
 10
-374.8688623278791
 20
372.9701980836639
 10
-374.878669579066
 20
372.9114172495868
 10
-374.8842690026549
 20
372.8520215932383
 10
-374.8857639948465
 20
372.7922378840391
210
0.0
220
0.0
230
-1.0
  0
LINE
  5
105
330
1F
100
AcDbEntity
  8
1
  6
CONTINUOUS
 62
     7
100
AcDbLine
 10
373.8932838018915
 20
373.6495592378672
 30
0.0
 11
371.9400495314425
 21
373.6495592378672
 31
0.0
  0
LWPOLYLINE
  5
106
330
1F
100
AcDbEntity
  8
1
  6
CONTINUOUS
 62
     7
100
AcDbPolyline
 90
        9
 70
     0
 43
0.0
 10
-370.9475693384874
 20
372.7922378840391
 10
-370.9541126599507
 20
372.9071180651171
 10
-370.9762502238942
 20
373.0197439858339
 10
-371.0147203352467
 20
373.128506019189
 10
-371.0616180816635
 20
373.2181300009256
 10
-371.1405279490378
 20
373.3251436252429
 10
-371.2328622945485
 20
373.4148035398687
 10
-371.337484956797
 20
373.4895689134276
 10
-371.437676029298
 20
373.5431921105862
210
0.0
220
0.0
230
-1.0
  0
ARC
  5
107
330
1F
100
AcDbEntity
  8
1
  6
CONTINUOUS
 62
     7
100
AcDbCircle
 10
371.9312921283178
 20
372.4513783083635
 30
0.0
 40
1.198212932635742
100
AcDbArc
 50
89.58123744776593
 51
114.3280342484344
  0
LINE
  5
108
330
1F
100
AcDbEntity
  8
1
  6
CONTINUOUS
 62
     7
100
AcDbLine
 10
369.899289087857
 20
376.3333333333334
 30
0.0
 11
369.8992793755275
 21
376.3320180610291
 31
0.0
  0
LINE
  5
109
330
1F
100
AcDbEntity
  8
1
  6
CONTINUOUS
 62
     7
100
AcDbLine
 10
369.899289087857
 20
376.3333333333334
 30
0.0
 11
370.916666666667
 21
376.3333333333334
 31
0.0
  0
LINE
  5
10A
330
1F
100
AcDbEntity
  8
1
  6
CONTINUOUS
 62
     7
100
AcDbLine
 10
370.916666666667
 20
376.3333333333334
 30
0.0
 11
370.9218427040506
 21
375.7402181965308
 31
0.0
  0
ARC
  5
10B
330
1F
100
AcDbEntity
  8
1
  6
CONTINUOUS
 62
     7
100
AcDbCircle
 10
371.8938956169076
 20
377.3903790490098
 30
0.0
 40
2.007481977689643
100
AcDbArc
 50
247.619116547784
 51
270.8855294853888
  0
LWPOLYLINE
  5
10C
330
1F
100
AcDbEntity
  8
1
  6
CONTINUOUS
 62
     7
100
AcDbPolyline
 90
        4
 70
     0
 43
0.0
 10
-371.1295229981666
 20
375.5341144152715
 10
-371.0396901863285
 20
375.5843184703635
 10
-370.9601324715032
 20
375.6522906565758
 10
-370.9218427040506
 20
375.7402181965309
210
0.0
220
0.0
230
-1.0
  0
LINE
  5
10D
330
1F
100
AcDbEntity
  8
1
  6
CONTINUOUS
 62
     7
100
AcDbLine
 10
371.9249208289935
 20
375.383136829704
 30
0.0
 11
373.9084125043404
 21
375.383136829704
 31
0.0
  0
LWPOLYLINE
  5
10E
330
1F
100
AcDbEntity
  8
1
  6
CONTINUOUS
 62
     7
100
AcDbPolyline
 90
        4
 70
     0
 43
0.0
 10
-374.9114906292834
 20
375.7402181965309
 10
-374.8634486404912
 20
375.641433996465
 10
-374.7742486096861
 20
375.5719831777717
 10
-374.6696758909374
 20
375.5186249896526
210
0.0
220
0.0
230
-1.0
  0
ARC
  5
10F
330
1F
100
AcDbEntity
  8
1
  6
CONTINUOUS
 62
     7
100
AcDbCircle
 10
373.9428433552688
 20
377.3960695210325
 30
0.0
 40
2.013227136543394
100
AcDbArc
 50
269.0200615778688
 51
291.1633781225503
  0
LINE
  5
110
330
1F
100
AcDbEntity
  8
1
  6
CONTINUOUS
 62
     7
100
AcDbLine
 10
374.9114906292834
 20
375.7402181965309
 30
0.0
 11
374.916666666667
 21
376.3333333333334
 31
0.0
  0
LINE
  5
111
330
1F
100
AcDbEntity
  8
1
  6
CONTINUOUS
 62
     7
100
AcDbLine
 10
374.916666666667
 20
376.3333333333334
 30
0.0
 11
375.934044245477
 21
376.3333333333334
 31
0.0
  0
LINE
  5
112
330
1F
100
AcDbEntity
  8
1
  6
CONTINUOUS
 62
     7
100
AcDbLine
 10
370.9475693384874
 20
372.7922378840391
 30
0.0
 11
371.0291259287665
 21
363.4467782948122
 31
0.0
  0
LINE
  5
113
330
1F
100
AcDbEntity
  8
1
  6
CONTINUOUS
 62
     7
100
AcDbLine
 10
374.8042074045674
 20
363.4467782948122
 30
0.0
 11
374.8857639948465
 21
372.7922378840391
 31
0.0
  0
LINE
  5
114
330
1F
100
AcDbEntity
  8
1
  6
CONTINUOUS
 62
     7
100
AcDbLine
 10
377.9339680916054
 20
374.3507864043301
 30
0.0
 11
378.0291259287665
 21
363.4467782948122
 31
0.0
  0
ARC
  5
115
330
1F
100
AcDbEntity
  8
1
  6
CONTINUOUS
 62
     7
100
AcDbCircle
 10
375.934044245477
 20
374.3333333333334
 30
0.0
 40
2.000000000000006
100
AcDbArc
 50
0.4999999999998825
 51
90.0
  0
LWPOLYLINE
  5
116
330
1F
100
AcDbEntity
  8
1
  6
CONTINUOUS
 62
     7
100
AcDbPolyline
 90
       35
 70
     0
 43
0.0
 10
-11.39328380189139
 20
373.6495592378672
 10
-11.42806386981685
 20
373.6490895318895
 10
-11.46280976410788
 20
373.6476853872487
 10
-11.49742143586865
 20
373.6453542638822
 10
-11.53179883620339
 20
373.642103621728
 10
-11.56699917479473
 20
373.6377876367083
 10
-11.60188294429962
 20
373.6325098721435
 10
-11.63635341833444
 20
373.6262945426986
 10
-11.6703138705154
 20
373.6191658630384
 10
-11.70268282705042
 20
373.6114049804393
 10
-11.73452964590624
 20
373.6028182470176
 10
-11.76578669479281
 20
373.5934371214766
 10
-11.79638634141986
 20
373.5832930625193
 10
-11.83715701262181
 20
373.5682096157357
 10
-11.87662798575065
 20
373.5517895815872
 10
-11.91468178216157
 20
373.5341230836354
 10
-11.95294960549773
 20
373.5143499679444
 10
-11.98965374583463
 20
373.4933033823365
 10
-12.02473832810333
 20
373.4710804782823
 10
-12.05814747723496
 20
373.4477784072524
 10
-12.08982531816052
 20
373.4234943207177
 10
-12.11971597581127
 20
373.3983253701487
 10
-12.15069807333233
 20
373.3695439705977
 10
-12.17964655532047
 20
373.3397557291692
 10
-12.20655665813211
 20
373.3090633835018
 10
-12.23142361812371
 20
373.2775696712342
 10
-12.26229228000861
 20
373.2331460003084
 10
-12.28952086436649
 20
373.1874151405922
 10
-12.31315964672544
 20
373.1405839580625
 10
-12.33621075790928
 20
373.0850082073222
 10
-12.35474385289356
 20
373.0281373260493
 10
-12.36886232787901
 20
372.9701980836639
 10
-12.37866957906589
 20
372.9114172495868
 10
-12.38426900265491
 20
372.8520215932383
 10
-12.38576399484645
 20
372.7922378840391
210
0.0
220
0.0
230
-1.0
  0
LINE
  5
117
330
1F
100
AcDbEntity
  8
1
  6
CONTINUOUS
 62
     7
100
AcDbLine
 10
11.39328380189139
 20
373.6495592378672
 30
0.0
 11
9.440049531442535
 21
373.6495592378672
 31
0.0
  0
LWPOLYLINE
  5
118
330
1F
100
AcDbEntity
  8
1
  6
CONTINUOUS
 62
     7
100
AcDbPolyline
 90
        9
 70
     0
 43
0.0
 10
-8.44756933848742
 20
372.7922378840391
 10
-8.454112659950635
 20
372.9071180651171
 10
-8.476250223894228
 20
373.0197439858339
 10
-8.514720335246666
 20
373.128506019189
 10
-8.561618081663363
 20
373.2181300009256
 10
-8.640527949037773
 20
373.3251436252429
 10
-8.732862294548422
 20
373.4148035398687
 10
-8.83748495679701
 20
373.4895689134276
 10
-8.937676029297931
 20
373.5431921105862
210
0.0
220
0.0
230
-1.0
  0
ARC
  5
119
330
1F
100
AcDbEntity
  8
1
  6
CONTINUOUS
 62
     7
100
AcDbCircle
 10
9.431292128317704
 20
372.4513783083635
 30
0.0
 40
1.198212932635745
100
AcDbArc
 50
89.58123744776367
 51
114.3280342484347
  0
LINE
  5
11A
330
1F
100
AcDbEntity
  8
1
  6
CONTINUOUS
 62
     7
100
AcDbLine
 10
7.399289087856892
 20
376.3333333333334
 30
0.0
 11
8.416666666666933
 21
376.3333333333334
 31
0.0
  0
LINE
  5
11B
330
1F
100
AcDbEntity
  8
1
  6
CONTINUOUS
 62
     7
100
AcDbLine
 10
8.416666666666933
 20
376.3333333333334
 30
0.0
 11
8.421842704050524
 21
375.7402181965308
 31
0.0
  0
ARC
  5
11C
330
1F
100
AcDbEntity
  8
1
  6
CONTINUOUS
 62
     7
100
AcDbCircle
 10
9.393895616907459
 20
377.3903790490098
 30
0.0
 40
2.007481977689643
100
AcDbArc
 50
247.6191165477847
 51
270.8855294853895
  0
LWPOLYLINE
  5
11D
330
1F
100
AcDbEntity
  8
1
  6
CONTINUOUS
 62
     7
100
AcDbPolyline
 90
        4
 70
     0
 43
0.0
 10
-8.629522998166578
 20
375.5341144152715
 10
-8.539690186328524
 20
375.5843184703635
 10
-8.460132471503263
 20
375.6522906565758
 10
-8.421842704050524
 20
375.7402181965309
210
0.0
220
0.0
230
-1.0
  0
LINE
  5
11E
330
1F
100
AcDbEntity
  8
1
  6
CONTINUOUS
 62
     7
100
AcDbLine
 10
9.424920828993516
 20
375.383136829704
 30
0.0
 11
11.40841250434035
 21
375.383136829704
 31
0.0
  0
LWPOLYLINE
  5
11F
330
1F
100
AcDbEntity
  8
1
  6
CONTINUOUS
 62
     7
100
AcDbPolyline
 90
        4
 70
     0
 43
0.0
 10
-12.41149062928334
 20
375.7402181965309
 10
-12.36344864049124
 20
375.641433996465
 10
-12.27424860968604
 20
375.5719831777717
 10
-12.16967589093729
 20
375.5186249896526
210
0.0
220
0.0
230
-1.0
  0
ARC
  5
120
330
1F
100
AcDbEntity
  8
1
  6
CONTINUOUS
 62
     7
100
AcDbCircle
 10
11.44284335526881
 20
377.3960695210325
 30
0.0
 40
2.013227136543398
100
AcDbArc
 50
269.020061577869
 51
291.1633781225505
  0
LINE
  5
121
330
1F
100
AcDbEntity
  8
1
  6
CONTINUOUS
 62
     7
100
AcDbLine
 10
12.41149062928334
 20
375.7402181965309
 30
0.0
 11
12.41666666666694
 21
376.3333333333334
 31
0.0
  0
LINE
  5
122
330
1F
100
AcDbEntity
  8
1
  6
CONTINUOUS
 62
     7
100
AcDbLine
 10
12.41666666666694
 20
376.3333333333334
 30
0.0
 11
13.43404424547698
 21
376.3333333333334
 31
0.0
  0
LINE
  5
123
330
1F
100
AcDbEntity
  8
1
  6
CONTINUOUS
 62
     7
100
AcDbLine
 10
12.30420740456742
 20
363.4467782948122
 30
0.0
 11
12.38576399484645
 21
372.7922378840391
 31
0.0
  0
LINE
  5
124
330
1F
100
AcDbEntity
  8
1
  6
CONTINUOUS
 62
     7
100
AcDbLine
 10
8.44756933848742
 20
372.7922378840391
 30
0.0
 11
8.529125928766451
 21
363.4467782948122
 31
0.0
  0
LINE
  5
125
330
1F
100
AcDbEntity
  8
1
  6
CONTINUOUS
 62
     7
100
AcDbLine
 10
5.304207404567412
 20
363.4467782948122
 30
0.0
 11
5.399365241728543
 21
374.3507864043301
 31
0.0
  0
ARC
  5
126
330
1F
100
AcDbEntity
  8
1
  6
CONTINUOUS
 62
     7
100
AcDbCircle
 10
7.399289087856892
 20
374.3333333333334
 30
0.0
 40
2.000000000000002
100
AcDbArc
 50
90.0
 51
179.5000000000001
  0
ARC
  5
127
330
1F
100
AcDbEntity
  8
1
  6
CONTINUOUS
 62
     7
100
AcDbCircle
 10
13.43404424547698
 20
374.3333333333334
 30
0.0
 40
2.000000000000002
100
AcDbArc
 50
71.21291363759998
 51
90.00000000000001
  0
LINE
  5
128
330
1F
100
AcDbEntity
  8
1
  6
CONTINUOUS
 62
     7
100
AcDbLine
 10
15.43606567004804
 20
374.1104277220405
 30
0.0
 11
15.52912592876646
 21
363.4467782948122
 31
0.0
  0
LINE
  5
129
330
1F
100
AcDbEntity
  8
1
  6
CONTINUOUS
 62
     7
100
AcDbLine
 10
15.43396809160533
 20
374.3507864043301
 30
0.0
 11
15.43606567004804
 21
374.1104277220405
 31
0.0
  0
ARC
  5
12A
330
1F
100
AcDbEntity
  8
1
  6
CONTINUOUS
 62
     7
100
AcDbCircle
 10
13.43404424547698
 20
374.3333333333334
 30
0.0
 40
2.000000000000006
100
AcDbArc
 50
0.4999999999998825
 51
49.40603532240922
  0
ARC
  5
12B
330
1F
100
AcDbEntity
  8
1
  6
CONTINUOUS
 62
     7
100
AcDbCircle
 10
13.43404424547698
 20
374.3333333333334
 30
0.0
 40
2.000000000000006
100
AcDbArc
 50
69.79996194519416
 51
71.21291363759998
  0
LINE
  5
12C
330
1F
100
AcDbEntity
  8
1
  6
CONTINUOUS
 62
     7
100
AcDbLine
 10
371.9166285897311
 20
376.3333333333334
 30
0.0
 11
370.916666666667
 21
376.3333333333334
 31
0.0
  0
LINE
  5
12D
330
1F
100
AcDbEntity
  8
1
  6
CONTINUOUS
 62
     7
100
AcDbLine
 10
374.916666666667
 20
376.3333333333334
 30
0.0
 11
373.9167047436028
 21
376.3333333333334
 31
0.0
  0
LINE
  5
12E
330
1F
100
AcDbEntity
  8
1
  6
CONTINUOUS
 62
     7
100
AcDbLine
 10
9.416628589731108
 20
376.3333333333334
 30
0.0
 11
8.416666666666933
 21
376.3333333333334
 31
0.0
  0
LINE
  5
12F
330
1F
100
AcDbEntity
  8
1
  6
CONTINUOUS
 62
     7
100
AcDbLine
 10
12.41666666666694
 20
376.3333333333334
 30
0.0
 11
11.41670474360276
 21
376.3333333333334
 31
0.0
  0
LINE
  5
130
330
1F
100
AcDbEntity
  8
1
  6
CONTINUOUS
 62
     7
100
AcDbLine
 10
371.9166285897311
 20
376.3333333333334
 30
0.0
 11
373.9167047436028
 21
376.3333333333334
 31
0.0
  0
LINE
  5
131
330
1F
100
AcDbEntity
  8
1
  6
CONTINUOUS
 62
     7
100
AcDbLine
 10
11.41670474360276
 20
376.3333333333334
 30
0.0
 11
9.416628589731108
 21
376.3333333333334
 31
0.0
  0
LINE
  5
132
330
1F
100
AcDbEntity
  8
1
  6
CONTINUOUS
 62
     7
100
AcDbLine
 10
367.8293979887595
 20
366.3333333333333
 30
0.0
 11
367.8039753267616
 21
363.4201848123147
 31
0.0
  0
LINE
  5
133
330
1F
100
AcDbEntity
  8
1
  6
CONTINUOUS
 62
     7
100
AcDbLine
 10
421.0290695699986
 20
358.3333333333333
 30
0.0
 11
427.7166666666669
 21
358.3333333333333
 31
0.0
  0
LINE
  5
134
330
1F
100
AcDbEntity
  8
1
  6
CONTINUOUS
 62
     7
100
AcDbLine
 10
303.116666666667
 20
358.3333333333333
 30
0.0
 11
312.716666666667
 21
358.3333333333333
 31
0.0
  0
LINE
  5
135
330
1F
100
AcDbEntity
  8
1
  6
CONTINUOUS
 62
     7
100
AcDbLine
 10
188.116666666667
 20
358.3333333333333
 30
0.0
 11
197.716666666667
 21
358.3333333333333
 31
0.0
  0
LINE
  5
136
330
1F
100
AcDbEntity
  8
1
  6
CONTINUOUS
 62
     7
100
AcDbLine
 10
73.11666666666692
 20
358.3333333333333
 30
0.0
 11
82.71666666666697
 21
358.3333333333333
 31
0.0
  0
LINE
  5
137
330
1F
100
AcDbEntity
  8
1
  6
CONTINUOUS
 62
     7
100
AcDbLine
 10
-41.88333333333308
 20
358.3333333333333
 30
0.0
 11
-37.69573623666486
 21
358.3333333333333
 31
0.0
  0
LINE
  5
138
330
1F
100
AcDbEntity
  8
1
  6
CONTINUOUS
 62
     7
100
AcDbLine
 10
-36.08333333333316
 20
339.8333333333334
 30
0.0
 11
-35.35683602522941
 21
339.4138899169341
 31
0.0
  0
LINE
  5
139
330
1F
100
AcDbEntity
  8
1
  6
CONTINUOUS
 62
     7
100
AcDbLine
 10
-23.80983064143691
 20
339.4138899169342
 30
0.0
 11
-23.08333333333315
 21
339.8333333333334
 31
0.0
  0
LINE
  5
13A
330
1F
100
AcDbEntity
  8
1
  6
CONTINUOUS
 62
     7
100
AcDbLine
 10
-36.08333333333316
 20
341.3333333333334
 30
0.0
 11
-36.08333333333316
 21
339.8333333333334
 31
0.0
  0
LINE
  5
13B
330
1F
100
AcDbEntity
  8
1
  6
CONTINUOUS
 62
     7
100
AcDbLine
 10
-23.08333333333315
 20
339.8333333333334
 30
0.0
 11
-23.08333333333315
 21
341.3333333333334
 31
0.0
  0
LINE
  5
13C
330
1F
100
AcDbEntity
  8
1
  6
CONTINUOUS
 62
     7
100
AcDbLine
 10
-35.35683602522941
 20
335.924252888016
 30
0.0
 11
-34.33333333333313
 21
335.3333333333334
 31
0.0
  0
LINE
  5
13D
330
1F
100
AcDbEntity
  8
1
  6
CONTINUOUS
 62
     7
100
AcDbLine
 10
-24.83333333333318
 20
335.3333333333334
 30
0.0
 11
-23.80983064143691
 21
335.924252888016
 31
0.0
  0
LINE
  5
13E
330
1F
100
AcDbEntity
  8
1
  6
CONTINUOUS
 62
     7
100
AcDbLine
 10
-32.33333333333313
 20
335.3333333333334
 30
0.0
 11
-32.33333333333313
 21
334.3333333333334
 31
0.0
  0
LINE
  5
13F
330
1F
100
AcDbEntity
  8
1
  6
CONTINUOUS
 62
     7
100
AcDbLine
 10
-26.83333333333318
 20
334.3333333333334
 30
0.0
 11
-26.83333333333318
 21
335.3333333333334
 31
0.0
  0
LINE
  5
140
330
1F
100
AcDbEntity
  8
1
  6
CONTINUOUS
 62
     7
100
AcDbLine
 10
406.416666666667
 20
339.8333333333334
 30
0.0
 11
407.1431639747707
 21
339.4138899169342
 31
0.0
  0
LINE
  5
141
330
1F
100
AcDbEntity
  8
1
  6
CONTINUOUS
 62
     7
100
AcDbLine
 10
418.6901693585632
 20
339.4138899169342
 30
0.0
 11
419.4166666666669
 21
339.8333333333334
 31
0.0
  0
LINE
  5
142
330
1F
100
AcDbEntity
  8
1
  6
CONTINUOUS
 62
     7
100
AcDbLine
 10
406.416666666667
 20
341.3333333333334
 30
0.0
 11
406.416666666667
 21
339.8333333333334
 31
0.0
  0
LINE
  5
143
330
1F
100
AcDbEntity
  8
1
  6
CONTINUOUS
 62
     7
100
AcDbLine
 10
419.416666666667
 20
339.8333333333334
 30
0.0
 11
419.416666666667
 21
341.3333333333334
 31
0.0
  0
LINE
  5
144
330
1F
100
AcDbEntity
  8
1
  6
CONTINUOUS
 62
     7
100
AcDbLine
 10
407.1431639747707
 20
335.924252888016
 30
0.0
 11
408.166666666667
 21
335.3333333333334
 31
0.0
  0
LINE
  5
145
330
1F
100
AcDbEntity
  8
1
  6
CONTINUOUS
 62
     7
100
AcDbLine
 10
417.666666666667
 20
335.3333333333334
 30
0.0
 11
418.6901693585633
 21
335.924252888016
 31
0.0
  0
LINE
  5
146
330
1F
100
AcDbEntity
  8
1
  6
CONTINUOUS
 62
     7
100
AcDbLine
 10
410.166666666667
 20
335.3333333333334
 30
0.0
 11
410.166666666667
 21
334.3333333333334
 31
0.0
  0
LINE
  5
147
330
1F
100
AcDbEntity
  8
1
  6
CONTINUOUS
 62
     7
100
AcDbLine
 10
415.666666666667
 20
334.3333333333334
 30
0.0
 11
415.666666666667
 21
335.3333333333334
 31
0.0
  0
LINE
  5
148
330
1F
100
AcDbEntity
  8
1
  6
CONTINUOUS
 62
     7
100
AcDbLine
 10
427.6166666666671
 20
358.3333333333333
 30
0.0
 11
427.6079178003145
 21
358.4333333333333
 31
0.0
  0
ARC
  5
149
330
1F
100
AcDbEntity
  8
1
  6
CONTINUOUS
 62
     7
100
AcDbCircle
 10
422.916666666667
 20
355.2817658935438
 30
0.0
 40
5.651567439789592
100
AcDbArc
 50
33.893078942444
 51
66.53931933134984
  0
LINE
  5
14A
330
1F
100
AcDbEntity
  8
1
  6
CONTINUOUS
 62
     7
100
AcDbLine
 10
312.6166666666671
 20
358.3333333333333
 30
0.0
 11
312.6079178003145
 21
358.4333333333333
 31
0.0
  0
LINE
  5
14B
330
1F
100
AcDbEntity
  8
1
  6
CONTINUOUS
 62
     7
100
AcDbLine
 10
303.2254155330197
 20
358.4333333333333
 30
0.0
 11
303.2166666666672
 21
358.3333333333333
 31
0.0
  0
ARC
  5
14C
330
1F
100
AcDbEntity
  8
1
  6
CONTINUOUS
 62
     7
100
AcDbCircle
 10
307.916666666667
 20
355.2817658935438
 30
0.0
 40
5.651567439789592
100
AcDbArc
 50
33.893078942444
 51
66.53931933134984
  0
ARC
  5
14D
330
1F
100
AcDbEntity
  8
1
  6
CONTINUOUS
 62
     7
100
AcDbCircle
 10
307.916666666667
 20
355.2817658935438
 30
0.0
 40
5.651567439789613
100
AcDbArc
 50
113.4606806686501
 51
146.106921057556
  0
LINE
  5
14E
330
1F
100
AcDbEntity
  8
1
  6
CONTINUOUS
 62
     7
100
AcDbLine
 10
197.6166666666671
 20
358.3333333333333
 30
0.0
 11
197.6079178003145
 21
358.4333333333333
 31
0.0
  0
LINE
  5
14F
330
1F
100
AcDbEntity
  8
1
  6
CONTINUOUS
 62
     7
100
AcDbLine
 10
188.2254155330197
 20
358.4333333333333
 30
0.0
 11
188.2166666666671
 21
358.3333333333333
 31
0.0
  0
ARC
  5
150
330
1F
100
AcDbEntity
  8
1
  6
CONTINUOUS
 62
     7
100
AcDbCircle
 10
192.9166666666671
 20
355.2817658935438
 30
0.0
 40
5.651567439789615
100
AcDbArc
 50
33.893078942444
 51
66.53931933134984
  0
ARC
  5
151
330
1F
100
AcDbEntity
  8
1
  6
CONTINUOUS
 62
     7
100
AcDbCircle
 10
192.9166666666671
 20
355.2817658935438
 30
0.0
 40
5.651567439789602
100
AcDbArc
 50
113.4606806686501
 51
146.106921057556
  0
LINE
  5
152
330
1F
100
AcDbEntity
  8
1
  6
CONTINUOUS
 62
     7
100
AcDbLine
 10
82.61666666666703
 20
358.3333333333333
 30
0.0
 11
82.60791780031448
 21
358.4333333333333
 31
0.0
  0
LINE
  5
153
330
1F
100
AcDbEntity
  8
1
  6
CONTINUOUS
 62
     7
100
AcDbLine
 10
73.22541553301961
 20
358.4333333333333
 30
0.0
 11
73.21666666666707
 21
358.3333333333333
 31
0.0
  0
ARC
  5
154
330
1F
100
AcDbEntity
  8
1
  6
CONTINUOUS
 62
     7
100
AcDbCircle
 10
77.91666666666706
 20
355.2817658935438
 30
0.0
 40
5.651567439789638
100
AcDbArc
 50
33.89307894244386
 51
66.53931933134963
  0
ARC
  5
155
330
1F
100
AcDbEntity
  8
1
  6
CONTINUOUS
 62
     7
100
AcDbCircle
 10
77.91666666666706
 20
355.2817658935438
 30
0.0
 40
5.651567439789613
100
AcDbArc
 50
113.4606806686504
 51
146.1069210575561
  0
LINE
  5
156
330
1F
100
AcDbEntity
  8
1
  6
CONTINUOUS
 62
     7
100
AcDbLine
 10
-41.77458446698037
 20
358.4333333333333
 30
0.0
 11
-41.78333333333292
 21
358.3333333333333
 31
0.0
  0
ARC
  5
157
330
1F
100
AcDbEntity
  8
1
  6
CONTINUOUS
 62
     7
100
AcDbCircle
 10
-37.08333333333294
 20
355.2817658935438
 30
0.0
 40
5.651567439789603
100
AcDbArc
 50
117.1571996535584
 51
146.1069210575561
  0
LINE
  5
158
330
1F
100
AcDbEntity
  8
1
  6
CONTINUOUS
 62
     7
100
AcDbLine
 10
208.0696775976795
 20
356.3333333333333
 30
0.0
 11
208.0696775976795
 21
356.3708333333333
 31
0.0
  0
LINE
  5
159
330
1F
100
AcDbEntity
  8
1
  6
CONTINUOUS
 62
     7
100
AcDbLine
 10
202.2969503249522
 20
356.3708333333333
 30
0.0
 11
202.2969503249522
 21
356.3333333333334
 31
0.0
  0
ARC
  5
15A
330
1F
100
AcDbEntity
  8
1
  6
CONTINUOUS
 62
     7
100
AcDbCircle
 10
369.8928579682736
 20
374.3596912610215
 30
0.0
 40
1.972337060192862
100
AcDbArc
 50
89.81345982392348
 51
159.9114803191451
  0
LWPOLYLINE
  5
15B
330
1F
100
AcDbEntity
  8
1
  6
CONTINUOUS
 62
     7
100
AcDbPolyline
 90
        4
 70
     0
 43
0.0
 10
368.0405117961223
 20
375.0371328729163
 10
367.9780155888175
 20
374.8173658974313
 10
367.9507315841262
 20
374.6670304618949
 10
367.9397983492129
 20
374.5574313659461
  0
ARC
  5
15C
330
1F
100
AcDbEntity
  8
1
  6
CONTINUOUS
 62
     7
100
AcDbCircle
 10
43777.83441886865
 20
-10.62081151356764
 30
0.0
 40
43411.60344013327
100
AcDbArc
 50
179.4916249227646
 51
179.5062855656346
  0
ARC
  5
15D
330
1F
100
AcDbEntity
  8
1
  6
CONTINUOUS
 62
     7
100
AcDbCircle
 10
13.41495345943899
 20
374.317490612811
 30
0.0
 40
2.021188840495349
100
AcDbArc
 50
356.6855256633164
 51
70.84371819986085
  0
LINE
  5
15E
330
1F
100
AcDbEntity
  8
1
  6
CONTINUOUS
 62
     7
100
AcDbLine
 10
427.9166666666669
 20
356.3333333333333
 30
0.0
 11
427.9166666666669
 21
358.1333333333333
 31
0.0
  0
ARC
  5
15F
330
1F
100
AcDbEntity
  8
1
  6
CONTINUOUS
 62
     7
100
AcDbCircle
 10
427.716666666667
 20
358.1333333333333
 30
0.0
 40
0.2000000000000335
100
AcDbArc
 50
0.0
 51
90.0
  0
ARC
  5
160
330
1F
100
AcDbEntity
  8
1
  6
CONTINUOUS
 62
     7
100
AcDbCircle
 10
303.116666666667
 20
358.1333333333333
 30
0.0
 40
0.199999999999978
100
AcDbArc
 50
90.0
 51
180.0
  0
ARC
  5
161
330
1F
100
AcDbEntity
  8
1
  6
CONTINUOUS
 62
     7
100
AcDbCircle
 10
312.716666666667
 20
358.1333333333333
 30
0.0
 40
0.2000000000000335
100
AcDbArc
 50
0.0
 51
90.0
  0
LINE
  5
162
330
1F
100
AcDbEntity
  8
1
  6
CONTINUOUS
 62
     7
100
AcDbLine
 10
302.9166666666669
 20
358.1333333333333
 30
0.0
 11
302.9166666666669
 21
356.3333333333333
 31
0.0
  0
LINE
  5
163
330
1F
100
AcDbEntity
  8
1
  6
CONTINUOUS
 62
     7
100
AcDbLine
 10
312.916666666667
 20
356.3333333333333
 30
0.0
 11
312.916666666667
 21
358.1333333333333
 31
0.0
  0
LINE
  5
164
330
1F
100
AcDbEntity
  8
1
  6
CONTINUOUS
 62
     7
100
AcDbLine
 10
187.916666666667
 20
358.1333333333333
 30
0.0
 11
187.916666666667
 21
356.3333333333333
 31
0.0
  0
LINE
  5
165
330
1F
100
AcDbEntity
  8
1
  6
CONTINUOUS
 62
     7
100
AcDbLine
 10
197.916666666667
 20
356.3333333333333
 30
0.0
 11
197.916666666667
 21
358.1333333333333
 31
0.0
  0
ARC
  5
166
330
1F
100
AcDbEntity
  8
1
  6
CONTINUOUS
 62
     7
100
AcDbCircle
 10
188.116666666667
 20
358.1333333333333
 30
0.0
 40
0.199999999999978
100
AcDbArc
 50
90.0
 51
180.0
  0
ARC
  5
167
330
1F
100
AcDbEntity
  8
1
  6
CONTINUOUS
 62
     7
100
AcDbCircle
 10
197.716666666667
 20
358.1333333333333
 30
0.0
 40
0.2000000000000057
100
AcDbArc
 50
0.0
 51
90.0
  0
LINE
  5
168
330
1F
100
AcDbEntity
  8
1
  6
CONTINUOUS
 62
     7
100
AcDbLine
 10
72.91666666666693
 20
358.1333333333333
 30
0.0
 11
72.91666666666693
 21
356.3333333333333
 31
0.0
  0
LINE
  5
169
330
1F
100
AcDbEntity
  8
1
  6
CONTINUOUS
 62
     7
100
AcDbLine
 10
82.91666666666694
 20
356.3333333333333
 30
0.0
 11
82.91666666666694
 21
358.1333333333333
 31
0.0
  0
ARC
  5
16A
330
1F
100
AcDbEntity
  8
1
  6
CONTINUOUS
 62
     7
100
AcDbCircle
 10
73.11666666666692
 20
358.1333333333333
 30
0.0
 40
0.199999999999978
100
AcDbArc
 50
90.0
 51
180.0
  0
ARC
  5
16B
330
1F
100
AcDbEntity
  8
1
  6
CONTINUOUS
 62
     7
100
AcDbCircle
 10
82.71666666666697
 20
358.1333333333333
 30
0.0
 40
0.199999999999978
100
AcDbArc
 50
0.0
 51
90.0
  0
ARC
  5
16C
330
1F
100
AcDbEntity
  8
1
  6
CONTINUOUS
 62
     7
100
AcDbCircle
 10
-41.88333333333308
 20
358.1333333333333
 30
0.0
 40
0.199999999999978
100
AcDbArc
 50
90.0
 51
180.0
  0
LINE
  5
16D
330
1F
100
AcDbEntity
  8
1
  6
CONTINUOUS
 62
     7
100
AcDbLine
 10
-42.08333333333306
 20
358.1333333333333
 30
0.0
 11
-42.08333333333306
 21
356.3333333333333
 31
0.0
  0
LINE
  5
16E
330
1F
100
AcDbEntity
  8
1
  6
CONTINUOUS
 62
     7
100
AcDbLine
 10
437.9714448312017
 20
400.7380928112635
 30
0.0
 11
442.916666666667
 21
405.0
 31
0.0
  0
LINE
  5
16F
330
1F
100
AcDbEntity
  8
1
  6
CONTINUOUS
 62
     7
100
AcDbLine
 10
-0.2406713077513778
 20
466.1428862648387
 30
0.0
 11
437.9714448312018
 21
400.7380928112635
 31
0.0
  0
LINE
  5
170
330
1F
100
AcDbEntity
  8
1
  6
CONTINUOUS
 62
     7
100
AcDbLine
 10
442.916666666667
 20
405.0
 30
0.0
 11
442.916666666667
 21
507.0
 31
0.0
  0
LINE
  5
171
330
1F
100
AcDbEntity
  8
1
  6
CONTINUOUS
 62
     7
100
AcDbLine
 10
-34.5904588808699
 20
506.0000000000001
 30
0.0
 11
-0.2406713077513778
 21
466.1428862648387
 31
0.0
  0
LINE
  5
172
330
1F
100
AcDbEntity
  8
1
  6
CONTINUOUS
 62
     7
100
AcDbLine
 10
-0.2406713077518774
 20
743.8571137351615
 30
0.0
 11
-59.58333333333362
 21
675.0
 31
0.0
  0
LINE
  5
173
330
1F
100
AcDbEntity
  8
1
  6
CONTINUOUS
 62
     7
100
AcDbLine
 10
-0.2406713077518774
 20
743.8571137351615
 30
0.0
 11
437.9714448312011
 21
809.2619071887366
 31
0.0
  0
LINE
  5
174
330
1F
100
AcDbEntity
  8
1
  6
CONTINUOUS
 62
     7
100
AcDbLine
 10
442.9166666666659
 20
804.9999999999999
 30
0.0
 11
442.9166666666659
 21
642.9999999999998
 31
0.0
  0
LINE
  5
175
330
1F
100
AcDbEntity
  8
1
  6
CONTINUOUS
 62
     7
100
AcDbLine
 10
-59.58333333333363
 20
643.0000000000001
 30
0.0
 11
-59.58333333333363
 21
675.0
 31
0.0
  0
LINE
  5
176
330
1F
100
AcDbEntity
  8
1
  6
CONTINUOUS
 62
     7
100
AcDbLine
 10
442.9166666666659
 20
804.9999999999999
 30
0.0
 11
437.971444831201
 21
809.2619071887366
 31
0.0
  0
LINE
  5
177
330
1F
100
AcDbEntity
  8
1
  6
CONTINUOUS
 62
     7
100
AcDbLine
 10
-17.15729125847701
 20
603.25
 30
0.0
 11
-16.15729125847701
 21
603.25
 31
0.0
  0
LINE
  5
178
330
1F
100
AcDbEntity
  8
1
  6
CONTINUOUS
 62
     7
100
AcDbLine
 10
-17.15729125847701
 20
608.2500000000001
 30
0.0
 11
-16.15729125847701
 21
608.2500000000001
 31
0.0
  0
LINE
  5
179
330
1F
100
AcDbEntity
  8
1
  6
CONTINUOUS
 62
     7
100
AcDbLine
 10
-22.98958634207046
 20
603.25
 30
0.0
 11
-22.98958634207046
 21
608.25
 31
0.0
  0
LINE
  5
17A
330
1F
100
AcDbEntity
  8
1
  6
CONTINUOUS
 62
     7
100
AcDbLine
 10
-22.98958634207046
 20
603.25
 30
0.0
 11
-17.15729125847701
 21
603.25
 31
0.0
  0
LINE
  5
17B
330
1F
100
AcDbEntity
  8
1
  6
CONTINUOUS
 62
     7
100
AcDbLine
 10
-22.98958634207046
 20
608.2500000000001
 30
0.0
 11
-17.15729125847701
 21
608.2500000000001
 31
0.0
  0
LINE
  5
17C
330
1F
100
AcDbEntity
  8
1
  6
CONTINUOUS
 62
     7
100
AcDbLine
 10
-42.00937540818936
 20
608.2500000000001
 30
0.0
 11
-43.00937540818936
 21
608.2500000000001
 31
0.0
  0
LINE
  5
17D
330
1F
100
AcDbEntity
  8
1
  6
CONTINUOUS
 62
     7
100
AcDbLine
 10
-42.00937540818936
 20
603.25
 30
0.0
 11
-43.00937540818936
 21
603.25
 31
0.0
  0
LINE
  5
17E
330
1F
100
AcDbEntity
  8
1
  6
CONTINUOUS
 62
     7
100
AcDbLine
 10
-36.17708032459591
 20
603.25
 30
0.0
 11
-36.17708032459591
 21
608.25
 31
0.0
  0
LINE
  5
17F
330
1F
100
AcDbEntity
  8
1
  6
CONTINUOUS
 62
     7
100
AcDbLine
 10
-36.17708032459591
 20
608.2500000000001
 30
0.0
 11
-42.00937540818936
 21
608.2500000000001
 31
0.0
  0
LINE
  5
180
330
1F
100
AcDbEntity
  8
1
  6
CONTINUOUS
 62
     7
100
AcDbLine
 10
-36.17708032459591
 20
603.25
 30
0.0
 11
-42.00937540818936
 21
603.25
 31
0.0
  0
LINE
  5
181
330
1F
100
AcDbEntity
  8
1
  6
CONTINUOUS
 62
     7
100
AcDbLine
 10
-26.08333333333321
 20
603.25
 30
0.0
 11
-26.08333333333321
 21
605.75
 31
0.0
  0
LINE
  5
182
330
1F
100
AcDbEntity
  8
1
  6
CONTINUOUS
 62
     7
100
AcDbLine
 10
-26.08333333333321
 20
605.7500000000001
 30
0.0
 11
-26.08333333333321
 21
608.2500000000001
 31
0.0
  0
LINE
  5
183
330
1F
100
AcDbEntity
  8
1
  6
CONTINUOUS
 62
     7
100
AcDbLine
 10
-26.08333333333321
 20
603.25
 30
0.0
 11
-22.98958634207046
 21
603.25
 31
0.0
  0
LINE
  5
184
330
1F
100
AcDbEntity
  8
1
  6
CONTINUOUS
 62
     7
100
AcDbLine
 10
-26.08333333333321
 20
608.2500000000001
 30
0.0
 11
-22.98958634207046
 21
608.2500000000001
 31
0.0
  0
LINE
  5
185
330
1F
100
AcDbEntity
  8
1
  6
CONTINUOUS
 62
     7
100
AcDbLine
 10
-33.08333333333316
 20
605.7500000000001
 30
0.0
 11
-33.08333333333321
 21
608.2500000000001
 31
0.0
  0
LINE
  5
186
330
1F
100
AcDbEntity
  8
1
  6
CONTINUOUS
 62
     7
100
AcDbLine
 10
-33.08333333333316
 20
603.25
 30
0.0
 11
-33.08333333333316
 21
605.75
 31
0.0
  0
LINE
  5
187
330
1F
100
AcDbEntity
  8
1
  6
CONTINUOUS
 62
     7
100
AcDbLine
 10
-33.08333333333321
 20
608.2500000000001
 30
0.0
 11
-36.17708032459591
 21
608.2500000000001
 31
0.0
  0
LINE
  5
188
330
1F
100
AcDbEntity
  8
1
  6
CONTINUOUS
 62
     7
100
AcDbLine
 10
-33.08333333333316
 20
603.25
 30
0.0
 11
-36.17708032459591
 21
603.25
 31
0.0
  0
ARC
  5
189
330
1F
100
AcDbEntity
  8
1
  6
CONTINUOUS
 62
     7
100
AcDbCircle
 10
-29.58333333333315
 20
605.7500000000001
 30
0.0
 40
3.500000000000003
100
AcDbArc
 50
180.0
 51
0.0
  0
ARC
  5
18A
330
1F
100
AcDbEntity
  8
1
  6
CONTINUOUS
 62
     7
100
AcDbCircle
 10
-29.58333333333315
 20
605.7500000000001
 30
0.0
 40
4.999999999999972
100
AcDbArc
 50
310.5416018735059
 51
329.9999999999998
  0
ARC
  5
18B
330
1F
100
AcDbEntity
  8
1
  6
CONTINUOUS
 62
     7
100
AcDbCircle
 10
-29.58333333333315
 20
605.7500000000001
 30
0.0
 40
4.999999999999984
100
AcDbArc
 50
229.4583981264975
 51
310.5416018735059
  0
ARC
  5
18C
330
1F
100
AcDbEntity
  8
1
  6
CONTINUOUS
 62
     7
100
AcDbCircle
 10
-29.58333333333315
 20
605.7500000000001
 30
0.0
 40
5.000000000000009
100
AcDbArc
 50
209.9999999999999
 51
229.4583981264975
  0
ARC
  5
18D
330
1F
100
AcDbEntity
  8
1
  6
CONTINUOUS
 62
     7
100
AcDbCircle
 10
-29.58333333333315
 20
605.7500000000001
 30
0.0
 40
3.500000000000003
100
AcDbArc
 50
0.0
 51
180.0
  0
ARC
  5
18E
330
1F
100
AcDbEntity
  8
1
  6
CONTINUOUS
 62
     7
100
AcDbCircle
 10
-29.58333333333315
 20
605.7500000000001
 30
0.0
 40
5.000000000000019
100
AcDbArc
 50
30.00000000000023
 51
150.0000000000001
  0
LINE
  5
18F
330
1F
100
AcDbEntity
  8
1
  6
CONTINUOUS
 62
     7
100
AcDbLine
 10
400.4906245918108
 20
603.25
 30
0.0
 11
399.4906245918108
 21
603.25
 31
0.0
  0
LINE
  5
190
330
1F
100
AcDbEntity
  8
1
  6
CONTINUOUS
 62
     7
100
AcDbLine
 10
400.4906245918108
 20
608.2500000000001
 30
0.0
 11
399.4906245918108
 21
608.2500000000001
 31
0.0
  0
LINE
  5
191
330
1F
100
AcDbEntity
  8
1
  6
CONTINUOUS
 62
     7
100
AcDbLine
 10
406.3229196754043
 20
603.25
 30
0.0
 11
406.3229196754043
 21
608.25
 31
0.0
  0
LINE
  5
192
330
1F
100
AcDbEntity
  8
1
  6
CONTINUOUS
 62
     7
100
AcDbLine
 10
406.3229196754043
 20
603.25
 30
0.0
 11
400.4906245918108
 21
603.25
 31
0.0
  0
LINE
  5
193
330
1F
100
AcDbEntity
  8
1
  6
CONTINUOUS
 62
     7
100
AcDbLine
 10
406.3229196754043
 20
608.2500000000001
 30
0.0
 11
400.4906245918108
 21
608.2500000000001
 31
0.0
  0
LINE
  5
194
330
1F
100
AcDbEntity
  8
1
  6
CONTINUOUS
 62
     7
100
AcDbLine
 10
419.5104136579297
 20
603.25
 30
0.0
 11
419.5104136579297
 21
608.25
 31
0.0
  0
LINE
  5
195
330
1F
100
AcDbEntity
  8
1
  6
CONTINUOUS
 62
     7
100
AcDbLine
 10
416.416666666667
 20
603.25
 30
0.0
 11
419.5104136579297
 21
603.25
 31
0.0
  0
LINE
  5
196
330
1F
100
AcDbEntity
  8
1
  6
CONTINUOUS
 62
     7
100
AcDbLine
 10
416.416666666667
 20
603.25
 30
0.0
 11
416.416666666667
 21
605.75
 31
0.0
  0
LINE
  5
197
330
1F
100
AcDbEntity
  8
1
  6
CONTINUOUS
 62
     7
100
AcDbLine
 10
416.416666666667
 20
605.7500000000001
 30
0.0
 11
416.416666666667
 21
608.2500000000001
 31
0.0
  0
LINE
  5
198
330
1F
100
AcDbEntity
  8
1
  6
CONTINUOUS
 62
     7
100
AcDbLine
 10
416.416666666667
 20
608.2500000000001
 30
0.0
 11
419.5104136579297
 21
608.2500000000001
 31
0.0
  0
LINE
  5
199
330
1F
100
AcDbEntity
  8
1
  6
CONTINUOUS
 62
     7
100
AcDbLine
 10
409.416666666667
 20
605.7500000000001
 30
0.0
 11
409.416666666667
 21
608.2500000000001
 31
0.0
  0
LINE
  5
19A
330
1F
100
AcDbEntity
  8
1
  6
CONTINUOUS
 62
     7
100
AcDbLine
 10
409.416666666667
 20
603.25
 30
0.0
 11
409.416666666667
 21
605.75
 31
0.0
  0
LINE
  5
19B
330
1F
100
AcDbEntity
  8
1
  6
CONTINUOUS
 62
     7
100
AcDbLine
 10
409.416666666667
 20
603.25
 30
0.0
 11
406.3229196754043
 21
603.25
 31
0.0
  0
LINE
  5
19C
330
1F
100
AcDbEntity
  8
1
  6
CONTINUOUS
 62
     7
100
AcDbLine
 10
409.416666666667
 20
608.2500000000001
 30
0.0
 11
406.3229196754043
 21
608.2500000000001
 31
0.0
  0
LINE
  5
19D
330
1F
100
AcDbEntity
  8
1
  6
CONTINUOUS
 62
     7
100
AcDbLine
 10
425.3427087415232
 20
603.25
 30
0.0
 11
426.3427087415232
 21
603.25
 31
0.0
  0
LINE
  5
19E
330
1F
100
AcDbEntity
  8
1
  6
CONTINUOUS
 62
     7
100
AcDbLine
 10
425.3427087415232
 20
608.2500000000001
 30
0.0
 11
426.3427087415232
 21
608.2500000000001
 31
0.0
  0
LINE
  5
19F
330
1F
100
AcDbEntity
  8
1
  6
CONTINUOUS
 62
     7
100
AcDbLine
 10
419.5104136579297
 20
603.25
 30
0.0
 11
425.3427087415232
 21
603.25
 31
0.0
  0
LINE
  5
1A0
330
1F
100
AcDbEntity
  8
1
  6
CONTINUOUS
 62
     7
100
AcDbLine
 10
419.5104136579297
 20
608.2500000000001
 30
0.0
 11
425.3427087415232
 21
608.2500000000001
 31
0.0
  0
ARC
  5
1A1
330
1F
100
AcDbEntity
  8
1
  6
CONTINUOUS
 62
     7
100
AcDbCircle
 10
412.9166666666669
 20
605.7500000000001
 30
0.0
 40
3.500000000000003
100
AcDbArc
 50
180.0
 51
0.0
  0
ARC
  5
1A2
330
1F
100
AcDbEntity
  8
1
  6
CONTINUOUS
 62
     7
100
AcDbCircle
 10
412.9166666666669
 20
605.7500000000001
 30
0.0
 40
4.999999999999972
100
AcDbArc
 50
210.0
 51
229.4583981264956
  0
ARC
  5
1A3
330
1F
100
AcDbEntity
  8
1
  6
CONTINUOUS
 62
     7
100
AcDbCircle
 10
412.9166666666669
 20
605.7500000000001
 30
0.0
 40
4.999999999999996
100
AcDbArc
 50
229.4583981264954
 51
310.5416018735046
  0
ARC
  5
1A4
330
1F
100
AcDbEntity
  8
1
  6
CONTINUOUS
 62
     7
100
AcDbCircle
 10
412.9166666666669
 20
605.7500000000001
 30
0.0
 40
5.000000000000032
100
AcDbArc
 50
310.5416018735046
 51
330.0
  0
ARC
  5
1A5
330
1F
100
AcDbEntity
  8
1
  6
CONTINUOUS
 62
     7
100
AcDbCircle
 10
412.9166666666669
 20
605.7500000000001
 30
0.0
 40
4.999999999999991
100
AcDbArc
 50
29.99999999999995
 51
150.0
  0
ARC
  5
1A6
330
1F
100
AcDbEntity
  8
1
  6
CONTINUOUS
 62
     7
100
AcDbCircle
 10
412.9166666666669
 20
605.7500000000001
 30
0.0
 40
3.500000000000003
100
AcDbArc
 50
0.0
 51
180.0
  0
LINE
  5
1A7
330
1F
100
AcDbEntity
  8
1
  6
CONTINUOUS
 62
     7
100
AcDbLine
 10
423.4166666666671
 20
630.4287151690951
 30
0.0
 11
423.4166666666671
 21
632.7000000000002
 31
0.0
  0
LINE
  5
1A8
330
1F
100
AcDbEntity
  8
1
  6
CONTINUOUS
 62
     7
100
AcDbLine
 10
424.2166666666671
 20
633.5
 30
0.0
 11
425.1104077635151
 21
633.5
 31
0.0
  0
ARC
  5
1A9
330
1F
100
AcDbEntity
  8
1
  6
CONTINUOUS
 62
     7
100
AcDbCircle
 10
422.916666666667
 20
634.0000000000001
 30
0.0
 40
2.250000000000025
100
AcDbArc
 50
347.1604115930957
 51
12.83958840690394
  0
LINE
  5
1AA
330
1F
100
AcDbEntity
  8
1
  6
CONTINUOUS
 62
     7
100
AcDbLine
 10
425.1104077635151
 20
634.5
 30
0.0
 11
424.2166666666671
 21
634.5
 31
0.0
  0
LINE
  5
1AB
330
1F
100
AcDbEntity
  8
1
  6
CONTINUOUS
 62
     7
100
AcDbLine
 10
423.4166666666671
 20
635.3000000000001
 30
0.0
 11
423.4166666666671
 21
637.5712848309051
 31
0.0
  0
ARC
  5
1AC
330
1F
100
AcDbEntity
  8
1
  6
CONTINUOUS
 62
     7
100
AcDbCircle
 10
422.916666666667
 20
634.0000000000001
 30
0.0
 40
3.606116379632399
100
AcDbArc
 50
82.03007295878035
 51
97.96992704121966
  0
LINE
  5
1AD
330
1F
100
AcDbEntity
  8
1
  6
CONTINUOUS
 62
     7
100
AcDbLine
 10
422.4166666666671
 20
637.5712848309051
 30
0.0
 11
422.4166666666671
 21
635.3000000000001
 31
0.0
  0
LWPOLYLINE
  5
1AE
330
1F
100
AcDbEntity
  8
1
  6
CONTINUOUS
 62
     7
100
AcDbPolyline
 90
       35
 70
     0
 43
0.0
 10
-422.4166666666671
 20
635.3000000000001
 10
-422.415790763866
 20
635.2629667083047
 10
-422.4131685704766
 20
635.2258139619343
 10
-422.4088083590196
 20
635.1886680253416
 10
-422.4027184020154
 20
635.1516551629796
 10
-422.3949069719849
 20
635.1149016393016
 10
-422.3853823414485
 20
635.0785337187605
 10
-422.3741527829269
 20
635.0426776658089
 10
-422.3611541460751
 20
635.0072476410637
 10
-422.3464060991284
 20
634.9723041731247
 10
-422.329968076148
 20
634.9379735756698
 10
-422.3118995111946
 20
634.904382162377
 10
-422.2922598383296
 20
634.8716562469241
 10
-422.271108491614
 20
634.8399221429892
 10
-422.2485049051087
 20
634.80930616425
 10
-422.2251153767666
 20
634.7806177288817
 10
-422.2003270569665
 20
634.7529617626903
 10
-422.1742373159469
 20
634.7264273162099
 10
-422.1469435239461
 20
634.7011034399738
 10
-422.1185430512023
 20
634.6770791845162
 10
-422.089133267954
 20
634.6544436003707
 10
-422.0588115444394
 20
634.633285738071
 10
-422.027987984417
 20
634.6138611236688
 10
-421.9962553323476
 20
634.5958453268435
 10
-421.9637270235605
 20
634.5792811896683
 10
-421.9305164933851
 20
634.5642115542174
 10
-421.8967371771505
 20
634.5506792625639
 10
-421.8625025101859
 20
634.5387271567818
 10
-421.8279259278207
 20
634.5283980789444
 10
-421.79321949573
 20
634.5197354729448
 10
-421.7581666197744
 20
634.5126400369496
 10
-421.7228760994221
 20
634.5071152713082
 10
-421.6874567341414
 20
634.5031646763699
 10
-421.6520173234003
 20
634.500791752484
 10
-421.6166666666671
 20
634.5
210
0.0
220
0.0
230
-1.0
  0
LINE
  5
1AF
330
1F
100
AcDbEntity
  8
1
  6
CONTINUOUS
 62
     7
100
AcDbLine
 10
421.6166666666671
 20
634.5
 30
0.0
 11
420.722925569819
 21
634.5
 31
0.0
  0
ARC
  5
1B0
330
1F
100
AcDbEntity
  8
1
  6
CONTINUOUS
 62
     7
100
AcDbCircle
 10
422.916666666667
 20
634.0000000000001
 30
0.0
 40
2.250000000000025
100
AcDbArc
 50
167.160411593096
 51
192.8395884069043
  0
LINE
  5
1B1
330
1F
100
AcDbEntity
  8
1
  6
CONTINUOUS
 62
     7
100
AcDbLine
 10
420.722925569819
 20
633.5
 30
0.0
 11
421.6166666666671
 21
633.5
 31
0.0
  0
LINE
  5
1B2
330
1F
100
AcDbEntity
  8
1
  6
CONTINUOUS
 62
     7
100
AcDbLine
 10
422.4166666666671
 20
632.7
 30
0.0
 11
422.4166666666671
 21
630.428715169095
 31
0.0
  0
ARC
  5
1B3
330
1F
100
AcDbEntity
  8
1
  6
CONTINUOUS
 62
     7
100
AcDbCircle
 10
422.916666666667
 20
634.0000000000001
 30
0.0
 40
3.606116379632345
100
AcDbArc
 50
262.0300729587804
 51
277.9699270412195
  0
CIRCLE
  5
1B4
330
1F
100
AcDbEntity
  8
1
  6
CONTINUOUS
 62
     7
100
AcDbCircle
 10
422.916666666667
 20
634.0000000000001
 30
0.0
 40
4.691251133647434
  0
LWPOLYLINE
  5
1B5
330
1F
100
AcDbEntity
  8
1
  6
CONTINUOUS
 62
     7
100
AcDbPolyline
 90
       35
 70
     0
 43
0.0
 10
-424.2166666666671
 20
634.5
 10
-424.1796333749717
 20
634.5008759028011
 10
-424.1424806286012
 20
634.5034980961906
 10
-424.1053346920085
 20
634.5078583076476
 10
-424.0683218296467
 20
634.5139482646517
 10
-424.0315683059687
 20
634.5217596946824
 10
-423.9952003854275
 20
634.5312843252186
 10
-423.959344332476
 20
634.5425138837402
 10
-423.9239143077308
 20
634.5555125205921
 10
-423.8889708397917
 20
634.5702605675388
 10
-423.8546402423369
 20
634.5866985905192
 10
-423.821048829044
 20
634.6047671554724
 10
-423.7883229135911
 20
634.6244068283376
 10
-423.7565888096561
 20
634.6455581750532
 10
-423.725972830917
 20
634.6681617615586
 10
-423.6972843955486
 20
634.6915512899006
 10
-423.6696284293573
 20
634.7163396097006
 10
-423.6430939828768
 20
634.7424293507202
 10
-423.6177701066408
 20
634.7697231427211
 10
-423.5937458511833
 20
634.7981236154648
 10
-423.5711102670376
 20
634.8275333987131
 10
-423.549952404738
 20
634.8578551222276
 10
-423.5305277903358
 20
634.8886786822501
 10
-423.5125119935104
 20
634.9204113343195
 10
-423.4959478563354
 20
634.9529396431066
 10
-423.4808782208843
 20
634.9861501732821
 10
-423.4673459292309
 20
635.0199294895167
 10
-423.4553938234487
 20
635.0541641564813
 10
-423.4450647456114
 20
635.0887407388464
 10
-423.4364021396119
 20
635.1234471709372
 10
-423.4293067036166
 20
635.1585000468926
 10
-423.4237819379753
 20
635.193790567245
 10
-423.4198313430369
 20
635.2292099325258
 10
-423.4174584191511
 20
635.2646493432669
 10
-423.4166666666671
 20
635.3000000000001
210
0.0
220
0.0
230
-1.0
  0
LWPOLYLINE
  5
1B6
330
1F
100
AcDbEntity
  8
1
  6
CONTINUOUS
 62
     7
100
AcDbPolyline
 90
       35
 70
     0
 43
0.0
 10
-421.6166666666671
 20
633.5
 10
-421.6536999583624
 20
633.499124097199
 10
-421.6908527047329
 20
633.4965019038096
 10
-421.7279986413256
 20
633.4921416923526
 10
-421.7650115036875
 20
633.4860517353484
 10
-421.8017650273654
 20
633.4782403053179
 10
-421.8381329479067
 20
633.4687156747815
 10
-421.8739890008582
 20
633.4574861162599
 10
-421.9094190256034
 20
633.444487479408
 10
-421.9443624935424
 20
633.4297394324615
 10
-421.9786930909974
 20
633.4133014094809
 10
-422.0122845042902
 20
633.3952328445276
 10
-422.0450104197431
 20
633.3755931716627
 10
-422.076744523678
 20
633.354441824947
 10
-422.1073605024171
 20
633.3318382384416
 10
-422.1360489377856
 20
633.3084487100995
 10
-422.1637049039768
 20
633.2836603902996
 10
-422.1902393504574
 20
633.25757064928
 10
-422.2155632266933
 20
633.230276857279
 10
-422.239587482151
 20
633.2018763845352
 10
-422.2622230662964
 20
633.1724666012869
 10
-422.2833809285962
 20
633.1421448777726
 10
-422.3028055429984
 20
633.11132131775
 10
-422.3208213398237
 20
633.0795886656806
 10
-422.3373854769988
 20
633.0470603568936
 10
-422.3524551124498
 20
633.0138498267181
 10
-422.3659874041032
 20
632.9800705104835
 10
-422.3779395098854
 20
632.9458358435189
 10
-422.3882685877227
 20
632.9112592611536
 10
-422.3969311937224
 20
632.8765528290629
 10
-422.4040266297175
 20
632.8414999531074
 10
-422.409551395359
 20
632.806209432755
 10
-422.4135019902973
 20
632.7707900674744
 10
-422.4158749141831
 20
632.7353506567332
 10
-422.4166666666671
 20
632.7
210
0.0
220
0.0
230
-1.0
  0
LWPOLYLINE
  5
1B7
330
1F
100
AcDbEntity
  8
1
  6
CONTINUOUS
 62
     7
100
AcDbPolyline
 90
       35
 70
     0
 43
0.0
 10
-423.4166666666671
 20
632.7
 10
-423.4175425694681
 20
632.7370332916955
 10
-423.4201647628575
 20
632.774186038066
 10
-423.4245249743146
 20
632.8113319746586
 10
-423.4306149313187
 20
632.8483448370205
 10
-423.4384263613493
 20
632.8850983606985
 10
-423.4479509918857
 20
632.9214662812396
 10
-423.4591805504072
 20
632.9573223341912
 10
-423.472179187259
 20
632.9927523589365
 10
-423.4869272342057
 20
633.0276958268754
 10
-423.5033652571862
 20
633.0620264243303
 10
-423.5214338221394
 20
633.0956178376232
 10
-423.5410734950045
 20
633.128343753076
 10
-423.5622248417203
 20
633.160077857011
 10
-423.5848284282255
 20
633.19069383575
 10
-423.6082179565676
 20
633.2193822711185
 10
-423.6330062763676
 20
633.2470382373099
 10
-423.6590960173871
 20
633.2735726837903
 10
-423.686389809388
 20
633.2988965600264
 10
-423.7147902821318
 20
633.322920815484
 10
-423.7442000653801
 20
633.3455563996295
 10
-423.7745217888946
 20
633.3667142619291
 10
-423.8053453489171
 20
633.3861388763313
 10
-423.8370780009865
 20
633.4041546731568
 10
-423.8696063097735
 20
633.4207188103318
 10
-423.902816839949
 20
633.4357884457828
 10
-423.9365961561837
 20
633.4493207374362
 10
-423.9708308231482
 20
633.4612728432184
 10
-424.0054074055134
 20
633.4716019210558
 10
-424.0401138376042
 20
633.4802645270554
 10
-424.0751667135597
 20
633.4873599630505
 10
-424.110457233912
 20
633.4928847286919
 10
-424.1458765991928
 20
633.4968353236302
 10
-424.1813160099338
 20
633.499208247516
 10
-424.2166666666671
 20
633.5
210
0.0
220
0.0
230
-1.0
  0
ARC
  5
1B8
330
1F
100
AcDbEntity
  8
1
  6
CONTINUOUS
 62
     7
100
AcDbCircle
 10
422.916666666667
 20
634.0000000000001
 30
0.0
 40
1.834778891428099
100
AcDbArc
 50
74.18617583029146
 51
105.8138241697085
  0
ARC
  5
1B9
330
1F
100
AcDbEntity
  8
1
  6
CONTINUOUS
 62
     7
100
AcDbCircle
 10
422.916666666667
 20
634.0000000000001
 30
0.0
 40
1.834778891428046
100
AcDbArc
 50
254.1861758302914
 51
285.8138241697084
  0
CIRCLE
  5
1BA
330
1F
100
AcDbEntity
  8
1
  6
CONTINUOUS
 62
     7
100
AcDbCircle
 10
422.916666666667
 20
634.0000000000001
 30
0.0
 40
4.700000000000037
  0
LINE
  5
1BB
330
1F
100
AcDbEntity
  8
1
  6
CONTINUOUS
 62
     7
100
AcDbLine
 10
308.4166666666671
 20
630.4287151690951
 30
0.0
 11
308.4166666666671
 21
632.7000000000002
 31
0.0
  0
LINE
  5
1BC
330
1F
100
AcDbEntity
  8
1
  6
CONTINUOUS
 62
     7
100
AcDbLine
 10
309.2166666666672
 20
633.5
 30
0.0
 11
310.1104077635152
 21
633.5
 31
0.0
  0
ARC
  5
1BD
330
1F
100
AcDbEntity
  8
1
  6
CONTINUOUS
 62
     7
100
AcDbCircle
 10
307.916666666667
 20
634.0000000000001
 30
0.0
 40
2.250000000000037
100
AcDbArc
 50
347.1604115930957
 51
12.83958840690406
  0
LINE
  5
1BE
330
1F
100
AcDbEntity
  8
1
  6
CONTINUOUS
 62
     7
100
AcDbLine
 10
310.1104077635152
 20
634.5
 30
0.0
 11
309.2166666666672
 21
634.5
 31
0.0
  0
LINE
  5
1BF
330
1F
100
AcDbEntity
  8
1
  6
CONTINUOUS
 62
     7
100
AcDbLine
 10
308.4166666666671
 20
635.3000000000001
 30
0.0
 11
308.4166666666671
 21
637.5712848309051
 31
0.0
  0
ARC
  5
1C0
330
1F
100
AcDbEntity
  8
1
  6
CONTINUOUS
 62
     7
100
AcDbCircle
 10
307.916666666667
 20
634.0000000000001
 30
0.0
 40
3.606116379632345
100
AcDbArc
 50
82.03007295878035
 51
97.96992704121966
  0
LINE
  5
1C1
330
1F
100
AcDbEntity
  8
1
  6
CONTINUOUS
 62
     7
100
AcDbLine
 10
307.4166666666671
 20
637.5712848309051
 30
0.0
 11
307.4166666666671
 21
635.3000000000001
 31
0.0
  0
LWPOLYLINE
  5
1C2
330
1F
100
AcDbEntity
  8
1
  6
CONTINUOUS
 62
     7
100
AcDbPolyline
 90
       35
 70
     0
 43
0.0
 10
-307.4166666666671
 20
635.3000000000001
 10
-307.415790763866
 20
635.2629667083047
 10
-307.4131685704766
 20
635.2258139619343
 10
-307.4088083590196
 20
635.1886680253416
 10
-307.4027184020155
 20
635.1516551629796
 10
-307.3949069719849
 20
635.1149016393016
 10
-307.3853823414485
 20
635.0785337187605
 10
-307.374152782927
 20
635.0426776658089
 10
-307.3611541460751
 20
635.0072476410637
 10
-307.3464060991284
 20
634.9723041731247
 10
-307.329968076148
 20
634.9379735756698
 10
-307.3118995111947
 20
634.904382162377
 10
-307.2922598383296
 20
634.8716562469241
 10
-307.271108491614
 20
634.8399221429892
 10
-307.2485049051087
 20
634.80930616425
 10
-307.2251153767666
 20
634.7806177288817
 10
-307.2003270569666
 20
634.7529617626903
 10
-307.1742373159469
 20
634.7264273162099
 10
-307.1469435239461
 20
634.7011034399738
 10
-307.1185430512023
 20
634.6770791845162
 10
-307.0891332679541
 20
634.6544436003707
 10
-307.0588115444395
 20
634.633285738071
 10
-307.027987984417
 20
634.6138611236688
 10
-306.9962553323476
 20
634.5958453268435
 10
-306.9637270235606
 20
634.5792811896684
 10
-306.9305164933851
 20
634.5642115542174
 10
-306.8967371771505
 20
634.5506792625639
 10
-306.862502510186
 20
634.5387271567818
 10
-306.8279259278207
 20
634.5283980789444
 10
-306.79321949573
 20
634.5197354729448
 10
-306.7581666197744
 20
634.5126400369496
 10
-306.7228760994221
 20
634.5071152713082
 10
-306.6874567341414
 20
634.5031646763699
 10
-306.6520173234003
 20
634.500791752484
 10
-306.6166666666671
 20
634.5
210
0.0
220
0.0
230
-1.0
  0
LINE
  5
1C3
330
1F
100
AcDbEntity
  8
1
  6
CONTINUOUS
 62
     7
100
AcDbLine
 10
306.6166666666671
 20
634.5
 30
0.0
 11
305.722925569819
 21
634.5
 31
0.0
  0
ARC
  5
1C4
330
1F
100
AcDbEntity
  8
1
  6
CONTINUOUS
 62
     7
100
AcDbCircle
 10
307.916666666667
 20
634.0000000000001
 30
0.0
 40
2.250000000000025
100
AcDbArc
 50
167.1604115930959
 51
192.8395884069043
  0
LINE
  5
1C5
330
1F
100
AcDbEntity
  8
1
  6
CONTINUOUS
 62
     7
100
AcDbLine
 10
305.722925569819
 20
633.5
 30
0.0
 11
306.6166666666671
 21
633.5
 31
0.0
  0
LINE
  5
1C6
330
1F
100
AcDbEntity
  8
1
  6
CONTINUOUS
 62
     7
100
AcDbLine
 10
307.4166666666671
 20
632.7
 30
0.0
 11
307.4166666666671
 21
630.428715169095
 31
0.0
  0
ARC
  5
1C7
330
1F
100
AcDbEntity
  8
1
  6
CONTINUOUS
 62
     7
100
AcDbCircle
 10
307.916666666667
 20
634.0000000000001
 30
0.0
 40
3.606116379632399
100
AcDbArc
 50
262.0300729587804
 51
277.9699270412195
  0
CIRCLE
  5
1C8
330
1F
100
AcDbEntity
  8
1
  6
CONTINUOUS
 62
     7
100
AcDbCircle
 10
307.916666666667
 20
634.0000000000001
 30
0.0
 40
4.691251133647378
  0
LWPOLYLINE
  5
1C9
330
1F
100
AcDbEntity
  8
1
  6
CONTINUOUS
 62
     7
100
AcDbPolyline
 90
       35
 70
     0
 43
0.0
 10
-309.2166666666672
 20
634.5
 10
-309.1796333749717
 20
634.5008759028011
 10
-309.1424806286012
 20
634.5034980961906
 10
-309.1053346920085
 20
634.5078583076476
 10
-309.0683218296467
 20
634.5139482646517
 10
-309.0315683059687
 20
634.5217596946824
 10
-308.9952003854275
 20
634.5312843252186
 10
-308.959344332476
 20
634.5425138837402
 10
-308.9239143077308
 20
634.5555125205921
 10
-308.8889708397917
 20
634.5702605675388
 10
-308.8546402423369
 20
634.5866985905193
 10
-308.8210488290441
 20
634.6047671554724
 10
-308.7883229135911
 20
634.6244068283376
 10
-308.7565888096562
 20
634.6455581750532
 10
-308.725972830917
 20
634.6681617615586
 10
-308.6972843955486
 20
634.6915512899006
 10
-308.6696284293573
 20
634.7163396097006
 10
-308.6430939828768
 20
634.7424293507202
 10
-308.6177701066408
 20
634.7697231427211
 10
-308.5937458511833
 20
634.7981236154648
 10
-308.5711102670376
 20
634.8275333987131
 10
-308.549952404738
 20
634.8578551222276
 10
-308.5305277903358
 20
634.8886786822501
 10
-308.5125119935104
 20
634.9204113343195
 10
-308.4959478563354
 20
634.9529396431066
 10
-308.4808782208843
 20
634.9861501732821
 10
-308.467345929231
 20
635.0199294895167
 10
-308.4553938234488
 20
635.0541641564813
 10
-308.4450647456114
 20
635.0887407388465
 10
-308.4364021396119
 20
635.1234471709372
 10
-308.4293067036166
 20
635.1585000468928
 10
-308.4237819379753
 20
635.193790567245
 10
-308.4198313430369
 20
635.2292099325258
 10
-308.4174584191511
 20
635.2646493432669
 10
-308.4166666666671
 20
635.3000000000001
210
0.0
220
0.0
230
-1.0
  0
LWPOLYLINE
  5
1CA
330
1F
100
AcDbEntity
  8
1
  6
CONTINUOUS
 62
     7
100
AcDbPolyline
 90
       35
 70
     0
 43
0.0
 10
-306.6166666666671
 20
633.5000000000001
 10
-306.6536999583624
 20
633.499124097199
 10
-306.6908527047331
 20
633.4965019038096
 10
-306.7279986413257
 20
633.4921416923526
 10
-306.7650115036875
 20
633.4860517353484
 10
-306.8017650273655
 20
633.4782403053179
 10
-306.8381329479067
 20
633.4687156747815
 10
-306.8739890008582
 20
633.4574861162599
 10
-306.9094190256034
 20
633.444487479408
 10
-306.9443624935424
 20
633.4297394324615
 10
-306.9786930909974
 20
633.4133014094809
 10
-307.0122845042902
 20
633.3952328445276
 10
-307.0450104197431
 20
633.3755931716627
 10
-307.076744523678
 20
633.354441824947
 10
-307.1073605024172
 20
633.3318382384416
 10
-307.1360489377856
 20
633.3084487100995
 10
-307.1637049039768
 20
633.2836603902996
 10
-307.1902393504574
 20
633.25757064928
 10
-307.2155632266933
 20
633.230276857279
 10
-307.239587482151
 20
633.2018763845354
 10
-307.2622230662965
 20
633.1724666012869
 10
-307.2833809285962
 20
633.1421448777726
 10
-307.3028055429984
 20
633.11132131775
 10
-307.3208213398239
 20
633.0795886656806
 10
-307.3373854769989
 20
633.0470603568936
 10
-307.3524551124498
 20
633.0138498267181
 10
-307.3659874041032
 20
632.9800705104835
 10
-307.3779395098854
 20
632.9458358435189
 10
-307.3882685877228
 20
632.9112592611536
 10
-307.3969311937224
 20
632.8765528290629
 10
-307.4040266297175
 20
632.8414999531075
 10
-307.409551395359
 20
632.806209432755
 10
-307.4135019902973
 20
632.7707900674744
 10
-307.4158749141831
 20
632.7353506567332
 10
-307.4166666666671
 20
632.7
210
0.0
220
0.0
230
-1.0
  0
LWPOLYLINE
  5
1CB
330
1F
100
AcDbEntity
  8
1
  6
CONTINUOUS
 62
     7
100
AcDbPolyline
 90
       35
 70
     0
 43
0.0
 10
-308.4166666666671
 20
632.7
 10
-308.4175425694682
 20
632.7370332916955
 10
-308.4201647628575
 20
632.774186038066
 10
-308.4245249743146
 20
632.8113319746586
 10
-308.4306149313188
 20
632.8483448370205
 10
-308.4384263613493
 20
632.8850983606985
 10
-308.4479509918857
 20
632.9214662812396
 10
-308.4591805504072
 20
632.9573223341912
 10
-308.4721791872591
 20
632.9927523589365
 10
-308.4869272342058
 20
633.0276958268754
 10
-308.5033652571863
 20
633.0620264243303
 10
-308.5214338221395
 20
633.0956178376232
 10
-308.5410734950045
 20
633.128343753076
 10
-308.5622248417203
 20
633.160077857011
 10
-308.5848284282255
 20
633.19069383575
 10
-308.6082179565676
 20
633.2193822711185
 10
-308.6330062763676
 20
633.2470382373099
 10
-308.6590960173872
 20
633.2735726837903
 10
-308.686389809388
 20
633.2988965600264
 10
-308.7147902821318
 20
633.322920815484
 10
-308.7442000653801
 20
633.3455563996295
 10
-308.7745217888947
 20
633.3667142619291
 10
-308.8053453489171
 20
633.3861388763313
 10
-308.8370780009866
 20
633.4041546731568
 10
-308.8696063097735
 20
633.4207188103318
 10
-308.902816839949
 20
633.4357884457828
 10
-308.9365961561837
 20
633.4493207374362
 10
-308.9708308231482
 20
633.4612728432184
 10
-309.0054074055134
 20
633.4716019210558
 10
-309.0401138376042
 20
633.4802645270554
 10
-309.0751667135597
 20
633.4873599630506
 10
-309.110457233912
 20
633.4928847286919
 10
-309.1458765991928
 20
633.4968353236302
 10
-309.1813160099339
 20
633.499208247516
 10
-309.2166666666672
 20
633.5
210
0.0
220
0.0
230
-1.0
  0
ARC
  5
1CC
330
1F
100
AcDbEntity
  8
1
  6
CONTINUOUS
 62
     7
100
AcDbCircle
 10
307.916666666667
 20
634.0000000000001
 30
0.0
 40
1.834778891428046
100
AcDbArc
 50
74.18617583029146
 51
105.8138241697085
  0
ARC
  5
1CD
330
1F
100
AcDbEntity
  8
1
  6
CONTINUOUS
 62
     7
100
AcDbCircle
 10
307.916666666667
 20
634.0000000000001
 30
0.0
 40
1.834778891428099
100
AcDbArc
 50
254.1861758302915
 51
285.8138241697088
  0
CIRCLE
  5
1CE
330
1F
100
AcDbEntity
  8
1
  6
CONTINUOUS
 62
     7
100
AcDbCircle
 10
307.916666666667
 20
634.0000000000001
 30
0.0
 40
4.699999999999982
  0
LINE
  5
1CF
330
1F
100
AcDbEntity
  8
1
  6
CONTINUOUS
 62
     7
100
AcDbLine
 10
193.4166666666671
 20
630.4287151690951
 30
0.0
 11
193.4166666666671
 21
632.7000000000002
 31
0.0
  0
LINE
  5
1D0
330
1F
100
AcDbEntity
  8
1
  6
CONTINUOUS
 62
     7
100
AcDbLine
 10
194.2166666666671
 20
633.5000000000001
 30
0.0
 11
195.1104077635151
 21
633.5000000000001
 31
0.0
  0
ARC
  5
1D1
330
1F
100
AcDbEntity
  8
1
  6
CONTINUOUS
 62
     7
100
AcDbCircle
 10
192.9166666666671
 20
634.0000000000001
 30
0.0
 40
2.249999999999998
100
AcDbArc
 50
347.1604115930957
 51
12.83958840690406
  0
LINE
  5
1D2
330
1F
100
AcDbEntity
  8
1
  6
CONTINUOUS
 62
     7
100
AcDbLine
 10
195.1104077635151
 20
634.5
 30
0.0
 11
194.2166666666671
 21
634.5
 31
0.0
  0
LINE
  5
1D3
330
1F
100
AcDbEntity
  8
1
  6
CONTINUOUS
 62
     7
100
AcDbLine
 10
193.4166666666671
 20
635.3000000000001
 30
0.0
 11
193.4166666666671
 21
637.5712848309051
 31
0.0
  0
ARC
  5
1D4
330
1F
100
AcDbEntity
  8
1
  6
CONTINUOUS
 62
     7
100
AcDbCircle
 10
192.9166666666671
 20
634.0000000000001
 30
0.0
 40
3.606116379632396
100
AcDbArc
 50
82.03007295878041
 51
97.9699270412192
  0
LINE
  5
1D5
330
1F
100
AcDbEntity
  8
1
  6
CONTINUOUS
 62
     7
100
AcDbLine
 10
192.4166666666671
 20
637.5712848309051
 30
0.0
 11
192.4166666666671
 21
635.3
 31
0.0
  0
LWPOLYLINE
  5
1D6
330
1F
100
AcDbEntity
  8
1
  6
CONTINUOUS
 62
     7
100
AcDbPolyline
 90
       35
 70
     0
 43
0.0
 10
-192.4166666666671
 20
635.3000000000001
 10
-192.415790763866
 20
635.2629667083047
 10
-192.4131685704767
 20
635.2258139619343
 10
-192.4088083590196
 20
635.1886680253416
 10
-192.4027184020154
 20
635.1516551629796
 10
-192.3949069719848
 20
635.1149016393016
 10
-192.3853823414484
 20
635.0785337187605
 10
-192.3741527829269
 20
635.0426776658089
 10
-192.3611541460751
 20
635.0072476410637
 10
-192.3464060991284
 20
634.9723041731247
 10
-192.3299680761479
 20
634.9379735756698
 10
-192.3118995111947
 20
634.904382162377
 10
-192.2922598383297
 20
634.8716562469241
 10
-192.271108491614
 20
634.8399221429892
 10
-192.2485049051086
 20
634.8093061642501
 10
-192.2251153767665
 20
634.7806177288817
 10
-192.2003270569666
 20
634.7529617626903
 10
-192.174237315947
 20
634.7264273162099
 10
-192.1469435239461
 20
634.7011034399738
 10
-192.1185430512024
 20
634.6770791845162
 10
-192.089133267954
 20
634.6544436003707
 10
-192.0588115444395
 20
634.633285738071
 10
-192.027987984417
 20
634.6138611236688
 10
-191.9962553323476
 20
634.5958453268435
 10
-191.9637270235606
 20
634.5792811896684
 10
-191.9305164933851
 20
634.5642115542174
 10
-191.8967371771505
 20
634.5506792625639
 10
-191.8625025101859
 20
634.5387271567818
 10
-191.8279259278207
 20
634.5283980789444
 10
-191.79321949573
 20
634.5197354729448
 10
-191.7581666197744
 20
634.5126400369496
 10
-191.7228760994221
 20
634.5071152713082
 10
-191.6874567341414
 20
634.5031646763699
 10
-191.6520173234003
 20
634.500791752484
 10
-191.6166666666671
 20
634.5
210
0.0
220
0.0
230
-1.0
  0
LINE
  5
1D7
330
1F
100
AcDbEntity
  8
1
  6
CONTINUOUS
 62
     7
100
AcDbLine
 10
191.6166666666671
 20
634.5
 30
0.0
 11
190.722925569819
 21
634.5
 31
0.0
  0
ARC
  5
1D8
330
1F
100
AcDbEntity
  8
1
  6
CONTINUOUS
 62
     7
100
AcDbCircle
 10
192.9166666666671
 20
634.0000000000001
 30
0.0
 40
2.249999999999998
100
AcDbArc
 50
167.1604115930959
 51
192.8395884069043
  0
LINE
  5
1D9
330
1F
100
AcDbEntity
  8
1
  6
CONTINUOUS
 62
     7
100
AcDbLine
 10
190.722925569819
 20
633.5000000000001
 30
0.0
 11
191.6166666666671
 21
633.5000000000001
 31
0.0
  0
LINE
  5
1DA
330
1F
100
AcDbEntity
  8
1
  6
CONTINUOUS
 62
     7
100
AcDbLine
 10
192.416666666667
 20
632.7
 30
0.0
 11
192.416666666667
 21
630.428715169095
 31
0.0
  0
ARC
  5
1DB
330
1F
100
AcDbEntity
  8
1
  6
CONTINUOUS
 62
     7
100
AcDbCircle
 10
192.9166666666671
 20
634.0000000000001
 30
0.0
 40
3.606116379632399
100
AcDbArc
 50
262.0300729587808
 51
277.9699270412195
  0
CIRCLE
  5
1DC
330
1F
100
AcDbEntity
  8
1
  6
CONTINUOUS
 62
     7
100
AcDbCircle
 10
192.9166666666671
 20
634.0000000000001
 30
0.0
 40
4.691251133647378
  0
LWPOLYLINE
  5
1DD
330
1F
100
AcDbEntity
  8
1
  6
CONTINUOUS
 62
     7
100
AcDbPolyline
 90
       35
 70
     0
 43
0.0
 10
-194.2166666666671
 20
634.5
 10
-194.1796333749717
 20
634.5008759028011
 10
-194.1424806286011
 20
634.5034980961906
 10
-194.1053346920085
 20
634.5078583076476
 10
-194.0683218296467
 20
634.5139482646517
 10
-194.0315683059686
 20
634.5217596946824
 10
-193.9952003854274
 20
634.5312843252186
 10
-193.959344332476
 20
634.5425138837402
 10
-193.9239143077307
 20
634.5555125205921
 10
-193.8889708397917
 20
634.5702605675388
 10
-193.8546402423368
 20
634.5866985905193
 10
-193.821048829044
 20
634.6047671554724
 10
-193.7883229135911
 20
634.6244068283376
 10
-193.7565888096562
 20
634.6455581750532
 10
-193.725972830917
 20
634.6681617615586
 10
-193.6972843955486
 20
634.6915512899006
 10
-193.6696284293573
 20
634.7163396097006
 10
-193.6430939828768
 20
634.7424293507202
 10
-193.6177701066408
 20
634.7697231427211
 10
-193.5937458511832
 20
634.7981236154649
 10
-193.5711102670377
 20
634.8275333987131
 10
-193.549952404738
 20
634.8578551222276
 10
-193.5305277903358
 20
634.8886786822501
 10
-193.5125119935103
 20
634.9204113343195
 10
-193.4959478563353
 20
634.9529396431066
 10
-193.4808782208843
 20
634.9861501732821
 10
-193.4673459292309
 20
635.0199294895167
 10
-193.4553938234488
 20
635.0541641564813
 10
-193.4450647456114
 20
635.0887407388465
 10
-193.4364021396118
 20
635.1234471709372
 10
-193.4293067036166
 20
635.1585000468928
 10
-193.4237819379752
 20
635.193790567245
 10
-193.4198313430369
 20
635.2292099325258
 10
-193.4174584191511
 20
635.2646493432669
 10
-193.4166666666671
 20
635.3000000000001
210
0.0
220
0.0
230
-1.0
  0
LWPOLYLINE
  5
1DE
330
1F
100
AcDbEntity
  8
1
  6
CONTINUOUS
 62
     7
100
AcDbPolyline
 90
       35
 70
     0
 43
0.0
 10
-191.6166666666671
 20
633.5000000000001
 10
-191.6536999583625
 20
633.499124097199
 10
-191.690852704733
 20
633.4965019038096
 10
-191.7279986413256
 20
633.4921416923526
 10
-191.7650115036874
 20
633.4860517353484
 10
-191.8017650273655
 20
633.4782403053179
 10
-191.8381329479067
 20
633.4687156747815
 10
-191.8739890008582
 20
633.4574861162599
 10
-191.9094190256034
 20
633.444487479408
 10
-191.9443624935424
 20
633.4297394324615
 10
-191.9786930909973
 20
633.4133014094809
 10
-192.0122845042902
 20
633.3952328445276
 10
-192.045010419743
 20
633.3755931716627
 10
-192.076744523678
 20
633.354441824947
 10
-192.1073605024171
 20
633.3318382384416
 10
-192.1360489377855
 20
633.3084487100995
 10
-192.1637049039768
 20
633.2836603902996
 10
-192.1902393504573
 20
633.25757064928
 10
-192.2155632266933
 20
633.230276857279
 10
-192.2395874821509
 20
633.2018763845354
 10
-192.2622230662965
 20
633.1724666012869
 10
-192.2833809285961
 20
633.1421448777726
 10
-192.3028055429984
 20
633.11132131775
 10
-192.3208213398238
 20
633.0795886656806
 10
-192.3373854769988
 20
633.0470603568936
 10
-192.3524551124498
 20
633.0138498267181
 10
-192.3659874041032
 20
632.9800705104835
 10
-192.3779395098854
 20
632.9458358435189
 10
-192.3882685877228
 20
632.9112592611538
 10
-192.3969311937223
 20
632.8765528290629
 10
-192.4040266297175
 20
632.8414999531075
 10
-192.4095513953589
 20
632.806209432755
 10
-192.4135019902972
 20
632.7707900674744
 10
-192.415874914183
 20
632.7353506567332
 10
-192.416666666667
 20
632.7
210
0.0
220
0.0
230
-1.0
  0
LWPOLYLINE
  5
1DF
330
1F
100
AcDbEntity
  8
1
  6
CONTINUOUS
 62
     7
100
AcDbPolyline
 90
       35
 70
     0
 43
0.0
 10
-193.4166666666671
 20
632.7
 10
-193.4175425694681
 20
632.7370332916955
 10
-193.4201647628575
 20
632.774186038066
 10
-193.4245249743146
 20
632.8113319746586
 10
-193.4306149313187
 20
632.8483448370205
 10
-193.4384263613493
 20
632.8850983606985
 10
-193.4479509918857
 20
632.9214662812396
 10
-193.4591805504072
 20
632.9573223341912
 10
-193.472179187259
 20
632.9927523589365
 10
-193.4869272342057
 20
633.0276958268754
 10
-193.5033652571862
 20
633.0620264243303
 10
-193.5214338221394
 20
633.0956178376232
 10
-193.5410734950045
 20
633.1283437530761
 10
-193.5622248417202
 20
633.160077857011
 10
-193.5848284282255
 20
633.19069383575
 10
-193.6082179565676
 20
633.2193822711185
 10
-193.6330062763676
 20
633.2470382373099
 10
-193.6590960173872
 20
633.2735726837903
 10
-193.686389809388
 20
633.2988965600264
 10
-193.7147902821318
 20
633.322920815484
 10
-193.7442000653801
 20
633.3455563996295
 10
-193.7745217888947
 20
633.3667142619292
 10
-193.8053453489171
 20
633.3861388763313
 10
-193.8370780009865
 20
633.4041546731568
 10
-193.8696063097736
 20
633.4207188103318
 10
-193.902816839949
 20
633.4357884457828
 10
-193.9365961561837
 20
633.4493207374362
 10
-193.9708308231482
 20
633.4612728432184
 10
-194.0054074055134
 20
633.4716019210558
 10
-194.0401138376041
 20
633.4802645270554
 10
-194.0751667135597
 20
633.4873599630506
 10
-194.110457233912
 20
633.492884728692
 10
-194.1458765991928
 20
633.4968353236303
 10
-194.1813160099339
 20
633.4992082475161
 10
-194.2166666666671
 20
633.5000000000001
210
0.0
220
0.0
230
-1.0
  0
ARC
  5
1E0
330
1F
100
AcDbEntity
  8
1
  6
CONTINUOUS
 62
     7
100
AcDbCircle
 10
192.9166666666671
 20
634.0000000000001
 30
0.0
 40
1.834778891428038
100
AcDbArc
 50
74.18617583029146
 51
105.8138241697077
  0
ARC
  5
1E1
330
1F
100
AcDbEntity
  8
1
  6
CONTINUOUS
 62
     7
100
AcDbCircle
 10
192.9166666666671
 20
634.0000000000001
 30
0.0
 40
1.834778891428099
100
AcDbArc
 50
254.1861758302923
 51
285.8138241697088
  0
CIRCLE
  5
1E2
330
1F
100
AcDbEntity
  8
1
  6
CONTINUOUS
 62
     7
100
AcDbCircle
 10
192.9166666666671
 20
634.0000000000001
 30
0.0
 40
4.699999999999982
  0
LINE
  5
1E3
330
1F
100
AcDbEntity
  8
1
  6
CONTINUOUS
 62
     7
100
AcDbLine
 10
78.41666666666706
 20
630.4287151690951
 30
0.0
 11
78.41666666666706
 21
632.7000000000002
 31
0.0
  0
LINE
  5
1E4
330
1F
100
AcDbEntity
  8
1
  6
CONTINUOUS
 62
     7
100
AcDbLine
 10
79.21666666666707
 20
633.5000000000001
 30
0.0
 11
80.1104077635151
 21
633.5000000000001
 31
0.0
  0
ARC
  5
1E5
330
1F
100
AcDbEntity
  8
1
  6
CONTINUOUS
 62
     7
100
AcDbCircle
 10
77.91666666666706
 20
634.0000000000001
 30
0.0
 40
2.250000000000025
100
AcDbArc
 50
347.1604115930959
 51
12.83958840690389
  0
LINE
  5
1E6
330
1F
100
AcDbEntity
  8
1
  6
CONTINUOUS
 62
     7
100
AcDbLine
 10
80.1104077635151
 20
634.5
 30
0.0
 11
79.21666666666707
 21
634.5
 31
0.0
  0
LINE
  5
1E7
330
1F
100
AcDbEntity
  8
1
  6
CONTINUOUS
 62
     7
100
AcDbLine
 10
78.41666666666706
 20
635.3000000000001
 30
0.0
 11
78.41666666666706
 21
637.5712848309051
 31
0.0
  0
ARC
  5
1E8
330
1F
100
AcDbEntity
  8
1
  6
CONTINUOUS
 62
     7
100
AcDbCircle
 10
77.91666666666706
 20
634.0000000000001
 30
0.0
 40
3.606116379632399
100
AcDbArc
 50
82.03007295878035
 51
97.96992704121966
  0
LINE
  5
1E9
330
1F
100
AcDbEntity
  8
1
  6
CONTINUOUS
 62
     7
100
AcDbLine
 10
77.41666666666706
 20
637.5712848309051
 30
0.0
 11
77.41666666666706
 21
635.3
 31
0.0
  0
LWPOLYLINE
  5
1EA
330
1F
100
AcDbEntity
  8
1
  6
CONTINUOUS
 62
     7
100
AcDbPolyline
 90
       35
 70
     0
 43
0.0
 10
-77.41666666666706
 20
635.3000000000001
 10
-77.41579076386599
 20
635.2629667083047
 10
-77.41316857047661
 20
635.2258139619343
 10
-77.40880835901956
 20
635.1886680253416
 10
-77.40271840201537
 20
635.1516551629796
 10
-77.39490697198478
 20
635.1149016393016
 10
-77.38538234144845
 20
635.0785337187605
 10
-77.37415278292688
 20
635.042677665809
 10
-77.36115414607511
 20
635.0072476410637
 10
-77.34640609912843
 20
634.9723041731247
 10
-77.32996807614792
 20
634.9379735756698
 10
-77.31189951119462
 20
634.904382162377
 10
-77.29225983832963
 20
634.8716562469241
 10
-77.27110849161392
 20
634.8399221429892
 10
-77.24850490510856
 20
634.8093061642501
 10
-77.22511537676654
 20
634.7806177288817
 10
-77.20032705696653
 20
634.7529617626903
 10
-77.17423731594694
 20
634.7264273162099
 10
-77.1469435239461
 20
634.7011034399738
 10
-77.11854305120232
 20
634.6770791845162
 10
-77.089133267954
 20
634.6544436003707
 10
-77.05881154443946
 20
634.633285738071
 10
-77.02798798441698
 20
634.6138611236688
 10
-76.99625533234763
 20
634.5958453268435
 10
-76.96372702356055
 20
634.5792811896684
 10
-76.93051649338508
 20
634.5642115542174
 10
-76.89673717715043
 20
634.5506792625639
 10
-76.86250251018592
 20
634.5387271567818
 10
-76.8279259278207
 20
634.5283980789444
 10
-76.79321949572996
 20
634.5197354729448
 10
-76.75816661977439
 20
634.5126400369496
 10
-76.72287609942211
 20
634.5071152713082
 10
-76.68745673414138
 20
634.5031646763699
 10
-76.65201732340029
 20
634.500791752484
 10
-76.61666666666703
 20
634.5
210
0.0
220
0.0
230
-1.0
  0
LINE
  5
1EB
330
1F
100
AcDbEntity
  8
1
  6
CONTINUOUS
 62
     7
100
AcDbLine
 10
76.61666666666703
 20
634.5
 30
0.0
 11
75.722925569819
 21
634.5
 31
0.0
  0
ARC
  5
1EC
330
1F
100
AcDbEntity
  8
1
  6
CONTINUOUS
 62
     7
100
AcDbCircle
 10
77.91666666666706
 20
634.0000000000001
 30
0.0
 40
2.250000000000025
100
AcDbArc
 50
167.1604115930961
 51
192.8395884069041
  0
LINE
  5
1ED
330
1F
100
AcDbEntity
  8
1
  6
CONTINUOUS
 62
     7
100
AcDbLine
 10
75.722925569819
 20
633.5000000000001
 30
0.0
 11
76.61666666666703
 21
633.5000000000001
 31
0.0
  0
LINE
  5
1EE
330
1F
100
AcDbEntity
  8
1
  6
CONTINUOUS
 62
     7
100
AcDbLine
 10
77.41666666666706
 20
632.7
 30
0.0
 11
77.41666666666706
 21
630.428715169095
 31
0.0
  0
ARC
  5
1EF
330
1F
100
AcDbEntity
  8
1
  6
CONTINUOUS
 62
     7
100
AcDbCircle
 10
77.91666666666706
 20
634.0000000000001
 30
0.0
 40
3.606116379632399
100
AcDbArc
 50
262.0300729587804
 51
277.9699270412195
  0
CIRCLE
  5
1F0
330
1F
100
AcDbEntity
  8
1
  6
CONTINUOUS
 62
     7
100
AcDbCircle
 10
77.91666666666706
 20
634.0000000000001
 30
0.0
 40
4.691251133647378
  0
LWPOLYLINE
  5
1F1
330
1F
100
AcDbEntity
  8
1
  6
CONTINUOUS
 62
     7
100
AcDbPolyline
 90
       35
 70
     0
 43
0.0
 10
-79.21666666666707
 20
634.5
 10
-79.17963337497166
 20
634.5008759028011
 10
-79.14248062860116
 20
634.5034980961906
 10
-79.1053346920085
 20
634.5078583076476
 10
-79.06832182964665
 20
634.5139482646517
 10
-79.03156830596866
 20
634.5217596946824
 10
-78.99520038542742
 20
634.5312843252186
 10
-78.95934433247595
 20
634.5425138837402
 10
-78.92391430773074
 20
634.5555125205921
 10
-78.88897083979171
 20
634.5702605675388
 10
-78.85464024233681
 20
634.5866985905193
 10
-78.82104882904397
 20
634.6047671554724
 10
-78.78832291359109
 20
634.6244068283376
 10
-78.75658880965611
 20
634.6455581750532
 10
-78.725972830917
 20
634.6681617615586
 10
-78.69728439554859
 20
634.6915512899006
 10
-78.66962842935729
 20
634.7163396097006
 10
-78.64309398287675
 20
634.7424293507202
 10
-78.6177701066408
 20
634.7697231427211
 10
-78.59374585118314
 20
634.7981236154649
 10
-78.57111026703764
 20
634.8275333987132
 10
-78.54995240473797
 20
634.8578551222276
 10
-78.53052779033578
 20
634.8886786822502
 10
-78.51251199351036
 20
634.9204113343195
 10
-78.49594785633532
 20
634.9529396431066
 10
-78.4808782208843
 20
634.9861501732821
 10
-78.4673459292309
 20
635.0199294895167
 10
-78.4553938234487
 20
635.0541641564813
 10
-78.44506474561139
 20
635.0887407388465
 10
-78.43640213961176
 20
635.1234471709372
 10
-78.42930670361662
 20
635.1585000468928
 10
-78.42378193797519
 20
635.193790567245
 10
-78.4198313430369
 20
635.2292099325258
 10
-78.41745841915107
 20
635.2646493432669
 10
-78.41666666666706
 20
635.3000000000001
210
0.0
220
0.0
230
-1.0
  0
LWPOLYLINE
  5
1F2
330
1F
100
AcDbEntity
  8
1
  6
CONTINUOUS
 62
     7
100
AcDbPolyline
 90
       35
 70
     0
 43
0.0
 10
-76.61666666666703
 20
633.5000000000001
 10
-76.65369995836244
 20
633.499124097199
 10
-76.69085270473295
 20
633.4965019038096
 10
-76.7279986413256
 20
633.4921416923526
 10
-76.76501150368745
 20
633.4860517353484
 10
-76.80176502736543
 20
633.4782403053179
 10
-76.83813294790667
 20
633.4687156747815
 10
-76.87398900085815
 20
633.4574861162599
 10
-76.90941902560336
 20
633.444487479408
 10
-76.94436249354239
 20
633.4297394324615
 10
-76.97869309099728
 20
633.4133014094809
 10
-77.01228450429012
 20
633.3952328445276
 10
-77.04501041974301
 20
633.3755931716627
 10
-77.07674452367799
 20
633.354441824947
 10
-77.1073605024171
 20
633.3318382384416
 10
-77.1360489377855
 20
633.3084487100996
 10
-77.16370490397681
 20
633.2836603902996
 10
-77.19023935045735
 20
633.25757064928
 10
-77.21556322669329
 20
633.2302768572791
 10
-77.23958748215095
 20
633.2018763845354
 10
-77.26222306629646
 20
633.1724666012869
 10
-77.28338092859613
 20
633.1421448777726
 10
-77.30280554299831
 20
633.11132131775
 10
-77.32082133982374
 20
633.0795886656806
 10
-77.33738547699878
 20
633.0470603568936
 10
-77.35245511244979
 20
633.0138498267181
 10
-77.3659874041032
 20
632.9800705104835
 10
-77.3779395098854
 20
632.9458358435189
 10
-77.3882685877227
 20
632.9112592611538
 10
-77.39693119372234
 20
632.8765528290629
 10
-77.40402662971749
 20
632.8414999531075
 10
-77.4095513953589
 20
632.806209432755
 10
-77.4135019902972
 20
632.7707900674744
 10
-77.41587491418304
 20
632.7353506567332
 10
-77.41666666666706
 20
632.7
210
0.0
220
0.0
230
-1.0
  0
LWPOLYLINE
  5
1F3
330
1F
100
AcDbEntity
  8
1
  6
CONTINUOUS
 62
     7
100
AcDbPolyline
 90
       35
 70
     0
 43
0.0
 10
-78.41666666666706
 20
632.7
 10
-78.41754256946811
 20
632.7370332916955
 10
-78.42016476285748
 20
632.774186038066
 10
-78.42452497431454
 20
632.8113319746586
 10
-78.43061493131873
 20
632.8483448370206
 10
-78.43842636134926
 20
632.8850983606985
 10
-78.44795099188565
 20
632.9214662812396
 10
-78.45918055040721
 20
632.9573223341912
 10
-78.47217918725899
 20
632.9927523589365
 10
-78.48692723420567
 20
633.0276958268754
 10
-78.50336525718618
 20
633.0620264243303
 10
-78.52143382213947
 20
633.0956178376232
 10
-78.54107349500447
 20
633.1283437530761
 10
-78.56222484172018
 20
633.160077857011
 10
-78.58482842822553
 20
633.19069383575
 10
-78.60821795656756
 20
633.2193822711185
 10
-78.63300627636757
 20
633.2470382373099
 10
-78.65909601738716
 20
633.2735726837903
 10
-78.68638980938799
 20
633.2988965600264
 10
-78.71479028213177
 20
633.322920815484
 10
-78.7442000653801
 20
633.3455563996295
 10
-78.77452178889463
 20
633.3667142619292
 10
-78.80534534891711
 20
633.3861388763313
 10
-78.83707800098647
 20
633.4041546731568
 10
-78.86960630977354
 20
633.4207188103318
 10
-78.90281683994901
 20
633.4357884457828
 10
-78.93659615618367
 20
633.4493207374363
 10
-78.97083082314818
 20
633.4612728432184
 10
-79.0054074055134
 20
633.4716019210558
 10
-79.04011383760415
 20
633.4802645270554
 10
-79.07516671355971
 20
633.4873599630506
 10
-79.110457233912
 20
633.492884728692
 10
-79.14587659919273
 20
633.4968353236303
 10
-79.18131600993381
 20
633.4992082475161
 10
-79.21666666666707
 20
633.5000000000001
210
0.0
220
0.0
230
-1.0
  0
ARC
  5
1F4
330
1F
100
AcDbEntity
  8
1
  6
CONTINUOUS
 62
     7
100
AcDbCircle
 10
77.91666666666706
 20
634.0000000000001
 30
0.0
 40
1.834778891428046
100
AcDbArc
 50
74.18617583029146
 51
105.8138241697085
  0
ARC
  5
1F5
330
1F
100
AcDbEntity
  8
1
  6
CONTINUOUS
 62
     7
100
AcDbCircle
 10
77.91666666666706
 20
634.0000000000001
 30
0.0
 40
1.834778891428099
100
AcDbArc
 50
254.1861758302915
 51
285.8138241697088
  0
CIRCLE
  5
1F6
330
1F
100
AcDbEntity
  8
1
  6
CONTINUOUS
 62
     7
100
AcDbCircle
 10
77.91666666666706
 20
634.0000000000001
 30
0.0
 40
4.699999999999982
  0
LINE
  5
1F7
330
1F
100
AcDbEntity
  8
1
  6
CONTINUOUS
 62
     7
100
AcDbLine
 10
-36.58333333333294
 20
630.4287151690951
 30
0.0
 11
-36.58333333333294
 21
632.7000000000002
 31
0.0
  0
LINE
  5
1F8
330
1F
100
AcDbEntity
  8
1
  6
CONTINUOUS
 62
     7
100
AcDbLine
 10
-35.78333333333292
 20
633.5000000000001
 30
0.0
 11
-34.88959223648488
 21
633.5000000000001
 31
0.0
  0
ARC
  5
1F9
330
1F
100
AcDbEntity
  8
1
  6
CONTINUOUS
 62
     7
100
AcDbCircle
 10
-37.08333333333294
 20
634.0000000000001
 30
0.0
 40
2.250000000000025
100
AcDbArc
 50
347.1604115930959
 51
12.83958840690389
  0
LINE
  5
1FA
330
1F
100
AcDbEntity
  8
1
  6
CONTINUOUS
 62
     7
100
AcDbLine
 10
-34.88959223648488
 20
634.5
 30
0.0
 11
-35.78333333333292
 21
634.5
 31
0.0
  0
LINE
  5
1FB
330
1F
100
AcDbEntity
  8
1
  6
CONTINUOUS
 62
     7
100
AcDbLine
 10
-36.58333333333294
 20
635.3000000000001
 30
0.0
 11
-36.58333333333294
 21
637.5712848309051
 31
0.0
  0
ARC
  5
1FC
330
1F
100
AcDbEntity
  8
1
  6
CONTINUOUS
 62
     7
100
AcDbCircle
 10
-37.08333333333294
 20
634.0000000000001
 30
0.0
 40
3.606116379632399
100
AcDbArc
 50
82.03007295878035
 51
97.96992704121966
  0
LINE
  5
1FD
330
1F
100
AcDbEntity
  8
1
  6
CONTINUOUS
 62
     7
100
AcDbLine
 10
-37.58333333333294
 20
637.5712848309051
 30
0.0
 11
-37.58333333333294
 21
635.3
 31
0.0
  0
LWPOLYLINE
  5
1FE
330
1F
100
AcDbEntity
  8
1
  6
CONTINUOUS
 62
     7
100
AcDbPolyline
 90
       35
 70
     0
 43
0.0
 10
37.58333333333294
 20
635.3000000000001
 10
37.58420923613401
 20
635.2629667083047
 10
37.58683142952338
 20
635.2258139619343
 10
37.59119164098043
 20
635.1886680253416
 10
37.59728159798462
 20
635.1516551629796
 10
37.6050930280152
 20
635.1149016393017
 10
37.61461765855154
 20
635.0785337187606
 10
37.6258472170731
 20
635.042677665809
 10
37.63884585392488
 20
635.0072476410637
 10
37.65359390087156
 20
634.9723041731247
 10
37.67003192385207
 20
634.93797357567
 10
37.68810048880536
 20
634.904382162377
 10
37.70774016167036
 20
634.8716562469241
 10
37.72889150838607
 20
634.8399221429892
 10
37.75149509489142
 20
634.8093061642501
 10
37.77488462323345
 20
634.7806177288817
 10
37.79967294303346
 20
634.7529617626903
 10
37.82576268405305
 20
634.7264273162099
 10
37.85305647605389
 20
634.7011034399738
 10
37.88145694879766
 20
634.6770791845162
 10
37.910866732046
 20
634.6544436003707
 10
37.94118845556052
 20
634.633285738071
 10
37.972012015583
 20
634.6138611236688
 10
38.00374466765236
 20
634.5958453268435
 10
38.03627297643944
 20
634.5792811896684
 10
38.0694835066149
 20
634.5642115542174
 10
38.10326282284957
 20
634.5506792625639
 10
38.13749748981407
 20
634.5387271567818
 10
38.17207407217929
 20
634.5283980789444
 10
38.20678050427004
 20
634.5197354729448
 10
38.2418333802256
 20
634.5126400369496
 10
38.27712390057788
 20
634.5071152713082
 10
38.31254326585861
 20
634.5031646763699
 10
38.34798267659969
 20
634.500791752484
 10
38.38333333333296
 20
634.5
210
0.0
220
0.0
230
-1.0
  0
LINE
  5
1FF
330
1F
100
AcDbEntity
  8
1
  6
CONTINUOUS
 62
     7
100
AcDbLine
 10
-38.38333333333296
 20
634.5
 30
0.0
 11
-39.277074430181
 21
634.5
 31
0.0
  0
ARC
  5
200
330
1F
100
AcDbEntity
  8
1
  6
CONTINUOUS
 62
     7
100
AcDbCircle
 10
-37.08333333333294
 20
634.0000000000001
 30
0.0
 40
2.250000000000025
100
AcDbArc
 50
167.1604115930961
 51
192.8395884069041
  0
LINE
  5
201
330
1F
100
AcDbEntity
  8
1
  6
CONTINUOUS
 62
     7
100
AcDbLine
 10
-39.277074430181
 20
633.5000000000001
 30
0.0
 11
-38.38333333333296
 21
633.5000000000001
 31
0.0
  0
LINE
  5
202
330
1F
100
AcDbEntity
  8
1
  6
CONTINUOUS
 62
     7
100
AcDbLine
 10
-37.58333333333294
 20
632.7
 30
0.0
 11
-37.58333333333294
 21
630.428715169095
 31
0.0
  0
ARC
  5
203
330
1F
100
AcDbEntity
  8
1
  6
CONTINUOUS
 62
     7
100
AcDbCircle
 10
-37.08333333333294
 20
634.0000000000001
 30
0.0
 40
3.606116379632399
100
AcDbArc
 50
262.0300729587804
 51
277.9699270412195
  0
CIRCLE
  5
204
330
1F
100
AcDbEntity
  8
1
  6
CONTINUOUS
 62
     7
100
AcDbCircle
 10
-37.08333333333294
 20
634.0000000000001
 30
0.0
 40
4.691251133647378
  0
LWPOLYLINE
  5
205
330
1F
100
AcDbEntity
  8
1
  6
CONTINUOUS
 62
     7
100
AcDbPolyline
 90
       35
 70
     0
 43
0.0
 10
35.78333333333292
 20
634.5
 10
35.82036662502833
 20
634.5008759028011
 10
35.85751937139883
 20
634.5034980961906
 10
35.89466530799149
 20
634.5078583076476
 10
35.93167817035334
 20
634.5139482646517
 10
35.96843169403132
 20
634.5217596946824
 10
36.00479961457256
 20
634.5312843252186
 10
36.04065566752404
 20
634.5425138837403
 10
36.07608569226925
 20
634.5555125205921
 10
36.11102916020828
 20
634.5702605675388
 10
36.14535975766317
 20
634.5866985905193
 10
36.17895117095601
 20
634.6047671554725
 10
36.2116770864089
 20
634.6244068283376
 10
36.24341119034388
 20
634.6455581750532
 10
36.27402716908298
 20
634.6681617615586
 10
36.30271560445139
 20
634.6915512899006
 10
36.3303715706427
 20
634.7163396097006
 10
36.35690601712324
 20
634.7424293507202
 10
36.38222989335918
 20
634.7697231427211
 10
36.40625414881685
 20
634.7981236154649
 10
36.42888973296235
 20
634.8275333987132
 10
36.45004759526202
 20
634.8578551222276
 10
36.4694722096642
 20
634.8886786822502
 10
36.48748800648963
 20
634.9204113343195
 10
36.50405214366467
 20
634.9529396431066
 10
36.51912177911568
 20
634.9861501732821
 10
36.53265407076908
 20
635.0199294895167
 10
36.54460617655128
 20
635.0541641564813
 10
36.5549352543886
 20
635.0887407388465
 10
36.56359786038824
 20
635.1234471709373
 10
36.57069329638338
 20
635.1585000468928
 10
36.57621806202479
 20
635.1937905672451
 10
36.58016865696309
 20
635.2292099325258
 10
36.58254158084892
 20
635.2646493432669
 10
36.58333333333294
 20
635.3000000000001
210
0.0
220
0.0
230
-1.0
  0
LWPOLYLINE
  5
206
330
1F
100
AcDbEntity
  8
1
  6
CONTINUOUS
 62
     7
100
AcDbPolyline
 90
       35
 70
     0
 43
0.0
 10
38.38333333333296
 20
633.5000000000001
 10
38.34630004163756
 20
633.499124097199
 10
38.30914729526705
 20
633.4965019038096
 10
38.27200135867439
 20
633.4921416923527
 10
38.23498849631255
 20
633.4860517353484
 10
38.19823497263455
 20
633.4782403053179
 10
38.16186705209331
 20
633.4687156747816
 10
38.12601099914184
 20
633.4574861162599
 10
38.09058097439663
 20
633.4444874794082
 10
38.0556375064576
 20
633.4297394324615
 10
38.02130690900271
 20
633.4133014094809
 10
37.98771549570986
 20
633.3952328445276
 10
37.95498958025698
 20
633.3755931716627
 10
37.923255476322
 20
633.354441824947
 10
37.8926394975829
 20
633.3318382384416
 10
37.86395106221449
 20
633.3084487100996
 10
37.83629509602318
 20
633.2836603902996
 10
37.80976064954264
 20
633.25757064928
 10
37.7844367733067
 20
633.2302768572791
 10
37.76041251784903
 20
633.2018763845354
 10
37.73777693370353
 20
633.1724666012869
 10
37.71661907140386
 20
633.1421448777726
 10
37.69719445700167
 20
633.11132131775
 10
37.67917866017626
 20
633.0795886656806
 10
37.66261452300121
 20
633.0470603568936
 10
37.6475448875502
 20
633.0138498267181
 10
37.6340125958968
 20
632.9800705104835
 10
37.6220604901146
 20
632.9458358435189
 10
37.61173141227728
 20
632.9112592611538
 10
37.60306880627765
 20
632.8765528290629
 10
37.5959733702825
 20
632.8414999531075
 10
37.59044860464108
 20
632.806209432755
 10
37.58649800970279
 20
632.7707900674744
 10
37.58412508581696
 20
632.7353506567333
 10
37.58333333333294
 20
632.7
210
0.0
220
0.0
230
-1.0
  0
LWPOLYLINE
  5
207
330
1F
100
AcDbEntity
  8
1
  6
CONTINUOUS
 62
     7
100
AcDbPolyline
 90
       35
 70
     0
 43
0.0
 10
36.58333333333294
 20
632.7
 10
36.58245743053187
 20
632.7370332916955
 10
36.5798352371425
 20
632.774186038066
 10
36.57547502568545
 20
632.8113319746586
 10
36.56938506868126
 20
632.8483448370206
 10
36.56157363865073
 20
632.8850983606985
 10
36.55204900811434
 20
632.9214662812396
 10
36.54081944959278
 20
632.9573223341912
 10
36.527820812741
 20
632.9927523589365
 10
36.51307276579433
 20
633.0276958268754
 10
36.49663474281381
 20
633.0620264243303
 10
36.47856617786052
 20
633.0956178376232
 10
36.45892650499552
 20
633.1283437530761
 10
36.43777515827981
 20
633.160077857011
 10
36.41517157177446
 20
633.19069383575
 10
36.39178204343244
 20
633.2193822711185
 10
36.36699372363242
 20
633.2470382373099
 10
36.34090398261283
 20
633.2735726837903
 10
36.313610190612
 20
633.2988965600264
 10
36.28520971786822
 20
633.322920815484
 10
36.25579993461989
 20
633.3455563996295
 10
36.22547821110536
 20
633.3667142619292
 10
36.19465465108287
 20
633.3861388763313
 10
36.16292199901353
 20
633.4041546731568
 10
36.13039369022644
 20
633.4207188103318
 10
36.09718316005097
 20
633.4357884457828
 10
36.06340384381632
 20
633.4493207374363
 10
36.02916917685181
 20
633.4612728432184
 10
35.99459259448659
 20
633.4716019210558
 10
35.95988616239584
 20
633.4802645270554
 10
35.92483328644028
 20
633.4873599630506
 10
35.88954276608799
 20
633.492884728692
 10
35.85412340080726
 20
633.4968353236303
 10
35.81868399006618
 20
633.4992082475161
 10
35.78333333333292
 20
633.5000000000001
210
0.0
220
0.0
230
-1.0
  0
ARC
  5
208
330
1F
100
AcDbEntity
  8
1
  6
CONTINUOUS
 62
     7
100
AcDbCircle
 10
-37.08333333333294
 20
634.0000000000001
 30
0.0
 40
1.834778891428046
100
AcDbArc
 50
74.18617583029146
 51
105.8138241697085
  0
ARC
  5
209
330
1F
100
AcDbEntity
  8
1
  6
CONTINUOUS
 62
     7
100
AcDbCircle
 10
-37.08333333333294
 20
634.0000000000001
 30
0.0
 40
1.834778891428099
100
AcDbArc
 50
254.1861758302915
 51
285.8138241697088
  0
CIRCLE
  5
20A
330
1F
100
AcDbEntity
  8
1
  6
CONTINUOUS
 62
     7
100
AcDbCircle
 10
-37.08333333333294
 20
634.0000000000001
 30
0.0
 40
4.699999999999982
  0
LWPOLYLINE
  5
20B
330
1F
100
AcDbEntity
  8
1
  6
CONTINUOUS
 62
     7
100
AcDbPolyline
 90
        9
 70
     0
 43
0.0
 10
12.41666666666698
 20
571.500038076936
 10
12.39745307250605
 20
571.695125027438
 10
12.34055058631127
 20
571.8827126940798
 10
12.24814572737652
 20
572.0555928847447
 10
12.12378921941212
 20
572.2071225527453
 10
11.9722595514115
 20
572.3314790607097
 10
11.79937936074665
 20
572.4238839196444
 10
11.61179169410488
 20
572.4807864058391
 10
11.41670474360276
 20
572.5000000000001
  0
LWPOLYLINE
  5
20C
330
1F
100
AcDbEntity
  8
1
  6
CONTINUOUS
 62
     7
100
AcDbPolyline
 90
        9
 70
     0
 43
0.0
 10
12.37303232771312
 20
571.4564037379821
 10
12.35381873355218
 20
571.6514906884842
 10
12.29691624735741
 20
571.8390783551259
 10
12.20451138842267
 20
572.0119585457908
 10
12.08015488045826
 20
572.1634882137914
 10
11.92862521245765
 20
572.2878447217558
 10
11.75574502179281
 20
572.3802495806905
 10
11.56815735515105
 20
572.4371520668852
 10
11.37307040464894
 20
572.4563656610462
  0
LINE
  5
20D
330
1F
100
AcDbEntity
  8
1
  6
CONTINUOUS
 62
     7
100
AcDbLine
 10
12.41666666666694
 20
601.1129542622652
 30
0.0
 11
12.41666666666694
 21
576.4999619230641
 31
0.0
  0
LINE
  5
20E
330
1F
100
AcDbEntity
  8
1
  6
CONTINUOUS
 62
     7
100
AcDbLine
 10
12.37303232771317
 20
604.956403737982
 30
0.0
 11
12.37303232771317
 21
576.543596262018
 31
0.0
  0
LWPOLYLINE
  5
20F
330
1F
100
AcDbEntity
  8
1
  6
CONTINUOUS
 62
     7
100
AcDbPolyline
 90
        3
 70
     0
 43
0.0
 10
12.41666666666693
 20
601.1129542622652
 10
12.41536519215293
 20
603.0764329072258
 10
12.41149062928335
 20
604.9948620395521
  0
LWPOLYLINE
  5
210
330
1F
100
AcDbEntity
  8
1
  6
CONTINUOUS
 62
     7
100
AcDbPolyline
 90
        9
 70
     0
 43
0.0
 10
9.416628589731111
 20
572.5000000000001
 10
9.221541639228994
 20
572.4807864058391
 10
9.033953972587218
 20
572.4238839196444
 10
8.86107378192237
 20
572.3314790607097
 10
8.709544113921753
 20
572.2071225527453
 10
8.585187605957344
 20
572.0555928847447
 10
8.492782747022597
 20
571.8827126940798
 10
8.435880260827822
 20
571.695125027438
 10
8.416666666666886
 20
571.500038076936
  0
LWPOLYLINE
  5
211
330
1F
100
AcDbEntity
  8
1
  6
CONTINUOUS
 62
     7
100
AcDbPolyline
 90
        9
 70
     0
 43
0.0
 10
9.46026292868488
 20
572.4563656610462
 10
9.265175978182777
 20
572.4371520668852
 10
9.077588311541017
 20
572.3802495806905
 10
8.904708120876187
 20
572.2878447217558
 10
8.753178452875584
 20
572.1634882137914
 10
8.628821944911188
 20
572.0119585457908
 10
8.536417085976451
 20
571.8390783551259
 10
8.479514599781684
 20
571.6514906884842
 10
8.460301005620751
 20
571.4564037379821
  0
LWPOLYLINE
  5
212
330
1F
100
AcDbEntity
  8
1
  6
CONTINUOUS
 62
     7
100
AcDbPolyline
 90
        3
 70
     0
 43
0.0
 10
374.916666666667
 20
601.1129542622652
 10
374.915365192153
 20
603.0764329072258
 10
374.9114906292834
 20
604.9948620395521
  0
LWPOLYLINE
  5
213
330
1F
100
AcDbEntity
  8
1
  6
CONTINUOUS
 62
     7
100
AcDbPolyline
 90
       39
 70
     0
 43
0.0
 10
-373.9084125043404
 20
605.9917077607375
 10
-373.9480140236747
 20
605.9909226383804
 10
-373.9875794284376
 20
605.9885747848501
 10
-374.0270023737614
 20
605.9846754704583
 10
-374.0661765147785
 20
605.979235965517
 10
-374.1062304040061
 20
605.9720265412727
 10
-374.1459472712835
 20
605.9632053824058
 10
-374.1852197629178
 20
605.9528061985353
 10
-374.2239405252167
 20
605.9408626992804
 10
-374.2609589360377
 20
605.9278081114986
 10
-374.2974000647138
 20
605.9133358459765
 10
-374.3331789932531
 20
605.8974915485787
 10
-374.3682108036634
 20
605.8803208651698
 10
-374.4033908616046
 20
605.8613215895152
 10
-374.4377358093585
 20
605.8409707040579
 10
-374.471169741468
 20
605.8193279690784
 10
-374.5036167524757
 20
605.7964531448563
 10
-374.5353117083087
 20
605.7721649943746
 10
-374.5659683272809
 20
605.7466771407709
 10
-374.5955245717864
 20
605.7200567845955
 10
-374.6239184042187
 20
605.6923711263993
 10
-374.6518163559095
 20
605.6628935648489
 10
-374.6784644434523
 20
605.6323510587619
 10
-374.7038103351673
 20
605.6008195585815
 10
-374.7278016993746
 20
605.5683750147514
 10
-374.7512445574089
 20
605.5337783355621
 10
-374.7732066096891
 20
605.4982584238477
 10
-374.7936431470055
 20
605.4619028426489
 10
-374.8125094601486
 20
605.4247991550069
 10
-374.8302322256746
 20
605.3859540456816
 10
-374.846278569703
 20
605.3463833628601
 10
-374.8606132093747
 20
605.3061853829722
 10
-374.8732008618306
 20
605.2654583824478
 10
-374.8847034188467
 20
605.2213637014316
 10
-374.89418742433
 20
605.1766964260291
 10
-374.9016305131978
 20
605.13158458919
 10
-374.9070103203678
 20
605.0861562238641
 10
-374.9103044807571
 20
605.0405393630016
 10
-374.9114906292834
 20
604.9948620395522
210
0.0
220
0.0
230
-1.0
  0
LINE
  5
214
330
1F
100
AcDbEntity
  8
1
  6
CONTINUOUS
 62
     7
100
AcDbLine
 10
373.9084125043404
 20
605.9917077607375
 30
0.0
 11
371.9249208289935
 21
605.9917077607375
 31
0.0
  0
LWPOLYLINE
  5
215
330
1F
100
AcDbEntity
  8
1
  6
CONTINUOUS
 62
     7
100
AcDbPolyline
 90
       37
 70
     0
 43
0.0
 10
-370.9218427040506
 20
604.9948620395522
 10
-370.9229151605503
 20
605.0383161073227
 10
-370.9258852305629
 20
605.0816796545287
 10
-370.9307379836551
 20
605.1248410297032
 10
-370.9374584893943
 20
605.1676885813799
 10
-370.9463197659452
 20
605.2114145337166
 10
-370.9571392303421
 20
605.2547322347951
 10
-370.9698846928426
 20
605.2975261585214
 10
-370.9845239637053
 20
605.3396807788012
 10
-371.0005574147929
 20
605.3799946090775
 10
-371.0183576623654
 20
605.4196363182409
 10
-371.0378812505934
 20
605.4585044000054
 10
-371.0590847236479
 20
605.4964973480845
 10
-371.0826601695903
 20
605.5346576520668
 10
-371.1079902753524
 20
605.5718174863853
 10
-371.1350107849494
 20
605.6078698683356
 10
-371.1636574423966
 20
605.6427078152127
 10
-371.1927449250601
 20
605.6750428396025
 10
-371.2233073276602
 20
605.7061836220961
 10
-371.2552690645342
 20
605.7360387126132
 10
-371.28855455002
 20
605.7645166610738
 10
-371.3242831998716
 20
605.7924247537732
 10
-371.3613767801414
 20
605.818788823305
 10
-371.3997273757724
 20
605.8435163262383
 10
-371.4392270717078
 20
605.8665147191422
 10
-371.4764989961529
 20
605.8860791359848
 10
-371.5146858567682
 20
605.904124422727
 10
-371.5536831831527
 20
605.920590838806
 10
-371.5933865049055
 20
605.9354186436587
 10
-371.6351188110926
 20
605.9489853315642
 10
-371.6775288916622
 20
605.9607511700175
 10
-371.7204811521387
 20
605.9706717560002
 10
-371.7638399980464
 20
605.9787026864949
 10
-371.8038261005271
 20
605.9843740511119
 10
-371.8440770728247
 20
605.9884401762978
 10
-371.8844797154699
 20
605.9908888251427
 10
-371.9249208289935
 20
605.9917077607375
210
0.0
220
0.0
230
-1.0
  0
LWPOLYLINE
  5
216
330
1F
100
AcDbEntity
  8
1
  6
CONTINUOUS
 62
     7
100
AcDbPolyline
 90
        3
 70
     0
 43
0.0
 10
370.9218427040506
 20
604.9948620395521
 10
370.917968141181
 20
603.0764329072258
 10
370.916666666667
 20
601.1129542622652
  0
LWPOLYLINE
  5
217
330
1F
100
AcDbEntity
  8
1
  6
CONTINUOUS
 62
     7
100
AcDbPolyline
 90
        5
 70
     0
 43
0.0
 10
371.0291259287665
 20
614.1124592620995
 10
371.0064383463034
 20
613.8266724577385
 10
370.9847091209734
 20
613.0262945766895
 10
370.9648177488681
 20
611.7437211234958
 10
370.9475693384874
 20
610.0308645948845
  0
LWPOLYLINE
  5
218
330
1F
100
AcDbEntity
  8
1
  6
CONTINUOUS
 62
     7
100
AcDbPolyline
 90
       35
 70
     0
 43
0.0
 10
-371.9400495314425
 20
609.0234209417114
 10
-371.9052694635171
 20
609.024033781938
 10
-371.8705235692261
 20
609.0258646462582
 10
-371.8359118974653
 20
609.0289020501327
 10
-371.8015344971305
 20
609.0331345090218
 10
-371.7663341585392
 20
609.0387492141855
 10
-371.7314503890343
 20
609.0456063881069
 10
-371.6969799149995
 20
609.053669182935
 10
-371.6630194628185
 20
609.0629007508187
 10
-371.6306505062835
 20
609.072931931003
 10
-371.5988036874277
 20
609.0840069951709
 10
-371.567546638541
 20
609.0960784194704
 10
-371.536946991914
 20
609.1090986800499
 10
-371.4961763207121
 20
609.1283959821282
 10
-371.4567053475832
 20
609.149318500244
 10
-371.4186515511724
 20
609.1717313698749
 10
-371.3803837278361
 20
609.1966951664839
 10
-371.3436795874993
 20
609.2231281404981
 10
-371.3085950052306
 20
609.250888112721
 10
-371.275185856099
 20
609.2798329039558
 10
-371.2435080151733
 20
609.3098203350058
 10
-371.2136173575227
 20
609.3407082266741
 10
-371.1826352600016
 20
609.3757900133834
 10
-371.1536867780134
 20
609.4118380560727
 10
-371.1267766752018
 20
609.4487078536793
 10
-371.1019097152102
 20
609.4862549051405
 10
-371.0710410533253
 20
609.538728954744
 10
-371.0438124689674
 20
609.5921665739827
 10
-371.0201736866084
 20
609.6462909592293
 10
-370.9971225754246
 20
609.709732168057
 10
-370.9785894804402
 20
609.7737937612275
 10
-370.9644710054549
 20
609.8382067696181
 10
-370.954663754268
 20
609.9027022241063
 10
-370.949064330679
 20
609.9670111555693
 10
-370.9475693384874
 20
610.0308645948846
210
0.0
220
0.0
230
-1.0
  0
LINE
  5
219
330
1F
100
AcDbEntity
  8
1
  6
CONTINUOUS
 62
     7
100
AcDbLine
 10
371.9400495314425
 20
609.0234209417114
 30
0.0
 11
373.8932838018914
 21
609.0234209417114
 31
0.0
  0
LWPOLYLINE
  5
21A
330
1F
100
AcDbEntity
  8
1
  6
CONTINUOUS
 62
     7
100
AcDbPolyline
 90
       35
 70
     0
 43
0.0
 10
-374.8857639948465
 20
610.0308645948846
 10
-374.8843954703669
 20
609.969337410514
 10
-374.8792206733833
 20
609.9073899930685
 10
-374.8701473157796
 20
609.8452600513638
 10
-374.8570831094397
 20
609.7831852942148
 10
-374.8399357662476
 20
609.7214034304374
 10
-374.8186129980872
 20
609.6601521688465
 10
-374.7968107263403
 20
609.6079538484393
 10
-374.7717152516705
 20
609.5563404115185
 10
-374.7432787204548
 20
609.5055500717774
 10
-374.7190841678758
 20
609.4671647688878
 10
-374.6928053842962
 20
609.4294250665988
 10
-374.6644429753596
 20
609.3924765059304
 10
-374.6339975467102
 20
609.3564646279024
 10
-374.6004710387855
 20
609.3205085406978
 10
-374.5646696525541
 20
609.2857605972566
 10
-374.526642697259
 20
609.2524201928596
 10
-374.4958483765369
 20
609.2278092881303
 10
-374.4637149061471
 20
609.2041724393061
 10
-374.4302989830074
 20
609.1816140463064
 10
-374.395657304036
 20
609.1602385090501
 10
-374.3663839429
 20
609.1436669115036
 10
-374.3362943491626
 20
609.1279652466095
 10
-374.3054439406398
 20
609.1131919947067
 10
-374.2738881351477
 20
609.0994056361341
 10
-374.2407335107154
 20
609.0863057809304
 10
-374.2068640915842
 20
609.0743205150675
 10
-374.1723675436189
 20
609.0635047297168
 10
-374.1373315326845
 20
609.05391331605
 10
-374.0977449252837
 20
609.0447381730055
 10
-374.057508870244
 20
609.0371548313952
 10
-374.016784048975
 20
609.0311973643398
 10
-373.9757311428866
 20
609.0268998449601
 10
-373.9345108333888
 20
609.024296346377
 10
-373.8932838018914
 20
609.0234209417114
210
0.0
220
0.0
230
-1.0
  0
LWPOLYLINE
  5
21B
330
1F
100
AcDbEntity
  8
1
  6
CONTINUOUS
 62
     7
100
AcDbPolyline
 90
        5
 70
     0
 43
0.0
 10
374.8857639948466
 20
610.0308645948844
 10
374.8685155844659
 20
611.7437211234957
 10
374.8486242123606
 20
613.0262945766893
 10
374.8268949870307
 20
613.8266724577385
 10
374.8042074045675
 20
614.1124592620995
  0
LWPOLYLINE
  5
21C
330
1F
100
AcDbEntity
  8
1
  6
CONTINUOUS
 62
     7
100
AcDbPolyline
 90
        3
 70
     0
 43
0.0
 10
12.41149062928335
 20
543.0051379604479
 10
12.41536519215293
 20
544.9235670927743
 10
12.41666666666693
 20
546.8870457377349
  0
LINE
  5
21D
330
1F
100
AcDbEntity
  8
1
  6
CONTINUOUS
 62
     7
100
AcDbLine
 10
12.37303232771317
 20
571.4564037379821
 30
0.0
 11
12.37303232771317
 21
543.043596262018
 31
0.0
  0
LINE
  5
21E
330
1F
100
AcDbEntity
  8
1
  6
CONTINUOUS
 62
     7
100
AcDbLine
 10
12.41666666666694
 20
571.5000380769359
 30
0.0
 11
12.41666666666694
 21
546.8870457377349
 31
0.0
  0
LINE
  5
21F
330
1F
100
AcDbEntity
  8
1
  6
CONTINUOUS
 62
     7
100
AcDbLine
 10
9.460262928684932
 20
575.5436343389539
 30
0.0
 11
11.37307040464899
 21
575.5436343389539
 31
0.0
  0
LINE
  5
220
330
1F
100
AcDbEntity
  8
1
  6
CONTINUOUS
 62
     7
100
AcDbLine
 10
9.416628589731108
 20
575.5000000000001
 30
0.0
 11
11.41670474360276
 21
575.5000000000001
 31
0.0
  0
LINE
  5
221
330
1F
100
AcDbEntity
  8
1
  6
CONTINUOUS
 62
     7
100
AcDbLine
 10
374.916666666667
 20
571.5000380769359
 30
0.0
 11
374.916666666667
 21
546.8870457377349
 31
0.0
  0
LWPOLYLINE
  5
222
330
1F
100
AcDbEntity
  8
1
  6
CONTINUOUS
 62
     7
100
AcDbPolyline
 90
        9
 70
     0
 43
0.0
 10
374.916666666667
 20
571.500038076936
 10
374.897453072506
 20
571.695125027438
 10
374.8405505863112
 20
571.8827126940798
 10
374.7481457273765
 20
572.0555928847447
 10
374.6237892194121
 20
572.2071225527453
 10
374.4722595514115
 20
572.3314790607097
 10
374.2993793607467
 20
572.4238839196444
 10
374.111791694105
 20
572.4807864058391
 10
373.9167047436028
 20
572.5000000000001
  0
LINE
  5
223
330
1F
100
AcDbEntity
  8
1
  6
CONTINUOUS
 62
     7
100
AcDbLine
 10
371.9166285897311
 20
572.5
 30
0.0
 11
373.9167047436028
 21
572.5
 31
0.0
  0
LWPOLYLINE
  5
224
330
1F
100
AcDbEntity
  8
1
  6
CONTINUOUS
 62
     7
100
AcDbPolyline
 90
        9
 70
     0
 43
0.0
 10
371.9166285897311
 20
572.5000000000001
 10
371.721541639229
 20
572.4807864058391
 10
371.5339539725872
 20
572.4238839196444
 10
371.3610737819224
 20
572.3314790607097
 10
371.2095441139217
 20
572.2071225527453
 10
371.0851876059573
 20
572.0555928847447
 10
370.9927827470225
 20
571.8827126940798
 10
370.9358802608278
 20
571.695125027438
 10
370.9166666666669
 20
571.500038076936
  0
LINE
  5
225
330
1F
100
AcDbEntity
  8
1
  6
CONTINUOUS
 62
     7
100
AcDbLine
 10
370.916666666667
 20
546.8870457377349
 30
0.0
 11
370.916666666667
 21
571.5000380769359
 31
0.0
  0
LINE
  5
226
330
1F
100
AcDbEntity
  8
1
  6
CONTINUOUS
 62
     7
100
AcDbLine
 10
370.916666666667
 20
576.4999619230641
 30
0.0
 11
370.916666666667
 21
601.1129542622652
 31
0.0
  0
LWPOLYLINE
  5
227
330
1F
100
AcDbEntity
  8
1
  6
CONTINUOUS
 62
     7
100
AcDbPolyline
 90
        9
 70
     0
 43
0.0
 10
370.916666666667
 20
576.4999619230641
 10
370.935880260828
 20
576.3048749725621
 10
370.9927827470227
 20
576.1172873059203
 10
371.0851876059575
 20
575.9444071152554
 10
371.2095441139219
 20
575.7928774472548
 10
371.3610737819225
 20
575.6685209392904
 10
371.5339539725873
 20
575.5761160803557
 10
371.721541639229
 20
575.519213594161
 10
371.9166285897311
 20
575.5
  0
LINE
  5
228
330
1F
100
AcDbEntity
  8
1
  6
CONTINUOUS
 62
     7
100
AcDbLine
 10
373.9167047436028
 20
575.5000000000001
 30
0.0
 11
371.9166285897311
 21
575.5000000000001
 31
0.0
  0
LWPOLYLINE
  5
229
330
1F
100
AcDbEntity
  8
1
  6
CONTINUOUS
 62
     7
100
AcDbPolyline
 90
        9
 70
     0
 43
0.0
 10
373.9167047436028
 20
575.5
 10
374.1117916941049
 20
575.519213594161
 10
374.2993793607467
 20
575.5761160803557
 10
374.4722595514115
 20
575.6685209392904
 10
374.6237892194121
 20
575.7928774472548
 10
374.7481457273765
 20
575.9444071152554
 10
374.8405505863112
 20
576.1172873059203
 10
374.897453072506
 20
576.3048749725621
 10
374.916666666667
 20
576.4999619230641
  0
LINE
  5
22A
330
1F
100
AcDbEntity
  8
1
  6
CONTINUOUS
 62
     7
100
AcDbLine
 10
374.916666666667
 20
601.1129542622652
 30
0.0
 11
374.916666666667
 21
576.4999619230641
 31
0.0
  0
LWPOLYLINE
  5
22B
330
1F
100
AcDbEntity
  8
1
  6
CONTINUOUS
 62
     7
100
AcDbPolyline
 90
        5
 70
     0
 43
0.0
 10
12.30420740456741
 20
533.8875407379006
 10
12.32689498703059
 20
534.1733275422616
 10
12.34862421236048
 20
534.9737054233107
 10
12.36851558446585
 20
536.2562788765043
 10
12.38576399484648
 20
537.9691354051156
  0
LWPOLYLINE
  5
22C
330
1F
100
AcDbEntity
  8
1
  6
CONTINUOUS
 62
     7
100
AcDbPolyline
 90
       35
 70
     0
 43
0.0
 10
-11.39328380189139
 20
538.9765790582886
 10
-11.42806386981685
 20
538.9759662180621
 10
-11.46280976410788
 20
538.9741353537419
 10
-11.49742143586865
 20
538.9710979498674
 10
-11.53179883620339
 20
538.9668654909783
 10
-11.56699917479473
 20
538.9612507858146
 10
-11.60188294429962
 20
538.9543936118932
 10
-11.63635341833444
 20
538.9463308170651
 10
-11.6703138705154
 20
538.9370992491814
 10
-11.70268282705042
 20
538.9270680689971
 10
-11.73452964590624
 20
538.9159930048293
 10
-11.76578669479281
 20
538.9039215805298
 10
-11.79638634141986
 20
538.8909013199503
 10
-11.83715701262181
 20
538.871604017872
 10
-11.87662798575065
 20
538.8506814997561
 10
-11.91468178216157
 20
538.8282686301252
 10
-11.95294960549773
 20
538.8033048335162
 10
-11.98965374583463
 20
538.776871859502
 10
-12.02473832810333
 20
538.7491118872791
 10
-12.05814747723496
 20
538.7201670960443
 10
-12.08982531816052
 20
538.6901796649944
 10
-12.11971597581127
 20
538.659291773326
 10
-12.15069807333233
 20
538.6242099866167
 10
-12.17964655532047
 20
538.5881619439274
 10
-12.20655665813211
 20
538.5512921463209
 10
-12.23142361812371
 20
538.5137450948596
 10
-12.26229228000861
 20
538.4612710452561
 10
-12.28952086436649
 20
538.4078334260174
 10
-12.31315964672544
 20
538.3537090407708
 10
-12.33621075790928
 20
538.2902678319431
 10
-12.35474385289356
 20
538.2262062387725
 10
-12.36886232787901
 20
538.161793230382
 10
-12.37866957906589
 20
538.0972977758938
 10
-12.38426900265491
 20
538.0329888444309
 10
-12.38576399484645
 20
537.9691354051155
210
0.0
220
0.0
230
-1.0
  0
LINE
  5
22D
330
1F
100
AcDbEntity
  8
1
  6
CONTINUOUS
 62
     7
100
AcDbLine
 10
11.39328380189139
 20
538.9765790582886
 30
0.0
 11
9.440049531442535
 21
538.9765790582886
 31
0.0
  0
LWPOLYLINE
  5
22E
330
1F
100
AcDbEntity
  8
1
  6
CONTINUOUS
 62
     7
100
AcDbPolyline
 90
       35
 70
     0
 43
0.0
 10
-8.44756933848742
 20
537.9691354051155
 10
-8.448937862966883
 20
538.0306625894862
 10
-8.454112659950635
 20
538.0926100069315
 10
-8.46318601755433
 20
538.1547399486363
 10
-8.476250223894228
 20
538.2168147057852
 10
-8.493397567086308
 20
538.2785965695626
 10
-8.514720335246666
 20
538.3398478311536
 10
-8.536522606993529
 20
538.3920461515607
 10
-8.561618081663363
 20
538.4436595884816
 10
-8.590054612879177
 20
538.4944499282227
 10
-8.614249165458082
 20
538.5328352311124
 10
-8.640527949037773
 20
538.5705749334013
 10
-8.668890357974329
 20
538.6075234940697
 10
-8.699335786623768
 20
538.6435353720976
 10
-8.732862294548422
 20
538.6794914593023
 10
-8.768663680779804
 20
538.7142394027434
 10
-8.806690636074949
 20
538.7475798071405
 10
-8.83748495679701
 20
538.7721907118698
 10
-8.869618427186893
 20
538.795827560694
 10
-8.90303435032655
 20
538.8183859536937
 10
-8.937676029297931
 20
538.8397614909499
 10
-8.966949390433882
 20
538.8563330884964
 10
-8.997038984171397
 20
538.8720347533906
 10
-9.027889392694194
 20
538.8868080052935
 10
-9.059445198186216
 20
538.9005943638659
 10
-9.09259982261848
 20
538.9136942190696
 10
-9.126469241749675
 20
538.9256794849326
 10
-9.160965789714954
 20
538.9364952702833
 10
-9.196001800649473
 20
538.9460866839502
 10
-9.235588408050138
 20
538.9552618269946
 10
-9.27582446308986
 20
538.9628451686048
 10
-9.316549284358905
 20
538.9688026356603
 10
-9.357602190447261
 20
538.9731001550399
 10
-9.39882249994503
 20
538.975703653623
 10
-9.440049531442535
 20
538.9765790582886
210
0.0
220
0.0
230
-1.0
  0
LWPOLYLINE
  5
22F
330
1F
100
AcDbEntity
  8
1
  6
CONTINUOUS
 62
     7
100
AcDbPolyline
 90
        5
 70
     0
 43
0.0
 10
8.447569338487392
 20
537.9691354051157
 10
8.464817748868022
 20
536.2562788765044
 10
8.484709120973388
 20
534.9737054233108
 10
8.50643834630328
 20
534.1733275422616
 10
8.529125928766451
 20
533.8875407379006
  0
LWPOLYLINE
  5
230
330
1F
100
AcDbEntity
  8
1
  6
CONTINUOUS
 62
     7
100
AcDbPolyline
 90
        3
 70
     0
 43
0.0
 10
8.416666666666945
 20
546.8870457377349
 10
8.417968141180936
 20
544.9235670927743
 10
8.421842704050519
 20
543.005137960448
  0
LWPOLYLINE
  5
231
330
1F
100
AcDbEntity
  8
1
  6
CONTINUOUS
 62
     7
100
AcDbPolyline
 90
       39
 70
     0
 43
0.0
 10
-9.424920828993516
 20
542.0082922392625
 10
-9.385319309659106
 20
542.0090773616197
 10
-9.345753904896197
 20
542.01142521515
 10
-9.30633095957248
 20
542.0153245295418
 10
-9.26715681855536
 20
542.0207640344831
 10
-9.227102929327796
 20
542.0279734587274
 10
-9.187386062050413
 20
542.0367946175943
 10
-9.148113570416033
 20
542.0471938014648
 10
-9.109392808117262
 20
542.0591373007196
 10
-9.072374397296274
 20
542.0721918885015
 10
-9.035933268620095
 20
542.0866641540237
 10
-9.000154340080751
 20
542.1025084514214
 10
-8.965122529670438
 20
542.1196791348303
 10
-8.929942471729262
 20
542.138678410485
 10
-8.895597523975368
 20
542.1590292959422
 10
-8.862163591865896
 20
542.1806720309218
 10
-8.829716580858154
 20
542.2035468551438
 10
-8.798021625025271
 20
542.2278350056255
 10
-8.767365006052936
 20
542.2533228592292
 10
-8.737808761547534
 20
542.2799432154046
 10
-8.709414929115116
 20
542.3076288736008
 10
-8.681516977424392
 20
542.3371064351512
 10
-8.654868889881511
 20
542.3676489412383
 10
-8.629522998166578
 20
542.3991804414186
 10
-8.605531633959245
 20
542.4316249852487
 10
-8.582088775925007
 20
542.4662216644379
 10
-8.56012672364495
 20
542.5017415761524
 10
-8.539690186328524
 20
542.5380971573512
 10
-8.520823873185284
 20
542.5752008449932
 10
-8.503101107659367
 20
542.6140459543185
 10
-8.487054763630903
 20
542.65361663714
 10
-8.472720123959194
 20
542.6938146170278
 10
-8.460132471503263
 20
542.7345416175523
 10
-8.448629914487165
 20
542.7786362985685
 10
-8.439145909003937
 20
542.823303573971
 10
-8.431702820136083
 20
542.8684154108101
 10
-8.426323012966169
 20
542.9138437761358
 10
-8.423028852576758
 20
542.9594606369984
 10
-8.421842704050524
 20
543.0051379604479
210
0.0
220
0.0
230
-1.0
  0
LINE
  5
232
330
1F
100
AcDbEntity
  8
1
  6
CONTINUOUS
 62
     7
100
AcDbLine
 10
9.424920828993516
 20
542.0082922392625
 30
0.0
 11
11.40841250434035
 21
542.0082922392625
 31
0.0
  0
LWPOLYLINE
  5
233
330
1F
100
AcDbEntity
  8
1
  6
CONTINUOUS
 62
     7
100
AcDbPolyline
 90
       37
 70
     0
 43
0.0
 10
-12.41149062928334
 20
543.0051379604479
 10
-12.41041817278363
 20
542.9616838926772
 10
-12.40744810277097
 20
542.9183203454714
 10
-12.40259534967872
 20
542.8751589702969
 10
-12.39587484393964
 20
542.8323114186202
 10
-12.38701356738861
 20
542.7885854662835
 10
-12.37619410299187
 20
542.745267765205
 10
-12.36344864049124
 20
542.7024738414788
 10
-12.3488093696287
 20
542.660319221199
 10
-12.33277591854112
 20
542.6200053909225
 10
-12.31497567096865
 20
542.5803636817591
 10
-12.29545208274049
 20
542.5414955999946
 10
-12.27424860968604
 20
542.5035026519156
 10
-12.25067316374348
 20
542.4653423479333
 10
-12.22534305798148
 20
542.4281825136148
 10
-12.19832254838457
 20
542.3921301316645
 10
-12.16967589093729
 20
542.3572921847874
 10
-12.14058840827378
 20
542.3249571603976
 10
-12.11002600567376
 20
542.293816377904
 10
-12.07806426879979
 20
542.2639612873868
 10
-12.04477878331403
 20
542.2354833389263
 10
-12.00905013346246
 20
542.2075752462268
 10
-11.97195655319264
 20
542.1812111766951
 10
-11.93360595756152
 20
542.1564836737618
 10
-11.8941062616261
 20
542.1334852808579
 10
-11.85683433718113
 20
542.1139208640153
 10
-11.81864747656577
 20
542.095875577273
 10
-11.77965015018126
 20
542.079409161194
 10
-11.73994682842847
 20
542.0645813563414
 10
-11.69821452224148
 20
542.0510146684358
 10
-11.65580444167183
 20
542.0392488299825
 10
-11.61285218119526
 20
542.0293282439999
 10
-11.56949333528759
 20
542.0212973135052
 10
-11.52950723280685
 20
542.0156259488881
 10
-11.48925626050926
 20
542.0115598237023
 10
-11.44885361786394
 20
542.0091111748573
 10
-11.40841250434035
 20
542.0082922392625
210
0.0
220
0.0
230
-1.0
  0
LINE
  5
234
330
1F
100
AcDbEntity
  8
1
  6
CONTINUOUS
 62
     7
100
AcDbLine
 10
11.41670474360276
 20
572.5
 30
0.0
 11
9.416628589731108
 21
572.5
 31
0.0
  0
LINE
  5
235
330
1F
100
AcDbEntity
  8
1
  6
CONTINUOUS
 62
     7
100
AcDbLine
 10
8.416666666666933
 20
546.8870457377349
 30
0.0
 11
8.416666666666933
 21
571.5000380769359
 31
0.0
  0
LINE
  5
236
330
1F
100
AcDbEntity
  8
1
  6
CONTINUOUS
 62
     7
100
AcDbLine
 10
8.416666666666933
 20
576.4999619230641
 30
0.0
 11
8.416666666666933
 21
601.1129542622652
 31
0.0
  0
LWPOLYLINE
  5
237
330
1F
100
AcDbEntity
  8
1
  6
CONTINUOUS
 62
     7
100
AcDbPolyline
 90
        9
 70
     0
 43
0.0
 10
8.416666666666982
 20
576.4999619230641
 10
8.435880260827915
 20
576.3048749725621
 10
8.492782747022682
 20
576.1172873059203
 10
8.58518760595742
 20
575.9444071152554
 10
8.709544113921815
 20
575.7928774472548
 10
8.861073781922418
 20
575.6685209392904
 10
9.033953972587248
 20
575.5761160803557
 10
9.22154163922901
 20
575.519213594161
 10
9.41662858973111
 20
575.5
  0
LWPOLYLINE
  5
238
330
1F
100
AcDbEntity
  8
1
  6
CONTINUOUS
 62
     7
100
AcDbPolyline
 90
        9
 70
     0
 43
0.0
 10
11.41670474360276
 20
575.5
 10
11.61179169410486
 20
575.519213594161
 10
11.79937936074662
 20
575.5761160803557
 10
11.97225955141145
 20
575.6685209392904
 10
12.12378921941206
 20
575.7928774472548
 10
12.24814572737645
 20
575.9444071152554
 10
12.34055058631119
 20
576.1172873059203
 10
12.39745307250596
 20
576.3048749725621
 10
12.41666666666689
 20
576.4999619230641
  0
LWPOLYLINE
  5
239
330
1F
100
AcDbEntity
  8
1
  6
CONTINUOUS
 62
     7
100
AcDbPolyline
 90
        9
 70
     0
 43
0.0
 10
11.37307040464899
 20
575.5436343389539
 10
11.5681573551511
 20
575.5628479331148
 10
11.75574502179287
 20
575.6197504193096
 10
11.9286252124577
 20
575.7121552782443
 10
12.08015488045831
 20
575.8365117862087
 10
12.20451138842271
 20
575.9880414542093
 10
12.29691624735745
 20
576.1609216448742
 10
12.35381873355223
 20
576.348509311516
 10
12.37303232771316
 20
576.543596262018
  0
LWPOLYLINE
  5
23A
330
1F
100
AcDbEntity
  8
1
  6
CONTINUOUS
 62
     7
100
AcDbPolyline
 90
        5
 70
     0
 43
0.0
 10
374.8042074045675
 20
533.8875407379006
 10
374.8268949870306
 20
534.1733275422616
 10
374.8486242123606
 20
534.9737054233107
 10
374.8685155844659
 20
536.2562788765043
 10
374.8857639948466
 20
537.9691354051155
  0
LWPOLYLINE
  5
23B
330
1F
100
AcDbEntity
  8
1
  6
CONTINUOUS
 62
     7
100
AcDbPolyline
 90
       35
 70
     0
 43
0.0
 10
-373.8932838018915
 20
538.9765790582886
 10
-373.9280638698168
 20
538.9759662180621
 10
-373.9628097641079
 20
538.9741353537419
 10
-373.9974214358687
 20
538.9710979498674
 10
-374.0317988362034
 20
538.9668654909783
 10
-374.0669991747948
 20
538.9612507858146
 10
-374.1018829442997
 20
538.9543936118932
 10
-374.1363534183345
 20
538.946330817065
 10
-374.1703138705155
 20
538.9370992491813
 10
-374.2026828270505
 20
538.9270680689971
 10
-374.2345296459063
 20
538.9159930048293
 10
-374.265786694793
 20
538.9039215805298
 10
-374.2963863414199
 20
538.8909013199502
 10
-374.3371570126219
 20
538.8716040178718
 10
-374.3766279857506
 20
538.850681499756
 10
-374.4146817821616
 20
538.8282686301251
 10
-374.4529496054978
 20
538.8033048335161
 10
-374.4896537458347
 20
538.7768718595019
 10
-374.5247383281034
 20
538.749111887279
 10
-374.558147477235
 20
538.7201670960442
 10
-374.5898253181606
 20
538.6901796649943
 10
-374.6197159758113
 20
538.659291773326
 10
-374.6506980733324
 20
538.6242099866166
 10
-374.6796465553205
 20
538.5881619439274
 10
-374.7065566581321
 20
538.5512921463207
 10
-374.7314236181237
 20
538.5137450948596
 10
-374.7622922800087
 20
538.4612710452561
 10
-374.7895208643666
 20
538.4078334260174
 10
-374.8131596467255
 20
538.3537090407708
 10
-374.8362107579093
 20
538.290267831943
 10
-374.8547438528936
 20
538.2262062387725
 10
-374.8688623278791
 20
538.1617932303819
 10
-374.878669579066
 20
538.0972977758938
 10
-374.8842690026549
 20
538.0329888444309
 10
-374.8857639948465
 20
537.9691354051155
210
0.0
220
0.0
230
-1.0
  0
LINE
  5
23C
330
1F
100
AcDbEntity
  8
1
  6
CONTINUOUS
 62
     7
100
AcDbLine
 10
373.8932838018915
 20
538.9765790582886
 30
0.0
 11
371.9400495314425
 21
538.9765790582886
 31
0.0
  0
LWPOLYLINE
  5
23D
330
1F
100
AcDbEntity
  8
1
  6
CONTINUOUS
 62
     7
100
AcDbPolyline
 90
       35
 70
     0
 43
0.0
 10
-370.9475693384874
 20
537.9691354051155
 10
-370.948937862967
 20
538.0306625894862
 10
-370.9541126599507
 20
538.0926100069315
 10
-370.9631860175544
 20
538.1547399486363
 10
-370.9762502238942
 20
538.2168147057852
 10
-370.9933975670864
 20
538.2785965695628
 10
-371.0147203352467
 20
538.3398478311536
 10
-371.0365226069936
 20
538.3920461515607
 10
-371.0616180816635
 20
538.4436595884816
 10
-371.0900546128792
 20
538.4944499282227
 10
-371.1142491654581
 20
538.5328352311124
 10
-371.1405279490378
 20
538.5705749334013
 10
-371.1688903579744
 20
538.6075234940697
 10
-371.1993357866238
 20
538.6435353720976
 10
-371.2328622945485
 20
538.6794914593023
 10
-371.2686636807798
 20
538.7142394027434
 10
-371.306690636075
 20
538.7475798071404
 10
-371.337484956797
 20
538.7721907118697
 10
-371.3696184271869
 20
538.7958275606939
 10
-371.4030343503266
 20
538.8183859536937
 10
-371.437676029298
 20
538.8397614909499
 10
-371.4669493904339
 20
538.8563330884964
 10
-371.4970389841714
 20
538.8720347533906
 10
-371.5278893926942
 20
538.8868080052935
 10
-371.5594451981863
 20
538.9005943638659
 10
-371.5925998226186
 20
538.9136942190696
 10
-371.6264692417498
 20
538.9256794849326
 10
-371.660965789715
 20
538.9364952702833
 10
-371.6960018006495
 20
538.9460866839502
 10
-371.7355884080502
 20
538.9552618269945
 10
-371.77582446309
 20
538.9628451686048
 10
-371.8165492843589
 20
538.9688026356603
 10
-371.8576021904473
 20
538.9731001550399
 10
-371.8988224999451
 20
538.975703653623
 10
-371.9400495314425
 20
538.9765790582886
210
0.0
220
0.0
230
-1.0
  0
LWPOLYLINE
  5
23E
330
1F
100
AcDbEntity
  8
1
  6
CONTINUOUS
 62
     7
100
AcDbPolyline
 90
        5
 70
     0
 43
0.0
 10
370.9475693384874
 20
537.9691354051157
 10
370.9648177488681
 20
536.2562788765044
 10
370.9847091209734
 20
534.9737054233108
 10
371.0064383463033
 20
534.1733275422616
 10
371.0291259287665
 20
533.8875407379006
  0
LWPOLYLINE
  5
23F
330
1F
100
AcDbEntity
  8
1
  6
CONTINUOUS
 62
     7
100
AcDbPolyline
 90
        3
 70
     0
 43
0.0
 10
370.916666666667
 20
546.8870457377349
 10
370.917968141181
 20
544.9235670927743
 10
370.9218427040506
 20
543.005137960448
  0
LWPOLYLINE
  5
240
330
1F
100
AcDbEntity
  8
1
  6
CONTINUOUS
 62
     7
100
AcDbPolyline
 90
       39
 70
     0
 43
0.0
 10
-371.9249208289935
 20
542.0082922392625
 10
-371.8853193096592
 20
542.0090773616196
 10
-371.8457539048962
 20
542.01142521515
 10
-371.8063309595725
 20
542.0153245295417
 10
-371.7671568185554
 20
542.0207640344831
 10
-371.7271029293279
 20
542.0279734587273
 10
-371.6873860620505
 20
542.0367946175942
 10
-371.6481135704162
 20
542.0471938014647
 10
-371.6093928081173
 20
542.0591373007195
 10
-371.5723743972963
 20
542.0721918885014
 10
-371.5359332686201
 20
542.0866641540235
 10
-371.5001543400809
 20
542.1025084514213
 10
-371.4651225296706
 20
542.1196791348303
 10
-371.4299424717294
 20
542.1386784104849
 10
-371.3955975239754
 20
542.1590292959421
 10
-371.362163591866
 20
542.1806720309216
 10
-371.3297165808583
 20
542.2035468551437
 10
-371.2980216250253
 20
542.2278350056254
 10
-371.2673650060531
 20
542.2533228592291
 10
-371.2378087615476
 20
542.2799432154044
 10
-371.2094149291152
 20
542.3076288736007
 10
-371.1815169774244
 20
542.3371064351512
 10
-371.1548688898816
 20
542.3676489412381
 10
-371.1295229981666
 20
542.3991804414185
 10
-371.1055316339593
 20
542.4316249852487
 10
-371.0820887759251
 20
542.4662216644379
 10
-371.0601267236449
 20
542.5017415761523
 10
-371.0396901863285
 20
542.5380971573511
 10
-371.0208238731853
 20
542.5752008449931
 10
-371.0031011076594
 20
542.6140459543184
 10
-370.9870547636309
 20
542.6536166371399
 10
-370.9727201239592
 20
542.6938146170277
 10
-370.9601324715032
 20
542.7345416175522
 10
-370.9486299144873
 20
542.7786362985684
 10
-370.939145909004
 20
542.8233035739709
 10
-370.9317028201361
 20
542.8684154108101
 10
-370.9263230129662
 20
542.9138437761358
 10
-370.9230288525767
 20
542.9594606369984
 10
-370.9218427040506
 20
543.0051379604478
210
0.0
220
0.0
230
-1.0
  0
LINE
  5
241
330
1F
100
AcDbEntity
  8
1
  6
CONTINUOUS
 62
     7
100
AcDbLine
 10
371.9249208289935
 20
542.0082922392625
 30
0.0
 11
373.9084125043404
 21
542.0082922392625
 31
0.0
  0
LWPOLYLINE
  5
242
330
1F
100
AcDbEntity
  8
1
  6
CONTINUOUS
 62
     7
100
AcDbPolyline
 90
       37
 70
     0
 43
0.0
 10
-374.9114906292834
 20
543.0051379604478
 10
-374.9104181727836
 20
542.9616838926772
 10
-374.9074481027711
 20
542.9183203454714
 10
-374.9025953496787
 20
542.8751589702969
 10
-374.8958748439397
 20
542.8323114186201
 10
-374.8870135673886
 20
542.7885854662834
 10
-374.8761941029919
 20
542.745267765205
 10
-374.8634486404912
 20
542.7024738414788
 10
-374.8488093696287
 20
542.660319221199
 10
-374.8327759185411
 20
542.6200053909225
 10
-374.8149756709686
 20
542.580363681759
 10
-374.7954520827406
 20
542.5414955999946
 10
-374.7742486096861
 20
542.5035026519156
 10
-374.7506731637436
 20
542.4653423479333
 10
-374.7253430579815
 20
542.4281825136147
 10
-374.6983225483846
 20
542.3921301316645
 10
-374.6696758909374
 20
542.3572921847874
 10
-374.6405884082737
 20
542.3249571603976
 10
-374.6100260056738
 20
542.2938163779039
 10
-374.5780642687998
 20
542.2639612873868
 10
-374.544778783314
 20
542.2354833389262
 10
-374.5090501334624
 20
542.2075752462267
 10
-374.4719565531926
 20
542.181211176695
 10
-374.4336059575616
 20
542.1564836737617
 10
-374.3941062616261
 20
542.1334852808578
 10
-374.3568343371811
 20
542.1139208640152
 10
-374.3186474765658
 20
542.095875577273
 10
-374.2796501501813
 20
542.079409161194
 10
-374.2399468284285
 20
542.0645813563414
 10
-374.1982145222414
 20
542.0510146684358
 10
-374.1558044416718
 20
542.0392488299825
 10
-374.1128521811953
 20
542.0293282439999
 10
-374.0694933352876
 20
542.0212973135052
 10
-374.0295072328069
 20
542.015625948888
 10
-373.9892562605093
 20
542.0115598237023
 10
-373.9488536178641
 20
542.0091111748573
 10
-373.9084125043404
 20
542.0082922392625
210
0.0
220
0.0
230
-1.0
  0
LWPOLYLINE
  5
243
330
1F
100
AcDbEntity
  8
1
  6
CONTINUOUS
 62
     7
100
AcDbPolyline
 90
        3
 70
     0
 43
0.0
 10
374.9114906292834
 20
543.0051379604479
 10
374.915365192153
 20
544.9235670927743
 10
374.916666666667
 20
546.8870457377349
  0
LWPOLYLINE
  5
244
330
1F
100
AcDbEntity
  8
1
  6
CONTINUOUS
 62
     7
100
AcDbPolyline
 90
        9
 70
     0
 43
0.0
 10
8.460301005620712
 20
576.543596262018
 10
8.479514599781647
 20
576.348509311516
 10
8.536417085976419
 20
576.1609216448742
 10
8.628821944911166
 20
575.9880414542093
 10
8.753178452875575
 20
575.8365117862087
 10
8.904708120876192
 20
575.7121552782443
 10
9.07758831154104
 20
575.6197504193096
 10
9.265175978182816
 20
575.5628479331149
 10
9.460262928684935
 20
575.5436343389539
  0
LWPOLYLINE
  5
245
330
1F
100
AcDbEntity
  8
1
  6
CONTINUOUS
 62
     7
100
AcDbPolyline
 90
        9
 70
     0
 43
0.0
 10
370.9603010056207
 20
576.543596262018
 10
370.9795145997817
 20
576.348509311516
 10
371.0364170859765
 20
576.1609216448742
 10
371.1288219449112
 20
575.9880414542093
 10
371.2531784528756
 20
575.8365117862087
 10
371.4047081208762
 20
575.7121552782443
 10
371.577588311541
 20
575.6197504193096
 10
371.7651759781828
 20
575.5628479331149
 10
371.9602629286849
 20
575.5436343389539
  0
LWPOLYLINE
  5
246
330
1F
100
AcDbEntity
  8
1
  6
CONTINUOUS
 62
     7
100
AcDbPolyline
 90
        9
 70
     0
 43
0.0
 10
374.8730323277131
 20
571.4564037379821
 10
374.8538187335522
 20
571.6514906884842
 10
374.7969162473574
 20
571.8390783551259
 10
374.7045113884226
 20
572.0119585457908
 10
374.5801548804583
 20
572.1634882137914
 10
374.4286252124577
 20
572.2878447217558
 10
374.2557450217928
 20
572.3802495806905
 10
374.0681573551511
 20
572.4371520668852
 10
373.873070404649
 20
572.4563656610462
  0
LINE
  5
247
330
1F
100
AcDbEntity
  8
1
  6
CONTINUOUS
 62
     7
100
AcDbLine
 10
374.8730323277132
 20
543.043596262018
 30
0.0
 11
374.8730323277132
 21
571.4564037379821
 31
0.0
  0
LINE
  5
248
330
1F
100
AcDbEntity
  8
1
  6
CONTINUOUS
 62
     7
100
AcDbLine
 10
371.960262928685
 20
575.5436343389538
 30
0.0
 11
373.873070404649
 21
575.5436343389538
 31
0.0
  0
LINE
  5
249
330
1F
100
AcDbEntity
  8
1
  6
CONTINUOUS
 62
     7
100
AcDbLine
 10
370.9603010056208
 20
571.4564037379821
 30
0.0
 11
370.9603010056208
 21
543.0435962620181
 31
0.0
  0
LINE
  5
24A
330
1F
100
AcDbEntity
  8
1
  6
CONTINUOUS
 62
     7
100
AcDbLine
 10
373.873070404649
 20
572.4563656610463
 30
0.0
 11
371.9602629286849
 21
572.4563656610463
 31
0.0
  0
LINE
  5
24B
330
1F
100
AcDbEntity
  8
1
  6
CONTINUOUS
 62
     7
100
AcDbLine
 10
374.8730323277132
 20
576.543596262018
 30
0.0
 11
374.8730323277132
 21
604.956403737982
 31
0.0
  0
LWPOLYLINE
  5
24C
330
1F
100
AcDbEntity
  8
1
  6
CONTINUOUS
 62
     7
100
AcDbPolyline
 90
        3
 70
     0
 43
0.0
 10
8.421842704050519
 20
604.9948620395521
 10
8.417968141180936
 20
603.0764329072258
 10
8.416666666666945
 20
601.1129542622652
  0
LINE
  5
24D
330
1F
100
AcDbEntity
  8
1
  6
CONTINUOUS
 62
     7
100
AcDbLine
 10
8.460301005620702
 20
576.543596262018
 30
0.0
 11
8.460301005620702
 21
604.956403737982
 31
0.0
  0
LINE
  5
24E
330
1F
100
AcDbEntity
  8
1
  6
CONTINUOUS
 62
     7
100
AcDbLine
 10
11.37307040464894
 20
572.4563656610463
 30
0.0
 11
9.460262928684877
 21
572.4563656610463
 31
0.0
  0
LWPOLYLINE
  5
24F
330
1F
100
AcDbEntity
  8
1
  6
CONTINUOUS
 62
     7
100
AcDbPolyline
 90
       39
 70
     0
 43
0.0
 10
-11.40841250434035
 20
605.9917077607375
 10
-11.44801402367465
 20
605.9909226383804
 10
-11.48757942843762
 20
605.9885747848501
 10
-11.52700237376145
 20
605.9846754704583
 10
-11.56617651477851
 20
605.979235965517
 10
-11.60623040400613
 20
605.9720265412727
 10
-11.64594727128346
 20
605.9632053824058
 10
-11.68521976291784
 20
605.9528061985353
 10
-11.72394052521661
 20
605.9408626992805
 10
-11.76095893603765
 20
605.9278081114986
 10
-11.79740006471383
 20
605.9133358459765
 10
-11.83317899325306
 20
605.8974915485787
 10
-11.86821080366343
 20
605.8803208651698
 10
-11.90339086160455
 20
605.8613215895152
 10
-11.9377358093585
 20
605.8409707040579
 10
-11.97116974146797
 20
605.8193279690784
 10
-12.00361675247571
 20
605.7964531448563
 10
-12.0353117083086
 20
605.7721649943746
 10
-12.06596832728088
 20
605.7466771407709
 10
-12.09552457178634
 20
605.7200567845955
 10
-12.12391840421875
 20
605.6923711263993
 10
-12.15181635590953
 20
605.6628935648489
 10
-12.1784644434523
 20
605.6323510587619
 10
-12.20381033516735
 20
605.6008195585815
 10
-12.22780169937462
 20
605.5683750147514
 10
-12.25124455740892
 20
605.5337783355623
 10
-12.27320660968897
 20
605.4982584238477
 10
-12.2936431470054
 20
605.4619028426489
 10
-12.31250946014864
 20
605.424799155007
 10
-12.33023222567461
 20
605.3859540456816
 10
-12.34627856970297
 20
605.3463833628601
 10
-12.36061320937468
 20
605.3061853829723
 10
-12.37320086183061
 20
605.2654583824478
 10
-12.38470341884665
 20
605.2213637014316
 10
-12.39418742432993
 20
605.1766964260291
 10
-12.40163051319784
 20
605.13158458919
 10
-12.40701032036776
 20
605.0861562238642
 10
-12.41030448075711
 20
605.0405393630017
 10
-12.41149062928334
 20
604.9948620395522
210
0.0
220
0.0
230
-1.0
  0
LINE
  5
250
330
1F
100
AcDbEntity
  8
1
  6
CONTINUOUS
 62
     7
100
AcDbLine
 10
11.40841250434035
 20
605.9917077607375
 30
0.0
 11
9.424920828993516
 21
605.9917077607375
 31
0.0
  0
LWPOLYLINE
  5
251
330
1F
100
AcDbEntity
  8
1
  6
CONTINUOUS
 62
     7
100
AcDbPolyline
 90
       37
 70
     0
 43
0.0
 10
-8.421842704050524
 20
604.9948620395522
 10
-8.422915160550298
 20
605.0383161073228
 10
-8.425885230562841
 20
605.0816796545287
 10
-8.430737983655263
 20
605.1248410297032
 10
-8.437458489394285
 20
605.1676885813799
 10
-8.446319765945315
 20
605.2114145337166
 10
-8.457139230342053
 20
605.2547322347951
 10
-8.469884692842628
 20
605.2975261585214
 10
-8.48452396370522
 20
605.3396807788012
 10
-8.500557414792803
 20
605.3799946090775
 10
-8.518357662365334
 20
605.419636318241
 10
-8.537881250593433
 20
605.4585044000055
 10
-8.559084723647887
 20
605.4964973480845
 10
-8.582660169590389
 20
605.5346576520668
 10
-8.607990275352446
 20
605.5718174863853
 10
-8.635010784949355
 20
605.6078698683356
 10
-8.663657442396639
 20
605.6427078152127
 10
-8.692744925060197
 20
605.6750428396025
 10
-8.723307327660162
 20
605.7061836220961
 10
-8.755269064534193
 20
605.7360387126133
 10
-8.788554550019894
 20
605.7645166610738
 10
-8.824283199871525
 20
605.7924247537733
 10
-8.861376780141233
 20
605.818788823305
 10
-8.899727375772354
 20
605.8435163262383
 10
-8.939227071707828
 20
605.8665147191422
 10
-8.976498996152854
 20
605.8860791359848
 10
-9.014685856768152
 20
605.9041244227271
 10
-9.053683183152666
 20
605.9205908388061
 10
-9.09338650490546
 20
605.9354186436587
 10
-9.135118811092497
 20
605.9489853315644
 10
-9.177528891662151
 20
605.9607511700175
 10
-9.220481152138666
 20
605.9706717560002
 10
-9.263839998046336
 20
605.9787026864949
 10
-9.303826100527019
 20
605.984374051112
 10
-9.344077072824614
 20
605.9884401762978
 10
-9.38447971546988
 20
605.9908888251427
 10
-9.424920828993516
 20
605.9917077607375
210
0.0
220
0.0
230
-1.0
  0
LWPOLYLINE
  5
252
330
1F
100
AcDbEntity
  8
1
  6
CONTINUOUS
 62
     7
100
AcDbPolyline
 90
        5
 70
     0
 43
0.0
 10
8.529125928766456
 20
614.1124592620995
 10
8.506438346303284
 20
613.8266724577385
 10
8.484709120973392
 20
613.0262945766895
 10
8.464817748868024
 20
611.7437211234958
 10
8.447569338487394
 20
610.0308645948845
  0
LWPOLYLINE
  5
253
330
1F
100
AcDbEntity
  8
1
  6
CONTINUOUS
 62
     7
100
AcDbPolyline
 90
       35
 70
     0
 43
0.0
 10
-9.44004953144248
 20
609.0234209417114
 10
-9.405269463517135
 20
609.024033781938
 10
-9.370523569226103
 20
609.0258646462582
 10
-9.335911897465216
 20
609.0289020501327
 10
-9.301534497130476
 20
609.0331345090218
 10
-9.266334158539086
 20
609.0387492141855
 10
-9.231450389034196
 20
609.0456063881069
 10
-9.196979914999487
 20
609.053669182935
 10
-9.163019462818472
 20
609.0629007508188
 10
-9.13065050628356
 20
609.072931931003
 10
-9.098803687427631
 20
609.0840069951709
 10
-9.067546638541064
 20
609.0960784194704
 10
-9.036946991914013
 20
609.1090986800498
 10
-8.996176320712006
 20
609.1283959821282
 10
-8.956705347583277
 20
609.149318500244
 10
-8.918651551172301
 20
609.1717313698749
 10
-8.880383727836033
 20
609.1966951664839
 10
-8.843679587499127
 20
609.2231281404981
 10
-8.808595005230485
 20
609.2508881127211
 10
-8.77518585609885
 20
609.2798329039558
 10
-8.74350801517329
 20
609.3098203350058
 10
-8.713617357522601
 20
609.3407082266741
 10
-8.682635260001486
 20
609.3757900133835
 10
-8.653686778013398
 20
609.4118380560727
 10
-8.626776675201647
 20
609.4487078536794
 10
-8.60190971521016
 20
609.4862549051405
 10
-8.571041053325207
 20
609.538728954744
 10
-8.543812468967321
 20
609.5921665739827
 10
-8.520173686608429
 20
609.6462909592293
 10
-8.497122575424482
 20
609.7097321680571
 10
-8.478589480440252
 20
609.7737937612275
 10
-8.46447100545486
 20
609.8382067696182
 10
-8.454663754267983
 20
609.9027022241063
 10
-8.449064330678963
 20
609.9670111555693
 10
-8.44756933848742
 20
610.0308645948846
210
0.0
220
0.0
230
-1.0
  0
LINE
  5
254
330
1F
100
AcDbEntity
  8
1
  6
CONTINUOUS
 62
     7
100
AcDbLine
 10
9.44004953144248
 20
609.0234209417114
 30
0.0
 11
11.39328380189139
 21
609.0234209417114
 31
0.0
  0
LWPOLYLINE
  5
255
330
1F
100
AcDbEntity
  8
1
  6
CONTINUOUS
 62
     7
100
AcDbPolyline
 90
       35
 70
     0
 43
0.0
 10
-12.3857639948465
 20
610.0308645948846
 10
-12.38439547036682
 20
609.969337410514
 10
-12.37922067338318
 20
609.9073899930685
 10
-12.37014731577959
 20
609.8452600513638
 10
-12.35708310943964
 20
609.7831852942148
 10
-12.33993576624762
 20
609.7214034304374
 10
-12.3186129980872
 20
609.6601521688465
 10
-12.29681072634023
 20
609.6079538484394
 10
-12.27171525167045
 20
609.5563404115185
 10
-12.24327872045469
 20
609.5055500717774
 10
-12.21908416787579
 20
609.4671647688878
 10
-12.1928053842961
 20
609.4294250665988
 10
-12.16444297535954
 20
609.3924765059304
 10
-12.13399754671016
 20
609.3564646279024
 10
-12.10047103878545
 20
609.3205085406978
 10
-12.06466965255407
 20
609.2857605972566
 10
-12.02664269725892
 20
609.2524201928596
 10
-11.99584837653686
 20
609.2278092881303
 10
-11.96371490614703
 20
609.2041724393061
 10
-11.93029898300732
 20
609.1816140463064
 10
-11.89565730403599
 20
609.1602385090501
 10
-11.86638394289999
 20
609.1436669115037
 10
-11.83629434916253
 20
609.1279652466095
 10
-11.80544394063967
 20
609.1131919947067
 10
-11.77388813514771
 20
609.0994056361342
 10
-11.74073351071539
 20
609.0863057809304
 10
-11.7068640915842
 20
609.0743205150675
 10
-11.67236754361897
 20
609.0635047297168
 10
-11.63733153268445
 20
609.05391331605
 10
-11.59774492528379
 20
609.0447381730055
 10
-11.55750887024401
 20
609.0371548313952
 10
-11.51678404897502
 20
609.0311973643398
 10
-11.47573114288666
 20
609.0268998449601
 10
-11.43451083338889
 20
609.0242963463771
 10
-11.39328380189139
 20
609.0234209417114
210
0.0
220
0.0
230
-1.0
  0
LWPOLYLINE
  5
256
330
1F
100
AcDbEntity
  8
1
  6
CONTINUOUS
 62
     7
100
AcDbPolyline
 90
        5
 70
     0
 43
0.0
 10
12.38576399484648
 20
610.0308645948844
 10
12.36851558446585
 20
611.7437211234957
 10
12.34862421236048
 20
613.0262945766893
 10
12.32689498703059
 20
613.8266724577385
 10
12.30420740456742
 20
614.1124592620995
  0
LINE
  5
257
330
1F
100
AcDbEntity
  8
1
  6
CONTINUOUS
 62
     7
100
AcDbLine
 10
8.460301005620702
 20
543.043596262018
 30
0.0
 11
8.460301005620702
 21
571.4564037379821
 31
0.0
  0
LWPOLYLINE
  5
258
330
1F
100
AcDbEntity
  8
1
  6
CONTINUOUS
 62
     7
100
AcDbPolyline
 90
        9
 70
     0
 43
0.0
 10
371.9602629286849
 20
572.4563656610462
 10
371.7651759781828
 20
572.4371520668852
 10
371.577588311541
 20
572.3802495806905
 10
371.4047081208762
 20
572.2878447217558
 10
371.2531784528756
 20
572.1634882137914
 10
371.1288219449112
 20
572.0119585457908
 10
371.0364170859765
 20
571.8390783551259
 10
370.9795145997817
 20
571.6514906884842
 10
370.9603010056207
 20
571.4564037379821
  0
LINE
  5
259
330
1F
100
AcDbEntity
  8
1
  6
CONTINUOUS
 62
     7
100
AcDbLine
 10
370.9603010056208
 20
604.956403737982
 30
0.0
 11
370.9603010056208
 21
576.543596262018
 31
0.0
  0
LWPOLYLINE
  5
25A
330
1F
100
AcDbEntity
  8
1
  6
CONTINUOUS
 62
     7
100
AcDbPolyline
 90
        9
 70
     0
 43
0.0
 10
373.873070404649
 20
575.5436343389539
 10
374.0681573551511
 20
575.5628479331149
 10
374.2557450217928
 20
575.6197504193096
 10
374.4286252124576
 20
575.7121552782443
 10
374.5801548804583
 20
575.8365117862087
 10
374.7045113884226
 20
575.9880414542093
 10
374.7969162473574
 20
576.1609216448742
 10
374.8538187335522
 20
576.348509311516
 10
374.8730323277131
 20
576.543596262018
  0
LWPOLYLINE
  5
25B
330
1F
100
AcDbEntity
  8
1
  6
CONTINUOUS
 62
     7
100
AcDbPolyline
 90
        9
 70
     0
 43
0.0
 10
9.46026292868488
 20
605.9563656610462
 10
9.26517597818277
 20
605.9371520668853
 10
9.077588311541005
 20
605.8802495806905
 10
8.904708120876167
 20
605.7878447217558
 10
8.753178452875558
 20
605.6634882137914
 10
8.628821944911158
 20
605.5119585457908
 10
8.536417085976415
 20
605.3390783551259
 10
8.479514599781647
 20
605.1514906884842
 10
8.460301005620712
 20
604.9564037379821
  0
LWPOLYLINE
  5
25C
330
1F
100
AcDbEntity
  8
1
  6
CONTINUOUS
 62
     7
100
AcDbPolyline
 90
        9
 70
     0
 43
0.0
 10
11.37307040464899
 20
542.0436343389539
 10
11.5681573551511
 20
542.0628479331149
 10
11.75574502179287
 20
542.1197504193096
 10
11.92862521245771
 20
542.2121552782443
 10
12.08015488045832
 20
542.3365117862087
 10
12.20451138842273
 20
542.4880414542093
 10
12.29691624735747
 20
542.6609216448742
 10
12.35381873355224
 20
542.848509311516
 10
12.37303232771317
 20
543.043596262018
  0
LWPOLYLINE
  5
25D
330
1F
100
AcDbEntity
  8
1
  6
CONTINUOUS
 62
     7
100
AcDbPolyline
 90
        9
 70
     0
 43
0.0
 10
371.9602629286849
 20
605.9563656610461
 10
371.7651759781828
 20
605.9371520668851
 10
371.577588311541
 20
605.8802495806904
 10
371.4047081208762
 20
605.7878447217557
 10
371.2531784528756
 20
605.6634882137913
 10
371.1288219449112
 20
605.5119585457907
 10
371.0364170859765
 20
605.3390783551258
 10
370.9795145997817
 20
605.151490688484
 10
370.9603010056207
 20
604.956403737982
  0
LWPOLYLINE
  5
25E
330
1F
100
AcDbEntity
  8
1
  6
CONTINUOUS
 62
     7
100
AcDbPolyline
 90
        9
 70
     0
 43
0.0
 10
373.873070404649
 20
542.0436343389538
 10
374.0681573551511
 20
542.0628479331147
 10
374.2557450217929
 20
542.1197504193095
 10
374.4286252124577
 20
542.2121552782442
 10
374.5801548804583
 20
542.3365117862086
 10
374.7045113884228
 20
542.4880414542092
 10
374.7969162473575
 20
542.6609216448741
 10
374.8538187335523
 20
542.8485093115158
 10
374.8730323277131
 20
543.0435962620179
  0
LWPOLYLINE
  5
25F
330
1F
100
AcDbEntity
  8
1
  6
CONTINUOUS
 62
     7
100
AcDbPolyline
 90
        9
 70
     0
 43
0.0
 10
12.37303232771316
 20
604.9564037379821
 10
12.35381873355222
 20
605.1514906884842
 10
12.29691624735745
 20
605.3390783551259
 10
12.2045113884227
 20
605.5119585457908
 10
12.08015488045829
 20
605.6634882137914
 10
11.92862521245768
 20
605.7878447217558
 10
11.75574502179283
 20
605.8802495806905
 10
11.56815735515105
 20
605.9371520668852
 10
11.37307040464894
 20
605.9563656610462
  0
LWPOLYLINE
  5
260
330
1F
100
AcDbEntity
  8
1
  6
CONTINUOUS
 62
     7
100
AcDbPolyline
 90
        9
 70
     0
 43
0.0
 10
374.8730323277131
 20
604.956403737982
 10
374.8538187335522
 20
605.151490688484
 10
374.7969162473574
 20
605.3390783551258
 10
374.7045113884226
 20
605.5119585457907
 10
374.5801548804583
 20
605.6634882137913
 10
374.4286252124577
 20
605.7878447217557
 10
374.2557450217928
 20
605.8802495806904
 10
374.0681573551511
 20
605.9371520668851
 10
373.873070404649
 20
605.9563656610461
  0
LWPOLYLINE
  5
261
330
1F
100
AcDbEntity
  8
1
  6
CONTINUOUS
 62
     7
100
AcDbPolyline
 90
        9
 70
     0
 43
0.0
 10
370.9603010056207
 20
543.043596262018
 10
370.9795145997817
 20
542.848509311516
 10
371.0364170859765
 20
542.6609216448742
 10
371.1288219449112
 20
542.4880414542093
 10
371.2531784528756
 20
542.3365117862087
 10
371.4047081208763
 20
542.2121552782443
 10
371.577588311541
 20
542.1197504193096
 10
371.7651759781828
 20
542.0628479331149
 10
371.9602629286849
 20
542.0436343389539
  0
LWPOLYLINE
  5
262
330
1F
100
AcDbEntity
  8
1
  6
CONTINUOUS
 62
     7
100
AcDbPolyline
 90
        9
 70
     0
 43
0.0
 10
8.460301005620712
 20
543.043596262018
 10
8.479514599781648
 20
542.8485093115158
 10
8.536417085976424
 20
542.6609216448742
 10
8.628821944911172
 20
542.4880414542093
 10
8.75317845287558
 20
542.3365117862087
 10
8.904708120876196
 20
542.2121552782443
 10
9.077588311541044
 20
542.1197504193096
 10
9.265175978182818
 20
542.0628479331149
 10
9.460262928684935
 20
542.0436343389539
  0
LINE
  5
263
330
1F
100
AcDbEntity
  8
1
  6
CONTINUOUS
 62
     7
100
AcDbLine
 10
9.460262928684877
 20
605.9563656610462
 30
0.0
 11
11.37307040464894
 21
605.9563656610462
 31
0.0
  0
LINE
  5
264
330
1F
100
AcDbEntity
  8
1
  6
CONTINUOUS
 62
     7
100
AcDbLine
 10
371.9602629286849
 20
605.9563656610462
 30
0.0
 11
373.873070404649
 21
605.9563656610462
 31
0.0
  0
LINE
  5
265
330
1F
100
AcDbEntity
  8
1
  6
CONTINUOUS
 62
     7
100
AcDbLine
 10
373.873070404649
 20
542.0436343389539
 30
0.0
 11
371.9602629286849
 21
542.0436343389539
 31
0.0
  0
LINE
  5
266
330
1F
100
AcDbEntity
  8
1
  6
CONTINUOUS
 62
     7
100
AcDbLine
 10
11.37307040464899
 20
542.0436343389539
 30
0.0
 11
9.460262928684932
 21
542.0436343389539
 31
0.0
  0
LINE
  5
267
330
1F
100
AcDbEntity
  8
1
  6
CONTINUOUS
 62
     7
100
AcDbLine
 10
367.8032173853871
 20
544.0059456248931
 30
0.0
 11
367.7680814482594
 21
544.0077870213311
 31
0.0
  0
LWPOLYLINE
  5
268
330
1F
100
AcDbEntity
  8
1
  6
CONTINUOUS
 62
     7
100
AcDbPolyline
 90
        9
 70
     0
 43
0.0
 10
367.8032173853871
 20
544.0059456248932
 10
367.8083249677296
 20
544.0634012143661
 10
367.813236268547
 20
544.2340953507987
 10
367.8177625493033
 20
544.5114683542547
 10
367.8217298675672
 20
544.8848609357634
 10
367.824985761523
 20
545.3399238278187
 10
367.8274051089916
 20
545.859169218681
 10
367.8288949358067
 20
546.4226427991757
 10
367.8293979887594
 20
547.0086905956039
  0
LINE
  5
269
330
1F
100
AcDbEntity
  8
1
  6
CONTINUOUS
 62
     7
100
AcDbLine
 10
367.8293979887594
 20
600.9913094043961
 30
0.0
 11
367.8293979887594
 21
547.0086905956039
 31
0.0
  0
LWPOLYLINE
  5
26A
330
1F
100
AcDbEntity
  8
1
  6
CONTINUOUS
 62
     7
100
AcDbPolyline
 90
        9
 70
     0
 43
0.0
 10
367.8293979887594
 20
600.9913094043962
 10
367.8288949358067
 20
601.5773572008244
 10
367.8274051089916
 20
602.1408307813191
 10
367.824985761523
 20
602.6600761721813
 10
367.8217298675672
 20
603.1151390642367
 10
367.8177625493033
 20
603.4885316457454
 10
367.813236268547
 20
603.7659046492013
 10
367.8083249677296
 20
603.936598785634
 10
367.8032173853871
 20
603.9940543751069
  0
LINE
  5
26B
330
1F
100
AcDbEntity
  8
1
  6
CONTINUOUS
 62
     7
100
AcDbLine
 10
367.7680814482594
 20
603.992212978669
 30
0.0
 11
367.8032173853871
 21
603.9940543751069
 31
0.0
  0
LINE
  5
26C
330
1F
100
AcDbEntity
  8
1
  6
CONTINUOUS
 62
     7
100
AcDbLine
 10
5.30321738538711
 20
543.4699765822766
 30
0.0
 11
5.268081448259326
 21
543.4681351858386
 31
0.0
  0
LWPOLYLINE
  5
26D
330
1F
100
AcDbEntity
  8
1
  6
CONTINUOUS
 62
     7
100
AcDbPolyline
 90
        9
 70
     0
 43
0.0
 10
5.303217385387055
 20
543.4699765822766
 10
5.308324967729528
 20
543.5279675258456
 10
5.313236268546947
 20
543.6991764430168
 10
5.317762549303184
 20
543.9770238711184
 10
5.321729867567146
 20
544.350832289307
 10
5.324985761522848
 20
544.8062364497058
 10
5.327405108991496
 20
545.3257354258244
 10
5.328894935806659
 20
545.8893651633489
 10
5.329397988759331
 20
546.4754656875534
  0
LINE
  5
26E
330
1F
100
AcDbEntity
  8
1
  6
CONTINUOUS
 62
     7
100
AcDbLine
 10
5.329397988759338
 20
601.5245343124469
 30
0.0
 11
5.329397988759338
 21
546.4754656875534
 31
0.0
  0
LWPOLYLINE
  5
26F
330
1F
100
AcDbEntity
  8
1
  6
CONTINUOUS
 62
     7
100
AcDbPolyline
 90
        9
 70
     0
 43
0.0
 10
5.329397988759386
 20
601.5245343124467
 10
5.328894935806714
 20
602.1106348366512
 10
5.327405108991552
 20
602.6742645741757
 10
5.324985761522903
 20
603.1937635502943
 10
5.321729867567202
 20
603.6491677106931
 10
5.317762549303239
 20
604.0229761288817
 10
5.313236268547002
 20
604.3008235569833
 10
5.308324967729584
 20
604.4720324741545
 10
5.303217385387111
 20
604.5300234177236
  0
LINE
  5
270
330
1F
100
AcDbEntity
  8
1
  6
CONTINUOUS
 62
     7
100
AcDbLine
 10
5.268081448259382
 20
604.5318648141615
 30
0.0
 11
5.30321738538711
 21
604.5300234177236
 31
0.0
  0
LINE
  5
271
330
1F
100
AcDbEntity
  8
1
  6
CONTINUOUS
 62
     7
100
AcDbLine
 10
15.53011594794676
 20
603.994054375107
 30
0.0
 11
15.56525188507454
 21
603.9922129786692
 31
0.0
  0
LWPOLYLINE
  5
272
330
1F
100
AcDbEntity
  8
1
  6
CONTINUOUS
 62
     7
100
AcDbPolyline
 90
        9
 70
     0
 43
0.0
 10
15.53011594794681
 20
603.994054375107
 10
15.52500836560434
 20
603.9365987856341
 10
15.52009706478692
 20
603.7659046492015
 10
15.51557078403069
 20
603.4885316457455
 10
15.51160346576672
 20
603.1151390642368
 10
15.50834757181102
 20
602.6600761721816
 10
15.50592822434237
 20
602.1408307813192
 10
15.50443839752721
 20
601.5773572008245
 10
15.50393534457454
 20
600.9913094043964
  0
LINE
  5
273
330
1F
100
AcDbEntity
  8
1
  6
CONTINUOUS
 62
     7
100
AcDbLine
 10
15.50393534457453
 20
547.008690595604
 30
0.0
 11
15.50393534457453
 21
600.9913094043961
 31
0.0
  0
LWPOLYLINE
  5
274
330
1F
100
AcDbEntity
  8
1
  6
CONTINUOUS
 62
     7
100
AcDbPolyline
 90
        9
 70
     0
 43
0.0
 10
15.50393534457454
 20
547.0086905956039
 10
15.50443839752721
 20
546.4226427991757
 10
15.50592822434237
 20
545.859169218681
 10
15.50834757181102
 20
545.3399238278188
 10
15.51160346576672
 20
544.8848609357634
 10
15.51557078403068
 20
544.5114683542547
 10
15.52009706478692
 20
544.2340953507988
 10
15.52500836560434
 20
544.0634012143661
 10
15.53011594794681
 20
544.0059456248932
  0
LINE
  5
275
330
1F
100
AcDbEntity
  8
1
  6
CONTINUOUS
 62
     7
100
AcDbLine
 10
15.56525188507454
 20
544.0077870213311
 30
0.0
 11
15.53011594794681
 21
544.0059456248932
 31
0.0
  0
LINE
  5
276
330
1F
100
AcDbEntity
  8
1
  6
CONTINUOUS
 62
     7
100
AcDbLine
 10
378.0301159479469
 20
604.5300234177236
 30
0.0
 11
378.0652518850746
 21
604.5318648141614
 31
0.0
  0
LWPOLYLINE
  5
277
330
1F
100
AcDbEntity
  8
1
  6
CONTINUOUS
 62
     7
100
AcDbPolyline
 90
        9
 70
     0
 43
0.0
 10
378.0301159479468
 20
604.5300234177236
 10
378.0250083656043
 20
604.4720324741545
 10
378.0200970647869
 20
604.3008235569833
 10
378.0155707840307
 20
604.0229761288819
 10
378.0116034657667
 20
603.6491677106932
 10
378.008347571811
 20
603.1937635502943
 10
378.0059282243424
 20
602.6742645741757
 10
378.0044383975272
 20
602.1106348366512
 10
378.0039353445745
 20
601.5245343124467
  0
LINE
  5
278
330
1F
100
AcDbEntity
  8
1
  6
CONTINUOUS
 62
     7
100
AcDbLine
 10
378.0039353445745
 20
546.4754656875532
 30
0.0
 11
378.0039353445745
 21
601.5245343124467
 31
0.0
  0
LWPOLYLINE
  5
279
330
1F
100
AcDbEntity
  8
1
  6
CONTINUOUS
 62
     7
100
AcDbPolyline
 90
        9
 70
     0
 43
0.0
 10
378.0039353445746
 20
546.4754656875534
 10
378.0044383975272
 20
545.8893651633489
 10
378.0059282243424
 20
545.3257354258244
 10
378.008347571811
 20
544.8062364497058
 10
378.0116034657668
 20
544.350832289307
 10
378.0155707840307
 20
543.9770238711184
 10
378.020097064787
 20
543.6991764430168
 10
378.0250083656044
 20
543.5279675258456
 10
378.0301159479469
 20
543.4699765822766
  0
LINE
  5
27A
330
1F
100
AcDbEntity
  8
1
  6
CONTINUOUS
 62
     7
100
AcDbLine
 10
378.0652518850745
 20
543.4681351858386
 30
0.0
 11
378.0301159479468
 21
543.4699765822764
 31
0.0
  0
LINE
  5
27B
330
1F
100
AcDbEntity
  8
1
  6
CONTINUOUS
 62
     7
100
AcDbLine
 10
374.7507800233209
 20
614.9202390190688
 30
0.0
 11
374.7507800233209
 21
612.1484709876001
 31
0.0
  0
LINE
  5
27C
330
1F
100
AcDbEntity
  8
1
  6
CONTINUOUS
 62
     7
100
AcDbLine
 10
374.7680814482594
 20
614.1485852184077
 30
0.0
 11
374.7507800233209
 21
614.9202390190688
 31
0.0
  0
LINE
  5
27D
330
1F
100
AcDbEntity
  8
1
  6
CONTINUOUS
 62
     7
100
AcDbLine
 10
374.8042074045674
 20
614.1124592620996
 30
0.0
 11
374.7680814482594
 21
614.1485852184077
 31
0.0
  0
LINE
  5
27E
330
1F
100
AcDbEntity
  8
1
  6
CONTINUOUS
 62
     7
100
AcDbLine
 10
12.25078002332094
 20
614.9202390190688
 30
0.0
 11
12.25078002332094
 21
612.1484709876001
 31
0.0
  0
LINE
  5
27F
330
1F
100
AcDbEntity
  8
1
  6
CONTINUOUS
 62
     7
100
AcDbLine
 10
12.26808144825933
 20
614.1485852184077
 30
0.0
 11
12.25078002332094
 21
614.9202390190688
 31
0.0
  0
LINE
  5
280
330
1F
100
AcDbEntity
  8
1
  6
CONTINUOUS
 62
     7
100
AcDbLine
 10
12.30420740456742
 20
614.1124592620996
 30
0.0
 11
12.26808144825933
 21
614.1485852184078
 31
0.0
  0
LINE
  5
281
330
1F
100
AcDbEntity
  8
1
  6
CONTINUOUS
 62
     7
100
AcDbLine
 10
8.529125928766451
 20
614.1124592620996
 30
0.0
 11
8.565251885074538
 21
614.1485852184078
 31
0.0
  0
LINE
  5
282
330
1F
100
AcDbEntity
  8
1
  6
CONTINUOUS
 62
     7
100
AcDbLine
 10
8.582553310012925
 20
614.9202390190688
 30
0.0
 11
8.565251885074538
 21
614.1485852184077
 31
0.0
  0
LINE
  5
283
330
1F
100
AcDbEntity
  8
1
  6
CONTINUOUS
 62
     7
100
AcDbLine
 10
8.582553310012925
 20
612.1484709876001
 30
0.0
 11
8.582553310012925
 21
614.9202390190688
 31
0.0
  0
LINE
  5
284
330
1F
100
AcDbEntity
  8
1
  6
CONTINUOUS
 62
     7
100
AcDbLine
 10
371.0291259287665
 20
614.1124592620996
 30
0.0
 11
371.0652518850745
 21
614.1485852184077
 31
0.0
  0
LINE
  5
285
330
1F
100
AcDbEntity
  8
1
  6
CONTINUOUS
 62
     7
100
AcDbLine
 10
371.0825533100129
 20
614.9202390190688
 30
0.0
 11
371.0652518850745
 21
614.1485852184077
 31
0.0
  0
LINE
  5
286
330
1F
100
AcDbEntity
  8
1
  6
CONTINUOUS
 62
     7
100
AcDbLine
 10
371.0825533100129
 20
612.1484709876001
 30
0.0
 11
371.0825533100129
 21
614.9202390190688
 31
0.0
  0
LINE
  5
287
330
1F
100
AcDbEntity
  8
1
  6
CONTINUOUS
 62
     7
100
AcDbLine
 10
12.30420740456747
 20
533.8875407379005
 30
0.0
 11
12.26808144825939
 21
533.8514147815924
 31
0.0
  0
LINE
  5
288
330
1F
100
AcDbEntity
  8
1
  6
CONTINUOUS
 62
     7
100
AcDbLine
 10
12.25078002332094
 20
533.0797609809313
 30
0.0
 11
12.26808144825933
 21
533.8514147815924
 31
0.0
  0
LINE
  5
289
330
1F
100
AcDbEntity
  8
1
  6
CONTINUOUS
 62
     7
100
AcDbLine
 10
12.25078002332094
 20
535.8515290124
 30
0.0
 11
12.25078002332094
 21
533.0797609809313
 31
0.0
  0
LINE
  5
28A
330
1F
100
AcDbEntity
  8
1
  6
CONTINUOUS
 62
     7
100
AcDbLine
 10
371.0825533100129
 20
533.0797609809313
 30
0.0
 11
371.082553310013
 21
535.8515290124
 31
0.0
  0
LINE
  5
28B
330
1F
100
AcDbEntity
  8
1
  6
CONTINUOUS
 62
     7
100
AcDbLine
 10
371.0652518850745
 20
533.8514147815924
 30
0.0
 11
371.0825533100129
 21
533.0797609809313
 31
0.0
  0
LINE
  5
28C
330
1F
100
AcDbEntity
  8
1
  6
CONTINUOUS
 62
     7
100
AcDbLine
 10
371.0291259287665
 20
533.8875407379005
 30
0.0
 11
371.0652518850745
 21
533.8514147815924
 31
0.0
  0
LINE
  5
28D
330
1F
100
AcDbEntity
  8
1
  6
CONTINUOUS
 62
     7
100
AcDbLine
 10
374.8042074045674
 20
533.8875407379005
 30
0.0
 11
374.7680814482594
 21
533.8514147815924
 31
0.0
  0
LINE
  5
28E
330
1F
100
AcDbEntity
  8
1
  6
CONTINUOUS
 62
     7
100
AcDbLine
 10
374.7507800233209
 20
533.0797609809313
 30
0.0
 11
374.7680814482594
 21
533.8514147815924
 31
0.0
  0
LINE
  5
28F
330
1F
100
AcDbEntity
  8
1
  6
CONTINUOUS
 62
     7
100
AcDbLine
 10
374.7507800233209
 20
535.8515290124
 30
0.0
 11
374.7507800233209
 21
533.0797609809313
 31
0.0
  0
LINE
  5
290
330
1F
100
AcDbEntity
  8
1
  6
CONTINUOUS
 62
     7
100
AcDbLine
 10
8.582553310012925
 20
533.0797609809313
 30
0.0
 11
8.582553310012925
 21
535.8515290124
 31
0.0
  0
LINE
  5
291
330
1F
100
AcDbEntity
  8
1
  6
CONTINUOUS
 62
     7
100
AcDbLine
 10
8.565251885074538
 20
533.8514147815924
 30
0.0
 11
8.582553310012925
 21
533.0797609809313
 31
0.0
  0
LINE
  5
292
330
1F
100
AcDbEntity
  8
1
  6
CONTINUOUS
 62
     7
100
AcDbLine
 10
8.529125928766396
 20
533.8875407379005
 30
0.0
 11
8.565251885074481
 21
533.8514147815924
 31
0.0
  0
ARC
  5
293
330
1F
100
AcDbEntity
  8
1
  6
CONTINUOUS
 62
     7
100
AcDbCircle
 10
5.320427541901471
 20
613.1486021904071
 30
0.0
 40
7.153214841551163
100
AcDbArc
 50
14.33967841424186
 51
33.99847175624734
  0
LINE
  5
294
330
1F
100
AcDbEntity
  8
1
  6
CONTINUOUS
 62
     7
100
AcDbLine
 10
371.0825533100129
 20
614.9202390190688
 30
0.0
 11
371.0929492252243
 21
615.050157398941
 31
0.0
  0
ARC
  5
295
330
1F
100
AcDbEntity
  8
1
  6
CONTINUOUS
 62
     7
100
AcDbCircle
 10
379.4429373347456
 20
612.394794526038
 30
0.0
 40
8.762034776006104
100
AcDbArc
 50
147.1438906713839
 51
162.3589206313856
  0
LINE
  5
296
330
1F
100
AcDbEntity
  8
1
  6
CONTINUOUS
 62
     7
100
AcDbLine
 10
8.582553310012925
 20
614.9202390190688
 30
0.0
 11
8.592953339570524
 21
615.050186247526
 31
0.0
  0
ARC
  5
297
330
1F
100
AcDbEntity
  8
1
  6
CONTINUOUS
 62
     7
100
AcDbCircle
 10
16.94173773935488
 20
612.3953401263186
 30
0.0
 40
8.760731070029088
100
AcDbArc
 50
147.1426317468155
 51
162.359755553677
  0
ARC
  5
298
330
1F
100
AcDbEntity
  8
1
  6
CONTINUOUS
 62
     7
100
AcDbCircle
 10
367.8198536670855
 20
613.1483446530534
 30
0.0
 40
7.153834622066466
100
AcDbArc
 50
14.34053844786342
 51
33.99761172262458
  0
LINE
  5
299
330
1F
100
AcDbEntity
  8
1
  6
CONTINUOUS
 62
     7
100
AcDbLine
 10
18.56513765426707
 20
544.1650043725973
 30
0.0
 11
15.56525188507454
 21
544.0077870213311
 31
0.0
  0
LINE
  5
29A
330
1F
100
AcDbEntity
  8
1
  6
CONTINUOUS
 62
     7
100
AcDbLine
 10
2.268195679066803
 20
604.6890821654277
 30
0.0
 11
5.268081448259326
 21
604.5318648141615
 31
0.0
  0
LINE
  5
29B
330
1F
100
AcDbEntity
  8
1
  6
CONTINUOUS
 62
     7
100
AcDbLine
 10
12.25078002332094
 20
533.0797609809313
 30
0.0
 11
12.24237950983489
 21
532.9645036558978
 31
0.0
  0
ARC
  5
29C
330
1F
100
AcDbEntity
  8
1
  6
CONTINUOUS
 62
     7
100
AcDbCircle
 10
4.004259020686352
 20
535.5412853720127
 30
0.0
 40
8.631710908402361
100
AcDbArc
 50
327.0902632592308
 51
342.6309657598772
  0
ARC
  5
29D
330
1F
100
AcDbEntity
  8
1
  6
CONTINUOUS
 62
     7
100
AcDbCircle
 10
15.05340382515245
 20
534.6451874704801
 30
0.0
 40
6.657512034045638
100
AcDbArc
 50
193.599690464903
 51
214.7384597055852
  0
LINE
  5
29E
330
1F
100
AcDbEntity
  8
1
  6
CONTINUOUS
 62
     7
100
AcDbLine
 10
367.7680814482594
 20
544.0077870213311
 30
0.0
 11
364.7681956790669
 21
544.1650043725974
 31
0.0
  0
ARC
  5
29F
330
1F
100
AcDbEntity
  8
1
  6
CONTINUOUS
 62
     7
100
AcDbCircle
 10
378.0129057914336
 20
534.8513978095937
 30
0.0
 40
7.153214841552514
100
AcDbArc
 50
194.3396784142441
 51
213.9984717562465
  0
LINE
  5
2A0
330
1F
100
AcDbEntity
  8
1
  6
CONTINUOUS
 62
     7
100
AcDbLine
 10
5.268081448259326
 20
543.4681351858386
 30
0.0
 11
2.268195679066803
 21
543.3109178345724
 31
0.0
  0
LINE
  5
2A1
330
1F
100
AcDbEntity
  8
1
  6
CONTINUOUS
 62
     7
100
AcDbLine
 10
15.56525188507454
 20
603.992212978669
 30
0.0
 11
18.56513765426707
 21
603.8349956274028
 31
0.0
  0
ARC
  5
2A2
330
1F
100
AcDbEntity
  8
1
  6
CONTINUOUS
 62
     7
100
AcDbCircle
 10
367.3754325481412
 20
535.05109786596
 30
0.0
 40
7.634259590419753
100
AcDbArc
 50
326.6264619834732
 51
345.0353878460387
  0
LINE
  5
2A3
330
1F
100
AcDbEntity
  8
1
  6
CONTINUOUS
 62
     7
100
AcDbLine
 10
364.7681956790669
 20
603.8349956274028
 30
0.0
 11
367.7680814482594
 21
603.992212978669
 31
0.0
  0
LINE
  5
2A4
330
1F
100
AcDbEntity
  8
1
  6
CONTINUOUS
 62
     7
100
AcDbLine
 10
378.0652518850745
 20
604.5318648141615
 30
0.0
 11
381.0651376542672
 21
604.6890821654277
 31
0.0
  0
LINE
  5
2A5
330
1F
100
AcDbEntity
  8
1
  6
CONTINUOUS
 62
     7
100
AcDbLine
 10
381.0651376542671
 20
543.3109178345724
 30
0.0
 11
378.0652518850745
 21
543.4681351858386
 31
0.0
  0
CIRCLE
  5
2A6
330
1F
100
AcDbEntity
  8
1
  6
CONTINUOUS
 62
     7
100
AcDbCircle
 10
307.916666666667
 20
634.0000000000001
 30
0.0
 40
4.999999999999948
  0
CIRCLE
  5
2A7
330
1F
100
AcDbEntity
  8
1
  6
CONTINUOUS
 62
     7
100
AcDbCircle
 10
422.9166666666669
 20
634.0000000000001
 30
0.0
 40
5.000000000000004
  0
CIRCLE
  5
2A8
330
1F
100
AcDbEntity
  8
1
  6
CONTINUOUS
 62
     7
100
AcDbCircle
 10
192.916666666667
 20
634.0000000000001
 30
0.0
 40
5.000000000000004
  0
CIRCLE
  5
2A9
330
1F
100
AcDbEntity
  8
1
  6
CONTINUOUS
 62
     7
100
AcDbCircle
 10
77.91666666666694
 20
634.0000000000001
 30
0.0
 40
5.000000000000004
  0
CIRCLE
  5
2AA
330
1F
100
AcDbEntity
  8
1
  6
CONTINUOUS
 62
     7
100
AcDbCircle
 10
-37.08333333333305
 20
634.0000000000001
 30
0.0
 40
5.000000000000004
  0
ARC
  5
2AB
330
1F
100
AcDbEntity
  8
1
  6
CONTINUOUS
 62
     7
100
AcDbCircle
 10
-42.16911977095991
 20
507.0000000000001
 30
0.0
 40
0.9999999999999966
100
AcDbArc
 50
224.9999999999989
 51
270.0
  0
LINE
  5
2AC
330
1F
100
AcDbEntity
  8
1
  6
CONTINUOUS
 62
     7
100
AcDbLine
 10
-42.87622655214648
 20
506.2928932188136
 30
0.0
 11
-59.29044011451964
 21
522.7071067811867
 31
0.0
  0
ARC
  5
2AD
330
1F
100
AcDbEntity
  8
1
  6
CONTINUOUS
 62
     7
100
AcDbCircle
 10
412.9166666666669
 20
524.2500000000001
 30
0.0
 40
3.250000000000003
100
AcDbArc
 50
180.0000000000002
 51
270.0
  0
ARC
  5
2AE
330
1F
100
AcDbEntity
  8
1
  6
CONTINUOUS
 62
     7
100
AcDbCircle
 10
412.9166666666669
 20
524.2500000000001
 30
0.0
 40
3.250000000000031
100
AcDbArc
 50
269.9999999999999
 51
0.0
  0
LINE
  5
2AF
330
1F
100
AcDbEntity
  8
1
  6
CONTINUOUS
 62
     7
100
AcDbLine
 10
416.166666666667
 20
601.9503289616075
 30
0.0
 11
416.166666666667
 21
524.2500000000001
 31
0.0
  0
LINE
  5
2B0
330
1F
100
AcDbEntity
  8
1
  6
CONTINUOUS
 62
     7
100
AcDbLine
 10
409.666666666667
 20
524.2500000000001
 30
0.0
 11
409.666666666667
 21
601.9503289616075
 31
0.0
  0
ARC
  5
2B1
330
1F
100
AcDbEntity
  8
1
  6
CONTINUOUS
 62
     7
100
AcDbCircle
 10
-29.58333333333304
 20
524.2500000000001
 30
0.0
 40
3.249999999999975
100
AcDbArc
 50
180.0
 51
269.9999999999991
  0
ARC
  5
2B2
330
1F
100
AcDbEntity
  8
1
  6
CONTINUOUS
 62
     7
100
AcDbCircle
 10
-29.5833333333331
 20
524.2500000000001
 30
0.0
 40
3.250000000000031
100
AcDbArc
 50
270.0
 51
0.000000000000739
  0
LINE
  5
2B3
330
1F
100
AcDbEntity
  8
1
  6
CONTINUOUS
 62
     7
100
AcDbLine
 10
-26.33333333333307
 20
601.9503289616075
 30
0.0
 11
-26.33333333333307
 21
524.2500000000001
 31
0.0
  0
LINE
  5
2B4
330
1F
100
AcDbEntity
  8
1
  6
CONTINUOUS
 62
     7
100
AcDbLine
 10
-32.83333333333302
 20
524.2500000000001
 30
0.0
 11
-32.83333333333302
 21
601.9503289616073
 31
0.0
  0
LINE
  5
2B5
330
1F
100
AcDbEntity
  8
1
  6
CONTINUOUS
 62
     7
100
AcDbLine
 10
442.916666666667
 20
643.0
 30
0.0
 11
442.916666666667
 21
507.0
 31
0.0
  0
LINE
  5
2B6
330
1F
100
AcDbEntity
  8
1
  6
CONTINUOUS
 62
     7
100
AcDbLine
 10
-58.58333333333307
 20
644.0000000000001
 30
0.0
 11
441.916666666667
 21
644.0000000000001
 31
0.0
  0
ARC
  5
2B7
330
1F
100
AcDbEntity
  8
1
  6
CONTINUOUS
 62
     7
100
AcDbCircle
 10
441.916666666667
 20
643.0
 30
0.0
 40
1.000000000000001
100
AcDbArc
 50
0.0
 51
90.0
  0
ARC
  5
2B8
330
1F
100
AcDbEntity
  8
1
  6
CONTINUOUS
 62
     7
100
AcDbCircle
 10
-58.58333333333307
 20
643.0000000000001
 30
0.0
 40
1.000000000000001
100
AcDbArc
 50
90.0
 51
180.0
  0
ARC
  5
2B9
330
1F
100
AcDbEntity
  8
1
  6
CONTINUOUS
 62
     7
100
AcDbCircle
 10
441.916666666667
 20
507.0
 30
0.0
 40
1.000000000000001
100
AcDbArc
 50
270.0
 51
0.0
  0
ARC
  5
2BA
330
1F
100
AcDbEntity
  8
1
  6
CONTINUOUS
 62
     7
100
AcDbCircle
 10
-58.58333333333307
 20
523.4142135623731
 30
0.0
 40
1.000000000000001
100
AcDbArc
 50
180.0
 51
224.9999999999989
  0
LINE
  5
2BB
330
1F
100
AcDbEntity
  8
1
  6
CONTINUOUS
 62
     7
100
AcDbLine
 10
-59.58333333333307
 20
523.4142135623731
 30
0.0
 11
-59.58333333333307
 21
643.0
 31
0.0
  0
LINE
  5
2BC
330
1F
100
AcDbEntity
  8
1
  6
CONTINUOUS
 62
     7
100
AcDbLine
 10
441.916666666667
 20
506.0
 30
0.0
 11
-42.16911977095983
 21
506.0
 31
0.0
  0
LINE
  5
2BD
330
1F
100
AcDbEntity
  8
1
  6
CONTINUOUS
 62
     7
100
AcDbLine
 10
-16.15729125847701
 20
603.25
 30
0.0
 11
-16.15729125847701
 21
608.25
 31
0.0
  0
LINE
  5
2BE
330
1F
100
AcDbEntity
  8
1
  6
CONTINUOUS
 62
     7
100
AcDbLine
 10
-43.00937540818936
 20
608.2500000000001
 30
0.0
 11
-43.00937540818936
 21
603.2500000000001
 31
0.0
  0
LINE
  5
2BF
330
1F
100
AcDbEntity
  8
1
  6
CONTINUOUS
 62
     7
100
AcDbLine
 10
399.4906245918108
 20
608.2500000000001
 30
0.0
 11
399.4906245918108
 21
603.2500000000001
 31
0.0
  0
LINE
  5
2C0
330
1F
100
AcDbEntity
  8
1
  6
CONTINUOUS
 62
     7
100
AcDbLine
 10
426.3427087415232
 20
603.25
 30
0.0
 11
426.3427087415232
 21
608.25
 31
0.0
  0
ENDSEC
  0
SECTION
  2
OBJECTS
  0
DICTIONARY
  5
C
330
0
100
AcDbDictionary
  3
ACAD_GROUP
350
D
  3
ACAD_LAYOUT
350
1A
  3
ACAD_MATERIAL
350
43
  3
ACAD_MLEADERSTYLE
350
6B
  3
ACAD_MLINESTYLE
350
17
  3
ACAD_PLOTSETTINGS
350
19
  3
ACAD_SCALELIST
350
47
  3
ACAD_VISUALSTYLE
350
2A
  3
ACDBHEADERROUNDTRIPXREC
350
2C1
  3
ACDBVARIABLEDICTIONARY
350
2E2
  0
DICTIONARY
  5
2E9
330
8
100
AcDbDictionary
280
     1
  3
ACAD_XREC_ROUNDTRIP
360
2EA
  0
DICTIONARY
  5
D
102
{ACAD_REACTORS
330
C
102
}
330
C
100
AcDbDictionary
  0
DICTIONARY
  5
1A
102
{ACAD_REACTORS
330
C
102
}
330
C
100
AcDbDictionary
  0
DICTIONARY
  5
43
102
{ACAD_REACTORS
330
C
102
}
330
C
100
AcDbDictionary
  3
BYBLOCK
350
45
  3
BYLAYER
350
44
  3
GLOBAL
350
46
  0
DICTIONARY
  5
6B
102
{ACAD_REACTORS
330
C
102
}
330
C
100
AcDbDictionary
  3
STANDARD
350
6C
  0
DICTIONARY
  5
17
102
{ACAD_REACTORS
330
C
102
}
330
C
100
AcDbDictionary
  3
STANDARD
350
18
  0
DICTIONARY
  5
19
102
{ACAD_REACTORS
330
C
102
}
330
C
100
AcDbDictionary
  0
DICTIONARY
  5
47
102
{ACAD_REACTORS
330
C
102
}
330
C
100
AcDbDictionary
  3
A0
350
48
  3
A1
350
49
  3
A2
350
4A
  3
A3
350
4B
  3
A4
350
4C
  3
A5
350
4D
  3
A6
350
4E
  3
A7
350
4F
  3
A8
350
50
  3
A9
350
51
  3
B0
350
52
  3
B1
350
53
  3
B2
350
54
  3
B3
350
55
  3
B4
350
56
  3
B5
350
57
  3
B6
350
58
  3
B7
350
59
  3
B8
350
5A
  3
B9
350
5B
  3
C0
350
5C
  3
C1
350
5D
  3
C2
350
5E
  3
C3
350
5F
  3
C4
350
60
  3
C5
350
61
  3
C6
350
62
  3
C7
350
63
  3
C8
350
64
  3
C9
350
65
  3
D0
350
66
  3
D1
350
67
  3
D2
350
68
  0
DICTIONARY
  5
2A
102
{ACAD_REACTORS
330
C
102
}
330
C
100
AcDbDictionary
  3
2DWIREFRAME
350
2F
  3
BASIC
350
32
  3
BRIGHTEN
350
36
  3
COLORCHANGE
350
3A
  3
CONCEPTUAL
350
34
  3
DIM
350
35
  3
EDGECOLOROFF
350
3D
  3
FACEPATTERN
350
39
  3
FLAT
350
2B
  3
FLATWITHEDGES
350
2C
  3
GOURAUD
350
2D
  3
GOURAUDWITHEDGES
350
2E
  3
HIDDEN
350
31
  3
JITTEROFF
350
3B
  3
LINEPATTERN
350
38
  3
OVERHANGOFF
350
3C
  3
REALISTIC
350
33
  3
SHADED
350
42
  3
SHADED_WITH_EDGES
350
41
  3
SHADES_OF_GRAY
350
3E
  3
SKETCHY
350
3F
  3
THICKEN
350
37
  3
WIREFRAME
350
30
  3
X-RAY
350
40
  0
DICTIONARY
  5
2C1
102
{ACAD_REACTORS
330
C
102
}
330
C
100
AcDbDictionary
  3
CEPSNID
350
2CB
  3
CEPSNTYPE
350
2CA
  3
DIMSTYLEDATA
350
2E1
  3
FINGERPRINTGUID
350
2CC
  3
HYPERLINKBASE
350
2C4
  3
INSUNITS
350
2C9
  3
LAYOUTDICT
350
2C6
  3
LWETCUNION
350
2C8
  3
PLOTSETDICT
350
2C7
  3
PSVPSCALE
350
2CE
  3
PUCSBASE
350
2D1
  3
PUCSORGBACK
350
2D7
  3
PUCSORGBOTTOM
350
2D3
  3
PUCSORGFRONT
350
2D6
  3
PUCSORGLEFT
350
2D4
  3
PUCSORGRIGHT
350
2D5
  3
PUCSORGTOP
350
2D2
  3
PUCSORTHOREF
350
2CF
  3
PUCSORTHOVIEW
350
2D0
  3
STYLESHEET
350
2C5
  3
TSTACKALIGN
350
2C2
  3
TSTACKSIZE
350
2C3
  3
UCSBASE
350
2DA
  3
UCSORGBACK
350
2E0
  3
UCSORGBOTTOM
350
2DC
  3
UCSORGFRONT
350
2DF
  3
UCSORGLEFT
350
2DD
  3
UCSORGRIGHT
350
2DE
  3
UCSORGTOP
350
2DB
  3
UCSORTHOREF
350
2D8
  3
UCSORTHOVIEW
350
2D9
  3
VERSIONGUID
350
2CD
  0
DICTIONARY
  5
2E2
102
{ACAD_REACTORS
330
C
102
}
330
C
100
AcDbDictionary
  3
CANNOSCALE
350
2EB
  3
CMLEADERSTYLE
350
2E4
  3
CTABLESTYLE
350
2E3
  3
DIMASSOC
350
2E7
  3
HIDETEXT
350
2E8
  3
MSLTSCALE
350
2EC
  0
XRECORD
  5
2EA
102
{ACAD_REACTORS
330
2E9
102
}
330
2E9
100
AcDbXrecord
102
VTR_0.000_0.000_1.000_1.000_VISUALSTYLE
340
2F
102
VTR_0.000_0.000_1.000_1.000_GRIDDISPLAY
 70
     3
102
VTR_0.000_0.000_1.000_1.000_GRIDMAJOR
 70
     5
102
VTR_0.000_0.000_1.000_1.000_DEFAULTLIGHTING
280
     1
102
VTR_0.000_0.000_1.000_1.000_DEFAULTLIGHTINGTYPE
 70
     1
102
VTR_0.000_0.000_1.000_1.000_BRIGHTNESS
141
0.0
102
VTR_0.000_0.000_1.000_1.000_CONTRAST
142
0.0
  0
MATERIAL
  5
45
102
{ACAD_REACTORS
330
43
102
}
102
{ACAD_XDICTIONARY
360
2EF
102
}
330
43
100
AcDbMaterial
  1
BYBLOCK
  0
MATERIAL
  5
44
102
{ACAD_REACTORS
330
43
102
}
102
{ACAD_XDICTIONARY
360
2ED
102
}
330
43
100
AcDbMaterial
  1
BYLAYER
  0
MATERIAL
  5
46
102
{ACAD_REACTORS
330
43
102
}
102
{ACAD_XDICTIONARY
360
2F1
102
}
330
43
100
AcDbMaterial
  1
GLOBAL
  0
ACAD_PROXY_OBJECT
  5
6C
102
{ACAD_REACTORS
330
6B
102
}
330
6B
100
AcDbProxyObject
 90
      499
 91
      505
 93
      610
310
40901902A4063FBFFFFFE056BD1B81E855B9FC0AD7A3703D0AD73F4214DD185B99185C9900AD7A3703D0AC73F90141901A02B5E8DC0F42B1CFC02B5E8DC0F42B1CFE5764000000000000300FC0
340
14
340
0
340
11
340
0
 94
        0
1001
ACAD_MLEADERVER
1070
     2
  0
MLINESTYLE
  5
18
102
{ACAD_REACTORS
330
17
102
}
330
17
100
AcDbMlineStyle
  2
Standard
 70
     0
  3

 62
   256
 51
90.0
 52
90.0
 71
     2
 49
0.5
 62
   256
  6
BYLAYER
 49
-0.5
 62
   256
  6
BYLAYER
  0
ACAD_PROXY_OBJECT
  5
48
102
{ACAD_REACTORS
330
47
102
}
330
47
100
AcDbProxyObject
 90
      499
 91
      503
 93
       41
310
903313A31580
  0
ACAD_PROXY_OBJECT
  5
49
102
{ACAD_REACTORS
330
47
102
}
330
47
100
AcDbProxyObject
 90
      499
 91
      503
 93
      105
310
903313A324000000000000004000
  0
ACAD_PROXY_OBJECT
  5
4A
102
{ACAD_REACTORS
330
47
102
}
330
47
100
AcDbProxyObject
 90
      499
 91
      503
 93
      105
310
903313A344000000000000104000
  0
ACAD_PROXY_OBJECT
  5
4B
102
{ACAD_REACTORS
330
47
102
}
330
47
100
AcDbProxyObject
 90
      499
 91
      503
 93
      105
310
903313A354000000000000144000
  0
ACAD_PROXY_OBJECT
  5
4C
102
{ACAD_REACTORS
330
47
102
}
330
47
100
AcDbProxyObject
 90
      499
 91
      503
 93
      105
310
903313A384000000000000204000
  0
ACAD_PROXY_OBJECT
  5
4D
102
{ACAD_REACTORS
330
47
102
}
330
47
100
AcDbProxyObject
 90
      499
 91
      503
 93
      113
310
904313A31304000000000000244000
  0
ACAD_PROXY_OBJECT
  5
4E
102
{ACAD_REACTORS
330
47
102
}
330
47
100
AcDbProxyObject
 90
      499
 91
      503
 93
      113
310
904313A31364000000000000304000
  0
ACAD_PROXY_OBJECT
  5
4F
102
{ACAD_REACTORS
330
47
102
}
330
47
100
AcDbProxyObject
 90
      499
 91
      503
 93
      113
310
904313A32304000000000000344000
  0
ACAD_PROXY_OBJECT
  5
50
102
{ACAD_REACTORS
330
47
102
}
330
47
100
AcDbProxyObject
 90
      499
 91
      503
 93
      113
310
904313A333040000000000003E4000
  0
ACAD_PROXY_OBJECT
  5
51
102
{ACAD_REACTORS
330
47
102
}
330
47
100
AcDbProxyObject
 90
      499
 91
      503
 93
      113
310
904313A34304000000000000444000
  0
ACAD_PROXY_OBJECT
  5
52
102
{ACAD_REACTORS
330
47
102
}
330
47
100
AcDbProxyObject
 90
      499
 91
      503
 93
      113
310
904313A35304000000000000494000
  0
ACAD_PROXY_OBJECT
  5
53
102
{ACAD_REACTORS
330
47
102
}
330
47
100
AcDbProxyObject
 90
      499
 91
      503
 93
      121
310
905313A3130304000000000000594000
  0
ACAD_PROXY_OBJECT
  5
54
102
{ACAD_REACTORS
330
47
102
}
330
47
100
AcDbProxyObject
 90
      499
 91
      503
 93
      105
310
903323A310000000000000010100
  0
ACAD_PROXY_OBJECT
  5
55
102
{ACAD_REACTORS
330
47
102
}
330
47
100
AcDbProxyObject
 90
      499
 91
      503
 93
      105
310
903343A310000000000000410100
  0
ACAD_PROXY_OBJECT
  5
56
102
{ACAD_REACTORS
330
47
102
}
330
47
100
AcDbProxyObject
 90
      499
 91
      503
 93
      105
310
903383A310000000000000810100
  0
ACAD_PROXY_OBJECT
  5
57
102
{ACAD_REACTORS
330
47
102
}
330
47
100
AcDbProxyObject
 90
      499
 91
      503
 93
      113
310
90431303A310000000000000910100
  0
ACAD_PROXY_OBJECT
  5
58
102
{ACAD_REACTORS
330
47
102
}
330
47
100
AcDbProxyObject
 90
      499
 91
      503
 93
      121
310
9053130303A310000000000001650100
  0
ACAD_PROXY_OBJECT
  5
59
102
{ACAD_REACTORS
330
47
102
}
330
47
100
AcDbProxyObject
 90
      499
 91
      503
 93
      257
310
90E312F31323822203D2031272D3022000000000000200FC000000000000284000
  0
ACAD_PROXY_OBJECT
  5
5A
102
{ACAD_REACTORS
330
47
102
}
330
47
100
AcDbProxyObject
 90
      499
 91
      503
 93
      249
310
90D312F363422203D2031272D3022000000000000240FC000000000000284000
  0
ACAD_PROXY_OBJECT
  5
5B
102
{ACAD_REACTORS
330
47
102
}
330
47
100
AcDbProxyObject
 90
      499
 91
      503
 93
      249
310
90D312F333222203D2031272D3022000000000000280FC000000000000284000
  0
ACAD_PROXY_OBJECT
  5
5C
102
{ACAD_REACTORS
330
47
102
}
330
47
100
AcDbProxyObject
 90
      499
 91
      503
 93
      249
310
90D312F313622203D2031272D30220000000000002C0FC000000000000284000
  0
ACAD_PROXY_OBJECT
  5
5D
102
{ACAD_REACTORS
330
47
102
}
330
47
100
AcDbProxyObject
 90
      499
 91
      503
 93
      249
310
90D332F333222203D2031272D30220000000000002E0FC000000000000284000
  0
ACAD_PROXY_OBJECT
  5
5E
102
{ACAD_REACTORS
330
47
102
}
330
47
100
AcDbProxyObject
 90
      499
 91
      503
 93
      241
310
90C312F3822203D2031272D3022000000000000300FC000000000000284000
  0
ACAD_PROXY_OBJECT
  5
5F
102
{ACAD_REACTORS
330
47
102
}
330
47
100
AcDbProxyObject
 90
      499
 91
      503
 93
      249
310
90D332F313622203D2031272D3022000000000000320FC000000000000284000
  0
ACAD_PROXY_OBJECT
  5
60
102
{ACAD_REACTORS
330
47
102
}
330
47
100
AcDbProxyObject
 90
      499
 91
      503
 93
      241
310
90C312F3422203D2031272D3022000000000000340FC000000000000284000
  0
ACAD_PROXY_OBJECT
  5
61
102
{ACAD_REACTORS
330
47
102
}
330
47
100
AcDbProxyObject
 90
      499
 91
      503
 93
      241
310
90C332F3822203D2031272D3022000000000000360FC000000000000284000
  0
ACAD_PROXY_OBJECT
  5
62
102
{ACAD_REACTORS
330
47
102
}
330
47
100
AcDbProxyObject
 90
      499
 91
      503
 93
      241
310
90C312F3222203D2031272D3022000000000000380FC000000000000284000
  0
ACAD_PROXY_OBJECT
  5
63
102
{ACAD_REACTORS
330
47
102
}
330
47
100
AcDbProxyObject
 90
      499
 91
      503
 93
      241
310
90C332F3422203D2031272D30220000000000003A0FC000000000000284000
  0
ACAD_PROXY_OBJECT
  5
64
102
{ACAD_REACTORS
330
47
102
}
330
47
100
AcDbProxyObject
 90
      499
 91
      503
 93
      161
310
90A3122203D2031272D30224000000000000284000
  0
ACAD_PROXY_OBJECT
  5
65
102
{ACAD_REACTORS
330
47
102
}
330
47
100
AcDbProxyObject
 90
      499
 91
      503
 93
      257
310
90E312D312F3222203D2031272D30220000000000003E0FC000000000000284000
  0
ACAD_PROXY_OBJECT
  5
66
102
{ACAD_REACTORS
330
47
102
}
330
47
100
AcDbProxyObject
 90
      499
 91
      503
 93
      225
310
90A3322203D2031272D302200000000000002100000000000000284000
  0
ACAD_PROXY_OBJECT
  5
67
102
{ACAD_REACTORS
330
47
102
}
330
47
100
AcDbProxyObject
 90
      499
 91
      503
 93
      225
310
90A3622203D2031272D302200000000000006100000000000000284000
  0
ACAD_PROXY_OBJECT
  5
68
102
{ACAD_REACTORS
330
47
102
}
330
47
100
AcDbProxyObject
 90
      499
 91
      503
 93
      249
310
90D31272D3022203D2031272D30220000000000000A100000000000000284000
  0
ACAD_PROXY_OBJECT
  5
2F
102
{ACAD_REACTORS
330
2A
102
}
330
2A
100
AcDbProxyObject
 90
      499
 91
      501
 93
      436
310
42CC9915DA5C99599C985B595049028333333333333E33F0000000000000F90107901411070040501600405405064090741402480A0340
1001
ACAD
1000
AcDbSavedByObjectVersion
1070
     0
  0
ACAD_PROXY_OBJECT
  5
32
102
{ACAD_REACTORS
330
2A
102
}
330
2A
100
AcDbProxyObject
 90
      499
 91
      501
 93
      388
310
4150985CDA58D07406404333333333333E33F0000000000000F90107A41107004050150841D405064090741402480A0350
1001
ACAD
1000
AcDbSavedByObjectVersion
1070
     0
  0
ACAD_PROXY_OBJECT
  5
36
102
{ACAD_REACTORS
330
2A
102
}
330
2A
100
AcDbProxyObject
 90
      499
 91
      501
 93
      428
310
42109C9A59DA1D195B90C409028333333333333E33F0000000000000F9010790141107004050150841D405064090741402480A029950
1001
ACAD
1000
AcDbSavedByObjectVersion
1070
     0
  0
ACAD_PROXY_OBJECT
  5
3A
102
{ACAD_REACTORS
330
2A
102
}
330
2A
100
AcDbProxyObject
 90
      499
 91
      501
 93
      452
310
42D0DBDB1BDC90DA185B99D95104090240C333333333333E33F0000000000000F90108901411070040501508421405064090741402480A0350
1001
ACAD
1000
AcDbSavedByObjectVersion
1070
     0
  0
ACAD_PROXY_OBJECT
  5
34
102
{ACAD_REACTORS
330
2A
102
}
330
2A
100
AcDbProxyObject
 90
      499
 91
      501
 93
      500
310
4290DBDB98D95C1D1D585B10940D028333333333333E33F0000000000000F90107902409070040501000000000018199010841D405064090740C02480A0340
1001
ACAD
1000
AcDbSavedByObjectVersion
1070
     0
  0
ACAD_PROXY_OBJECT
  5
35
102
{ACAD_REACTORS
330
2A
102
}
330
2A
100
AcDbProxyObject
 90
      499
 91
      501
 93
      412
310
40D11A5B50B409028333333333333E33F0000000000000F9010790141107004050150841D405064090741402480A02677FFFFFD0
1001
ACAD
1000
AcDbSavedByObjectVersion
1070
     0
  0
ACAD_PROXY_OBJECT
  5
3D
102
{ACAD_REACTORS
330
2A
102
}
330
2A
100
AcDbProxyObject
 90
      499
 91
      501
 93
      452
310
43115919D950DBDB1BDC93D999916409028333333333333E33F0000000000000F9010790141107004050150841D405064090741402480A0350
1001
ACAD
1000
AcDbSavedByObjectVersion
1070
     0
  0
ACAD_PROXY_OBJECT
  5
39
102
{ACAD_REACTORS
330
2A
102
}
330
2A
100
AcDbProxyObject
 90
      499
 91
      501
 93
      444
310
42D19858D95C185D1D195C9B90F409028333333333333E33F0000000000000F9010790141107004050150841D405064090741402480A0350
1001
ACAD
1000
AcDbSavedByObjectVersion
1070
     0
  0
ACAD_PROXY_OBJECT
  5
2B
102
{ACAD_REACTORS
330
2A
102
}
330
2A
100
AcDbProxyObject
 90
      499
 91
      501
 93
      380
310
41119B185D240901404333333333333E33F0000000000000F9010740A907004050150841D405064090741402480A1B50
1001
ACAD
1000
AcDbSavedByObjectVersion
1070
     0
  0
ACAD_PROXY_OBJECT
  5
2C
102
{ACAD_REACTORS
330
2A
102
}
330
2A
100
AcDbProxyObject
 90
      499
 91
      501
 93
      468
310
43519B185D15DA5D1A115919D95CD0140901404333333333333E33F0000000000000F90107409019070040501600405405064090741402480A1B50
1001
ACAD
1000
AcDbSavedByObjectVersion
1070
     0
  0
ACAD_PROXY_OBJECT
  5
2D
102
{ACAD_REACTORS
330
2A
102
}
330
2A
100
AcDbProxyObject
 90
      499
 91
      501
 93
      404
310
41D1DBDD5C985D5910240902404333333333333E33F0000000000000F9010740A9070040501641D405064090741402480A1B50
1001
ACAD
1000
AcDbSavedByObjectVersion
1070
     0
  0
ACAD_PROXY_OBJECT
  5
2E
102
{ACAD_REACTORS
330
2A
102
}
330
2A
100
AcDbProxyObject
 90
      499
 91
      501
 93
      492
310
4411DBDD5C985D5915DA5D1A115919D95CD0340902404333333333333E33F0000000000000F90107409019070040501600405405064090741402480A1B50
1001
ACAD
1000
AcDbSavedByObjectVersion
1070
     0
  0
ACAD_PROXY_OBJECT
  5
31
102
{ACAD_REACTORS
330
2A
102
}
330
2A
100
AcDbProxyObject
 90
      499
 91
      501
 93
      476
310
41921A5919195B90640502408333333333333E33F0000000000000F901079024090700405020000000000001110200405405064090740C02480A0340
1001
ACAD
1000
AcDbSavedByObjectVersion
1070
     0
  0
ACAD_PROXY_OBJECT
  5
3B
102
{ACAD_REACTORS
330
2A
102
}
330
2A
100
AcDbProxyObject
 90
      499
 91
      501
 93
      428
310
42529A5D1D195C93D999914409028333333333333E33F0000000000000F9010790141107004050150A41D405064090741402480A0350
1001
ACAD
1000
AcDbSavedByObjectVersion
1070
     0
  0
ACAD_PROXY_OBJECT
  5
38
102
{ACAD_REACTORS
330
2A
102
}
330
2A
100
AcDbProxyObject
 90
      499
 91
      501
 93
      444
310
42D31A5B995C185D1D195C9B90E409028333333333333E33F0000000000000F9010790141107004050750841D405064090741402483A0350
1001
ACAD
1000
AcDbSavedByObjectVersion
1070
     0
  0
ACAD_PROXY_OBJECT
  5
3C
102
{ACAD_REACTORS
330
2A
102
}
330
2A
100
AcDbProxyObject
 90
      499
 91
      501
 93
      444
310
42D3DD995C9A185B99D3D999915409028333333333333E33F0000000000000F9010790141107004050150941D405064090741402480A0350
1001
ACAD
1000
AcDbSavedByObjectVersion
1070
     0
  0
ACAD_PROXY_OBJECT
  5
33
102
{ACAD_REACTORS
330
2A
102
}
330
2A
100
AcDbProxyObject
 90
      499
 91
      501
 93
      428
310
425499585B1A5CDD1A58D08409038333333333333E33F0000000000000F9010740A907004050150800405405064090740C02480A1B40
1001
ACAD
1000
AcDbSavedByObjectVersion
1070
     0
  0
ACAD_PROXY_OBJECT
  5
42
102
{ACAD_REACTORS
330
2A
102
}
330
2A
100
AcDbProxyObject
 90
      499
 91
      501
 93
      420
310
4194DA1859195911B40902404333333333333E33F0000000000000F9010740A41107004050150800405405064090840C02480A0B40
1001
ACAD
1000
AcDbSavedByObjectVersion
1070
     0
  0
ACAD_PROXY_OBJECT
  5
41
102
{ACAD_REACTORS
330
2A
102
}
330
2A
100
AcDbProxyObject
 90
      499
 91
      501
 93
      516
310
4454DA18591959081DDA5D1A08195919D95CD1A40902404333333333333E33F0000000000000F901074090142907004050250800405405064090740C02480A0B40
1001
ACAD
1000
AcDbSavedByObjectVersion
1070
     0
  0
ACAD_PROXY_OBJECT
  5
3E
102
{ACAD_REACTORS
330
2A
102
}
330
2A
100
AcDbProxyObject
 90
      499
 91
      501
 93
      532
310
4394DA1859195CC81BD98811DC985E5174090240C333333333333E33F0000000000000F901079024090741D01000000000000111010841D405064090740C02480A0340
1001
ACAD
1000
AcDbSavedByObjectVersion
1070
     0
  0
ACAD_PROXY_OBJECT
  5
3F
102
{ACAD_REACTORS
330
2A
102
}
330
2A
100
AcDbProxyObject
 90
      499
 91
      501
 93
      476
310
41D4DAD95D18DA1E51840502408333333333333E33F0000000000000F901079024090741D01000000000000111010B41D405064090741802480A0340
1001
ACAD
1000
AcDbSavedByObjectVersion
1070
     0
  0
ACAD_PROXY_OBJECT
  5
37
102
{ACAD_REACTORS
330
2A
102
}
330
2A
100
AcDbProxyObject
 90
      499
 91
      501
 93
      412
310
41D51A1A58DAD95B90D409028333333333333E33F0000000000000F9010790141107004050150C41D405064090741402480A0350
1001
ACAD
1000
AcDbSavedByObjectVersion
1070
     0
  0
ACAD_PROXY_OBJECT
  5
30
102
{ACAD_REACTORS
330
2A
102
}
330
2A
100
AcDbProxyObject
 90
      499
 91
      501
 93
      420
310
4255DA5C99599C985B595059028333333333333E33F0000000000000F90107901411070040501600405405064090740C02480A0340
1001
ACAD
1000
AcDbSavedByObjectVersion
1070
     0
  0
ACAD_PROXY_OBJECT
  5
40
102
{ACAD_REACTORS
330
2A
102
}
330
2A
100
AcDbProxyObject
 90
      499
 91
      501
 93
      404
310
41560B54985E51940902404000000000000E03F0000000000000F9010740501907004050150841D405064090740C02480A1B40
1001
ACAD
1000
AcDbSavedByObjectVersion
1070
     0
  0
XRECORD
  5
2CB
102
{ACAD_REACTORS
330
2C1
102
}
330
2C1
100
AcDbXrecord
340
0
  0
XRECORD
  5
2CA
102
{ACAD_REACTORS
330
2C1
102
}
330
2C1
100
AcDbXrecord
 90
        0
  0
XRECORD
  5
2E1
102
{ACAD_REACTORS
330
2C1
102
}
330
2C1
100
AcDbXrecord
1000
DSTYLE
1002
{
1070
   179
 70
     2
1070
   171
 70
     2
1070
   143
 40
25.4
1070
   274
 70
     2
1070
    41
 40
3.0
1070
   141
 40
0.09
1070
    43
 40
0.38
1070
   278
 70
    46
1070
    44
 40
1.5
1070
    42
 40
0.0625
1070
   147
 40
1.5
1070
   272
 70
     4
1070
    73
 70
     1
1070
   172
 70
     0
1070
    74
 70
     1
1070
   283
 70
     1
1070
   340
340
6F
1070
   140
 40
3.0
1070
   284
 70
     0
1070
    78
 70
     0
1002
}
  0
XRECORD
  5
2CC
102
{ACAD_REACTORS
330
2C1
102
}
330
2C1
100
AcDbXrecord
  1
{63C15EE9-F39C-4935-B623-B0DDB222F149}
  0
XRECORD
  5
2C4
102
{ACAD_REACTORS
330
2C1
102
}
330
2C1
100
AcDbXrecord
  1

  0
XRECORD
  5
2C9
102
{ACAD_REACTORS
330
2C1
102
}
330
2C1
100
AcDbXrecord
 90
        4
  0
XRECORD
  5
2C6
102
{ACAD_REACTORS
330
2C1
102
}
330
2C1
100
AcDbXrecord
340
1A
  0
XRECORD
  5
2C8
102
{ACAD_REACTORS
330
2C1
102
}
330
2C1
100
AcDbXrecord
 90
    10269
  0
XRECORD
  5
2C7
102
{ACAD_REACTORS
330
2C1
102
}
330
2C1
100
AcDbXrecord
340
19
  0
XRECORD
  5
2CE
102
{ACAD_REACTORS
330
2C1
102
}
330
2C1
100
AcDbXrecord
 40
0.0
  0
XRECORD
  5
2D1
102
{ACAD_REACTORS
330
2C1
102
}
330
2C1
100
AcDbXrecord
340
0
  0
XRECORD
  5
2D7
102
{ACAD_REACTORS
330
2C1
102
}
330
2C1
100
AcDbXrecord
 10
0.0
 20
0.0
 30
0.0
  0
XRECORD
  5
2D3
102
{ACAD_REACTORS
330
2C1
102
}
330
2C1
100
AcDbXrecord
 10
0.0
 20
0.0
 30
0.0
  0
XRECORD
  5
2D6
102
{ACAD_REACTORS
330
2C1
102
}
330
2C1
100
AcDbXrecord
 10
0.0
 20
0.0
 30
0.0
  0
XRECORD
  5
2D4
102
{ACAD_REACTORS
330
2C1
102
}
330
2C1
100
AcDbXrecord
 10
0.0
 20
0.0
 30
0.0
  0
XRECORD
  5
2D5
102
{ACAD_REACTORS
330
2C1
102
}
330
2C1
100
AcDbXrecord
 10
0.0
 20
0.0
 30
0.0
  0
XRECORD
  5
2D2
102
{ACAD_REACTORS
330
2C1
102
}
330
2C1
100
AcDbXrecord
 10
0.0
 20
0.0
 30
0.0
  0
XRECORD
  5
2CF
102
{ACAD_REACTORS
330
2C1
102
}
330
2C1
100
AcDbXrecord
340
0
  0
XRECORD
  5
2D0
102
{ACAD_REACTORS
330
2C1
102
}
330
2C1
100
AcDbXrecord
 70
     0
  0
XRECORD
  5
2C5
102
{ACAD_REACTORS
330
2C1
102
}
330
2C1
100
AcDbXrecord
  1

  0
XRECORD
  5
2C2
102
{ACAD_REACTORS
330
2C1
102
}
330
2C1
100
AcDbXrecord
 90
        1
  0
XRECORD
  5
2C3
102
{ACAD_REACTORS
330
2C1
102
}
330
2C1
100
AcDbXrecord
 90
       70
  0
XRECORD
  5
2DA
102
{ACAD_REACTORS
330
2C1
102
}
330
2C1
100
AcDbXrecord
340
0
  0
XRECORD
  5
2E0
102
{ACAD_REACTORS
330
2C1
102
}
330
2C1
100
AcDbXrecord
 10
0.0
 20
0.0
 30
0.0
  0
XRECORD
  5
2DC
102
{ACAD_REACTORS
330
2C1
102
}
330
2C1
100
AcDbXrecord
 10
0.0
 20
0.0
 30
0.0
  0
XRECORD
  5
2DF
102
{ACAD_REACTORS
330
2C1
102
}
330
2C1
100
AcDbXrecord
 10
0.0
 20
0.0
 30
0.0
  0
XRECORD
  5
2DD
102
{ACAD_REACTORS
330
2C1
102
}
330
2C1
100
AcDbXrecord
 10
0.0
 20
0.0
 30
0.0
  0
XRECORD
  5
2DE
102
{ACAD_REACTORS
330
2C1
102
}
330
2C1
100
AcDbXrecord
 10
0.0
 20
0.0
 30
0.0
  0
XRECORD
  5
2DB
102
{ACAD_REACTORS
330
2C1
102
}
330
2C1
100
AcDbXrecord
 10
0.0
 20
0.0
 30
0.0
  0
XRECORD
  5
2D8
102
{ACAD_REACTORS
330
2C1
102
}
330
2C1
100
AcDbXrecord
340
0
  0
XRECORD
  5
2D9
102
{ACAD_REACTORS
330
2C1
102
}
330
2C1
100
AcDbXrecord
 70
     0
  0
XRECORD
  5
2CD
102
{ACAD_REACTORS
330
2C1
102
}
330
2C1
100
AcDbXrecord
  1
{FAEB1C32-E019-11D5-929B-00C0DF256EC4}
  0
DICTIONARYVAR
  5
2EB
102
{ACAD_REACTORS
330
2E2
102
}
330
2E2
100
DictionaryVariables
280
     0
  1
1:1
  0
DICTIONARYVAR
  5
2E4
102
{ACAD_REACTORS
330
2E2
102
}
330
2E2
100
DictionaryVariables
280
     0
  1
Standard
  0
DICTIONARYVAR
  5
2E3
102
{ACAD_REACTORS
330
2E2
102
}
330
2E2
100
DictionaryVariables
280
     0
  1
Standard
  0
DICTIONARYVAR
  5
2E7
102
{ACAD_REACTORS
330
2E2
102
}
330
2E2
100
DictionaryVariables
280
     0
  1
2
  0
DICTIONARYVAR
  5
2E8
102
{ACAD_REACTORS
330
2E2
102
}
330
2E2
100
DictionaryVariables
280
     0
  1
1
  0
DICTIONARYVAR
  5
2EC
102
{ACAD_REACTORS
330
2E2
102
}
330
2E2
100
DictionaryVariables
280
     0
  1
1
  0
DICTIONARY
  5
2EF
330
45
100
AcDbDictionary
280
     1
  3
ACAD_XREC_ROUNDTRIP
360
2F0
  0
DICTIONARY
  5
2ED
330
44
100
AcDbDictionary
280
     1
  3
ACAD_XREC_ROUNDTRIP
360
2EE
  0
DICTIONARY
  5
2F1
330
46
100
AcDbDictionary
280
     1
  3
ACAD_XREC_ROUNDTRIP
360
2F2
  0
XRECORD
  5
2F0
102
{ACAD_REACTORS
330
2EF
102
}
330
2EF
100
AcDbXrecord
102
MATERIAL
148
0.0
149
0.0
149
0.0
 93
        0
 94
      127
282
     0
 72
     1
 77
     1
171
     1
175
     1
179
     1
273
     0
  0
XRECORD
  5
2EE
102
{ACAD_REACTORS
330
2ED
102
}
330
2ED
100
AcDbXrecord
102
MATERIAL
148
0.0
149
0.0
149
0.0
 93
        0
 94
      127
282
     0
 72
     1
 77
     1
171
     1
175
     1
179
     1
273
     0
  0
XRECORD
  5
2F2
102
{ACAD_REACTORS
330
2F1
102
}
330
2F1
100
AcDbXrecord
102
MATERIAL
148
0.0
149
0.0
149
0.0
 93
        0
 94
      127
282
     0
 72
     1
 77
     1
171
     1
175
     1
179
     1
273
     0
  0
ENDSEC
  0
EOF
