  0
SECTION
  2
HEADER
  9
$ACADVER
  1
AC1014
  9
$ACADMAINTVER
 70
     9
  9
$DWGCODEPAGE
  3
ANSI_932
  9
$INSBASE
 10
0.0
 20
0.0
 30
0.0
  9
$EXTMIN
 10
-211.5428360614698
 20
0.0
 30
0.0
  9
$EXTMAX
 10
413.249319839673
 20
998.0513621186557
 30
10.0
  9
$LIMMIN
 10
0.0
 20
0.0
  9
$LIMMAX
 10
12.0
 20
9.0
  9
$ORTHOMODE
 70
     0
  9
$REGENMODE
 70
     1
  9
$FILLMODE
 70
     1
  9
$QTEXTMODE
 70
     0
  9
$MIRRTEXT
 70
     1
  9
$DRAGMODE
 70
     2
  9
$LTSCALE
 40
1.0
  9
$OSMODE
 70
    37
  9
$ATTMODE
 70
     1
  9
$TEXTSIZE
 40
0.2
  9
$TRACEWID
 40
0.05
  9
$TEXTSTYLE
  7
STANDARD
  9
$CLAYER
  8
0
  9
$CELTYPE
  6
BYLAYER
  9
$CECOLOR
 62
   256
  9
$CELTSCALE
 40
1.0
  9
$DELOBJ
 70
     1
  9
$DISPSILH
 70
     0
  9
$DIMSCALE
 40
1.0
  9
$DIMASZ
 40
3.0
  9
$DIMEXO
 40
0.0625
  9
$DIMDLI
 40
0.38
  9
$DIMRND
 40
0.0
  9
$DIMDLE
 40
0.0
  9
$DIMEXE
 40
1.5
  9
$DIMTP
 40
0.0
  9
$DIMTM
 40
0.0
  9
$DIMTXT
 40
3.0
  9
$DIMCEN
 40
0.09
  9
$DIMTSZ
 40
0.0
  9
$DIMTOL
 70
     0
  9
$DIMLIM
 70
     0
  9
$DIMTIH
 70
     1
  9
$DIMTOH
 70
     1
  9
$DIMSE1
 70
     0
  9
$DIMSE2
 70
     0
  9
$DIMTAD
 70
     1
  9
$DIMZIN
 70
     0
  9
$DIMBLK
  1

  9
$DIMASO
 70
     1
  9
$DIMSHO
 70
     1
  9
$DIMPOST
  1

  9
$DIMAPOST
  1

  9
$DIMALT
 70
     0
  9
$DIMALTD
 70
     2
  9
$DIMALTF
 40
25.4
  9
$DIMLFAC
 40
1.0
  9
$DIMTOFL
 70
     0
  9
$DIMTVP
 40
0.0
  9
$DIMTIX
 70
     0
  9
$DIMSOXD
 70
     0
  9
$DIMSAH
 70
     0
  9
$DIMBLK1
  1

  9
$DIMBLK2
  1

  9
$DIMSTYLE
  2
STANDARD
  9
$DIMCLRD
 70
     0
  9
$DIMCLRE
 70
     0
  9
$DIMCLRT
 70
     0
  9
$DIMTFAC
 40
1.0
  9
$DIMGAP
 40
1.5
  9
$DIMJUST
 70
     0
  9
$DIMSD1
 70
     0
  9
$DIMSD2
 70
     0
  9
$DIMTOLJ
 70
     1
  9
$DIMTZIN
 70
     0
  9
$DIMALTZ
 70
     0
  9
$DIMALTTZ
 70
     0
  9
$DIMFIT
 70
     3
  9
$DIMUPT
 70
     0
  9
$DIMUNIT
 70
     2
  9
$DIMDEC
 70
     2
  9
$DIMTDEC
 70
     4
  9
$DIMALTU
 70
     2
  9
$DIMALTTD
 70
     2
  9
$DIMTXSTY
  7
ＭＳ_ゴシック
  9
$DIMAUNIT
 70
     0
  9
$LUNITS
 70
     2
  9
$LUPREC
 70
     4
  9
$SKETCHINC
 40
0.1
  9
$FILLETRAD
 40
0.5
  9
$AUNITS
 70
     0
  9
$AUPREC
 70
     0
  9
$MENU
  1
.
  9
$ELEVATION
 40
0.0
  9
$PELEVATION
 40
0.0
  9
$THICKNESS
 40
0.0
  9
$LIMCHECK
 70
     0
  9
$CHAMFERA
 40
0.0
  9
$CHAMFERB
 40
0.0
  9
$CHAMFERC
 40
0.0
  9
$CHAMFERD
 40
0.0
  9
$SKPOLY
 70
     0
  9
$TDCREATE
 40
2459107.555747095
  9
$TDUPDATE
 40
2459107.555747454
  9
$TDINDWG
 40
0.0000000116
  9
$TDUSRTIMER
 40
0.0000000116
  9
$USRTIMER
 70
     1
  9
$ANGBASE
 50
0.0
  9
$ANGDIR
 70
     0
  9
$PDMODE
 70
     0
  9
$PDSIZE
 40
0.0
  9
$PLINEWID
 40
0.0
  9
$COORDS
 70
     1
  9
$SPLFRAME
 70
     0
  9
$SPLINETYPE
 70
     6
  9
$SPLINESEGS
 70
     8
  9
$ATTDIA
 70
     0
  9
$ATTREQ
 70
     1
  9
$HANDLING
 70
     1
  9
$HANDSEED
  5
20B
  9
$SURFTAB1
 70
     6
  9
$SURFTAB2
 70
     6
  9
$SURFTYPE
 70
     6
  9
$SURFU
 70
     6
  9
$SURFV
 70
     6
  9
$UCSNAME
  2

  9
$UCSORG
 10
0.0
 20
0.0
 30
0.0
  9
$UCSXDIR
 10
1.0
 20
0.0
 30
0.0
  9
$UCSYDIR
 10
0.0
 20
1.0
 30
0.0
  9
$PUCSNAME
  2

  9
$PUCSORG
 10
0.0
 20
0.0
 30
0.0
  9
$PUCSXDIR
 10
1.0
 20
0.0
 30
0.0
  9
$PUCSYDIR
 10
0.0
 20
1.0
 30
0.0
  9
$USERI1
 70
     0
  9
$USERI2
 70
     0
  9
$USERI3
 70
     0
  9
$USERI4
 70
     0
  9
$USERI5
 70
     0
  9
$USERR1
 40
0.0
  9
$USERR2
 40
0.0
  9
$USERR3
 40
0.0
  9
$USERR4
 40
0.0
  9
$USERR5
 40
0.0
  9
$WORLDVIEW
 70
     1
  9
$SHADEDGE
 70
     3
  9
$SHADEDIF
 70
    70
  9
$TILEMODE
 70
     1
  9
$MAXACTVP
 70
    64
  9
$PINSBASE
 10
0.0
 20
0.0
 30
0.0
  9
$PLIMCHECK
 70
     0
  9
$PEXTMIN
 10
1.000000000000000E+20
 20
1.000000000000000E+20
 30
1.000000000000000E+20
  9
$PEXTMAX
 10
-1.000000000000000E+20
 20
-1.000000000000000E+20
 30
-1.000000000000000E+20
  9
$PLIMMIN
 10
0.0
 20
0.0
  9
$PLIMMAX
 10
12.0
 20
9.0
  9
$UNITMODE
 70
     0
  9
$VISRETAIN
 70
     1
  9
$PLINEGEN
 70
     0
  9
$PSLTSCALE
 70
     1
  9
$TREEDEPTH
 70
  3020
  9
$PICKSTYLE
 70
     1
  9
$CMLSTYLE
  2
STANDARD
  9
$CMLJUST
 70
     0
  9
$CMLSCALE
 40
1.0
  9
$PROXYGRAPHICS
 70
     1
  9
$MEASUREMENT
 70
     1
  0
ENDSEC
  0
SECTION
  2
CLASSES
  0
CLASS
  1
ACDBDICTIONARYWDFLT
  2
AcDbDictionaryWithDefault
  3
ObjectDBX Classes
 90
        0
280
     0
281
     0
  0
CLASS
  1
VISUALSTYLE
  2
AcDbVisualStyle
  3
ObjectDBX Classes
 90
     4095
280
     0
281
     0
  0
CLASS
  1
MATERIAL
  2
AcDbMaterial
  3
ObjectDBX Classes
 90
     1153
280
     0
281
     0
  0
CLASS
  1
SCALE
  2
AcDbScale
  3
ObjectDBX Classes
 90
     1153
280
     0
281
     0
  0
CLASS
  1
TABLESTYLE
  2
AcDbTableStyle
  3
ObjectDBX Classes
 90
     4095
280
     0
281
     0
  0
CLASS
  1
MLEADERSTYLE
  2
AcDbMLeaderStyle
  3
ACDB_MLEADERSTYLE_CLASS
 90
     4095
280
     0
281
     0
  0
CLASS
  1
SUN
  2
AcDbSun
  3
SCENEOE
 90
     1153
280
     0
281
     0
  0
CLASS
  1
DICTIONARYVAR
  2
AcDbDictionaryVar
  3
ObjectDBX Classes
 90
        0
280
     0
281
     0
  0
CLASS
  1
XRECORD
  2
AcDbXrecord
  3
ObjectDBX Classes
 90
        0
280
     0
281
     0
  0
CLASS
  1
LWPOLYLINE
  2
AcDbPolyline
  3
ObjectDBX Classes
 90
        0
280
     0
281
     1
  0
CLASS
  1
HATCH
  2
AcDbHatch
  3
ObjectDBX Classes
 90
        0
280
     0
281
     1
  0
CLASS
  1
ACDBPLACEHOLDER
  2
AcDbPlaceHolder
  3
ObjectDBX Classes
 90
        0
280
     0
281
     0
  0
CLASS
  1
LAYOUT
  2
AcDbLayout
  3
ObjectDBX Classes
 90
        0
280
     0
281
     0
  0
ENDSEC
  0
SECTION
  2
TABLES
  0
TABLE
  2
VPORT
  5
8
102
{ACAD_XDICTIONARY
360
200
102
}
330
0
100
AcDbSymbolTable
 70
     1
  0
VPORT
  5
29
330
8
100
AcDbSymbolTableRecord
100
AcDbViewportTableRecord
  2
*ACTIVE
 70
     0
 10
0.0
 20
0.0
 11
1.0
 21
1.0
 12
100.8532418891016
 22
499.0256810593278
 13
0.0
 23
0.0
 14
0.5
 24
0.5
 15
0.5
 25
0.5
 16
0.0
 26
0.0
 36
1.0
 17
0.0
 27
0.0
 37
0.0
 40
998.0513621186557
 41
1.6
 42
50.0
 43
0.0
 44
0.0
 50
0.0
 51
0.0
 71
     0
 72
   100
 73
     1
 74
     3
 75
     0
 76
     0
 77
     0
 78
     0
  0
ENDTAB
  0
TABLE
  2
LTYPE
  5
5
330
0
100
AcDbSymbolTable
 70
     2
  0
LTYPE
  5
14
330
5
100
AcDbSymbolTableRecord
100
AcDbLinetypeTableRecord
  2
BYBLOCK
 70
     0
  3

 72
    65
 73
     0
 40
0.0
  0
LTYPE
  5
15
330
5
100
AcDbSymbolTableRecord
100
AcDbLinetypeTableRecord
  2
BYLAYER
 70
     0
  3

 72
    65
 73
     0
 40
0.0
  0
LTYPE
  5
16
330
5
100
AcDbSymbolTableRecord
100
AcDbLinetypeTableRecord
  2
CONTINUOUS
 70
     0
  3
Solid line
 72
    65
 73
     0
 40
0.0
  0
LTYPE
  5
1CB
330
5
100
AcDbSymbolTableRecord
100
AcDbLinetypeTableRecord
  2
CENTER
 70
     0
  3

 72
    65
 73
     0
 40
0.0
  0
ENDTAB
  0
TABLE
  2
LAYER
  5
2
330
0
100
AcDbSymbolTable
 70
     1
  0
LAYER
  5
10
330
2
100
AcDbSymbolTableRecord
100
AcDbLayerTableRecord
  2
0
 70
     0
 62
     7
  6
CONTINUOUS
  0
ENDTAB
  0
TABLE
  2
STYLE
  5
3
330
0
100
AcDbSymbolTable
 70
     2
  0
STYLE
  5
11
330
3
100
AcDbSymbolTableRecord
100
AcDbTextStyleTableRecord
  2
STANDARD
 70
     0
 40
0.0
 41
1.0
 50
0.0
 71
     0
 42
0.2
  3
txt
  4

  0
STYLE
  5
6E
330
3
100
AcDbSymbolTableRecord
100
AcDbTextStyleTableRecord
  2
ＭＳ_ゴシック
 70
     0
 40
0.0
 41
1.0
 50
0.0
 71
     0
 42
0.2
  3
ＭＳ ゴシック.shx
  4

  0
ENDTAB
  0
TABLE
  2
VIEW
  5
6
330
0
100
AcDbSymbolTable
 70
     0
  0
ENDTAB
  0
TABLE
  2
UCS
  5
7
330
0
100
AcDbSymbolTable
 70
     0
  0
ENDTAB
  0
TABLE
  2
APPID
  5
9
330
0
100
AcDbSymbolTable
 70
     2
  0
APPID
  5
12
330
9
100
AcDbSymbolTableRecord
100
AcDbRegAppTableRecord
  2
ACAD
 70
     0
  0
APPID
  5
20A
330
9
100
AcDbSymbolTableRecord
100
AcDbRegAppTableRecord
  2
ACAD_MLEADERVER
 70
     0
  0
ENDTAB
  0
TABLE
  2
DIMSTYLE
  5
A
330
0
100
AcDbSymbolTable
 70
     1
  0
DIMSTYLE
105
27
330
A
100
AcDbSymbolTableRecord
100
AcDbDimStyleTableRecord
  2
STANDARD
 70
     0
  3

  4

  5

  6

  7

 40
1.0
 41
0.18
 42
0.0625
 43
0.38
 44
0.18
 45
0.0
 46
0.0
 47
0.0
 48
0.0
140
0.18
141
0.09
142
0.0
143
25.4
144
1.0
145
0.0
146
1.0
147
0.09
 71
     0
 72
     0
 73
     1
 74
     1
 75
     0
 76
     0
 77
     0
 78
     0
170
     0
171
     2
172
     0
173
     0
174
     0
175
     0
176
     0
177
     0
178
     0
270
     2
271
     4
272
     4
273
     2
274
     2
340
11
275
     0
280
     0
281
     0
282
     0
283
     1
284
     0
285
     0
286
     0
287
     3
288
     0
  0
ENDTAB
  0
TABLE
  2
BLOCK_RECORD
  5
1
330
0
100
AcDbSymbolTable
 70
     0
  0
BLOCK_RECORD
  5
1F
330
1
100
AcDbSymbolTableRecord
100
AcDbBlockTableRecord
  2
*MODEL_SPACE
  0
BLOCK_RECORD
  5
1B
330
1
100
AcDbSymbolTableRecord
100
AcDbBlockTableRecord
  2
*PAPER_SPACE
  0
ENDTAB
  0
ENDSEC
  0
SECTION
  2
BLOCKS
  0
BLOCK
  5
20
330
1F
100
AcDbEntity
  8
0
100
AcDbBlockBegin
  2
*MODEL_SPACE
 70
     0
 10
0.0
 20
0.0
 30
0.0
  3
*MODEL_SPACE
  1

  0
ENDBLK
  5
21
330
1F
100
AcDbEntity
  8
0
100
AcDbBlockEnd
  0
BLOCK
  5
1C
330
1B
100
AcDbEntity
 67
     1
  8
0
100
AcDbBlockBegin
  2
*PAPER_SPACE
 70
     0
 10
0.0
 20
0.0
 30
0.0
  3
*PAPER_SPACE
  1

  0
ENDBLK
  5
1D
330
1B
100
AcDbEntity
 67
     1
  8
0
100
AcDbBlockEnd
  0
ENDSEC
  0
SECTION
  2
ENTITIES
  0
LINE
  5
6F
330
1F
100
AcDbEntity
  8
0
  6
CONTINUOUS
 62
     7
100
AcDbLine
 10
94.00000000000003
 20
184.6388875648448
 30
0.0
 11
116.0
 21
184.6388875648448
 31
0.0
  0
LINE
  5
70
330
1F
100
AcDbEntity
  8
0
  6
CONTINUOUS
 62
     7
100
AcDbLine
 10
94.00000000000003
 20
131.6388875648445
 30
0.0
 11
116.0
 21
131.6388875648445
 31
0.0
  0
LWPOLYLINE
  5
71
330
1F
100
AcDbEntity
  8
0
  6
CONTINUOUS
 62
     7
100
AcDbPolyline
 90
       38
 70
     0
 43
0.0
 10
92.91685057611248
 20
112.4388875648445
 10
92.858932100835
 20
112.4373894751342
 10
92.80111968875299
 20
112.4328977135531
 10
92.74364485687353
 20
112.4254160414254
 10
92.69975673273551
 20
112.4176229019262
 10
92.65617474683502
 20
112.4080570936441
 10
92.61300719056104
 20
112.3967346819968
 10
92.57036235530153
 20
112.3836717324018
 10
92.52823780682002
 20
112.3688481434901
 10
92.48671523047852
 20
112.3522826630589
 10
92.44590512027555
 20
112.3340088548622
 10
92.40591797020797
 20
112.3140602826542
 10
92.36566071236301
 20
112.2917768477776
 10
92.32636391785303
 20
112.2677333421142
 10
92.2881469992835
 20
112.2419889979008
 10
92.251129369259
 20
112.2146030473751
 10
92.21746088170607
 20
112.1873639161247
 10
92.1849304708095
 20
112.1587011416152
 10
92.153632264158
 20
112.1286845079648
 10
92.123660389343
 20
112.0973837992917
 10
92.09419653976197
 20
112.0637913430799
 10
92.06621980370949
 20
112.0288805692014
 10
92.03982173006602
 20
111.9927507009915
 10
92.01509386771251
 20
111.9555009617854
 10
91.99347857553647
 20
111.9196104482962
 10
91.9733876588446
 20
111.8827929160368
 10
91.9548816523696
 20
111.8451470364971
 10
91.93802109084709
 20
111.8067714811673
 10
91.92238543155445
 20
111.7664589376615
 10
91.90854708823053
 20
111.7254428522816
 10
91.89655104083755
 20
111.6838461499598
 10
91.88644226933657
 20
111.6417917556285
 10
91.8798569106955
 20
111.6085670184376
 10
91.87444488506752
 20
111.5751185569134
 10
91.87021801232147
 20
111.5415090891972
 10
91.86715535701356
 20
111.5073793183662
 10
91.8653147249065
 20
111.4731500507648
 10
91.86470025998554
 20
111.4388875648444
  0
LINE
  5
72
330
1F
100
AcDbEntity
  8
0
  6
CONTINUOUS
 62
     7
100
AcDbLine
 10
117.3593082330686
 20
112.4388875648445
 30
0.0
 11
92.91685057611247
 21
112.4388875648446
 31
0.0
  0
LINE
  5
73
330
1F
100
AcDbEntity
  8
0
  6
CONTINUOUS
 62
     7
100
AcDbLine
 10
118.372019287116
 20
95.43888756484459
 30
0.0
 11
118.372019287116
 21
111.4388875648446
 31
0.0
  0
LINE
  5
74
330
1F
100
AcDbEntity
  8
0
  6
CONTINUOUS
 62
     7
100
AcDbLine
 10
118.45
 20
95.43888756484459
 30
0.0
 11
118.372019287116
 21
95.43888756484459
 31
0.0
  0
LINE
  5
75
330
1F
100
AcDbEntity
  8
0
  6
CONTINUOUS
 62
     7
100
AcDbLine
 10
117.45
 20
94.43888756484453
 30
0.0
 11
92.55000000000001
 21
94.43888756484453
 31
0.0
  0
LINE
  5
76
330
1F
100
AcDbEntity
  8
0
  6
CONTINUOUS
 62
     7
100
AcDbLine
 10
91.86470025998555
 20
95.43888756484459
 30
0.0
 11
91.55
 21
95.43888756484459
 31
0.0
  0
LINE
  5
77
330
1F
100
AcDbEntity
  8
0
  6
CONTINUOUS
 62
     7
100
AcDbLine
 10
91.37639915440859
 20
111.4388875648445
 30
0.0
 11
91.86470025998561
 21
111.4388875648445
 31
0.0
  0
LINE
  5
78
330
1F
100
AcDbEntity
  8
0
  6
CONTINUOUS
 62
     7
100
AcDbLine
 10
91.37639915440859
 20
111.4388875648445
 30
0.0
 11
91.76778377142107
 21
112.4388875648445
 31
0.0
  0
LINE
  5
79
330
1F
100
AcDbEntity
  8
0
  6
CONTINUOUS
 62
     7
100
AcDbLine
 10
91.86470025998555
 20
95.43888756484459
 30
0.0
 11
91.37639915442304
 21
95.83997055497979
 31
0.0
  0
LINE
  5
7A
330
1F
100
AcDbEntity
  8
0
  6
CONTINUOUS
 62
     7
100
AcDbLine
 10
91.15254333059403
 20
96.06020790840414
 30
0.0
 11
91.37639915442308
 21
95.83997055497979
 31
0.0
  0
LINE
  5
7B
330
1F
100
AcDbEntity
  8
0
  6
CONTINUOUS
 62
     7
100
AcDbLine
 10
90.26051222056903
 20
98.18152825196374
 30
0.0
 11
91.15254333059397
 21
96.06020790840408
 31
0.0
  0
LINE
  5
7C
330
1F
100
AcDbEntity
  8
0
  6
CONTINUOUS
 62
     7
100
AcDbLine
 10
90.26051222056903
 20
112.4388875648445
 30
0.0
 11
90.26051222056903
 21
98.18152825196377
 31
0.0
  0
LINE
  5
7D
330
1F
100
AcDbEntity
  8
0
  6
CONTINUOUS
 62
     7
100
AcDbLine
 10
91.76778377142097
 20
112.4388875648445
 30
0.0
 11
90.260512220569
 21
112.4388875648445
 31
0.0
  0
LINE
  5
7E
330
1F
100
AcDbEntity
  8
0
  6
CONTINUOUS
 62
     7
100
AcDbLine
 10
90.26051222056903
 20
112.4388875648445
 30
0.0
 11
90.05
 21
112.4388875648445
 31
0.0
  0
LINE
  5
7F
330
1F
100
AcDbEntity
  8
0
  6
CONTINUOUS
 62
     7
100
AcDbLine
 10
117.6406875918025
 20
112.3996192883704
 30
0.0
 11
117.3593082330685
 21
112.4388875648445
 31
0.0
  0
LINE
  5
80
330
1F
100
AcDbEntity
  8
0
  6
CONTINUOUS
 62
     7
100
AcDbLine
 10
117.3593082330686
 20
112.4388875648445
 30
0.0
 11
117.6106591254035
 21
112.4388875648445
 31
0.0
  0
LINE
  5
81
330
1F
100
AcDbEntity
  8
0
  6
CONTINUOUS
 62
     7
100
AcDbLine
 10
117.6106591254035
 20
112.4388875648445
 30
0.0
 11
118.4848636003435
 21
112.4388875648445
 31
0.0
  0
LINE
  5
82
330
1F
100
AcDbEntity
  8
0
  6
CONTINUOUS
 62
     7
100
AcDbLine
 10
118.8691203758566
 20
95.8940125193352
 30
0.0
 11
118.3720192871161
 21
95.43888756484453
 31
0.0
  0
LINE
  5
83
330
1F
100
AcDbEntity
  8
0
  6
CONTINUOUS
 62
     7
100
AcDbLine
 10
118.8691203758566
 20
95.8940125193352
 30
0.0
 11
119.0357420969135
 21
96.06020790840408
 31
0.0
  0
LINE
  5
84
330
1F
100
AcDbEntity
  8
0
  6
CONTINUOUS
 62
     7
100
AcDbLine
 10
119.9165176901315
 20
98.18152825196374
 30
0.0
 11
119.9165176901315
 21
112.4388875648445
 31
0.0
  0
LINE
  5
85
330
1F
100
AcDbEntity
  8
0
  6
CONTINUOUS
 62
     7
100
AcDbLine
 10
119.0357420969135
 20
96.06020790840414
 30
0.0
 11
119.9165176901316
 21
98.1815282519638
 31
0.0
  0
LINE
  5
86
330
1F
100
AcDbEntity
  8
0
  6
CONTINUOUS
 62
     7
100
AcDbLine
 10
119.9165176901315
 20
112.4388875648445
 30
0.0
 11
118.4848636003435
 21
112.4388875648445
 31
0.0
  0
LINE
  5
87
330
1F
100
AcDbEntity
  8
0
  6
CONTINUOUS
 62
     7
100
AcDbLine
 10
119.9500000000001
 20
112.4388875648445
 30
0.0
 11
119.9165176901316
 21
112.4388875648445
 31
0.0
  0
LINE
  5
88
330
1F
100
AcDbEntity
  8
0
  6
CONTINUOUS
 62
     7
100
AcDbLine
 10
92.359312408197
 20
112.3996192883704
 30
0.0
 11
92.64069176693145
 21
112.4388875648445
 31
0.0
  0
LINE
  5
89
330
1F
100
AcDbEntity
  8
0
  6
CONTINUOUS
 62
     7
100
AcDbLine
 10
91.81359118065052
 20
112.7388875648445
 30
0.0
 11
117.05
 21
112.7388875648445
 31
0.0
  0
LINE
  5
8A
330
1F
100
AcDbEntity
  8
0
  6
CONTINUOUS
 62
     7
100
AcDbLine
 10
117.05
 20
112.7388875648445
 30
0.0
 11
118.4222890889651
 21
112.7388875648445
 31
0.0
  0
LINE
  5
8B
330
1F
100
AcDbEntity
  8
0
  6
CONTINUOUS
 62
     7
100
AcDbLine
 10
93.44999999999997
 20
131.1388875648445
 30
0.0
 11
116.55
 21
131.1388875648445
 31
0.0
  0
LINE
  5
8C
330
1F
100
AcDbEntity
  8
0
  6
CONTINUOUS
 62
     7
100
AcDbLine
 10
93.03128769961249
 20
117.4633583949078
 30
0.0
 11
93.04013227077955
 21
117.4738610877826
 31
0.0
  0
LINE
  5
8D
330
1F
100
AcDbEntity
  8
0
  6
CONTINUOUS
 62
     7
100
AcDbLine
 10
93.29881737676554
 20
118.0446040322523
 30
0.0
 11
93.04013227077958
 21
117.4738610877826
 31
0.0
  0
LINE
  5
8E
330
1F
100
AcDbEntity
  8
0
  6
CONTINUOUS
 62
     7
100
AcDbLine
 10
92.35784620932058
 20
116.6040100063845
 30
0.0
 11
93.03128769961253
 21
117.4633583949078
 31
0.0
  0
LINE
  5
8F
330
1F
100
AcDbEntity
  8
0
  6
CONTINUOUS
 62
     7
100
AcDbLine
 10
91.32520566882246
 20
112.7388875648445
 30
0.0
 11
91.81359118065049
 21
112.7388875648445
 31
0.0
  0
LINE
  5
90
330
1F
100
AcDbEntity
  8
0
  6
CONTINUOUS
 62
     7
100
AcDbLine
 10
90.40780382649154
 20
114.0035615869138
 30
0.0
 11
92.35784620932054
 21
116.6040100063845
 31
0.0
  0
LINE
  5
91
330
1F
100
AcDbEntity
  8
0
  6
CONTINUOUS
 62
     7
100
AcDbLine
 10
90.40780382649154
 20
114.0035615869138
 30
0.0
 11
90.20980054225096
 21
113.4100194417299
 31
0.0
  0
LINE
  5
92
330
1F
100
AcDbEntity
  8
0
  6
CONTINUOUS
 62
     7
100
AcDbLine
 10
90.20980054225097
 20
112.7388875648445
 30
0.0
 11
90.20980054225097
 21
113.4100194417299
 31
0.0
  0
LINE
  5
93
330
1F
100
AcDbEntity
  8
0
  6
CONTINUOUS
 62
     7
100
AcDbLine
 10
91.32520566882246
 20
112.7388875648445
 30
0.0
 11
90.20980054225093
 21
112.7388875648445
 31
0.0
  0
LINE
  5
94
330
1F
100
AcDbEntity
  8
0
  6
CONTINUOUS
 62
     7
100
AcDbLine
 10
90.00000000000003
 20
112.7388875648445
 30
0.0
 11
90.20980054225096
 21
112.7388875648445
 31
0.0
  0
LINE
  5
95
330
1F
100
AcDbEntity
  8
0
  6
CONTINUOUS
 62
     7
100
AcDbLine
 10
117.189466420695
 20
117.4738610877794
 30
0.0
 11
116.9641418651215
 21
118.0446040322523
 31
0.0
  0
LINE
  5
96
330
1F
100
AcDbEntity
  8
0
  6
CONTINUOUS
 62
     7
100
AcDbLine
 10
117.189466420695
 20
117.4738610877794
 30
0.0
 11
117.2057022397025
 21
117.4531335966086
 31
0.0
  0
LINE
  5
97
330
1F
100
AcDbEntity
  8
0
  6
CONTINUOUS
 62
     7
100
AcDbLine
 10
117.2057022397024
 20
117.4531335966086
 30
0.0
 11
117.963068341355
 21
116.4486065573269
 31
0.0
  0
LINE
  5
98
330
1F
100
AcDbEntity
  8
0
  6
CONTINUOUS
 62
     7
100
AcDbLine
 10
118.4222890889651
 20
112.7388875648445
 30
0.0
 11
118.919410907075
 21
112.7388875648445
 31
0.0
  0
LINE
  5
99
330
1F
100
AcDbEntity
  8
0
  6
CONTINUOUS
 62
     7
100
AcDbLine
 10
117.963068341355
 20
116.4486065573269
 30
0.0
 11
119.770991475394
 21
114.0035615869138
 31
0.0
  0
LINE
  5
9A
330
1F
100
AcDbEntity
  8
0
  6
CONTINUOUS
 62
     7
100
AcDbLine
 10
119.966629547096
 20
113.4100194417299
 30
0.0
 11
119.770991475394
 21
114.0035615869138
 31
0.0
  0
LINE
  5
9B
330
1F
100
AcDbEntity
  8
0
  6
CONTINUOUS
 62
     7
100
AcDbLine
 10
119.966629547096
 20
113.4100194417299
 30
0.0
 11
119.966629547096
 21
112.7388875648445
 31
0.0
  0
LINE
  5
9C
330
1F
100
AcDbEntity
  8
0
  6
CONTINUOUS
 62
     7
100
AcDbLine
 10
119.966629547096
 20
112.7388875648445
 30
0.0
 11
118.919410907075
 21
112.7388875648445
 31
0.0
  0
LINE
  5
9D
330
1F
100
AcDbEntity
  8
0
  6
CONTINUOUS
 62
     7
100
AcDbLine
 10
119.966629547096
 20
112.7388875648445
 30
0.0
 11
120.0
 21
112.7388875648445
 31
0.0
  0
LINE
  5
9E
330
1F
100
AcDbEntity
  8
0
  6
CONTINUOUS
 62
     7
100
AcDbLine
 10
370.0000000000001
 20
278.6388875648447
 30
0.0
 11
280.0000000000007
 21
278.6388875648447
 31
0.0
  0
LINE
  5
9F
330
1F
100
AcDbEntity
  8
0
  6
CONTINUOUS
 62
     7
100
AcDbLine
 10
370.0000000000001
 20
279.1388875648448
 30
0.0
 11
280.0000000000007
 21
279.1388875648448
 31
0.0
  0
LINE
  5
A0
330
1F
100
AcDbEntity
  8
0
  6
CONTINUOUS
 62
     7
100
AcDbLine
 10
-160.0
 20
278.6388875648447
 30
0.0
 11
-70.00000000000017
 21
278.6388875648447
 31
0.0
  0
LINE
  5
A1
330
1F
100
AcDbEntity
  8
0
  6
CONTINUOUS
 62
     7
100
AcDbLine
 10
-160.0
 20
279.1388875648448
 30
0.0
 11
-70.00000000000017
 21
279.1388875648448
 31
0.0
  0
LINE
  5
A2
330
1F
100
AcDbEntity
  8
0
  6
CONTINUOUS
 62
     7
100
AcDbLine
 10
123.5043443947025
 20
215.6388875648447
 30
0.0
 11
86.4956556052976
 21
215.6388875648447
 31
0.0
  0
LINE
  5
A3
330
1F
100
AcDbEntity
  8
0
  6
CONTINUOUS
 62
     7
100
AcDbLine
 10
104.565503431743
 20
206.1388875648447
 30
0.0
 11
105.4344965682571
 21
206.1388875648447
 31
0.0
  0
LINE
  5
A4
330
1F
100
AcDbEntity
  8
0
  6
CONTINUOUS
 62
     7
100
AcDbLine
 10
105.434496568257
 20
206.1388875648447
 30
0.0
 11
106.797592887306
 21
206.1388875648447
 31
0.0
  0
LINE
  5
A5
330
1F
100
AcDbEntity
  8
0
  6
CONTINUOUS
 62
     7
100
AcDbLine
 10
103.2024071126941
 20
206.1388875648447
 30
0.0
 11
104.565503431743
 21
206.1388875648447
 31
0.0
  0
LINE
  5
A6
330
1F
100
AcDbEntity
  8
0
  6
CONTINUOUS
 62
     7
100
AcDbLine
 10
102.0
 20
206.1388875648447
 30
0.0
 11
103.202407112694
 21
206.1388875648447
 31
0.0
  0
LINE
  5
A7
330
1F
100
AcDbEntity
  8
0
  6
CONTINUOUS
 62
     7
100
AcDbLine
 10
106.797592887306
 20
206.1388875648447
 30
0.0
 11
108.0
 21
206.1388875648447
 31
0.0
  0
LINE
  5
A8
330
1F
100
AcDbEntity
  8
0
  6
CONTINUOUS
 62
     7
100
AcDbLine
 10
119.5000000000001
 20
196.1388875648447
 30
0.0
 11
105.0
 21
196.1388875648447
 31
0.0
  0
LINE
  5
A9
330
1F
100
AcDbEntity
  8
0
  6
CONTINUOUS
 62
     7
100
AcDbLine
 10
105.0
 20
196.1388875648447
 30
0.0
 11
90.50000000000004
 21
196.1388875648447
 31
0.0
  0
LINE
  5
AA
330
1F
100
AcDbEntity
  8
0
  6
CONTINUOUS
 62
     7
100
AcDbLine
 10
108.0
 20
206.1388875648447
 30
0.0
 11
113.6315862402436
 21
206.1388875648447
 31
0.0
  0
LINE
  5
AB
330
1F
100
AcDbEntity
  8
0
  6
CONTINUOUS
 62
     7
100
AcDbLine
 10
96.36841375975652
 20
206.1388875648447
 30
0.0
 11
102.0000000000001
 21
206.1388875648447
 31
0.0
  0
LINE
  5
AC
330
1F
100
AcDbEntity
  8
0
  6
CONTINUOUS
 62
     7
100
AcDbLine
 10
94.66795331349049
 20
206.1388875648447
 30
0.0
 11
96.36841375975649
 21
206.1388875648447
 31
0.0
  0
LINE
  5
AD
330
1F
100
AcDbEntity
  8
0
  6
CONTINUOUS
 62
     7
100
AcDbLine
 10
113.6315862402435
 20
206.1388875648447
 30
0.0
 11
115.3320466865096
 21
206.1388875648447
 31
0.0
  0
LINE
  5
AE
330
1F
100
AcDbEntity
  8
0
  6
CONTINUOUS
 62
     7
100
AcDbLine
 10
93.29034708862255
 20
206.1388875648447
 30
0.0
 11
94.66795331349047
 21
206.1388875648447
 31
0.0
  0
LINE
  5
AF
330
1F
100
AcDbEntity
  8
0
  6
CONTINUOUS
 62
     7
100
AcDbLine
 10
115.3320466865096
 20
206.1388875648447
 30
0.0
 11
116.7096529113775
 21
206.1388875648447
 31
0.0
  0
LINE
  5
B0
330
1F
100
AcDbEntity
  8
0
  6
CONTINUOUS
 62
     7
100
AcDbLine
 10
92.67587614898848
 20
206.1388875648447
 30
0.0
 11
93.29034708862254
 21
206.1388875648447
 31
0.0
  0
LINE
  5
B1
330
1F
100
AcDbEntity
  8
0
  6
CONTINUOUS
 62
     7
100
AcDbLine
 10
116.7096529113775
 20
206.1388875648447
 30
0.0
 11
117.3241238510116
 21
206.1388875648447
 31
0.0
  0
LINE
  5
B2
330
1F
100
AcDbEntity
  8
0
  6
CONTINUOUS
 62
     7
100
AcDbLine
 10
117.3241238510116
 20
206.1388875648447
 30
0.0
 11
117.8742269273631
 21
206.1388875648447
 31
0.0
  0
LINE
  5
B3
330
1F
100
AcDbEntity
  8
0
  6
CONTINUOUS
 62
     7
100
AcDbLine
 10
92.12577307263709
 20
206.1388875648447
 30
0.0
 11
92.67587614898856
 21
206.1388875648447
 31
0.0
  0
LINE
  5
B4
330
1F
100
AcDbEntity
  8
0
  6
CONTINUOUS
 62
     7
100
AcDbLine
 10
89.79309367425454
 20
206.1388875648447
 30
0.0
 11
92.12577307263705
 21
206.1388875648447
 31
0.0
  0
LINE
  5
B5
330
1F
100
AcDbEntity
  8
0
  6
CONTINUOUS
 62
     7
100
AcDbLine
 10
117.874226927363
 20
206.1388875648447
 30
0.0
 11
120.2069063257455
 21
206.1388875648447
 31
0.0
  0
LINE
  5
B6
330
1F
100
AcDbEntity
  8
0
  6
CONTINUOUS
 62
     7
100
AcDbLine
 10
120.702206657253
 20
197.1388875648447
 30
0.0
 11
120.4409448399905
 21
197.1388875648447
 31
0.0
  0
LINE
  5
B7
330
1F
100
AcDbEntity
  8
0
  6
CONTINUOUS
 62
     7
100
AcDbLine
 10
89.55905516000956
 20
197.1388875648447
 30
0.0
 11
89.29779334274703
 21
197.1388875648447
 31
0.0
  0
LINE
  5
B8
330
1F
100
AcDbEntity
  8
0
  6
CONTINUOUS
 62
     7
100
AcDbLine
 10
88.59068656156049
 20
206.1388875648447
 30
0.0
 11
89.79309367425455
 21
206.1388875648447
 31
0.0
  0
LINE
  5
B9
330
1F
100
AcDbEntity
  8
0
  6
CONTINUOUS
 62
     7
100
AcDbLine
 10
120.2069063257455
 20
206.1388875648447
 30
0.0
 11
121.4093134384401
 21
206.1388875648447
 31
0.0
  0
LINE
  5
BA
330
1F
100
AcDbEntity
  8
0
  6
CONTINUOUS
 62
     7
100
AcDbLine
 10
88.00555347379107
 20
206.1388875648447
 30
0.0
 11
88.59068656156052
 21
206.1388875648447
 31
0.0
  0
LINE
  5
BB
330
1F
100
AcDbEntity
  8
0
  6
CONTINUOUS
 62
     7
100
AcDbLine
 10
89.29779334274696
 20
197.1388875648447
 30
0.0
 11
89.00522679886251
 21
197.1388875648447
 31
0.0
  0
LINE
  5
BC
330
1F
100
AcDbEntity
  8
0
  6
CONTINUOUS
 62
     7
100
AcDbLine
 10
121.40931343844
 20
206.1388875648447
 30
0.0
 11
121.994446526209
 21
206.1388875648447
 31
0.0
  0
LINE
  5
BD
330
1F
100
AcDbEntity
  8
0
  6
CONTINUOUS
 62
     7
100
AcDbLine
 10
120.994773201138
 20
197.1388875648447
 30
0.0
 11
120.7022066572531
 21
197.1388875648447
 31
0.0
  0
LINE
  5
BE
330
1F
100
AcDbEntity
  8
0
  6
CONTINUOUS
 62
     7
100
AcDbLine
 10
88.00000000000001
 20
206.1388875648447
 30
0.0
 11
88.00555347379105
 21
206.1388875648447
 31
0.0
  0
LINE
  5
BF
330
1F
100
AcDbEntity
  8
0
  6
CONTINUOUS
 62
     7
100
AcDbLine
 10
121.994446526209
 20
206.1388875648447
 30
0.0
 11
122.0
 21
206.1388875648447
 31
0.0
  0
LINE
  5
C0
330
1F
100
AcDbEntity
  8
0
  6
CONTINUOUS
 62
     7
100
AcDbLine
 10
93.49605139547306
 20
195.9376871683308
 30
0.0
 11
95.24508916290154
 21
196.0390737229528
 31
0.0
  0
LINE
  5
C1
330
1F
100
AcDbEntity
  8
0
  6
CONTINUOUS
 62
     7
100
AcDbLine
 10
116.8269239047695
 20
194.9238216221127
 30
0.0
 11
116.8870125619755
 21
194.9423466311407
 31
0.0
  0
LINE
  5
C2
330
1F
100
AcDbEntity
  8
0
  6
CONTINUOUS
 62
     7
100
AcDbLine
 10
115.6524438749535
 20
194.8224350674907
 30
0.0
 11
116.8269239047696
 21
194.9238216221127
 31
0.0
  0
LINE
  5
C3
330
1F
100
AcDbEntity
  8
0
  6
CONTINUOUS
 62
     7
100
AcDbLine
 10
113.1781177166031
 20
194.7210485128687
 30
0.0
 11
115.6524438749535
 21
194.8224350674907
 31
0.0
  0
LINE
  5
C4
330
1F
100
AcDbEntity
  8
0
  6
CONTINUOUS
 62
     7
100
AcDbLine
 10
109.7058708203085
 20
194.6196619582468
 30
0.0
 11
113.178117716603
 21
194.7210485128688
 31
0.0
  0
LINE
  5
C5
330
1F
100
AcDbEntity
  8
0
  6
CONTINUOUS
 62
     7
100
AcDbLine
 10
105.6593981370554
 20
194.5182754036253
 30
0.0
 11
109.7058708203085
 21
194.6196619582468
 31
0.0
  0
LINE
  5
C6
330
1F
100
AcDbEntity
  8
0
  6
CONTINUOUS
 62
     7
100
AcDbLine
 10
101.5324635310941
 20
194.4168888490033
 30
0.0
 11
105.6593981370555
 21
194.5182754036253
 31
0.0
  0
LINE
  5
C7
330
1F
100
AcDbEntity
  8
0
  6
CONTINUOUS
 62
     7
100
AcDbLine
 10
97.82864909433303
 20
194.3155022943813
 30
0.0
 11
101.532463531094
 21
194.4168888490033
 31
0.0
  0
LINE
  5
C8
330
1F
100
AcDbEntity
  8
0
  6
CONTINUOUS
 62
     7
100
AcDbLine
 10
94.99990640828698
 20
194.2141157397597
 30
0.0
 11
97.82864909433304
 21
194.3155022943812
 31
0.0
  0
LINE
  5
C9
330
1F
100
AcDbEntity
  8
0
  6
CONTINUOUS
 62
     7
100
AcDbLine
 10
93.39140793030603
 20
194.1127291851377
 30
0.0
 11
94.99990640828696
 21
194.2141157397597
 31
0.0
  0
LINE
  5
CA
330
1F
100
AcDbEntity
  8
0
  6
CONTINUOUS
 62
     7
100
AcDbLine
 10
116.7701903739675
 20
193.0988636389912
 30
0.0
 11
116.8882717875816
 21
193.1287317640987
 31
0.0
  0
LINE
  5
CB
330
1F
100
AcDbEntity
  8
0
  6
CONTINUOUS
 62
     7
100
AcDbLine
 10
115.4491676075225
 20
192.9974770840667
 30
0.0
 11
116.7701903739674
 21
193.0988636389913
 31
0.0
  0
LINE
  5
CC
330
1F
100
AcDbEntity
  8
0
  6
CONTINUOUS
 62
     7
100
AcDbLine
 10
112.8531031773145
 20
192.8960905302937
 30
0.0
 11
115.4491676075225
 21
192.9974770840666
 31
0.0
  0
LINE
  5
CD
330
1F
100
AcDbEntity
  8
0
  6
CONTINUOUS
 62
     7
100
AcDbLine
 10
109.298777264753
 20
192.7947039739182
 30
0.0
 11
112.8531031773145
 21
192.8960905302937
 31
0.0
  0
LINE
  5
CE
330
1F
100
AcDbEntity
  8
0
  6
CONTINUOUS
 62
     7
100
AcDbLine
 10
105.2199005307166
 20
192.6933174198008
 30
0.0
 11
109.298777264753
 21
192.7947039739183
 31
0.0
  0
LINE
  5
CF
330
1F
100
AcDbEntity
  8
0
  6
CONTINUOUS
 62
     7
100
AcDbLine
 10
101.1141916063346
 20
192.5919308860448
 30
0.0
 11
105.2199005307165
 21
192.6933174198008
 31
0.0
  0
LINE
  5
D0
330
1F
100
AcDbEntity
  8
0
  6
CONTINUOUS
 62
     7
100
AcDbLine
 10
97.48263599686251
 20
192.4905441778462
 30
0.0
 11
101.1141916063346
 21
192.5919308860447
 31
0.0
  0
LINE
  5
D1
330
1F
100
AcDbEntity
  8
0
  6
CONTINUOUS
 62
     7
100
AcDbLine
 10
94.76839636069207
 20
192.3891584115182
 30
0.0
 11
97.48263599686253
 21
192.4905441778463
 31
0.0
  0
LINE
  5
D2
330
1F
100
AcDbEntity
  8
0
  6
CONTINUOUS
 62
     7
100
AcDbLine
 10
93.30259961978298
 20
192.2877684568467
 30
0.0
 11
94.76839636069201
 21
192.3891584115182
 31
0.0
  0
LINE
  5
D3
330
1F
100
AcDbEntity
  8
0
  6
CONTINUOUS
 62
     7
100
AcDbLine
 10
93.30259903637555
 20
193.8181524431512
 30
0.0
 11
93.11141454466211
 21
193.7774421587837
 31
0.0
  0
LINE
  5
D4
330
1F
100
AcDbEntity
  8
0
  6
CONTINUOUS
 62
     7
100
AcDbLine
 10
94.76839524331099
 20
193.9195424218073
 30
0.0
 11
93.30259903637553
 21
193.8181524431512
 31
0.0
  0
LINE
  5
D5
330
1F
100
AcDbEntity
  8
0
  6
CONTINUOUS
 62
     7
100
AcDbLine
 10
97.48263353501757
 20
194.0209281641508
 30
0.0
 11
94.76839524331102
 21
193.9195424218073
 31
0.0
  0
LINE
  5
D6
330
1F
100
AcDbEntity
  8
0
  6
CONTINUOUS
 62
     7
100
AcDbLine
 10
101.1141886404566
 20
194.1223148732757
 30
0.0
 11
97.48263353501754
 21
194.0209281641507
 31
0.0
  0
LINE
  5
D7
330
1F
100
AcDbEntity
  8
0
  6
CONTINUOUS
 62
     7
100
AcDbLine
 10
105.2198973552975
 20
194.2237014061049
 30
0.0
 11
101.1141886404565
 21
194.1223148732758
 31
0.0
  0
LINE
  5
D8
330
1F
100
AcDbEntity
  8
0
  6
CONTINUOUS
 62
     7
100
AcDbLine
 10
109.2987742995725
 20
194.3250879601272
 30
0.0
 11
105.2198973552975
 21
194.2237014061047
 31
0.0
  0
LINE
  5
D9
330
1F
100
AcDbEntity
  8
0
  6
CONTINUOUS
 62
     7
100
AcDbLine
 10
112.8531007910975
 20
194.4264745165983
 30
0.0
 11
109.2987742995725
 21
194.3250879601273
 31
0.0
  0
LINE
  5
DA
330
1F
100
AcDbEntity
  8
0
  6
CONTINUOUS
 62
     7
100
AcDbLine
 10
115.449166087374
 20
194.5278610703508
 30
0.0
 11
112.8531007910975
 21
194.4264745165983
 31
0.0
  0
LINE
  5
DB
330
1F
100
AcDbEntity
  8
0
  6
CONTINUOUS
 62
     7
100
AcDbLine
 10
116.7701899061396
 20
194.6292476252958
 30
0.0
 11
115.4491660873741
 21
194.5278610703508
 31
0.0
  0
LINE
  5
DC
330
1F
100
AcDbEntity
  8
0
  6
CONTINUOUS
 62
     7
100
AcDbLine
 10
93.39140723176004
 20
195.6431131714423
 30
0.0
 11
93.11297352508952
 21
195.5925641258433
 31
0.0
  0
LINE
  5
DD
330
1F
100
AcDbEntity
  8
0
  6
CONTINUOUS
 62
     7
100
AcDbLine
 10
94.99990468673353
 20
195.7444997260643
 30
0.0
 11
93.39140723176004
 21
195.6431131714423
 31
0.0
  0
LINE
  5
DE
330
1F
100
AcDbEntity
  8
0
  6
CONTINUOUS
 62
     7
100
AcDbLine
 10
97.82864655984253
 20
195.8458862806857
 30
0.0
 11
94.99990468673354
 21
195.7444997260642
 31
0.0
  0
LINE
  5
DF
330
1F
100
AcDbEntity
  8
0
  6
CONTINUOUS
 62
     7
100
AcDbLine
 10
101.5324604929336
 20
195.9472728353077
 30
0.0
 11
97.82864655984254
 21
195.8458862806857
 31
0.0
  0
LWPOLYLINE
  5
E0
330
1F
100
AcDbEntity
  8
0
  6
CONTINUOUS
 62
     7
100
AcDbPolyline
 90
       25
 70
     0
 43
0.0
 10
101.556167919489
 20
195.9478740496203
 10
101.555179808224
 20
195.9478489990242
 10
101.554191723148
 20
195.9478239484278
 10
101.5532036642685
 20
195.9477988978313
 10
101.5522156315935
 20
195.9477738472352
 10
101.5512276251301
 20
195.9477487966387
 10
101.550239644887
 20
195.9477237460422
 10
101.5492516908711
 20
195.9476986954458
 10
101.5482637630906
 20
195.9476736448493
 10
101.547275861553
 20
195.9476485942532
 10
101.5462879862666
 20
195.9476235436567
 10
101.5453001372386
 20
195.9475984930603
 10
101.5443123144771
 20
195.9475734424638
 10
101.5433245179895
 20
195.9475483918677
 10
101.5423367477835
 20
195.9475233412712
 10
101.5413490038675
 20
195.9474982906748
 10
101.5403612862491
 20
195.9474732400787
 10
101.539373594935
 20
195.9474481894822
 10
101.5383859299345
 20
195.9474231388857
 10
101.537398291254
 20
195.9473980882892
 10
101.5364106789025
 20
195.9473730376932
 10
101.5354230928866
 20
195.9473479870967
 10
101.5344355332146
 20
195.9473229365002
 10
101.5334479998944
 20
195.9472978859038
 10
101.5324604929335
 20
195.9472728353077
  0
LINE
  5
E1
330
1F
100
AcDbEntity
  8
0
  6
CONTINUOUS
 62
     7
100
AcDbLine
 10
105.6593949659471
 20
196.0486593899293
 30
0.0
 11
101.5561678453505
 21
195.9478739105213
 31
0.0
  0
LINE
  5
E2
330
1F
100
AcDbEntity
  8
0
  6
CONTINUOUS
 62
     7
100
AcDbLine
 10
116.8999999999989
 20
194.6719368748672
 30
0.0
 11
116.7701899061395
 21
194.6292476252958
 31
0.0
  0
LINE
  5
E3
330
1F
100
AcDbEntity
  8
0
  6
CONTINUOUS
 62
     7
100
AcDbLine
 10
93.10000000000402
 20
192.2344095772357
 30
0.0
 11
93.30259961978295
 21
192.2877684568467
 31
0.0
  0
LINE
  5
E4
330
1F
100
AcDbEntity
  8
0
  6
CONTINUOUS
 62
     7
100
AcDbLine
 10
93.10000000000102
 20
194.0486956500493
 30
0.0
 11
93.391407930306
 21
194.1127291851378
 31
0.0
  0
LINE
  5
E5
330
1F
100
AcDbEntity
  8
0
  6
CONTINUOUS
 62
     7
100
AcDbLine
 10
93.10000000000545
 20
195.8629815237358
 30
0.0
 11
93.496051395473
 21
195.9376871683308
 31
0.0
  0
LINE
  5
E6
330
1F
100
AcDbEntity
  8
0
  6
CONTINUOUS
 62
     7
100
AcDbLine
 10
116.4
 20
185.1388875648447
 30
0.0
 11
93.60000000000002
 21
185.1388875648447
 31
0.0
  0
LINE
  5
E7
330
1F
100
AcDbEntity
  8
0
  6
CONTINUOUS
 62
     7
100
AcDbLine
 10
318.1075319999999
 20
222.6388875648448
 30
0.0
 11
324.9999999999999
 21
222.6388875648448
 31
0.0
  0
LINE
  5
E8
330
1F
100
AcDbEntity
  8
0
  6
CONTINUOUS
 62
     7
100
AcDbLine
 10
325.0
 20
222.6388875648448
 30
0.0
 11
331.8924680000002
 21
222.6388875648448
 31
0.0
  0
LINE
  5
E9
330
1F
100
AcDbEntity
  8
0
  6
CONTINUOUS
 62
     7
100
AcDbLine
 10
311.1796889734676
 20
233.6388875648448
 30
0.0
 11
321.6027176037241
 21
233.6388875648448
 31
0.0
  0
LINE
  5
EA
330
1F
100
AcDbEntity
  8
0
  6
CONTINUOUS
 62
     7
100
AcDbLine
 10
328.397282396276
 20
233.6388875648448
 30
0.0
 11
338.8203110265325
 21
233.6388875648448
 31
0.0
  0
LINE
  5
EB
330
1F
100
AcDbEntity
  8
0
  6
CONTINUOUS
 62
     7
100
AcDbLine
 10
328.2941445172859
 20
233.6388875648448
 30
0.0
 11
328.397282396276
 21
233.6388875648448
 31
0.0
  0
LINE
  5
EC
330
1F
100
AcDbEntity
  8
0
  6
CONTINUOUS
 62
     7
100
AcDbLine
 10
328.2941445172859
 20
233.6388875648448
 30
0.0
 11
321.7058554827141
 21
233.6388875648448
 31
0.0
  0
LINE
  5
ED
330
1F
100
AcDbEntity
  8
0
  6
CONTINUOUS
 62
     7
100
AcDbLine
 10
338.8203110265325
 20
233.6388875648448
 30
0.0
 11
338.8403731796775
 21
233.6388875648448
 31
0.0
  0
LINE
  5
EE
330
1F
100
AcDbEntity
  8
0
  6
CONTINUOUS
 62
     7
100
AcDbLine
 10
311.1596268203224
 20
233.6388875648448
 30
0.0
 11
311.1796889734676
 21
233.6388875648448
 31
0.0
  0
LINE
  5
EF
330
1F
100
AcDbEntity
  8
0
  6
CONTINUOUS
 62
     7
100
AcDbLine
 10
342.1345176969635
 20
233.6388875648448
 30
0.0
 11
338.8403731796775
 21
233.6388875648448
 31
0.0
  0
LINE
  5
F0
330
1F
100
AcDbEntity
  8
0
  6
CONTINUOUS
 62
     7
100
AcDbLine
 10
311.1596268203231
 20
233.6388875648448
 30
0.0
 11
307.8654823030366
 21
233.6388875648448
 31
0.0
  0
LINE
  5
F1
330
1F
100
AcDbEntity
  8
0
  6
CONTINUOUS
 62
     7
100
AcDbLine
 10
342.1345176969635
 20
233.6388875648448
 30
0.0
 11
342.2175934228084
 21
233.6388875648448
 31
0.0
  0
LINE
  5
F2
330
1F
100
AcDbEntity
  8
0
  6
CONTINUOUS
 62
     7
100
AcDbLine
 10
307.7824065771915
 20
233.6388875648448
 30
0.0
 11
307.8654823030366
 21
233.6388875648448
 31
0.0
  0
LINE
  5
F3
330
1F
100
AcDbEntity
  8
0
  6
CONTINUOUS
 62
     7
100
AcDbLine
 10
342.2175934228084
 20
233.6388875648448
 30
0.0
 11
345.0092536691065
 21
233.6388875648448
 31
0.0
  0
LINE
  5
F4
330
1F
100
AcDbEntity
  8
0
  6
CONTINUOUS
 62
     7
100
AcDbLine
 10
304.9907463308936
 20
233.6388875648448
 30
0.0
 11
307.7824065771915
 21
233.6388875648448
 31
0.0
  0
LINE
  5
F5
330
1F
100
AcDbEntity
  8
0
  6
CONTINUOUS
 62
     7
100
AcDbLine
 10
-101.1796889734673
 20
233.6388875648448
 30
0.0
 11
-111.6027176037241
 21
233.6388875648448
 31
0.0
  0
LINE
  5
F6
330
1F
100
AcDbEntity
  8
0
  6
CONTINUOUS
 62
     7
100
AcDbLine
 10
-118.3972823962759
 20
233.6388875648448
 30
0.0
 11
-128.8203110265326
 21
233.6388875648448
 31
0.0
  0
LINE
  5
F7
330
1F
100
AcDbEntity
  8
0
  6
CONTINUOUS
 62
     7
100
AcDbLine
 10
-111.602717603724
 20
233.6388875648448
 30
0.0
 11
-111.705855482714
 21
233.6388875648448
 31
0.0
  0
LINE
  5
F8
330
1F
100
AcDbEntity
  8
0
  6
CONTINUOUS
 62
     7
100
AcDbLine
 10
-118.2941445172859
 20
233.6388875648448
 30
0.0
 11
-111.705855482714
 21
233.6388875648448
 31
0.0
  0
LINE
  5
F9
330
1F
100
AcDbEntity
  8
0
  6
CONTINUOUS
 62
     7
100
AcDbLine
 10
-128.8203110265325
 20
233.6388875648448
 30
0.0
 11
-128.8403731796774
 21
233.6388875648448
 31
0.0
  0
LINE
  5
FA
330
1F
100
AcDbEntity
  8
0
  6
CONTINUOUS
 62
     7
100
AcDbLine
 10
-101.1596268203224
 20
233.6388875648448
 30
0.0
 11
-101.1796889734673
 21
233.6388875648448
 31
0.0
  0
LINE
  5
FB
330
1F
100
AcDbEntity
  8
0
  6
CONTINUOUS
 62
     7
100
AcDbLine
 10
-132.1345176969634
 20
233.6388875648448
 30
0.0
 11
-128.8403731796774
 21
233.6388875648448
 31
0.0
  0
LINE
  5
FC
330
1F
100
AcDbEntity
  8
0
  6
CONTINUOUS
 62
     7
100
AcDbLine
 10
-101.1596268203225
 20
233.6388875648448
 30
0.0
 11
-97.86548230303669
 21
233.6388875648448
 31
0.0
  0
LINE
  5
FD
330
1F
100
AcDbEntity
  8
0
  6
CONTINUOUS
 62
     7
100
AcDbLine
 10
-132.1345176969634
 20
233.6388875648448
 30
0.0
 11
-132.2175934228085
 21
233.6388875648448
 31
0.0
  0
LINE
  5
FE
330
1F
100
AcDbEntity
  8
0
  6
CONTINUOUS
 62
     7
100
AcDbLine
 10
-97.78240657719145
 20
233.6388875648448
 30
0.0
 11
-97.86548230303666
 21
233.6388875648448
 31
0.0
  0
LINE
  5
FF
330
1F
100
AcDbEntity
  8
0
  6
CONTINUOUS
 62
     7
100
AcDbLine
 10
-132.2175934228085
 20
233.6388875648448
 30
0.0
 11
-135.0092536691065
 21
233.6388875648448
 31
0.0
  0
LINE
  5
100
330
1F
100
AcDbEntity
  8
0
  6
CONTINUOUS
 62
     7
100
AcDbLine
 10
-94.99074633089327
 20
233.6388875648448
 30
0.0
 11
-97.78240657719144
 21
233.6388875648448
 31
0.0
  0
LINE
  5
101
330
1F
100
AcDbEntity
  8
0
  6
CONTINUOUS
 62
     7
100
AcDbLine
 10
-108.1075319999999
 20
222.6388875648448
 30
0.0
 11
-114.9999999999999
 21
222.6388875648448
 31
0.0
  0
LINE
  5
102
330
1F
100
AcDbEntity
  8
0
  6
CONTINUOUS
 62
     7
100
AcDbLine
 10
-114.9999999999999
 20
222.6388875648448
 30
0.0
 11
-121.892468
 21
222.6388875648448
 31
0.0
  0
LINE
  5
103
330
1F
100
AcDbEntity
  8
0
  6
CONTINUOUS
 62
     7
100
AcDbLine
 10
349.2426406871194
 20
277.6388875648447
 30
0.0
 11
356.313708498985
 21
277.6388875648447
 31
0.0
  0
LINE
  5
104
330
1F
100
AcDbEntity
  8
0
  6
CONTINUOUS
 62
     7
100
AcDbLine
 10
356.3137084989851
 20
276.6388875648447
 30
0.0
 11
349.2426406871195
 21
276.6388875648447
 31
0.0
  0
LINE
  5
105
330
1F
100
AcDbEntity
  8
0
  6
CONTINUOUS
 62
     7
100
AcDbLine
 10
349.2426406871194
 20
277.6388875648447
 30
0.0
 11
-139.2426406871195
 21
277.6388875648447
 31
0.0
  0
LINE
  5
106
330
1F
100
AcDbEntity
  8
0
  6
CONTINUOUS
 62
     7
100
AcDbLine
 10
349.2426406871194
 20
276.6388875648447
 30
0.0
 11
-139.2426406871195
 21
276.6388875648447
 31
0.0
  0
LINE
  5
107
330
1F
100
AcDbEntity
  8
0
  6
CONTINUOUS
 62
     7
100
AcDbLine
 10
-146.3137084989849
 20
277.6388875648447
 30
0.0
 11
-139.2426406871194
 21
277.6388875648447
 31
0.0
  0
LINE
  5
108
330
1F
100
AcDbEntity
  8
0
  6
CONTINUOUS
 62
     7
100
AcDbLine
 10
-139.2426406871195
 20
276.6388875648447
 30
0.0
 11
-146.3137084989849
 21
276.6388875648447
 31
0.0
  0
LINE
  5
109
330
1F
100
AcDbEntity
  8
0
  6
CONTINUOUS
 62
     7
100
AcDbLine
 10
390.0710678118655
 20
277.6388875648447
 30
0.0
 11
356.313708498985
 21
277.6388875648447
 31
0.0
  0
LINE
  5
10A
330
1F
100
AcDbEntity
  8
0
  6
CONTINUOUS
 62
     7
100
AcDbLine
 10
390.0710678118655
 20
276.6388875648447
 30
0.0
 11
356.313708498985
 21
276.6388875648447
 31
0.0
  0
LINE
  5
10B
330
1F
100
AcDbEntity
  8
0
  6
CONTINUOUS
 62
     7
100
AcDbLine
 10
-180.0710678118654
 20
277.6388875648447
 30
0.0
 11
-146.3137084989849
 21
277.6388875648447
 31
0.0
  0
LINE
  5
10C
330
1F
100
AcDbEntity
  8
0
  6
CONTINUOUS
 62
     7
100
AcDbLine
 10
-180.0710678118654
 20
276.6388875648447
 30
0.0
 11
-146.3137084989849
 21
276.6388875648447
 31
0.0
  0
LINE
  5
10D
330
1F
100
AcDbEntity
  8
0
  6
CONTINUOUS
 62
     7
100
AcDbLine
 10
133.690484919716
 20
226.0513989013188
 30
0.0
 11
358.989869158343
 21
245.7625409215697
 31
0.0
  0
LINE
  5
10E
330
1F
100
AcDbEntity
  8
0
  6
CONTINUOUS
 62
     7
100
AcDbLine
 10
120.2027957955105
 20
224.8713790057887
 30
0.0
 11
133.6904849197164
 21
226.0513989013187
 31
0.0
  0
LWPOLYLINE
  5
10F
330
1F
100
AcDbEntity
  8
0
  6
CONTINUOUS
 62
     7
100
AcDbPolyline
 90
        9
 70
     0
 43
0.0
 10
120.2027957955105
 20
224.8713790057887
 10
116.9447600099215
 20
225.1053062703517
 10
113.2276937958495
 20
225.2791299092868
 10
109.194441923347
 20
225.3861699776322
 10
105.0
 20
225.4223129855893
 10
100.8055580766535
 20
225.3861699776322
 10
96.77230620415106
 20
225.2791299092868
 10
93.05523999007909
 20
225.1053062703517
 10
89.79720420448959
 20
224.8713790057887
  0
LINE
  5
110
330
1F
100
AcDbEntity
  8
0
  6
CONTINUOUS
 62
     7
100
AcDbLine
 10
76.30951508028355
 20
226.0513989013188
 30
0.0
 11
89.79720420448953
 21
224.8713790057888
 31
0.0
  0
LINE
  5
111
330
1F
100
AcDbEntity
  8
0
  6
CONTINUOUS
 62
     7
100
AcDbLine
 10
76.30951508028389
 20
226.0513989013188
 30
0.0
 11
-148.9898691583428
 21
245.7625409215697
 31
0.0
  0
LINE
  5
112
330
1F
100
AcDbEntity
  8
0
  6
CONTINUOUS
 62
     7
100
AcDbLine
 10
-148.9898691583427
 20
245.7625409215697
 30
0.0
 11
-160.5658191661766
 21
246.7753053167977
 31
0.0
  0
LINE
  5
113
330
1F
100
AcDbEntity
  8
0
  6
CONTINUOUS
 62
     7
100
AcDbLine
 10
370.565819166177
 20
246.7753053167978
 30
0.0
 11
358.989869158343
 21
245.7625409215698
 31
0.0
  0
LINE
  5
114
330
1F
100
AcDbEntity
  8
0
  6
CONTINUOUS
 62
     7
100
AcDbLine
 10
392.9999999999999
 20
277.6388875648447
 30
0.0
 11
392.9999999999999
 21
276.6388875648447
 31
0.0
  0
LINE
  5
115
330
1F
100
AcDbEntity
  8
0
  6
CONTINUOUS
 62
     7
100
AcDbLine
 10
390.0710678118655
 20
277.6388875648447
 30
0.0
 11
393.0
 21
277.6388875648447
 31
0.0
  0
LINE
  5
116
330
1F
100
AcDbEntity
  8
0
  6
CONTINUOUS
 62
     7
100
AcDbLine
 10
392.9999999999999
 20
276.6388875648447
 30
0.0
 11
390.0710678118655
 21
276.6388875648447
 31
0.0
  0
LINE
  5
117
330
1F
100
AcDbEntity
  8
0
  6
CONTINUOUS
 62
     7
100
AcDbLine
 10
-183.0
 20
276.6388875648447
 30
0.0
 11
-183.0
 21
277.6388875648448
 31
0.0
  0
LINE
  5
118
330
1F
100
AcDbEntity
  8
0
  6
CONTINUOUS
 62
     7
100
AcDbLine
 10
-183.0
 20
277.6388875648447
 30
0.0
 11
-180.0710678118654
 21
277.6388875648447
 31
0.0
  0
LINE
  5
119
330
1F
100
AcDbEntity
  8
0
  6
CONTINUOUS
 62
     7
100
AcDbLine
 10
-180.0710678118654
 20
276.6388875648447
 30
0.0
 11
-183.0
 21
276.6388875648447
 31
0.0
  0
LINE
  5
11A
330
1F
100
AcDbEntity
  8
0
  6
CONTINUOUS
 62
     7
100
AcDbLine
 10
380.0000000000001
 20
276.6388875648447
 30
0.0
 11
378.0365119217529
 21
260.6475604484028
 31
0.0
  0
LINE
  5
11B
330
1F
100
AcDbEntity
  8
0
  6
CONTINUOUS
 62
     7
100
AcDbLine
 10
-168.0365119217529
 20
260.6475604484028
 30
0.0
 11
-170.0
 21
276.6388875648448
 31
0.0
  0
ARC
  5
11C
330
1F
100
AcDbEntity
  8
0
  6
CONTINUOUS
 62
     7
100
AcDbCircle
 10
-164.0663273151877
 20
261.1350378220233
 30
0.0
 40
4.000000000000004
100
AcDbArc
 50
187.0
 51
259.5551483953222
  0
ARC
  5
11D
330
1F
100
AcDbEntity
  8
0
  6
CONTINUOUS
 62
     7
100
AcDbCircle
 10
374.066327315188
 20
261.1350378220233
 30
0.0
 40
3.999999999999893
100
AcDbArc
 50
280.4448516046778
 51
352.9999999999999
  0
LINE
  5
11E
330
1F
100
AcDbEntity
  8
0
  6
CONTINUOUS
 62
     7
100
AcDbLine
 10
126.5
 20
218.1388875648447
 30
0.0
 11
83.50000000000009
 21
218.1388875648447
 31
0.0
  0
LINE
  5
11F
330
1F
100
AcDbEntity
  8
0
  6
CONTINUOUS
 62
     7
100
AcDbLine
 10
94.00000000000003
 20
184.6388875648443
 30
0.0
 11
94.00000000000003
 21
131.6388875648446
 31
0.0
  0
LINE
  5
120
330
1F
100
AcDbEntity
  8
0
  6
CONTINUOUS
 62
     7
100
AcDbLine
 10
116.0
 20
131.6388875648445
 30
0.0
 11
116.0
 21
184.6388875648443
 31
0.0
  0
ARC
  5
121
330
1F
100
AcDbEntity
  8
0
  6
CONTINUOUS
 62
     7
100
AcDbCircle
 10
117.45
 20
95.43888756484459
 30
0.0
 40
1.000000000000112
100
AcDbArc
 50
270.0000000000001
 51
0.0
  0
ARC
  5
122
330
1F
100
AcDbEntity
  8
0
  6
CONTINUOUS
 62
     7
100
AcDbCircle
 10
92.55000000000007
 20
95.43888756484459
 30
0.0
 40
0.9999999999998899
100
AcDbArc
 50
180.0
 51
269.9999999999999
  0
LINE
  5
123
330
1F
100
AcDbEntity
  8
0
  6
CONTINUOUS
 62
     7
100
AcDbLine
 10
90.92867965644052
 20
96.0602079084042
 30
0.0
 11
91.55000000000001
 21
95.43888756484458
 31
0.0
  0
LINE
  5
124
330
1F
100
AcDbEntity
  8
0
  6
CONTINUOUS
 62
     7
100
AcDbLine
 10
90.05000000000001
 20
112.4388875648445
 30
0.0
 11
90.05000000000001
 21
98.18152825196375
 31
0.0
  0
ARC
  5
125
330
1F
100
AcDbEntity
  8
0
  6
CONTINUOUS
 62
     7
100
AcDbCircle
 10
93.05000000000003
 20
98.18152825196374
 30
0.0
 40
3.000000000000003
100
AcDbArc
 50
180.0
 51
224.9999999999998
  0
LINE
  5
126
330
1F
100
AcDbEntity
  8
0
  6
CONTINUOUS
 62
     7
100
AcDbLine
 10
118.45
 20
95.43888756484459
 30
0.0
 11
119.0713203435595
 21
96.06020790840421
 31
0.0
  0
LINE
  5
127
330
1F
100
AcDbEntity
  8
0
  6
CONTINUOUS
 62
     7
100
AcDbLine
 10
119.9500000000001
 20
98.18152825196374
 30
0.0
 11
119.9500000000001
 21
112.4388875648445
 31
0.0
  0
ARC
  5
128
330
1F
100
AcDbEntity
  8
0
  6
CONTINUOUS
 62
     7
100
AcDbCircle
 10
116.95
 20
98.18152825196374
 30
0.0
 40
2.999999999999892
100
AcDbArc
 50
315.0000000000002
 51
0.0
  0
ARC
  5
129
330
1F
100
AcDbEntity
  8
0
  6
CONTINUOUS
 62
     7
100
AcDbCircle
 10
119.05
 20
118.0902024336734
 30
0.0
 40
2.000000000000002
100
AcDbArc
 50
180.0
 51
181.3064111731893
  0
ARC
  5
12A
330
1F
100
AcDbEntity
  8
0
  6
CONTINUOUS
 62
     7
100
AcDbCircle
 10
90.95000000000003
 20
118.0902024336734
 30
0.0
 40
2.000000000000002
100
AcDbArc
 50
358.6935888268108
 51
0.0
  0
LINE
  5
12B
330
1F
100
AcDbEntity
  8
0
  6
CONTINUOUS
 62
     7
100
AcDbLine
 10
117.05
 20
118.0902024336734
 30
0.0
 11
117.05
 21
130.6388875648445
 31
0.0
  0
LINE
  5
12C
330
1F
100
AcDbEntity
  8
0
  6
CONTINUOUS
 62
     7
100
AcDbLine
 10
92.95000000000003
 20
130.6388875648445
 30
0.0
 11
92.95000000000003
 21
118.0902024336734
 31
0.0
  0
ARC
  5
12D
330
1F
100
AcDbEntity
  8
0
  6
CONTINUOUS
 62
     7
100
AcDbCircle
 10
116.55
 20
130.6388875648445
 30
0.0
 40
0.500000000000056
100
AcDbArc
 50
0.0
 51
90.0
  0
ARC
  5
12E
330
1F
100
AcDbEntity
  8
0
  6
CONTINUOUS
 62
     7
100
AcDbCircle
 10
93.44999999999997
 20
130.6388875648445
 30
0.0
 40
0.500000000000056
100
AcDbArc
 50
90.0
 51
180.0
  0
LINE
  5
12F
330
1F
100
AcDbEntity
  8
0
  6
CONTINUOUS
 62
     7
100
AcDbLine
 10
117.05
 20
112.4388875648445
 30
0.0
 11
117.05
 21
112.7388875648445
 31
0.0
  0
LINE
  5
130
330
1F
100
AcDbEntity
  8
0
  6
CONTINUOUS
 62
     7
100
AcDbLine
 10
92.95000000000003
 20
112.7388875648445
 30
0.0
 11
92.95000000000003
 21
112.4388875648445
 31
0.0
  0
LINE
  5
131
330
1F
100
AcDbEntity
  8
0
  6
CONTINUOUS
 62
     7
100
AcDbLine
 10
96.00000000000003
 20
131.6388875648445
 30
0.0
 11
96.00000000000003
 21
131.1388875648445
 31
0.0
  0
LINE
  5
132
330
1F
100
AcDbEntity
  8
0
  6
CONTINUOUS
 62
     7
100
AcDbLine
 10
114.0
 20
131.1388875648445
 30
0.0
 11
114.0
 21
131.6388875648445
 31
0.0
  0
ARC
  5
133
330
1F
100
AcDbEntity
  8
0
  6
CONTINUOUS
 62
     7
100
AcDbCircle
 10
91.9497400644405
 20
118.0674032329629
 30
0.0
 40
1.000000000000001
100
AcDbArc
 50
323.5912254322278
 51
358.6935888268108
  0
LINE
  5
134
330
1F
100
AcDbEntity
  8
0
  6
CONTINUOUS
 62
     7
100
AcDbLine
 10
92.75454297316405
 20
117.473861087779
 30
0.0
 11
90.19519709127609
 21
114.0035615869137
 31
0.0
  0
ARC
  5
135
330
1F
100
AcDbEntity
  8
0
  6
CONTINUOUS
 62
     7
100
AcDbCircle
 10
91.00000000000003
 20
113.4100194417299
 30
0.0
 40
1.000000000000001
100
AcDbArc
 50
143.5912254322297
 51
180.0
  0
LINE
  5
136
330
1F
100
AcDbEntity
  8
0
  6
CONTINUOUS
 62
     7
100
AcDbLine
 10
90.00000000000003
 20
113.4100194417299
 30
0.0
 11
90.00000000000003
 21
112.7388875648445
 31
0.0
  0
ARC
  5
137
330
1F
100
AcDbEntity
  8
0
  6
CONTINUOUS
 62
     7
100
AcDbCircle
 10
118.05025993556
 20
118.0674032329629
 30
0.0
 40
1.000000000000001
100
AcDbArc
 50
181.3064111731892
 51
216.4087745677721
  0
LINE
  5
138
330
1F
100
AcDbEntity
  8
0
  6
CONTINUOUS
 62
     7
100
AcDbLine
 10
119.804802908724
 20
114.0035615869138
 30
0.0
 11
117.245457026836
 21
117.473861087779
 31
0.0
  0
ARC
  5
139
330
1F
100
AcDbEntity
  8
0
  6
CONTINUOUS
 62
     7
100
AcDbCircle
 10
118.9999999999999
 20
113.4100194417299
 30
0.0
 40
1.000000000000112
100
AcDbArc
 50
0.0
 51
36.40877456777031
  0
LINE
  5
13A
330
1F
100
AcDbEntity
  8
0
  6
CONTINUOUS
 62
     7
100
AcDbLine
 10
120.0
 20
112.7388875648445
 30
0.0
 11
120.0
 21
113.4100194417299
 31
0.0
  0
LINE
  5
13B
330
1F
100
AcDbEntity
  8
0
  6
CONTINUOUS
 62
     7
100
AcDbLine
 10
370.0000000000001
 20
278.6388875648447
 30
0.0
 11
370.0000000000001
 21
279.1388875648447
 31
0.0
  0
LINE
  5
13C
330
1F
100
AcDbEntity
  8
0
  6
CONTINUOUS
 62
     7
100
AcDbLine
 10
280.0000000000001
 20
279.1388875648448
 30
0.0
 11
280.0000000000001
 21
278.6388875648448
 31
0.0
  0
LINE
  5
13D
330
1F
100
AcDbEntity
  8
0
  6
CONTINUOUS
 62
     7
100
AcDbLine
 10
-70.00000000000011
 20
278.6388875648447
 30
0.0
 11
-70.00000000000011
 21
279.1388875648447
 31
0.0
  0
LINE
  5
13E
330
1F
100
AcDbEntity
  8
0
  6
CONTINUOUS
 62
     7
100
AcDbLine
 10
-160.0
 20
279.1388875648448
 30
0.0
 11
-160.0
 21
278.6388875648448
 31
0.0
  0
LINE
  5
13F
330
1F
100
AcDbEntity
  8
0
  6
CONTINUOUS
 62
     7
100
AcDbLine
 10
85.978182830523
 20
218.1388875648447
 30
0.0
 11
85.9956746437655
 21
216.1345242970953
 31
0.0
  0
LINE
  5
140
330
1F
100
AcDbEntity
  8
0
  6
CONTINUOUS
 62
     7
100
AcDbLine
 10
124.0043253562346
 20
216.1345242970953
 30
0.0
 11
124.0218171694771
 21
218.1388875648447
 31
0.0
  0
ARC
  5
141
330
1F
100
AcDbEntity
  8
0
  6
CONTINUOUS
 62
     7
100
AcDbCircle
 10
123.5043443947025
 20
216.1388875648447
 30
0.0
 40
0.4999999999999449
100
AcDbArc
 50
270.0
 51
359.4999999999995
  0
ARC
  5
142
330
1F
100
AcDbEntity
  8
0
  6
CONTINUOUS
 62
     7
100
AcDbCircle
 10
86.49565560529754
 20
216.1388875648447
 30
0.0
 40
0.500000000000056
100
AcDbArc
 50
180.5000000000005
 51
270.0
  0
ARC
  5
143
330
1F
100
AcDbEntity
  8
0
  6
CONTINUOUS
 62
     7
100
AcDbCircle
 10
121.4785608493096
 20
215.1388875648447
 30
0.0
 40
0.4999999999999449
100
AcDbArc
 50
90.0
 51
179.4999999999964
  0
ARC
  5
144
330
1F
100
AcDbEntity
  8
0
  6
CONTINUOUS
 62
     7
100
AcDbCircle
 10
88.5214391506905
 20
215.1388875648447
 30
0.0
 40
0.500000000000056
100
AcDbArc
 50
0.500000000003638
 51
90.0
  0
LINE
  5
145
330
1F
100
AcDbEntity
  8
0
  6
CONTINUOUS
 62
     7
100
AcDbLine
 10
89.02142011222253
 20
215.1432508325937
 30
0.0
 11
89.09567464376549
 21
206.6345242970952
 31
0.0
  0
LINE
  5
146
330
1F
100
AcDbEntity
  8
0
  6
CONTINUOUS
 62
     7
100
AcDbLine
 10
120.9043253562345
 20
206.6345242970952
 30
0.0
 11
120.9785798877774
 21
215.1432508325938
 31
0.0
  0
ARC
  5
147
330
1F
100
AcDbEntity
  8
0
  6
CONTINUOUS
 62
     7
100
AcDbCircle
 10
89.59565560529742
 20
206.6388875648448
 30
0.0
 40
0.4999999999999449
100
AcDbArc
 50
180.4999999999973
 51
270.0
  0
ARC
  5
148
330
1F
100
AcDbEntity
  8
0
  6
CONTINUOUS
 62
     7
100
AcDbCircle
 10
120.4043443947025
 20
206.6388875648448
 30
0.0
 40
0.500000000000056
100
AcDbArc
 50
270.0
 51
359.5000000000027
  0
ARC
  5
149
330
1F
100
AcDbEntity
  8
0
  6
CONTINUOUS
 62
     7
100
AcDbCircle
 10
90.49999999999997
 20
197.1388875648447
 30
0.0
 40
1.000000000000112
100
AcDbArc
 50
180.0
 51
270.0
  0
ARC
  5
14A
330
1F
100
AcDbEntity
  8
0
  6
CONTINUOUS
 62
     7
100
AcDbCircle
 10
119.5000000000001
 20
197.1388875648447
 30
0.0
 40
1.000000000000001
100
AcDbArc
 50
270.0
 51
0.0
  0
LINE
  5
14B
330
1F
100
AcDbEntity
  8
0
  6
CONTINUOUS
 62
     7
100
AcDbLine
 10
88.00000000000001
 20
206.1388875648447
 30
0.0
 11
88.00000000000001
 21
198.1388875648448
 31
0.0
  0
ARC
  5
14C
330
1F
100
AcDbEntity
  8
0
  6
CONTINUOUS
 62
     7
100
AcDbCircle
 10
89.00000000000003
 20
198.1388875648448
 30
0.0
 40
1.000000000000001
100
AcDbArc
 50
180.0
 51
270.0000000000004
  0
LINE
  5
14D
330
1F
100
AcDbEntity
  8
0
  6
CONTINUOUS
 62
     7
100
AcDbLine
 10
122.0000000000001
 20
198.1388875648448
 30
0.0
 11
122.0000000000001
 21
206.1388875648448
 31
0.0
  0
ARC
  5
14E
330
1F
100
AcDbEntity
  8
0
  6
CONTINUOUS
 62
     7
100
AcDbCircle
 10
121.0
 20
198.1388875648448
 30
0.0
 40
1.000000000000001
100
AcDbArc
 50
269.9999999999996
 51
0.0
  0
LWPOLYLINE
  5
14F
330
1F
100
AcDbEntity
  8
0
  6
CONTINUOUS
 62
     7
100
AcDbPolyline
 90
        4
 70
     0
 43
0.0
 10
116.8857874815864
 20
194.9418076783938
 10
117.6742220606291
 20
195.3528461064992
 10
118.074547488848
 20
195.6787445836563
 10
117.937113654364
 20
195.9518156485227
  0
LINE
  5
150
330
1F
100
AcDbEntity
  8
0
  6
CONTINUOUS
 62
     7
100
AcDbLine
 10
117.937108917319
 20
195.9518181213093
 30
0.0
 11
117.57862036025
 21
196.1388875648448
 31
0.0
  0
LWPOLYLINE
  5
151
330
1F
100
AcDbEntity
  8
0
  6
CONTINUOUS
 62
     7
100
AcDbPolyline
 90
        4
 70
     0
 43
0.0
 10
116.8877446365434
 20
193.1286274365527
 10
117.6756053798015
 20
193.5395754243842
 10
118.074567512249
 20
193.8652387568282
 10
117.9363518946171
 20
194.1380324707487
  0
LINE
  5
152
330
1F
100
AcDbEntity
  8
0
  6
CONTINUOUS
 62
     7
100
AcDbLine
 10
117.936347157582
 20
194.1380349427987
 30
0.0
 11
116.9000075179615
 21
194.6783995420103
 31
0.0
  0
LINE
  5
153
330
1F
100
AcDbEntity
  8
0
  6
CONTINUOUS
 62
     7
100
AcDbLine
 10
93.1129789521205
 20
193.7780480769742
 30
0.0
 11
92.04405165274304
 21
193.2193244586877
 31
0.0
  0
LWPOLYLINE
  5
154
330
1F
100
AcDbEntity
  8
0
  6
CONTINUOUS
 62
     7
100
AcDbPolyline
 90
        3
 70
     0
 43
0.0
 10
92.04405165274304
 20
193.2193244586878
 10
92.15231536546902
 20
192.7222731993453
 10
93.11190816342804
 20
192.2217105013693
  0
LINE
  5
155
330
1F
100
AcDbEntity
  8
0
  6
CONTINUOUS
 62
     7
100
AcDbLine
 10
93.11457178033206
 20
195.5931308714903
 30
0.0
 11
91.97571137097803
 21
194.6564901836158
 31
0.0
  0
LINE
  5
156
330
1F
100
AcDbEntity
  8
0
  6
CONTINUOUS
 62
     7
100
AcDbLine
 10
92.06257151547653
 20
194.5832260150817
 30
0.0
 11
93.099992271503
 21
194.0421083845338
 31
0.0
  0
LINE
  5
157
330
1F
100
AcDbEntity
  8
0
  6
CONTINUOUS
 62
     7
100
AcDbLine
 10
92.55784441604348
 20
196.1388875648447
 30
0.0
 11
93.09999209666847
 21
195.8563295138052
 31
0.0
  0
LINE
  5
158
330
1F
100
AcDbEntity
  8
0
  6
CONTINUOUS
 62
     7
100
AcDbLine
 10
93.10000000000001
 20
192.2344095772357
 30
0.0
 11
93.10000000000001
 21
185.6388875648447
 31
0.0
  0
LINE
  5
159
330
1F
100
AcDbEntity
  8
0
  6
CONTINUOUS
 62
     7
100
AcDbLine
 10
93.10000000000001
 20
194.0486956500493
 30
0.0
 11
93.10000000000001
 21
193.7647936406128
 31
0.0
  0
LINE
  5
15A
330
1F
100
AcDbEntity
  8
0
  6
CONTINUOUS
 62
     7
100
AcDbLine
 10
93.10000000000001
 20
195.8629815237358
 30
0.0
 11
93.10000000000001
 21
195.5790797134262
 31
0.0
  0
LINE
  5
15B
330
1F
100
AcDbEntity
  8
0
  6
CONTINUOUS
 62
     7
100
AcDbLine
 10
116.9000000000001
 20
194.6719368748672
 30
0.0
 11
116.9000000000001
 21
194.9558380980727
 31
0.0
  0
LINE
  5
15C
330
1F
100
AcDbEntity
  8
0
  6
CONTINUOUS
 62
     7
100
AcDbLine
 10
116.9000000000001
 20
192.1174019254559
 30
0.0
 11
116.9000000000001
 21
193.1415528115088
 31
0.0
  0
LINE
  5
15D
330
1F
100
AcDbEntity
  8
0
  6
CONTINUOUS
 62
     7
100
AcDbLine
 10
116.9000000000001
 20
185.6388875648448
 30
0.0
 11
116.9000000000001
 21
192.1174019254558
 31
0.0
  0
ARC
  5
15E
330
1F
100
AcDbEntity
  8
0
  6
CONTINUOUS
 62
     7
100
AcDbCircle
 10
116.4
 20
185.6388875648448
 30
0.0
 40
0.500000000000056
100
AcDbArc
 50
270.0
 51
0.0
  0
ARC
  5
15F
330
1F
100
AcDbEntity
  8
0
  6
CONTINUOUS
 62
     7
100
AcDbCircle
 10
93.60000000000007
 20
185.6388875648448
 30
0.0
 40
0.4999999999999449
100
AcDbArc
 50
180.0
 51
270.0
  0
LINE
  5
160
330
1F
100
AcDbEntity
  8
0
  6
CONTINUOUS
 62
     7
100
AcDbLine
 10
114.0
 20
184.6388875648448
 30
0.0
 11
114.0
 21
185.1388875648448
 31
0.0
  0
LINE
  5
161
330
1F
100
AcDbEntity
  8
0
  6
CONTINUOUS
 62
     7
100
AcDbLine
 10
96.00000000000003
 20
185.1388875648447
 30
0.0
 11
96.00000000000003
 21
184.6388875648447
 31
0.0
  0
LINE
  5
162
330
1F
100
AcDbEntity
  8
0
  6
CONTINUOUS
 62
     7
100
AcDbLine
 10
345.0092536691066
 20
233.6388875648448
 30
0.0
 11
347.4101412567305
 21
244.7494460034638
 31
0.0
  0
LINE
  5
163
330
1F
100
AcDbEntity
  8
0
  6
CONTINUOUS
 62
     7
100
AcDbLine
 10
303.4214854200416
 20
240.9009372940102
 30
0.0
 11
304.9907463308936
 21
233.6388875648447
 31
0.0
  0
LINE
  5
164
330
1F
100
AcDbEntity
  8
0
  6
CONTINUOUS
 62
     7
100
AcDbLine
 10
292.0
 20
278.6388875648447
 30
0.0
 11
292.008726867791
 21
277.6388875648448
 31
0.0
  0
LINE
  5
165
330
1F
100
AcDbEntity
  8
0
  6
CONTINUOUS
 62
     7
100
AcDbLine
 10
357.9912731322094
 20
277.6388875648447
 30
0.0
 11
357.9999999999999
 21
278.6388875648447
 31
0.0
  0
LINE
  5
166
330
1F
100
AcDbEntity
  8
0
  6
CONTINUOUS
 62
     7
100
AcDbLine
 10
-137.4101412567304
 20
244.7494460034638
 30
0.0
 11
-135.0092536691066
 21
233.6388875648447
 31
0.0
  0
LINE
  5
167
330
1F
100
AcDbEntity
  8
0
  6
CONTINUOUS
 62
     7
100
AcDbLine
 10
-94.99074633089327
 20
233.6388875648448
 30
0.0
 11
-93.42148542004145
 21
240.9009372940099
 31
0.0
  0
LINE
  5
168
330
1F
100
AcDbEntity
  8
0
  6
CONTINUOUS
 62
     7
100
AcDbLine
 10
-147.9999999999999
 20
278.6388875648447
 30
0.0
 11
-147.9912731322092
 21
277.6388875648448
 31
0.0
  0
LINE
  5
169
330
1F
100
AcDbEntity
  8
0
  6
CONTINUOUS
 62
     7
100
AcDbLine
 10
-82.0087268677907
 20
277.6388875648447
 30
0.0
 11
-81.99999999999993
 21
278.6388875648447
 31
0.0
  0
LINE
  5
16A
330
1F
100
AcDbEntity
  8
0
  6
CONTINUOUS
 62
     7
100
AcDbLine
 10
374.2022048476061
 20
250.4140985023232
 30
0.0
 11
374.852357149077
 21
257.9024520509093
 31
0.0
  0
LINE
  5
16B
330
1F
100
AcDbEntity
  8
0
  6
CONTINUOUS
 62
     7
100
AcDbLine
 10
-164.852357149077
 20
257.9024520509093
 30
0.0
 11
-164.2022048476057
 21
250.4140985023232
 31
0.0
  0
ARC
  5
16C
330
1F
100
AcDbEntity
  8
0
  6
CONTINUOUS
 62
     7
100
AcDbCircle
 10
370.217196195186
 20
250.7600841091652
 30
0.0
 40
4.000000000000115
100
AcDbArc
 50
275.0000000000041
 51
355.0379206673443
  0
ARC
  5
16D
330
1F
100
AcDbEntity
  8
0
  6
CONTINUOUS
 62
     7
100
AcDbCircle
 10
-160.217196195186
 20
250.7600841091652
 30
0.0
 40
4.000000000000004
100
AcDbArc
 50
184.9620793326555
 51
265.0000000000031
  0
LINE
  5
16E
330
1F
100
AcDbEntity
  8
0
  6
CONTINUOUS
 62
     7
100
AcDbLine
 10
83.50000000000007
 20
225.4223129855893
 30
0.0
 11
83.50000000000007
 21
218.1388875648448
 31
0.0
  0
LINE
  5
16F
330
1F
100
AcDbEntity
  8
0
  6
CONTINUOUS
 62
     7
100
AcDbLine
 10
126.5
 20
218.1388875648447
 30
0.0
 11
126.5
 21
225.4223129855893
 31
0.0
  0
CIRCLE
  5
170
330
1F
100
AcDbEntity
  8
0
  6
CONTINUOUS
 62
     7
100
AcDbCircle
 10
105.0
 20
698.0513621186559
 30
0.0
 40
6.499833448093351
  0
CIRCLE
  5
171
330
1F
100
AcDbEntity
  8
0
  6
CONTINUOUS
 62
     7
100
AcDbCircle
 10
325.0000000000006
 20
698.0513621186564
 30
0.0
 40
44.99999999999993
  0
CIRCLE
  5
172
330
1F
100
AcDbEntity
  8
0
  6
CONTINUOUS
 62
     7
100
AcDbCircle
 10
-115.0000000000001
 20
698.0513621186564
 30
0.0
 40
44.99999999999987
  0
CIRCLE
  5
173
330
1F
100
AcDbEntity
  8
0
  6
CONTINUOUS
 62
     7
100
AcDbCircle
 10
105.0
 20
698.0513621186559
 30
0.0
 40
6.49999999999995
  0
LWPOLYLINE
  5
174
330
1F
100
AcDbEntity
  8
0
  6
CONTINUOUS
 62
     7
100
AcDbPolyline
 90
        5
 70
     0
 43
0.0
 10
346.4032672361294
 20
423.9285775577526
 10
346.9843858938791
 20
423.9857484293478
 10
347.542817512522
 20
424.1550982804047
 10
348.0574367249684
 20
424.4302206367007
 10
348.5087755795286
 20
424.8007076692782
  0
LWPOLYLINE
  5
175
330
1F
100
AcDbEntity
  8
0
  6
CONTINUOUS
 62
     7
100
AcDbPolyline
 90
        5
 70
     0
 43
0.0
 10
379.122784560903
 20
939.4546293547859
 10
379.0656136893081
 20
940.0357480125351
 10
378.8962638382511
 20
940.5941796311777
 10
378.6211414819551
 20
941.1087988436251
 10
378.2506544493775
 20
941.5601376981843
  0
LINE
  5
176
330
1F
100
AcDbEntity
  8
0
  6
CONTINUOUS
 62
     7
100
AcDbLine
 10
348.5087755795286
 20
971.3020165680334
 30
0.0
 11
378.2506544493775
 21
941.5601376981843
 31
0.0
  0
LWPOLYLINE
  5
177
330
1F
100
AcDbEntity
  8
0
  6
CONTINUOUS
 62
     7
100
AcDbPolyline
 90
        5
 70
     0
 43
0.0
 10
348.5087755795286
 20
971.3020165680337
 10
348.0574367249684
 20
971.6725036006109
 10
347.542817512522
 20
971.9476259569067
 10
346.9843858938795
 20
972.1169758079637
 10
346.40326723613
 20
972.1741466795586
  0
LINE
  5
178
330
1F
100
AcDbEntity
  8
0
  6
CONTINUOUS
 62
     7
100
AcDbLine
 10
346.40326723613
 20
972.1741466795588
 30
0.0
 11
-136.4032672361299
 21
972.1741466795588
 31
0.0
  0
LWPOLYLINE
  5
179
330
1F
100
AcDbEntity
  8
0
  6
CONTINUOUS
 62
     7
100
AcDbPolyline
 90
        5
 70
     0
 43
0.0
 10
-136.4032672361299
 20
972.1741466795588
 10
-136.9843858938792
 20
972.1169758079637
 10
-137.5428175125221
 20
971.9476259569067
 10
-138.0574367249687
 20
971.6725036006109
 10
-138.5087755795285
 20
971.3020165680334
  0
LINE
  5
17A
330
1F
100
AcDbEntity
  8
0
  6
CONTINUOUS
 62
     7
100
AcDbLine
 10
-138.5087755795284
 20
971.3020165680334
 30
0.0
 11
-168.2506544493774
 21
941.5601376981842
 31
0.0
  0
LWPOLYLINE
  5
17B
330
1F
100
AcDbEntity
  8
0
  6
CONTINUOUS
 62
     7
100
AcDbPolyline
 90
        5
 70
     0
 43
0.0
 10
-168.2506544493774
 20
941.5601376981848
 10
-168.6211414819549
 20
941.1087988436251
 10
-168.8962638382508
 20
940.5941796311782
 10
-169.0656136893079
 20
940.0357480125351
 10
-169.1227845609029
 20
939.4546293547857
  0
LINE
  5
17C
330
1F
100
AcDbEntity
  8
0
  6
CONTINUOUS
 62
     7
100
AcDbLine
 10
-169.1227845609029
 20
939.4546293547862
 30
0.0
 11
-169.1227845609029
 21
456.6480948825258
 31
0.0
  0
LWPOLYLINE
  5
17D
330
1F
100
AcDbEntity
  8
0
  6
CONTINUOUS
 62
     7
100
AcDbPolyline
 90
        5
 70
     0
 43
0.0
 10
-169.1227845609029
 20
456.6480948825257
 10
-169.0656136893079
 20
456.0669762247766
 10
-168.8962638382508
 20
455.5085446061338
 10
-168.6211414819549
 20
454.9939253936873
 10
-168.2506544493775
 20
454.5425865391273
  0
LINE
  5
17E
330
1F
100
AcDbEntity
  8
0
  6
CONTINUOUS
 62
     7
100
AcDbLine
 10
-138.5087755795286
 20
424.8007076692783
 30
0.0
 11
-168.2506544493774
 21
454.5425865391272
 31
0.0
  0
LWPOLYLINE
  5
17F
330
1F
100
AcDbEntity
  8
0
  6
CONTINUOUS
 62
     7
100
AcDbPolyline
 90
        5
 70
     0
 43
0.0
 10
-138.5087755795284
 20
424.8007076692787
 10
-138.0574367249688
 20
424.4302206367007
 10
-137.5428175125221
 20
424.1550982804052
 10
-136.9843858938793
 20
423.9857484293478
 10
-136.40326723613
 20
423.9285775577526
  0
LINE
  5
180
330
1F
100
AcDbEntity
  8
0
  6
CONTINUOUS
 62
     7
100
AcDbLine
 10
-136.4032672361299
 20
423.9285775577526
 30
0.0
 11
346.40326723613
 21
423.9285775577526
 31
0.0
  0
LINE
  5
181
330
1F
100
AcDbEntity
  8
0
  6
CONTINUOUS
 62
     7
100
AcDbLine
 10
348.5087755795286
 20
424.8007076692783
 30
0.0
 11
378.2506544493775
 21
454.5425865391272
 31
0.0
  0
LWPOLYLINE
  5
182
330
1F
100
AcDbEntity
  8
0
  6
CONTINUOUS
 62
     7
100
AcDbPolyline
 90
        5
 70
     0
 43
0.0
 10
378.2506544493775
 20
454.5425865391272
 10
378.6211414819551
 20
454.9939253936873
 10
378.8962638382511
 20
455.5085446061338
 10
379.0656136893081
 20
456.0669762247766
 10
379.1227845609031
 20
456.6480948825256
  0
LINE
  5
183
330
1F
100
AcDbEntity
  8
0
  6
CONTINUOUS
 62
     7
100
AcDbLine
 10
379.122784560903
 20
456.6480948825257
 30
0.0
 11
379.122784560903
 21
939.4546293547862
 31
0.0
  0
ARC
  5
184
330
1F
100
AcDbEntity
  8
0
  6
CONTINUOUS
 62
     7
100
AcDbCircle
 10
-173.0
 20
453.8087214315366
 30
0.0
 40
10.00000000000001
100
AcDbArc
 50
180.0
 51
225.0
  0
LINE
  5
185
330
1F
100
AcDbEntity
  8
0
  6
CONTINUOUS
 62
     7
100
AcDbLine
 10
-183.0
 20
453.8087214315366
 30
0.0
 11
-183.0
 21
942.2940028057753
 31
0.0
  0
ARC
  5
186
330
1F
100
AcDbEntity
  8
0
  6
CONTINUOUS
 62
     7
100
AcDbCircle
 10
-173.0
 20
942.2940028057753
 30
0.0
 40
9.999999999999954
100
AcDbArc
 50
135.0
 51
180.0
  0
LINE
  5
187
330
1F
100
AcDbEntity
  8
0
  6
CONTINUOUS
 62
     7
100
AcDbLine
 10
-180.0710678118654
 20
949.3650706176409
 30
0.0
 11
-146.3137084989847
 21
983.1224299305212
 31
0.0
  0
ARC
  5
188
330
1F
100
AcDbEntity
  8
0
  6
CONTINUOUS
 62
     7
100
AcDbCircle
 10
-139.2426406871193
 20
976.0513621186561
 30
0.0
 40
10.00000000000001
100
AcDbArc
 50
90.0
 51
135.0
  0
LINE
  5
189
330
1F
100
AcDbEntity
  8
0
  6
CONTINUOUS
 62
     7
100
AcDbLine
 10
-139.2426406871192
 20
986.0513621186559
 30
0.0
 11
349.2426406871194
 21
986.0513621186559
 31
0.0
  0
ARC
  5
18A
330
1F
100
AcDbEntity
  8
0
  6
CONTINUOUS
 62
     7
100
AcDbCircle
 10
349.2426406871194
 20
976.0513621186561
 30
0.0
 40
10.00000000000001
100
AcDbArc
 50
45.00000000000011
 51
90.00000000000016
  0
LINE
  5
18B
330
1F
100
AcDbEntity
  8
0
  6
CONTINUOUS
 62
     7
100
AcDbLine
 10
390.0710678118655
 20
949.3650706176409
 30
0.0
 11
356.313708498985
 21
983.1224299305212
 31
0.0
  0
ARC
  5
18C
330
1F
100
AcDbEntity
  8
0
  6
CONTINUOUS
 62
     7
100
AcDbCircle
 10
382.9999999999999
 20
942.2940028057753
 30
0.0
 40
10.00000000000001
100
AcDbArc
 50
0.0
 51
45.0
  0
LINE
  5
18D
330
1F
100
AcDbEntity
  8
0
  6
CONTINUOUS
 62
     7
100
AcDbLine
 10
392.9999999999999
 20
942.2940028057753
 30
0.0
 11
392.9999999999999
 21
453.8087214315367
 31
0.0
  0
ARC
  5
18E
330
1F
100
AcDbEntity
  8
0
  6
CONTINUOUS
 62
     7
100
AcDbCircle
 10
382.9999999999999
 20
453.8087214315366
 30
0.0
 40
10.00000000000001
100
AcDbArc
 50
315.0
 51
0.0
  0
LINE
  5
18F
330
1F
100
AcDbEntity
  8
0
  6
CONTINUOUS
 62
     7
100
AcDbLine
 10
390.0710678118655
 20
446.7376536196713
 30
0.0
 11
356.313708498985
 21
412.9802943067909
 31
0.0
  0
ARC
  5
190
330
1F
100
AcDbEntity
  8
0
  6
CONTINUOUS
 62
     7
100
AcDbCircle
 10
349.2426406871194
 20
420.0513621186562
 30
0.0
 40
10.00000000000001
100
AcDbArc
 50
270.0
 51
315.0
  0
LINE
  5
191
330
1F
100
AcDbEntity
  8
0
  6
CONTINUOUS
 62
     7
100
AcDbLine
 10
349.2426406871194
 20
410.0513621186562
 30
0.0
 11
-139.2426406871195
 21
410.0513621186562
 31
0.0
  0
ARC
  5
192
330
1F
100
AcDbEntity
  8
0
  6
CONTINUOUS
 62
     7
100
AcDbCircle
 10
-139.2426406871195
 20
420.0513621186562
 30
0.0
 40
10.00000000000001
100
AcDbArc
 50
224.9999999999999
 51
269.9999999999998
  0
LINE
  5
193
330
1F
100
AcDbEntity
  8
0
  6
CONTINUOUS
 62
     7
100
AcDbLine
 10
-180.0710678118654
 20
446.7376536196713
 30
0.0
 11
-146.3137084989849
 21
412.9802943067909
 31
0.0
  0
LINE
  5
194
330
1F
100
AcDbEntity
  8
0
  6
CONTINUOUS
 62
     7
100
AcDbLine
 10
86.06555719779857
 20
428.7159762012752
 30
0.0
 11
86.00000000000004
 21
429.3512193606158
 31
0.0
  0
LWPOLYLINE
  5
195
330
1F
100
AcDbEntity
  8
0
  6
CONTINUOUS
 62
     7
100
AcDbPolyline
 90
       29
 70
     0
 43
0.0
 10
-89.00000000000003
 20
425.9998049745943
 10
-88.85419780040455
 20
426.0210925095507
 10
-88.70874019376801
 20
426.0493671662073
 10
-88.56397095863049
 20
426.0845621194563
 10
-88.4202322466135
 20
426.1265941885699
 10
-88.27786377377305
 20
426.1753640337911
 10
-88.13720201770408
 20
426.2307563911162
 10
-87.99857942229855
 20
426.2926403447123
 10
-87.86232361204155
 20
426.3608696363283
 10
-87.72875661769002
 20
426.4352830109656
 10
-87.59819411518104
 20
426.5157045979932
 10
-87.47094467955102
 20
426.6019443268018
 10
-87.34730905564398
 20
426.6937983760272
 10
-87.22757944731858
 20
426.7910496552632
 10
-87.11203882685042
 20
426.8934683181412
 10
-87.00096026614406
 20
427.0008123055553
 10
-86.89460629134798
 20
427.1128279177498
 10
-86.79322826239449
 20
427.2292504139233
 10
-86.69706577892595
 20
427.3498046379208
 10
-86.60634611402202
 20
427.4742056685487
 10
-86.52128367705208
 20
427.6021594929633
 10
-86.442079506938
 20
427.7333637015493
 10
-86.36892079701003
 20
427.8675082026443
 10
-86.30198045259047
 20
428.0042759554169
 10
-86.24141668234547
 20
428.1433437191683
 10
-86.1873726243681
 20
428.2843828172932
 10
-86.13997600788208
 20
428.4270599140767
 10
-86.09933885136506
 20
428.5710378025148
 10
-86.06555719779855
 20
428.7159762012751
210
0.0
220
0.0
230
-1.0
  0
LWPOLYLINE
  5
196
330
1F
100
AcDbEntity
  8
0
  6
CONTINUOUS
 62
     7
100
AcDbPolyline
 90
       29
 70
     0
 43
0.0
 10
121.0
 20
425.9998049745943
 10
121.1458021995955
 20
426.0210925095507
 10
121.2912598062321
 20
426.0493671662073
 10
121.4360290413696
 20
426.0845621194563
 10
121.5797677533866
 20
426.1265941885699
 10
121.722136226227
 20
426.1753640337911
 10
121.862797982296
 20
426.2307563911162
 10
122.0014205777015
 20
426.2926403447123
 10
122.1376763879591
 20
426.3608696363283
 10
122.27124338231
 20
426.4352830109656
 10
122.401805884819
 20
426.5157045979932
 10
122.5290553204489
 20
426.6019443268018
 10
122.6526909443566
 20
426.6937983760272
 10
122.7724205526815
 20
426.7910496552632
 10
122.8879611731495
 20
426.8934683181412
 10
122.999039733856
 20
427.0008123055553
 10
123.1053937086521
 20
427.1128279177498
 10
123.2067717376056
 20
427.2292504139233
 10
123.302934221074
 20
427.3498046379208
 10
123.3936538859781
 20
427.4742056685487
 10
123.478716322948
 20
427.6021594929633
 10
123.5579204930621
 20
427.7333637015493
 10
123.63107920299
 20
427.8675082026443
 10
123.6980195474095
 20
428.0042759554169
 10
123.7585833176545
 20
428.1433437191683
 10
123.812627375632
 20
428.2843828172932
 10
123.860023992118
 20
428.4270599140767
 10
123.900661148635
 20
428.5710378025148
 10
123.9344428022015
 20
428.7159762012751
  0
LINE
  5
197
330
1F
100
AcDbEntity
  8
0
  6
CONTINUOUS
 62
     7
100
AcDbLine
 10
123.9999999999999
 20
429.3512193606157
 30
0.0
 11
123.9344428022015
 21
428.7159762012751
 31
0.0
  0
LWPOLYLINE
  5
198
330
1F
100
AcDbEntity
  8
0
  6
CONTINUOUS
 62
     7
100
AcDbPolyline
 90
       29
 70
     0
 43
0.0
 10
346.5333668781635
 20
429.7192478786726
 10
346.6596394421434
 20
429.6364533675662
 10
346.790362750176
 20
429.5593377128429
 10
346.9252160119865
 20
429.4880901535328
 10
347.0638683025423
 20
429.4228855285728
 10
347.2059793741325
 20
429.3638838477563
 10
347.3512004913206
 20
429.3112298990762
 10
347.4991752867319
 20
429.2650528934211
 10
347.6495406355655
 20
429.2254661474938
 10
347.8019275466874
 20
429.1925668057387
 10
347.9559620681235
 20
429.1664356019526
 10
348.1112662047235
 20
429.1471366611643
 10
348.2674588457461
 20
429.1347173422777
 10
348.4241567000944
 20
429.1292081218528
 10
348.580975236895
 20
429.1306225193178
 10
348.7375296291241
 20
429.1389570637918
 10
348.8934356979595
 20
429.1541913026037
 10
349.048310855541
 20
429.1762878514821
 10
349.2017750438271
 20
429.2051924862948
 10
349.3534516672444
 20
429.2408342761117
 10
349.5029685168391
 20
429.2831257572687
 10
349.6499586836645
 20
429.3319631479987
 10
349.794061459161
 20
429.3872266031098
 10
349.9349232203245
 20
429.4487805080787
 10
350.0721982974821
 20
429.5164738118477
 10
350.2055498225545
 20
429.5901403974943
 10
350.3346505557165
 20
429.6695994898789
 10
350.4591836884331
 20
429.7546560992597
 10
350.5788436208961
 20
429.8451014997901
  0
LWPOLYLINE
  5
199
330
1F
100
AcDbEntity
  8
0
  6
CONTINUOUS
 62
     7
100
AcDbPolyline
 90
       29
 70
     0
 43
0.0
 10
-86.06555719779857
 20
967.3867480360369
 10
-86.09933885136506
 20
967.5316864347969
 10
-86.13997600788208
 20
967.6756643232347
 10
-86.1873726243681
 20
967.8183414200188
 10
-86.24141668234547
 20
967.9593805181432
 10
-86.30198045259047
 20
968.098448281895
 10
-86.36892079700947
 20
968.2352160346672
 10
-86.44207950693755
 20
968.3693605357623
 10
-86.52128367705208
 20
968.5005647443485
 10
-86.60634611402156
 20
968.6285185687628
 10
-86.69706577892595
 20
968.7529195993907
 10
-86.79322826239405
 20
968.8734738233882
 10
-86.89460629134798
 20
968.989896319562
 10
-87.00096026614406
 20
969.101911931757
 10
-87.11203882685042
 20
969.2092559191707
 10
-87.22757944731858
 20
969.3116745820487
 10
-87.34730905564352
 20
969.408925861285
 10
-87.47094467955102
 20
969.5007799105102
 10
-87.59819411518104
 20
969.5870196393188
 10
-87.72875661769002
 20
969.6674412263458
 10
-87.862323612041
 20
969.7418546009833
 10
-87.99857942229855
 20
969.8100838925998
 10
-88.13720201770408
 20
969.871967846196
 10
-88.27786377377305
 20
969.927360203521
 10
-88.4202322466135
 20
969.9761300487417
 10
-88.56397095863005
 20
970.0181621178558
 10
-88.70874019376801
 20
970.0533570711045
 10
-88.85419780040455
 20
970.081631727761
 10
-89.00000000000004
 20
970.1029192627174
210
0.0
220
0.0
230
-1.0
  0
LINE
  5
19A
330
1F
100
AcDbEntity
  8
0
  6
CONTINUOUS
 62
     7
100
AcDbLine
 10
123.9344428022015
 20
967.3867480360369
 30
0.0
 11
124.0
 21
966.751504876696
 31
0.0
  0
LWPOLYLINE
  5
19B
330
1F
100
AcDbEntity
  8
0
  6
CONTINUOUS
 62
     7
100
AcDbPolyline
 90
       29
 70
     0
 43
0.0
 10
123.9344428022015
 20
967.3867480360369
 10
123.900661148635
 20
967.5316864347969
 10
123.860023992118
 20
967.6756643232347
 10
123.812627375632
 20
967.8183414200188
 10
123.7585833176545
 20
967.9593805181432
 10
123.6980195474095
 20
968.098448281895
 10
123.6310792029906
 20
968.2352160346672
 10
123.5579204930625
 20
968.3693605357623
 10
123.478716322948
 20
968.5005647443485
 10
123.3936538859785
 20
968.6285185687628
 10
123.302934221074
 20
968.7529195993907
 10
123.206771737606
 20
968.8734738233882
 10
123.1053937086521
 20
968.989896319562
 10
122.999039733856
 20
969.101911931757
 10
122.8879611731495
 20
969.2092559191707
 10
122.7724205526815
 20
969.3116745820487
 10
122.6526909443566
 20
969.408925861285
 10
122.5290553204489
 20
969.5007799105098
 10
122.4018058848195
 20
969.5870196393188
 10
122.27124338231
 20
969.6674412263458
 10
122.1376763879591
 20
969.7418546009833
 10
122.0014205777015
 20
969.8100838925998
 10
121.862797982296
 20
969.871967846196
 10
121.722136226227
 20
969.927360203521
 10
121.5797677533866
 20
969.9761300487417
 10
121.43602904137
 20
970.0181621178554
 10
121.2912598062321
 20
970.0533570711045
 10
121.1458021995955
 20
970.081631727761
 10
121.0
 20
970.1029192627174
  0
LINE
  5
19C
330
1F
100
AcDbEntity
  8
0
  6
CONTINUOUS
 62
     7
100
AcDbLine
 10
86.00000000000001
 20
966.7515048766961
 30
0.0
 11
86.06555719779854
 21
967.386748036037
 31
0.0
  0
LWPOLYLINE
  5
19D
330
1F
100
AcDbEntity
  8
0
  6
CONTINUOUS
 62
     7
100
AcDbPolyline
 90
       29
 70
     0
 43
0.0
 10
-136.5333668781636
 20
966.3834763586394
 10
-136.6596394421435
 20
966.4662708697454
 10
-136.7903627501763
 20
966.543386524469
 10
-136.9252160119866
 20
966.6146340837789
 10
-137.0638683025426
 20
966.679838708739
 10
-137.2059793741323
 20
966.7388403895558
 10
-137.3512004913205
 20
966.7914943382352
 10
-137.4991752867322
 20
966.8376713438904
 10
-137.6495406355658
 20
966.8772580898179
 10
-137.8019275466878
 20
966.9101574315725
 10
-137.9559620681238
 20
966.9362886353593
 10
-138.1112662047234
 20
966.9555875761473
 10
-138.2674588457463
 20
966.9680068950337
 10
-138.4241567000946
 20
966.9735161154589
 10
-138.5809752368951
 20
966.972101717994
 10
-138.7375296291243
 20
966.9637671735203
 10
-138.8934356979595
 20
966.9485329347085
 10
-139.0483108555408
 20
966.9264363858299
 10
-139.2017750438269
 20
966.8975317510169
 10
-139.3534516672443
 20
966.8618899611998
 10
-139.5029685168391
 20
966.8195984800432
 10
-139.6499586836644
 20
966.7707610893126
 10
-139.794061459161
 20
966.7154976342023
 10
-139.9349232203246
 20
966.6539437292328
 10
-140.0721982974822
 20
966.5862504254643
 10
-140.2055498225543
 20
966.5125838398176
 10
-140.3346505557162
 20
966.4331247474329
 10
-140.4591836884329
 20
966.3480681380523
 10
-140.5788436208961
 20
966.2576227375213
  0
LWPOLYLINE
  5
19E
330
1F
100
AcDbEntity
  8
0
  6
CONTINUOUS
 62
     7
100
AcDbPolyline
 90
       29
 70
     0
 43
0.0
 10
-346.5333668781635
 20
966.3834763586394
 10
-346.6596394421434
 20
966.4662708697454
 10
-346.790362750176
 20
966.543386524469
 10
-346.9252160119865
 20
966.6146340837789
 10
-347.0638683025423
 20
966.6798387087392
 10
-347.2059793741325
 20
966.7388403895558
 10
-347.3512004913206
 20
966.7914943382352
 10
-347.4991752867319
 20
966.8376713438911
 10
-347.6495406355655
 20
966.8772580898179
 10
-347.8019275466874
 20
966.9101574315725
 10
-347.9559620681235
 20
966.9362886353593
 10
-348.1112662047229
 20
966.9555875761473
 10
-348.2674588457461
 20
966.9680068950341
 10
-348.4241567000944
 20
966.9735161154589
 10
-348.580975236895
 20
966.9721017179944
 10
-348.7375296291241
 20
966.9637671735203
 10
-348.8934356979595
 20
966.9485329347085
 10
-349.0483108555406
 20
966.9264363858299
 10
-349.2017750438271
 20
966.8975317510169
 10
-349.3534516672444
 20
966.8618899611998
 10
-349.5029685168391
 20
966.8195984800432
 10
-349.6499586836645
 20
966.7707610893126
 10
-349.794061459161
 20
966.7154976342023
 10
-349.9349232203245
 20
966.6539437292328
 10
-350.0721982974821
 20
966.5862504254643
 10
-350.2055498225545
 20
966.5125838398176
 10
-350.3346505557161
 20
966.4331247474329
 10
-350.4591836884325
 20
966.3480681380523
 10
-350.578843620896
 20
966.2576227375213
210
0.0
220
0.0
230
-1.0
  0
LWPOLYLINE
  5
19F
330
1F
100
AcDbEntity
  8
0
  6
CONTINUOUS
 62
     7
100
AcDbPolyline
 90
       29
 70
     0
 43
0.0
 10
373.2062606188656
 20
452.4725184977599
 10
373.2967060193965
 20
452.5921784302233
 10
373.381762628777
 20
452.7167115629397
 10
373.4612217211621
 20
452.8458122961016
 10
373.5348883068084
 20
452.9791638211738
 10
373.6025816105774
 20
453.1164388983317
 10
373.6641355155465
 20
453.2573006594952
 10
373.7193989706575
 20
453.4014034349917
 10
373.7682363613875
 20
453.5483936018167
 10
373.8105278425445
 20
453.6979104514118
 10
373.8461696323609
 20
453.8495870748292
 10
373.8750742671741
 20
454.0030512631153
 10
373.8971708160526
 20
454.1579264206962
 10
373.9124050548645
 20
454.3138324895316
 10
373.9207395993385
 20
454.4703868817607
 10
373.9221539968029
 20
454.6272054185612
 10
373.9166447763785
 20
454.7839032729097
 10
373.904225457492
 20
454.9400959139329
 10
373.8849265167035
 20
455.0954000505323
 10
373.8587953129172
 20
455.2494345719684
 10
373.8258959711619
 20
455.4018214830903
 10
373.786309225235
 20
455.5521868319238
 10
373.7401322195796
 20
455.7001616273358
 10
373.6874782709002
 20
455.8453827445236
 10
373.6284765900835
 20
455.9874938161133
 10
373.5632719651235
 20
456.1261461066693
 10
373.492024405813
 20
456.2609993684798
 10
373.41490875109
 20
456.3917226765122
 10
373.3321142399835
 20
456.5179952404927
  0
LWPOLYLINE
  5
1A0
330
1F
100
AcDbEntity
  8
0
  6
CONTINUOUS
 62
     7
100
AcDbPolyline
 90
       29
 70
     0
 43
0.0
 10
-163.3321142399835
 20
456.5179952404922
 10
-163.4149087510898
 20
456.3917226765122
 10
-163.4920244058132
 20
456.2609993684798
 10
-163.5632719651233
 20
456.1261461066693
 10
-163.6284765900834
 20
455.9874938161133
 10
-163.6874782708999
 20
455.8453827445236
 10
-163.7401322195797
 20
455.7001616273358
 10
-163.7863092252348
 20
455.5521868319238
 10
-163.825895971162
 20
455.4018214830903
 10
-163.858795312917
 20
455.2494345719684
 10
-163.8849265167036
 20
455.0954000505323
 10
-163.9042254574918
 20
454.9400959139329
 10
-163.9166447763782
 20
454.7839032729097
 10
-163.922153996803
 20
454.6272054185612
 10
-163.9207395993383
 20
454.4703868817607
 10
-163.9124050548645
 20
454.3138324895316
 10
-163.8971708160524
 20
454.1579264206962
 10
-163.8750742671737
 20
454.0030512631153
 10
-163.8461696323612
 20
453.8495870748292
 10
-163.8105278425441
 20
453.6979104514118
 10
-163.7682363613872
 20
453.5483936018167
 10
-163.7193989706572
 20
453.4014034349917
 10
-163.6641355155465
 20
453.2573006594952
 10
-163.6025816105773
 20
453.1164388983317
 10
-163.5348883068085
 20
452.9791638211738
 10
-163.461221721162
 20
452.8458122961016
 10
-163.3817626287772
 20
452.7167115629397
 10
-163.2967060193963
 20
452.5921784302233
 10
-163.2062606188656
 20
452.4725184977598
  0
LWPOLYLINE
  5
1A1
330
1F
100
AcDbEntity
  8
0
  6
CONTINUOUS
 62
     7
100
AcDbPolyline
 90
       29
 70
     0
 43
0.0
 10
-140.5788436208958
 20
429.8451014997908
 10
-140.4591836884327
 20
429.7546560992597
 10
-140.334650555716
 20
429.6695994898789
 10
-140.2055498225541
 20
429.5901403974943
 10
-140.072198297482
 20
429.5164738118477
 10
-139.9349232203243
 20
429.4487805080787
 10
-139.7940614591608
 20
429.3872266031098
 10
-139.649958683664
 20
429.3319631479992
 10
-139.5029685168389
 20
429.2831257572687
 10
-139.3534516672441
 20
429.2408342761122
 10
-139.2017750438267
 20
429.2051924862948
 10
-139.0483108555405
 20
429.1762878514821
 10
-138.8934356979593
 20
429.1541913026037
 10
-138.7375296291239
 20
429.1389570637918
 10
-138.5809752368948
 20
429.1306225193178
 10
-138.4241567000943
 20
429.1292081218533
 10
-138.2674588457459
 20
429.1347173422777
 10
-138.111266204723
 20
429.1471366611643
 10
-137.9559620681234
 20
429.1664356019526
 10
-137.8019275466875
 20
429.1925668057393
 10
-137.6495406355655
 20
429.2254661474942
 10
-137.4991752867319
 20
429.2650528934211
 10
-137.3512004913201
 20
429.3112298990768
 10
-137.2059793741319
 20
429.3638838477563
 10
-137.0638683025422
 20
429.4228855285728
 10
-136.9252160119863
 20
429.4880901535331
 10
-136.7903627501758
 20
429.5593377128429
 10
-136.6596394421431
 20
429.6364533675667
 10
-136.5333668781632
 20
429.7192478786726
  0
LWPOLYLINE
  5
1A2
330
1F
100
AcDbEntity
  8
0
  6
CONTINUOUS
 62
     7
100
AcDbPolyline
 90
       29
 70
     0
 43
0.0
 10
163.3321142399833
 20
939.5847289968195
 10
163.4149087510896
 20
939.7110015607994
 10
163.4920244058131
 20
939.8417248688318
 10
163.5632719651231
 20
939.9765781306423
 10
163.6284765900832
 20
940.1152304211984
 10
163.6874782708998
 20
940.2573414927878
 10
163.7401322195794
 20
940.4025626099764
 10
163.7863092252347
 20
940.5505374053879
 10
163.825895971162
 20
940.7009027542219
 10
163.8587953129169
 20
940.8532896653438
 10
163.8849265167035
 20
941.0073241867798
 10
163.9042254574917
 20
941.1626283233794
 10
163.9166447763782
 20
941.3188209644019
 10
163.922153996803
 20
941.4755188187502
 10
163.9207395993383
 20
941.6323373555506
 10
163.9124050548645
 20
941.7888917477796
 10
163.8971708160524
 20
941.9447978166153
 10
163.8750742671737
 20
942.0996729741966
 10
163.8461696323612
 20
942.2531371624827
 10
163.8105278425441
 20
942.4048137859003
 10
163.7682363613872
 20
942.5543306354948
 10
163.7193989706571
 20
942.7013208023204
 10
163.6641355155465
 20
942.8454235778167
 10
163.6025816105773
 20
942.9862853389801
 10
163.5348883068085
 20
943.1235604161376
 10
163.461221721162
 20
943.2569119412102
 10
163.3817626287772
 20
943.3860126743716
 10
163.2967060193963
 20
943.5105458070886
 10
163.2062606188655
 20
943.6302057395517
210
0.0
220
0.0
230
-1.0
  0
LWPOLYLINE
  5
1A3
330
1F
100
AcDbEntity
  8
0
  6
CONTINUOUS
 62
     7
100
AcDbPolyline
 90
       29
 70
     0
 43
0.0
 10
-373.2062606188656
 20
943.6302057395516
 10
-373.2967060193961
 20
943.5105458070886
 10
-373.381762628777
 20
943.3860126743716
 10
-373.4612217211616
 20
943.2569119412102
 10
-373.5348883068081
 20
943.1235604161376
 10
-373.602581610577
 20
942.9862853389801
 10
-373.664135515546
 20
942.8454235778167
 10
-373.7193989706565
 20
942.7013208023204
 10
-373.7682363613869
 20
942.5543306354948
 10
-373.8105278425435
 20
942.4048137859003
 10
-373.8461696323606
 20
942.2531371624827
 10
-373.8750742671731
 20
942.0996729741966
 10
-373.8971708160519
 20
941.9447978166153
 10
-373.9124050548639
 20
941.7888917477796
 10
-373.9207395993379
 20
941.6323373555506
 10
-373.9221539968024
 20
941.4755188187502
 10
-373.916644776378
 20
941.3188209644019
 10
-373.9042254574914
 20
941.1626283233794
 10
-373.884926516703
 20
941.0073241867793
 10
-373.8587953129166
 20
940.8532896653438
 10
-373.8258959711615
 20
940.7009027542219
 10
-373.7863092252345
 20
940.5505374053879
 10
-373.7401322195791
 20
940.4025626099764
 10
-373.687478270899
 20
940.2573414927878
 10
-373.628476590083
 20
940.1152304211984
 10
-373.5632719651226
 20
939.9765781306428
 10
-373.4920244058126
 20
939.8417248688318
 10
-373.414908751089
 20
939.7110015607994
 10
-373.3321142399831
 20
939.5847289968194
210
0.0
220
0.0
230
-1.0
  0
LINE
  5
1A4
330
1F
100
AcDbEntity
  8
0
  6
CONTINUOUS
 62
     7
100
AcDbLine
 10
346.5333668781635
 20
429.7192478786726
 30
0.0
 11
346.1047900964625
 21
430.0765143371047
 31
0.0
  0
LINE
  5
1A5
330
1F
100
AcDbEntity
  8
0
  6
CONTINUOUS
 62
     7
100
AcDbLine
 10
-136.5333668781635
 20
966.3834763586394
 30
0.0
 11
-136.1047900964624
 21
966.0262099002072
 31
0.0
  0
LINE
  5
1A6
330
1F
100
AcDbEntity
  8
0
  6
CONTINUOUS
 62
     7
100
AcDbLine
 10
372.9748477815515
 20
456.9465720221932
 30
0.0
 11
373.3321142399835
 21
456.5179952404922
 31
0.0
  0
LINE
  5
1A7
330
1F
100
AcDbEntity
  8
0
  6
CONTINUOUS
 62
     7
100
AcDbLine
 10
346.1047900964625
 20
966.026209900207
 30
0.0
 11
346.5333668781634
 21
966.3834763586397
 31
0.0
  0
LINE
  5
1A8
330
1F
100
AcDbEntity
  8
0
  6
CONTINUOUS
 62
     7
100
AcDbLine
 10
-163.3321142399834
 20
456.5179952404922
 30
0.0
 11
-162.9748477815514
 21
456.9465720221932
 31
0.0
  0
LINE
  5
1A9
330
1F
100
AcDbEntity
  8
0
  6
CONTINUOUS
 62
     7
100
AcDbLine
 10
-162.974847781551
 20
939.1561522151184
 30
0.0
 11
-163.3321142399832
 21
939.5847289968195
 31
0.0
  0
LINE
  5
1AA
330
1F
100
AcDbEntity
  8
0
  6
CONTINUOUS
 62
     7
100
AcDbLine
 10
-136.1047900964624
 20
430.0765143371048
 30
0.0
 11
-136.5333668781633
 21
429.7192478786727
 31
0.0
  0
LINE
  5
1AB
330
1F
100
AcDbEntity
  8
0
  6
CONTINUOUS
 62
     7
100
AcDbLine
 10
373.3321142399831
 20
939.5847289968195
 30
0.0
 11
372.974847781551
 21
939.1561522151184
 31
0.0
  0
LINE
  5
1AC
330
1F
100
AcDbEntity
  8
0
  6
CONTINUOUS
 62
     7
100
AcDbLine
 10
75.75735931288114
 20
641.9386637464484
 30
0.0
 11
-136.1047900964622
 21
430.0765143371049
 31
0.0
  0
ARC
  5
1AD
330
1F
100
AcDbEntity
  8
0
  6
CONTINUOUS
 62
     7
100
AcDbCircle
 10
80.00000000000001
 20
637.6960230593289
 30
0.0
 40
6.000000000000005
100
AcDbArc
 50
0.0
 51
134.9999999999972
  0
LINE
  5
1AE
330
1F
100
AcDbEntity
  8
0
  6
CONTINUOUS
 62
     7
100
AcDbLine
 10
86.00000000000001
 20
429.3512193606157
 30
0.0
 11
86.00000000000001
 21
637.6960230593287
 31
0.0
  0
LINE
  5
1AF
330
1F
100
AcDbEntity
  8
0
  6
CONTINUOUS
 62
     7
100
AcDbLine
 10
123.9999999999999
 20
637.6960230593289
 30
0.0
 11
123.9999999999999
 21
429.3512193606159
 31
0.0
  0
ARC
  5
1B0
330
1F
100
AcDbEntity
  8
0
  6
CONTINUOUS
 62
     7
100
AcDbCircle
 10
130.0000000000001
 20
637.6960230593289
 30
0.0
 40
6.000000000000005
100
AcDbArc
 50
44.99999999999953
 51
180.0
  0
LINE
  5
1B1
330
1F
100
AcDbEntity
  8
0
  6
CONTINUOUS
 62
     7
100
AcDbLine
 10
346.1047900964625
 20
430.0765143371048
 30
0.0
 11
134.242640687119
 21
641.9386637464477
 31
0.0
  0
LINE
  5
1B2
330
1F
100
AcDbEntity
  8
0
  6
CONTINUOUS
 62
     7
100
AcDbLine
 10
86.00000000000001
 20
758.4067011779833
 30
0.0
 11
86.00000000000001
 21
966.7515048766961
 31
0.0
  0
ARC
  5
1B3
330
1F
100
AcDbEntity
  8
0
  6
CONTINUOUS
 62
     7
100
AcDbCircle
 10
80.00000000000001
 20
758.4067011779833
 30
0.0
 40
6.000000000000005
100
AcDbArc
 50
225.0000000000028
 51
0.0
  0
LINE
  5
1B4
330
1F
100
AcDbEntity
  8
0
  6
CONTINUOUS
 62
     7
100
AcDbLine
 10
-136.1047900964622
 20
966.0262099002073
 30
0.0
 11
75.75735931288114
 21
754.1640604908638
 31
0.0
  0
LINE
  5
1B5
330
1F
100
AcDbEntity
  8
0
  6
CONTINUOUS
 62
     7
100
AcDbLine
 10
134.2426406871191
 20
754.1640604908641
 30
0.0
 11
346.1047900964625
 21
966.0262099002072
 31
0.0
  0
ARC
  5
1B6
330
1F
100
AcDbEntity
  8
0
  6
CONTINUOUS
 62
     7
100
AcDbCircle
 10
130.0000000000001
 20
758.4067011779833
 30
0.0
 40
6.000000000000005
100
AcDbArc
 50
180.0
 51
315.0000000000009
  0
LINE
  5
1B7
330
1F
100
AcDbEntity
  8
0
  6
CONTINUOUS
 62
     7
100
AcDbLine
 10
123.9999999999999
 20
966.7515048766961
 30
0.0
 11
123.9999999999999
 21
758.4067011779833
 31
0.0
  0
LINE
  5
1B8
330
1F
100
AcDbEntity
  8
0
  6
CONTINUOUS
 62
     7
100
AcDbLine
 10
135.5255036332481
 20
694.3959161704962
 30
0.0
 11
372.9748477815511
 21
456.9465720221932
 31
0.0
  0
LINE
  5
1B9
330
1F
100
AcDbEntity
  8
0
  6
CONTINUOUS
 62
     7
100
AcDbLine
 10
134.690484919717
 20
696.0072763396108
 30
0.0
 11
135.5255036332484
 21
694.3959161704969
 31
0.0
  0
LINE
  5
1BA
330
1F
100
AcDbEntity
  8
0
  6
CONTINUOUS
 62
     7
100
AcDbLine
 10
134.690484919717
 20
696.0072763396108
 30
0.0
 11
134.690484919717
 21
700.0954478977012
 31
0.0
  0
LINE
  5
1BB
330
1F
100
AcDbEntity
  8
0
  6
CONTINUOUS
 62
     7
100
AcDbLine
 10
135.5255036332481
 20
701.7068080668151
 30
0.0
 11
134.6904849197171
 21
700.0954478977011
 31
0.0
  0
LINE
  5
1BC
330
1F
100
AcDbEntity
  8
0
  6
CONTINUOUS
 62
     7
100
AcDbLine
 10
372.9748477815506
 20
939.1561522151188
 30
0.0
 11
135.525503633248
 21
701.7068080668157
 31
0.0
  0
LINE
  5
1BD
330
1F
100
AcDbEntity
  8
0
  6
CONTINUOUS
 62
     7
100
AcDbLine
 10
74.47449636675223
 20
701.7068080668158
 30
0.0
 11
-162.9748477815507
 21
939.1561522151188
 31
0.0
  0
LINE
  5
1BE
330
1F
100
AcDbEntity
  8
0
  6
CONTINUOUS
 62
     7
100
AcDbLine
 10
75.30951508028328
 20
700.0954478977013
 30
0.0
 11
74.47449636675192
 21
701.7068080668154
 31
0.0
  0
LINE
  5
1BF
330
1F
100
AcDbEntity
  8
0
  6
CONTINUOUS
 62
     7
100
AcDbLine
 10
75.30951508028328
 20
700.0954478977013
 30
0.0
 11
75.30951508028328
 21
696.0072763396109
 31
0.0
  0
LINE
  5
1C0
330
1F
100
AcDbEntity
  8
0
  6
CONTINUOUS
 62
     7
100
AcDbLine
 10
74.47449636675185
 20
694.3959161704969
 30
0.0
 11
75.30951508028328
 21
696.0072763396109
 31
0.0
  0
LINE
  5
1C1
330
1F
100
AcDbEntity
  8
0
  6
CONTINUOUS
 62
     7
100
AcDbLine
 10
-162.9748477815511
 20
456.9465720221932
 30
0.0
 11
74.4744963667522
 21
694.3959161704962
 31
0.0
  0
LINE
  5
1C2
330
1F
100
AcDbEntity
  8
0
  6
CONTINUOUS
 62
     7
100
AcDbLine
 10
-150.9277511007717
 20
953.9791132193614
 30
0.0
 11
-148.9519757282365
 21
952.0033378468264
 31
0.0
  0
LINE
  5
1C3
330
1F
100
AcDbEntity
  8
0
  6
CONTINUOUS
 62
     7
100
AcDbLine
 10
360.927751100724
 20
953.9791132194091
 30
0.0
 11
358.951975728189
 21
952.0033378468744
 31
0.0
  0
LINE
  5
1C4
330
1F
100
AcDbEntity
  8
0
  6
CONTINUOUS
 62
     7
100
AcDbLine
 10
358.951975728194
 20
444.0993863904427
 30
0.0
 11
360.927751100729
 21
442.1236110179078
 31
0.0
  0
LINE
  5
1C5
330
1F
100
AcDbEntity
  8
0
  6
CONTINUOUS
 62
     7
100
AcDbLine
 10
-148.9519757282019
 20
444.0993863904507
 30
0.0
 11
-150.9277511007369
 21
442.1236110179157
 31
0.0
  0
ARC
  5
1C6
330
1F
100
AcDbEntity
  8
0
  6
CONTINUOUS
 62
     7
100
AcDbCircle
 10
105.0
 20
698.0513621186559
 30
0.0
 40
20.49999999999996
100
AcDbArc
 50
225.0000000000025
 51
314.9999999999976
  0
ARC
  5
1C7
330
1F
100
AcDbEntity
  8
0
  6
CONTINUOUS
 62
     7
100
AcDbCircle
 10
105.0
 20
698.0513621186559
 30
0.0
 40
20.49999999999996
100
AcDbArc
 50
45.00000000000246
 51
134.9999999999976
  0
ARC
  5
1C8
330
1F
100
AcDbEntity
  8
0
  6
CONTINUOUS
 62
     7
100
AcDbCircle
 10
105.0
 20
698.0513621186559
 30
0.0
 40
20.49999999999996
100
AcDbArc
 50
314.9999999999975
 51
45.00000000000244
  0
ARC
  5
1C9
330
1F
100
AcDbEntity
  8
0
  6
CONTINUOUS
 62
     7
100
AcDbCircle
 10
105.0
 20
698.0513621186559
 30
0.0
 40
20.49999999999996
100
AcDbArc
 50
134.9999999999975
 51
225.0000000000025
  0
LINE
  5
1CA
330
1F
100
AcDbEntity
  8
0
  6
CENTER
 62
     1
100
AcDbLine
 10
-211.5428360614698
 20
698.0513621186559
 30
0.0
 11
413.249319839673
 21
698.0513621186559
 31
0.0
  0
LINE
  5
1CC
330
1F
100
AcDbEntity
  8
0
  6
CONTINUOUS
 62
     7
100
AcDbLine
 10
331.8924680000001
 20
222.6388875648448
 30
0.0
 11
331.8924680000001
 21
233.6388875648447
 31
0.0
  0
LINE
  5
1CD
330
1F
100
AcDbEntity
  8
0
  6
CENTER
 62
     1
100
AcDbLine
 10
105.0
 20
291.7371594703362
 30
0.0
 11
105.0
 21
81.73715947033605
 31
0.0
  0
LINE
  5
1CE
330
1F
100
AcDbEntity
  8
0
  6
CONTINUOUS
 62
     7
100
AcDbLine
 10
318.1075319999999
 20
233.6388875648448
 30
0.0
 11
318.1075319999999
 21
222.6388875648449
 31
0.0
  0
LINE
  5
1CF
330
1F
100
AcDbEntity
  8
0
  6
CENTER
 62
     1
100
AcDbLine
 10
105.0
 20
383.0513621186558
 30
0.0
 11
105.0
 21
998.0513621186557
 31
0.0
  0
LINE
  5
1D0
330
1F
100
AcDbEntity
  8
0
  6
CONTINUOUS
 62
     7
100
AcDbLine
 10
-108.1075319999999
 20
222.6388875648448
 30
0.0
 11
-108.1075319999999
 21
233.6388875648447
 31
0.0
  0
LINE
  5
1D1
330
1F
100
AcDbEntity
  8
0
  6
CONTINUOUS
 62
     7
100
AcDbLine
 10
-121.892468
 20
233.6388875648448
 30
0.0
 11
-121.892468
 21
222.6388875648449
 31
0.0
  0
POINT
  5
1D2
330
1F
100
AcDbEntity
  8
0
 62
     7
100
AcDbPoint
 10
-211.5428360614698
 20
669.3812576464424
 30
0.0
  0
POINT
  5
1D3
330
1F
100
AcDbEntity
  8
0
 62
     7
100
AcDbPoint
 10
105.0
 20
81.73715947033607
 30
0.0
  0
POINT
  5
1D4
330
1F
100
AcDbEntity
  8
0
 62
     7
100
AcDbPoint
 10
105.0
 20
291.7371594703362
 30
0.0
  0
POINT
  5
1D5
330
1F
100
AcDbEntity
  8
0
 62
     7
100
AcDbPoint
 10
-106.3912032885957
 20
233.6388875648448
 30
0.0
  0
POINT
  5
1D6
330
1F
100
AcDbEntity
  8
0
 62
     7
100
AcDbPoint
 10
413.249319839673
 20
675.5066709395909
 30
0.0
  0
MTEXT
  5
1D7
330
1F
100
AcDbEntity
  8
0
 62
     7
100
AcDbMText
 10
152.8143209953732
 20
77.68034128851791
 30
0.0
 40
5.0
 41
0.0
 71
     1
 72
     1
  1
{\fＭＳ ゴシック;ＡＭＳ－１}
  0
ENDSEC
  0
SECTION
  2
OBJECTS
  0
DICTIONARY
  5
C
330
0
100
AcDbDictionary
  3
ACAD_GROUP
350
D
  3
ACAD_LAYOUT
350
1A
  3
ACAD_MATERIAL
350
43
  3
ACAD_MLEADERSTYLE
350
6B
  3
ACAD_MLINESTYLE
350
17
  3
ACAD_PLOTSETTINGS
350
19
  3
ACAD_SCALELIST
350
47
  3
ACAD_VISUALSTYLE
350
2A
  3
ACDBHEADERROUNDTRIPXREC
350
1D8
  3
ACDBVARIABLEDICTIONARY
350
1F9
  0
DICTIONARY
  5
200
330
8
100
AcDbDictionary
280
     1
  3
ACAD_XREC_ROUNDTRIP
360
201
  0
DICTIONARY
  5
D
102
{ACAD_REACTORS
330
C
102
}
330
C
100
AcDbDictionary
  0
DICTIONARY
  5
1A
102
{ACAD_REACTORS
330
C
102
}
330
C
100
AcDbDictionary
  0
DICTIONARY
  5
43
102
{ACAD_REACTORS
330
C
102
}
330
C
100
AcDbDictionary
  3
BYBLOCK
350
45
  3
BYLAYER
350
44
  3
GLOBAL
350
46
  0
DICTIONARY
  5
6B
102
{ACAD_REACTORS
330
C
102
}
330
C
100
AcDbDictionary
  3
STANDARD
350
6C
  0
DICTIONARY
  5
17
102
{ACAD_REACTORS
330
C
102
}
330
C
100
AcDbDictionary
  3
STANDARD
350
18
  0
DICTIONARY
  5
19
102
{ACAD_REACTORS
330
C
102
}
330
C
100
AcDbDictionary
  0
DICTIONARY
  5
47
102
{ACAD_REACTORS
330
C
102
}
330
C
100
AcDbDictionary
  3
A0
350
48
  3
A1
350
49
  3
A2
350
4A
  3
A3
350
4B
  3
A4
350
4C
  3
A5
350
4D
  3
A6
350
4E
  3
A7
350
4F
  3
A8
350
50
  3
A9
350
51
  3
B0
350
52
  3
B1
350
53
  3
B2
350
54
  3
B3
350
55
  3
B4
350
56
  3
B5
350
57
  3
B6
350
58
  3
B7
350
59
  3
B8
350
5A
  3
B9
350
5B
  3
C0
350
5C
  3
C1
350
5D
  3
C2
350
5E
  3
C3
350
5F
  3
C4
350
60
  3
C5
350
61
  3
C6
350
62
  3
C7
350
63
  3
C8
350
64
  3
C9
350
65
  3
D0
350
66
  3
D1
350
67
  3
D2
350
68
  0
DICTIONARY
  5
2A
102
{ACAD_REACTORS
330
C
102
}
330
C
100
AcDbDictionary
  3
2DWIREFRAME
350
2F
  3
BASIC
350
32
  3
BRIGHTEN
350
36
  3
COLORCHANGE
350
3A
  3
CONCEPTUAL
350
34
  3
DIM
350
35
  3
EDGECOLOROFF
350
3D
  3
FACEPATTERN
350
39
  3
FLAT
350
2B
  3
FLATWITHEDGES
350
2C
  3
GOURAUD
350
2D
  3
GOURAUDWITHEDGES
350
2E
  3
HIDDEN
350
31
  3
JITTEROFF
350
3B
  3
LINEPATTERN
350
38
  3
OVERHANGOFF
350
3C
  3
REALISTIC
350
33
  3
SHADED
350
42
  3
SHADED_WITH_EDGES
350
41
  3
SHADES_OF_GRAY
350
3E
  3
SKETCHY
350
3F
  3
THICKEN
350
37
  3
WIREFRAME
350
30
  3
X-RAY
350
40
  0
DICTIONARY
  5
1D8
102
{ACAD_REACTORS
330
C
102
}
330
C
100
AcDbDictionary
  3
CEPSNID
350
1E2
  3
CEPSNTYPE
350
1E1
  3
DIMSTYLEDATA
350
1F8
  3
FINGERPRINTGUID
350
1E3
  3
HYPERLINKBASE
350
1DB
  3
INSUNITS
350
1E0
  3
LAYOUTDICT
350
1DD
  3
LWETCUNION
350
1DF
  3
PLOTSETDICT
350
1DE
  3
PSVPSCALE
350
1E5
  3
PUCSBASE
350
1E8
  3
PUCSORGBACK
350
1EE
  3
PUCSORGBOTTOM
350
1EA
  3
PUCSORGFRONT
350
1ED
  3
PUCSORGLEFT
350
1EB
  3
PUCSORGRIGHT
350
1EC
  3
PUCSORGTOP
350
1E9
  3
PUCSORTHOREF
350
1E6
  3
PUCSORTHOVIEW
350
1E7
  3
STYLESHEET
350
1DC
  3
TSTACKALIGN
350
1D9
  3
TSTACKSIZE
350
1DA
  3
UCSBASE
350
1F1
  3
UCSORGBACK
350
1F7
  3
UCSORGBOTTOM
350
1F3
  3
UCSORGFRONT
350
1F6
  3
UCSORGLEFT
350
1F4
  3
UCSORGRIGHT
350
1F5
  3
UCSORGTOP
350
1F2
  3
UCSORTHOREF
350
1EF
  3
UCSORTHOVIEW
350
1F0
  3
VERSIONGUID
350
1E4
  0
DICTIONARY
  5
1F9
102
{ACAD_REACTORS
330
C
102
}
330
C
100
AcDbDictionary
  3
CANNOSCALE
350
202
  3
CMLEADERSTYLE
350
1FB
  3
CTABLESTYLE
350
1FA
  3
DIMASSOC
350
1FE
  3
HIDETEXT
350
1FF
  3
MSLTSCALE
350
203
  0
XRECORD
  5
201
102
{ACAD_REACTORS
330
200
102
}
330
200
100
AcDbXrecord
102
VTR_0.000_0.000_1.000_1.000_VISUALSTYLE
340
2F
102
VTR_0.000_0.000_1.000_1.000_GRIDDISPLAY
 70
     3
102
VTR_0.000_0.000_1.000_1.000_GRIDMAJOR
 70
     5
102
VTR_0.000_0.000_1.000_1.000_DEFAULTLIGHTING
280
     1
102
VTR_0.000_0.000_1.000_1.000_DEFAULTLIGHTINGTYPE
 70
     1
102
VTR_0.000_0.000_1.000_1.000_BRIGHTNESS
141
0.0
102
VTR_0.000_0.000_1.000_1.000_CONTRAST
142
0.0
  0
MATERIAL
  5
45
102
{ACAD_REACTORS
330
43
102
}
102
{ACAD_XDICTIONARY
360
206
102
}
330
43
100
AcDbMaterial
  1
BYBLOCK
  0
MATERIAL
  5
44
102
{ACAD_REACTORS
330
43
102
}
102
{ACAD_XDICTIONARY
360
204
102
}
330
43
100
AcDbMaterial
  1
BYLAYER
  0
MATERIAL
  5
46
102
{ACAD_REACTORS
330
43
102
}
102
{ACAD_XDICTIONARY
360
208
102
}
330
43
100
AcDbMaterial
  1
GLOBAL
  0
ACAD_PROXY_OBJECT
  5
6C
102
{ACAD_REACTORS
330
6B
102
}
330
6B
100
AcDbProxyObject
 90
      499
 91
      505
 93
      610
310
40901902A4063FBFFFFFE056BD1B81E855B9FC0AD7A3703D0AD73F4214DD185B99185C9900AD7A3703D0AC73F90141901A02B5E8DC0F42B1CFC02B5E8DC0F42B1CFE5764000000000000300FC0
340
14
340
0
340
11
340
0
 94
        0
1001
ACAD_MLEADERVER
1070
     2
  0
MLINESTYLE
  5
18
102
{ACAD_REACTORS
330
17
102
}
330
17
100
AcDbMlineStyle
  2
Standard
 70
     0
  3

 62
   256
 51
90.0
 52
90.0
 71
     2
 49
0.5
 62
   256
  6
BYLAYER
 49
-0.5
 62
   256
  6
BYLAYER
  0
ACAD_PROXY_OBJECT
  5
48
102
{ACAD_REACTORS
330
47
102
}
330
47
100
AcDbProxyObject
 90
      499
 91
      503
 93
       41
310
903313A31580
  0
ACAD_PROXY_OBJECT
  5
49
102
{ACAD_REACTORS
330
47
102
}
330
47
100
AcDbProxyObject
 90
      499
 91
      503
 93
      105
310
903313A324000000000000004000
  0
ACAD_PROXY_OBJECT
  5
4A
102
{ACAD_REACTORS
330
47
102
}
330
47
100
AcDbProxyObject
 90
      499
 91
      503
 93
      105
310
903313A344000000000000104000
  0
ACAD_PROXY_OBJECT
  5
4B
102
{ACAD_REACTORS
330
47
102
}
330
47
100
AcDbProxyObject
 90
      499
 91
      503
 93
      105
310
903313A354000000000000144000
  0
ACAD_PROXY_OBJECT
  5
4C
102
{ACAD_REACTORS
330
47
102
}
330
47
100
AcDbProxyObject
 90
      499
 91
      503
 93
      105
310
903313A384000000000000204000
  0
ACAD_PROXY_OBJECT
  5
4D
102
{ACAD_REACTORS
330
47
102
}
330
47
100
AcDbProxyObject
 90
      499
 91
      503
 93
      113
310
904313A31304000000000000244000
  0
ACAD_PROXY_OBJECT
  5
4E
102
{ACAD_REACTORS
330
47
102
}
330
47
100
AcDbProxyObject
 90
      499
 91
      503
 93
      113
310
904313A31364000000000000304000
  0
ACAD_PROXY_OBJECT
  5
4F
102
{ACAD_REACTORS
330
47
102
}
330
47
100
AcDbProxyObject
 90
      499
 91
      503
 93
      113
310
904313A32304000000000000344000
  0
ACAD_PROXY_OBJECT
  5
50
102
{ACAD_REACTORS
330
47
102
}
330
47
100
AcDbProxyObject
 90
      499
 91
      503
 93
      113
310
904313A333040000000000003E4000
  0
ACAD_PROXY_OBJECT
  5
51
102
{ACAD_REACTORS
330
47
102
}
330
47
100
AcDbProxyObject
 90
      499
 91
      503
 93
      113
310
904313A34304000000000000444000
  0
ACAD_PROXY_OBJECT
  5
52
102
{ACAD_REACTORS
330
47
102
}
330
47
100
AcDbProxyObject
 90
      499
 91
      503
 93
      113
310
904313A35304000000000000494000
  0
ACAD_PROXY_OBJECT
  5
53
102
{ACAD_REACTORS
330
47
102
}
330
47
100
AcDbProxyObject
 90
      499
 91
      503
 93
      121
310
905313A3130304000000000000594000
  0
ACAD_PROXY_OBJECT
  5
54
102
{ACAD_REACTORS
330
47
102
}
330
47
100
AcDbProxyObject
 90
      499
 91
      503
 93
      105
310
903323A310000000000000010100
  0
ACAD_PROXY_OBJECT
  5
55
102
{ACAD_REACTORS
330
47
102
}
330
47
100
AcDbProxyObject
 90
      499
 91
      503
 93
      105
310
903343A310000000000000410100
  0
ACAD_PROXY_OBJECT
  5
56
102
{ACAD_REACTORS
330
47
102
}
330
47
100
AcDbProxyObject
 90
      499
 91
      503
 93
      105
310
903383A310000000000000810100
  0
ACAD_PROXY_OBJECT
  5
57
102
{ACAD_REACTORS
330
47
102
}
330
47
100
AcDbProxyObject
 90
      499
 91
      503
 93
      113
310
90431303A310000000000000910100
  0
ACAD_PROXY_OBJECT
  5
58
102
{ACAD_REACTORS
330
47
102
}
330
47
100
AcDbProxyObject
 90
      499
 91
      503
 93
      121
310
9053130303A310000000000001650100
  0
ACAD_PROXY_OBJECT
  5
59
102
{ACAD_REACTORS
330
47
102
}
330
47
100
AcDbProxyObject
 90
      499
 91
      503
 93
      257
310
90E312F31323822203D2031272D3022000000000000200FC000000000000284000
  0
ACAD_PROXY_OBJECT
  5
5A
102
{ACAD_REACTORS
330
47
102
}
330
47
100
AcDbProxyObject
 90
      499
 91
      503
 93
      249
310
90D312F363422203D2031272D3022000000000000240FC000000000000284000
  0
ACAD_PROXY_OBJECT
  5
5B
102
{ACAD_REACTORS
330
47
102
}
330
47
100
AcDbProxyObject
 90
      499
 91
      503
 93
      249
310
90D312F333222203D2031272D3022000000000000280FC000000000000284000
  0
ACAD_PROXY_OBJECT
  5
5C
102
{ACAD_REACTORS
330
47
102
}
330
47
100
AcDbProxyObject
 90
      499
 91
      503
 93
      249
310
90D312F313622203D2031272D30220000000000002C0FC000000000000284000
  0
ACAD_PROXY_OBJECT
  5
5D
102
{ACAD_REACTORS
330
47
102
}
330
47
100
AcDbProxyObject
 90
      499
 91
      503
 93
      249
310
90D332F333222203D2031272D30220000000000002E0FC000000000000284000
  0
ACAD_PROXY_OBJECT
  5
5E
102
{ACAD_REACTORS
330
47
102
}
330
47
100
AcDbProxyObject
 90
      499
 91
      503
 93
      241
310
90C312F3822203D2031272D3022000000000000300FC000000000000284000
  0
ACAD_PROXY_OBJECT
  5
5F
102
{ACAD_REACTORS
330
47
102
}
330
47
100
AcDbProxyObject
 90
      499
 91
      503
 93
      249
310
90D332F313622203D2031272D3022000000000000320FC000000000000284000
  0
ACAD_PROXY_OBJECT
  5
60
102
{ACAD_REACTORS
330
47
102
}
330
47
100
AcDbProxyObject
 90
      499
 91
      503
 93
      241
310
90C312F3422203D2031272D3022000000000000340FC000000000000284000
  0
ACAD_PROXY_OBJECT
  5
61
102
{ACAD_REACTORS
330
47
102
}
330
47
100
AcDbProxyObject
 90
      499
 91
      503
 93
      241
310
90C332F3822203D2031272D3022000000000000360FC000000000000284000
  0
ACAD_PROXY_OBJECT
  5
62
102
{ACAD_REACTORS
330
47
102
}
330
47
100
AcDbProxyObject
 90
      499
 91
      503
 93
      241
310
90C312F3222203D2031272D3022000000000000380FC000000000000284000
  0
ACAD_PROXY_OBJECT
  5
63
102
{ACAD_REACTORS
330
47
102
}
330
47
100
AcDbProxyObject
 90
      499
 91
      503
 93
      241
310
90C332F3422203D2031272D30220000000000003A0FC000000000000284000
  0
ACAD_PROXY_OBJECT
  5
64
102
{ACAD_REACTORS
330
47
102
}
330
47
100
AcDbProxyObject
 90
      499
 91
      503
 93
      161
310
90A3122203D2031272D30224000000000000284000
  0
ACAD_PROXY_OBJECT
  5
65
102
{ACAD_REACTORS
330
47
102
}
330
47
100
AcDbProxyObject
 90
      499
 91
      503
 93
      257
310
90E312D312F3222203D2031272D30220000000000003E0FC000000000000284000
  0
ACAD_PROXY_OBJECT
  5
66
102
{ACAD_REACTORS
330
47
102
}
330
47
100
AcDbProxyObject
 90
      499
 91
      503
 93
      225
310
90A3322203D2031272D302200000000000002100000000000000284000
  0
ACAD_PROXY_OBJECT
  5
67
102
{ACAD_REACTORS
330
47
102
}
330
47
100
AcDbProxyObject
 90
      499
 91
      503
 93
      225
310
90A3622203D2031272D302200000000000006100000000000000284000
  0
ACAD_PROXY_OBJECT
  5
68
102
{ACAD_REACTORS
330
47
102
}
330
47
100
AcDbProxyObject
 90
      499
 91
      503
 93
      249
310
90D31272D3022203D2031272D30220000000000000A100000000000000284000
  0
ACAD_PROXY_OBJECT
  5
2F
102
{ACAD_REACTORS
330
2A
102
}
330
2A
100
AcDbProxyObject
 90
      499
 91
      501
 93
      436
310
42CC9915DA5C99599C985B595049028333333333333E33F0000000000000F90107901411070040501600405405064090741402480A0340
1001
ACAD
1000
AcDbSavedByObjectVersion
1070
     0
  0
ACAD_PROXY_OBJECT
  5
32
102
{ACAD_REACTORS
330
2A
102
}
330
2A
100
AcDbProxyObject
 90
      499
 91
      501
 93
      388
310
4150985CDA58D07406404333333333333E33F0000000000000F90107A41107004050150841D405064090741402480A0350
1001
ACAD
1000
AcDbSavedByObjectVersion
1070
     0
  0
ACAD_PROXY_OBJECT
  5
36
102
{ACAD_REACTORS
330
2A
102
}
330
2A
100
AcDbProxyObject
 90
      499
 91
      501
 93
      428
310
42109C9A59DA1D195B90C409028333333333333E33F0000000000000F9010790141107004050150841D405064090741402480A029950
1001
ACAD
1000
AcDbSavedByObjectVersion
1070
     0
  0
ACAD_PROXY_OBJECT
  5
3A
102
{ACAD_REACTORS
330
2A
102
}
330
2A
100
AcDbProxyObject
 90
      499
 91
      501
 93
      452
310
42D0DBDB1BDC90DA185B99D95104090240C333333333333E33F0000000000000F90108901411070040501508421405064090741402480A0350
1001
ACAD
1000
AcDbSavedByObjectVersion
1070
     0
  0
ACAD_PROXY_OBJECT
  5
34
102
{ACAD_REACTORS
330
2A
102
}
330
2A
100
AcDbProxyObject
 90
      499
 91
      501
 93
      500
310
4290DBDB98D95C1D1D585B10940D028333333333333E33F0000000000000F90107902409070040501000000000018199010841D405064090740C02480A0340
1001
ACAD
1000
AcDbSavedByObjectVersion
1070
     0
  0
ACAD_PROXY_OBJECT
  5
35
102
{ACAD_REACTORS
330
2A
102
}
330
2A
100
AcDbProxyObject
 90
      499
 91
      501
 93
      412
310
40D11A5B50B409028333333333333E33F0000000000000F9010790141107004050150841D405064090741402480A02677FFFFFD0
1001
ACAD
1000
AcDbSavedByObjectVersion
1070
     0
  0
ACAD_PROXY_OBJECT
  5
3D
102
{ACAD_REACTORS
330
2A
102
}
330
2A
100
AcDbProxyObject
 90
      499
 91
      501
 93
      452
310
43115919D950DBDB1BDC93D999916409028333333333333E33F0000000000000F9010790141107004050150841D405064090741402480A0350
1001
ACAD
1000
AcDbSavedByObjectVersion
1070
     0
  0
ACAD_PROXY_OBJECT
  5
39
102
{ACAD_REACTORS
330
2A
102
}
330
2A
100
AcDbProxyObject
 90
      499
 91
      501
 93
      444
310
42D19858D95C185D1D195C9B90F409028333333333333E33F0000000000000F9010790141107004050150841D405064090741402480A0350
1001
ACAD
1000
AcDbSavedByObjectVersion
1070
     0
  0
ACAD_PROXY_OBJECT
  5
2B
102
{ACAD_REACTORS
330
2A
102
}
330
2A
100
AcDbProxyObject
 90
      499
 91
      501
 93
      380
310
41119B185D240901404333333333333E33F0000000000000F9010740A907004050150841D405064090741402480A1B50
1001
ACAD
1000
AcDbSavedByObjectVersion
1070
     0
  0
ACAD_PROXY_OBJECT
  5
2C
102
{ACAD_REACTORS
330
2A
102
}
330
2A
100
AcDbProxyObject
 90
      499
 91
      501
 93
      468
310
43519B185D15DA5D1A115919D95CD0140901404333333333333E33F0000000000000F90107409019070040501600405405064090741402480A1B50
1001
ACAD
1000
AcDbSavedByObjectVersion
1070
     0
  0
ACAD_PROXY_OBJECT
  5
2D
102
{ACAD_REACTORS
330
2A
102
}
330
2A
100
AcDbProxyObject
 90
      499
 91
      501
 93
      404
310
41D1DBDD5C985D5910240902404333333333333E33F0000000000000F9010740A9070040501641D405064090741402480A1B50
1001
ACAD
1000
AcDbSavedByObjectVersion
1070
     0
  0
ACAD_PROXY_OBJECT
  5
2E
102
{ACAD_REACTORS
330
2A
102
}
330
2A
100
AcDbProxyObject
 90
      499
 91
      501
 93
      492
310
4411DBDD5C985D5915DA5D1A115919D95CD0340902404333333333333E33F0000000000000F90107409019070040501600405405064090741402480A1B50
1001
ACAD
1000
AcDbSavedByObjectVersion
1070
     0
  0
ACAD_PROXY_OBJECT
  5
31
102
{ACAD_REACTORS
330
2A
102
}
330
2A
100
AcDbProxyObject
 90
      499
 91
      501
 93
      476
310
41921A5919195B90640502408333333333333E33F0000000000000F901079024090700405020000000000001110200405405064090740C02480A0340
1001
ACAD
1000
AcDbSavedByObjectVersion
1070
     0
  0
ACAD_PROXY_OBJECT
  5
3B
102
{ACAD_REACTORS
330
2A
102
}
330
2A
100
AcDbProxyObject
 90
      499
 91
      501
 93
      428
310
42529A5D1D195C93D999914409028333333333333E33F0000000000000F9010790141107004050150A41D405064090741402480A0350
1001
ACAD
1000
AcDbSavedByObjectVersion
1070
     0
  0
ACAD_PROXY_OBJECT
  5
38
102
{ACAD_REACTORS
330
2A
102
}
330
2A
100
AcDbProxyObject
 90
      499
 91
      501
 93
      444
310
42D31A5B995C185D1D195C9B90E409028333333333333E33F0000000000000F9010790141107004050750841D405064090741402483A0350
1001
ACAD
1000
AcDbSavedByObjectVersion
1070
     0
  0
ACAD_PROXY_OBJECT
  5
3C
102
{ACAD_REACTORS
330
2A
102
}
330
2A
100
AcDbProxyObject
 90
      499
 91
      501
 93
      444
310
42D3DD995C9A185B99D3D999915409028333333333333E33F0000000000000F9010790141107004050150941D405064090741402480A0350
1001
ACAD
1000
AcDbSavedByObjectVersion
1070
     0
  0
ACAD_PROXY_OBJECT
  5
33
102
{ACAD_REACTORS
330
2A
102
}
330
2A
100
AcDbProxyObject
 90
      499
 91
      501
 93
      428
310
425499585B1A5CDD1A58D08409038333333333333E33F0000000000000F9010740A907004050150800405405064090740C02480A1B40
1001
ACAD
1000
AcDbSavedByObjectVersion
1070
     0
  0
ACAD_PROXY_OBJECT
  5
42
102
{ACAD_REACTORS
330
2A
102
}
330
2A
100
AcDbProxyObject
 90
      499
 91
      501
 93
      420
310
4194DA1859195911B40902404333333333333E33F0000000000000F9010740A41107004050150800405405064090840C02480A0B40
1001
ACAD
1000
AcDbSavedByObjectVersion
1070
     0
  0
ACAD_PROXY_OBJECT
  5
41
102
{ACAD_REACTORS
330
2A
102
}
330
2A
100
AcDbProxyObject
 90
      499
 91
      501
 93
      516
310
4454DA18591959081DDA5D1A08195919D95CD1A40902404333333333333E33F0000000000000F901074090142907004050250800405405064090740C02480A0B40
1001
ACAD
1000
AcDbSavedByObjectVersion
1070
     0
  0
ACAD_PROXY_OBJECT
  5
3E
102
{ACAD_REACTORS
330
2A
102
}
330
2A
100
AcDbProxyObject
 90
      499
 91
      501
 93
      532
310
4394DA1859195CC81BD98811DC985E5174090240C333333333333E33F0000000000000F901079024090741D01000000000000111010841D405064090740C02480A0340
1001
ACAD
1000
AcDbSavedByObjectVersion
1070
     0
  0
ACAD_PROXY_OBJECT
  5
3F
102
{ACAD_REACTORS
330
2A
102
}
330
2A
100
AcDbProxyObject
 90
      499
 91
      501
 93
      476
310
41D4DAD95D18DA1E51840502408333333333333E33F0000000000000F901079024090741D01000000000000111010B41D405064090741802480A0340
1001
ACAD
1000
AcDbSavedByObjectVersion
1070
     0
  0
ACAD_PROXY_OBJECT
  5
37
102
{ACAD_REACTORS
330
2A
102
}
330
2A
100
AcDbProxyObject
 90
      499
 91
      501
 93
      412
310
41D51A1A58DAD95B90D409028333333333333E33F0000000000000F9010790141107004050150C41D405064090741402480A0350
1001
ACAD
1000
AcDbSavedByObjectVersion
1070
     0
  0
ACAD_PROXY_OBJECT
  5
30
102
{ACAD_REACTORS
330
2A
102
}
330
2A
100
AcDbProxyObject
 90
      499
 91
      501
 93
      420
310
4255DA5C99599C985B595059028333333333333E33F0000000000000F90107901411070040501600405405064090740C02480A0340
1001
ACAD
1000
AcDbSavedByObjectVersion
1070
     0
  0
ACAD_PROXY_OBJECT
  5
40
102
{ACAD_REACTORS
330
2A
102
}
330
2A
100
AcDbProxyObject
 90
      499
 91
      501
 93
      404
310
41560B54985E51940902404000000000000E03F0000000000000F9010740501907004050150841D405064090740C02480A1B40
1001
ACAD
1000
AcDbSavedByObjectVersion
1070
     0
  0
XRECORD
  5
1E2
102
{ACAD_REACTORS
330
1D8
102
}
330
1D8
100
AcDbXrecord
340
0
  0
XRECORD
  5
1E1
102
{ACAD_REACTORS
330
1D8
102
}
330
1D8
100
AcDbXrecord
 90
        0
  0
XRECORD
  5
1F8
102
{ACAD_REACTORS
330
1D8
102
}
330
1D8
100
AcDbXrecord
1000
DSTYLE
1002
{
1070
   179
 70
     2
1070
   171
 70
     2
1070
   143
 40
25.4
1070
   274
 70
     2
1070
    41
 40
3.0
1070
   141
 40
0.09
1070
    43
 40
0.38
1070
   278
 70
    46
1070
    44
 40
1.5
1070
    42
 40
0.0625
1070
   147
 40
1.5
1070
   272
 70
     4
1070
    73
 70
     1
1070
   172
 70
     0
1070
    74
 70
     1
1070
   283
 70
     1
1070
   340
340
6E
1070
   140
 40
3.0
1070
   284
 70
     0
1070
    78
 70
     0
1002
}
  0
XRECORD
  5
1E3
102
{ACAD_REACTORS
330
1D8
102
}
330
1D8
100
AcDbXrecord
  1
{6F1483B8-B4E4-4370-BAE0-E0D154B39006}
  0
XRECORD
  5
1DB
102
{ACAD_REACTORS
330
1D8
102
}
330
1D8
100
AcDbXrecord
  1

  0
XRECORD
  5
1E0
102
{ACAD_REACTORS
330
1D8
102
}
330
1D8
100
AcDbXrecord
 90
        4
  0
XRECORD
  5
1DD
102
{ACAD_REACTORS
330
1D8
102
}
330
1D8
100
AcDbXrecord
340
1A
  0
XRECORD
  5
1DF
102
{ACAD_REACTORS
330
1D8
102
}
330
1D8
100
AcDbXrecord
 90
    10269
  0
XRECORD
  5
1DE
102
{ACAD_REACTORS
330
1D8
102
}
330
1D8
100
AcDbXrecord
340
19
  0
XRECORD
  5
1E5
102
{ACAD_REACTORS
330
1D8
102
}
330
1D8
100
AcDbXrecord
 40
0.0
  0
XRECORD
  5
1E8
102
{ACAD_REACTORS
330
1D8
102
}
330
1D8
100
AcDbXrecord
340
0
  0
XRECORD
  5
1EE
102
{ACAD_REACTORS
330
1D8
102
}
330
1D8
100
AcDbXrecord
 10
0.0
 20
0.0
 30
0.0
  0
XRECORD
  5
1EA
102
{ACAD_REACTORS
330
1D8
102
}
330
1D8
100
AcDbXrecord
 10
0.0
 20
0.0
 30
0.0
  0
XRECORD
  5
1ED
102
{ACAD_REACTORS
330
1D8
102
}
330
1D8
100
AcDbXrecord
 10
0.0
 20
0.0
 30
0.0
  0
XRECORD
  5
1EB
102
{ACAD_REACTORS
330
1D8
102
}
330
1D8
100
AcDbXrecord
 10
0.0
 20
0.0
 30
0.0
  0
XRECORD
  5
1EC
102
{ACAD_REACTORS
330
1D8
102
}
330
1D8
100
AcDbXrecord
 10
0.0
 20
0.0
 30
0.0
  0
XRECORD
  5
1E9
102
{ACAD_REACTORS
330
1D8
102
}
330
1D8
100
AcDbXrecord
 10
0.0
 20
0.0
 30
0.0
  0
XRECORD
  5
1E6
102
{ACAD_REACTORS
330
1D8
102
}
330
1D8
100
AcDbXrecord
340
0
  0
XRECORD
  5
1E7
102
{ACAD_REACTORS
330
1D8
102
}
330
1D8
100
AcDbXrecord
 70
     0
  0
XRECORD
  5
1DC
102
{ACAD_REACTORS
330
1D8
102
}
330
1D8
100
AcDbXrecord
  1

  0
XRECORD
  5
1D9
102
{ACAD_REACTORS
330
1D8
102
}
330
1D8
100
AcDbXrecord
 90
        1
  0
XRECORD
  5
1DA
102
{ACAD_REACTORS
330
1D8
102
}
330
1D8
100
AcDbXrecord
 90
       70
  0
XRECORD
  5
1F1
102
{ACAD_REACTORS
330
1D8
102
}
330
1D8
100
AcDbXrecord
340
0
  0
XRECORD
  5
1F7
102
{ACAD_REACTORS
330
1D8
102
}
330
1D8
100
AcDbXrecord
 10
0.0
 20
0.0
 30
0.0
  0
XRECORD
  5
1F3
102
{ACAD_REACTORS
330
1D8
102
}
330
1D8
100
AcDbXrecord
 10
0.0
 20
0.0
 30
0.0
  0
XRECORD
  5
1F6
102
{ACAD_REACTORS
330
1D8
102
}
330
1D8
100
AcDbXrecord
 10
0.0
 20
0.0
 30
0.0
  0
XRECORD
  5
1F4
102
{ACAD_REACTORS
330
1D8
102
}
330
1D8
100
AcDbXrecord
 10
0.0
 20
0.0
 30
0.0
  0
XRECORD
  5
1F5
102
{ACAD_REACTORS
330
1D8
102
}
330
1D8
100
AcDbXrecord
 10
0.0
 20
0.0
 30
0.0
  0
XRECORD
  5
1F2
102
{ACAD_REACTORS
330
1D8
102
}
330
1D8
100
AcDbXrecord
 10
0.0
 20
0.0
 30
0.0
  0
XRECORD
  5
1EF
102
{ACAD_REACTORS
330
1D8
102
}
330
1D8
100
AcDbXrecord
340
0
  0
XRECORD
  5
1F0
102
{ACAD_REACTORS
330
1D8
102
}
330
1D8
100
AcDbXrecord
 70
     0
  0
XRECORD
  5
1E4
102
{ACAD_REACTORS
330
1D8
102
}
330
1D8
100
AcDbXrecord
  1
{FAEB1C32-E019-11D5-929B-00C0DF256EC4}
  0
DICTIONARYVAR
  5
202
102
{ACAD_REACTORS
330
1F9
102
}
330
1F9
100
DictionaryVariables
280
     0
  1
1:1
  0
DICTIONARYVAR
  5
1FB
102
{ACAD_REACTORS
330
1F9
102
}
330
1F9
100
DictionaryVariables
280
     0
  1
Standard
  0
DICTIONARYVAR
  5
1FA
102
{ACAD_REACTORS
330
1F9
102
}
330
1F9
100
DictionaryVariables
280
     0
  1
Standard
  0
DICTIONARYVAR
  5
1FE
102
{ACAD_REACTORS
330
1F9
102
}
330
1F9
100
DictionaryVariables
280
     0
  1
2
  0
DICTIONARYVAR
  5
1FF
102
{ACAD_REACTORS
330
1F9
102
}
330
1F9
100
DictionaryVariables
280
     0
  1
1
  0
DICTIONARYVAR
  5
203
102
{ACAD_REACTORS
330
1F9
102
}
330
1F9
100
DictionaryVariables
280
     0
  1
1
  0
DICTIONARY
  5
206
330
45
100
AcDbDictionary
280
     1
  3
ACAD_XREC_ROUNDTRIP
360
207
  0
DICTIONARY
  5
204
330
44
100
AcDbDictionary
280
     1
  3
ACAD_XREC_ROUNDTRIP
360
205
  0
DICTIONARY
  5
208
330
46
100
AcDbDictionary
280
     1
  3
ACAD_XREC_ROUNDTRIP
360
209
  0
XRECORD
  5
207
102
{ACAD_REACTORS
330
206
102
}
330
206
100
AcDbXrecord
102
MATERIAL
148
0.0
149
0.0
149
0.0
 93
        0
 94
      127
282
     0
 72
     1
 77
     1
171
     1
175
     1
179
     1
273
     0
  0
XRECORD
  5
205
102
{ACAD_REACTORS
330
204
102
}
330
204
100
AcDbXrecord
102
MATERIAL
148
0.0
149
0.0
149
0.0
 93
        0
 94
      127
282
     0
 72
     1
 77
     1
171
     1
175
     1
179
     1
273
     0
  0
XRECORD
  5
209
102
{ACAD_REACTORS
330
208
102
}
330
208
100
AcDbXrecord
102
MATERIAL
148
0.0
149
0.0
149
0.0
 93
        0
 94
      127
282
     0
 72
     1
 77
     1
171
     1
175
     1
179
     1
273
     0
  0
ENDSEC
  0
EOF
