  0
SECTION
  2
HEADER
  9
$ACADVER
  1
AC1004
  9
$INSBASE
 10
0.0
 20
0.0
  9
$EXTMIN
 10
0.0
 20
0.0
  9
$EXTMAX
 10
310.0070331776265
 20
281.0
  9
$LIMMIN
 10
0.0
 20
0.0
  9
$LIMMAX
 10
12.0
 20
9.0
  9
$ORTHOMODE
 70
     0
  9
$REGENMODE
 70
     1
  9
$FILLMODE
 70
     1
  9
$QTEXTMODE
 70
     0
  9
$DRAGMODE
 70
     2
  9
$LTSCALE
 40
1.0
  9
$OSMODE
 70
    37
  9
$ATTMODE
 70
     1
  9
$TEXTSIZE
 40
0.2
  9
$TRACEWID
 40
0.05
  9
$TEXTSTYLE
  7
STANDARD
  9
$CLAYER
  8
0
  9
$CELTYPE
  6
BYLAYER
  9
$CECOLOR
 62
   256
  9
$DIMSCALE
 40
1.0
  9
$DIMASZ
 40
3.0
  9
$DIMEXO
 40
0.0625
  9
$DIMDLI
 40
0.38
  9
$DIMRND
 40
0.0
  9
$DIMDLE
 40
0.0
  9
$DIMEXE
 40
1.5
  9
$DIMTP
 40
0.0
  9
$DIMTM
 40
0.0
  9
$DIMTXT
 40
3.0
  9
$DIMCEN
 40
0.09
  9
$DIMTSZ
 40
0.0
  9
$DIMTOL
 70
     0
  9
$DIMLIM
 70
     0
  9
$DIMTIH
 70
     1
  9
$DIMTOH
 70
     1
  9
$DIMSE1
 70
     0
  9
$DIMSE2
 70
     0
  9
$DIMTAD
 70
     1
  9
$DIMZIN
 70
     0
  9
$DIMBLK
  1

  9
$DIMASO
 70
     1
  9
$DIMSHO
 70
     1
  9
$DIMPOST
  1

  9
$DIMAPOST
  1

  9
$DIMALT
 70
     0
  9
$DIMALTD
 70
     2
  9
$DIMALTF
 40
25.4
  9
$DIMLFAC
 40
1.0
  9
$DIMTOFL
 70
     0
  9
$DIMTVP
 40
0.0
  9
$DIMTIX
 70
     0
  9
$DIMSOXD
 70
     0
  9
$DIMSAH
 70
     0
  9
$DIMBLK1
  1

  9
$DIMBLK2
  1

  9
$LUNITS
 70
     2
  9
$LUPREC
 70
     4
  9
$SKETCHINC
 40
0.1
  9
$FILLETRAD
 40
0.5
  9
$AUNITS
 70
     0
  9
$AUPREC
 70
     0
  9
$MENU
  1
.
  9
$ELEVATION
 40
0.0
  9
$THICKNESS
 40
0.0
  9
$LIMCHECK
 70
     0
  9
$CHAMFERA
 40
0.0
  9
$CHAMFERB
 40
0.0
  9
$SKPOLY
 70
     0
  9
$TDCREATE
 40
2459093.61085287
  9
$TDUPDATE
 40
2459093.610854803
  9
$TDINDWG
 40
0.0000000116
  9
$TDUSRTIMER
 40
0.0000000116
  9
$USRTIMER
 70
     1
  9
$ANGBASE
 50
0.0
  9
$ANGDIR
 70
     0
  9
$PDMODE
 70
     0
  9
$PDSIZE
 40
0.0
  9
$PLINEWID
 40
0.0
  9
$COORDS
 70
     1
  9
$SPLFRAME
 70
     0
  9
$SPLINETYPE
 70
     6
  9
$SPLINESEGS
 70
     8
  9
$ATTDIA
 70
     0
  9
$ATTREQ
 70
     1
  9
$SURFTAB1
 70
     6
  9
$SURFTAB2
 70
     6
  9
$SURFTYPE
 70
     6
  9
$SURFU
 70
     6
  9
$SURFV
 70
     6
  9
$UCSNAME
  2

  9
$UCSORG
 10
0.0
 20
0.0
 30
0.0
  9
$UCSXDIR
 10
1.0
 20
0.0
 30
0.0
  9
$UCSYDIR
 10
0.0
 20
1.0
 30
0.0
  9
$USERI1
 70
     0
  9
$USERI2
 70
     0
  9
$USERI3
 70
     0
  9
$USERI4
 70
     0
  9
$USERI5
 70
     0
  9
$USERR1
 40
0.0
  9
$USERR2
 40
0.0
  9
$USERR3
 40
0.0
  9
$USERR4
 40
0.0
  9
$USERR5
 40
0.0
  9
$WORLDVIEW
 70
     1
  0
ENDSEC
  0
SECTION
  2
TABLES
  0
TABLE
  2
LTYPE
 70
     2
  0
LTYPE
  2
CONTINUOUS
 70
     0
  3
Solid line
 72
    65
 73
     0
 40
0.0
  0
LTYPE
  2
CENTER
 70
     0
  3

 72
    65
 73
     0
 40
0.0
  0
ENDTAB
  0
TABLE
  2
LAYER
 70
     1
  0
LAYER
  2
0
 70
     0
 62
     7
  6
CONTINUOUS
  0
ENDTAB
  0
TABLE
  2
STYLE
 70
     2
  0
STYLE
  2
STANDARD
 70
     0
 40
0.0
 41
1.0
 50
0.0
 71
     0
 42
0.2
  3
txt
  4

  0
STYLE
  2
ＭＳ_ゴシック
 70
     0
 40
0.0
 41
1.0
 50
0.0
 71
     0
 42
0.2
  3
ＭＳ ゴシック.shx
  4

  0
ENDTAB
  0
TABLE
  2
VIEW
 70
     0
  0
ENDTAB
  0
ENDSEC
  0
SECTION
  2
BLOCKS
  0
BLOCK
  8
0
  2
D_FRAME_VIEW_1552
 70
     0
 10
0.0
 20
0.0
  0
LINE
  8
0
  6
CONTINUOUS
 62
     7
 10
161.0070331776264
 20
234.9009412130572
 11
161.0070331776264
 21
232.7796208694975
  0
LINE
  8
0
  6
CONTINUOUS
 62
     7
 10
157.5070331776264
 20
232.7796208694975
 11
157.5070331776264
 21
234.9009412130572
  0
LINE
  8
0
  6
CONTINUOUS
 62
     7
 10
157.5070331776263
 20
218.5222615566168
 11
157.5070331776264
 21
232.7796208694975
  0
LINE
  8
0
  6
CONTINUOUS
 62
     7
 10
157.5070331776263
 20
218.5222615566168
 11
161.0070331776263
 21
218.5222615566168
  0
LINE
  8
0
  6
CONTINUOUS
 62
     7
 10
161.0070331776264
 20
232.7796208694975
 11
161.0070331776263
 21
218.5222615566168
  0
POLYLINE
  8
0
  6
CONTINUOUS
 62
     7
 66
     1
  0
VERTEX
  8
0
  6
CONTINUOUS
 62
     7
 10
157.1145600593469
 20
235.5222615566168
  0
VERTEX
  8
0
  6
CONTINUOUS
 62
     7
 10
157.1304016539127
 20
235.5219845737596
  0
VERTEX
  8
0
  6
CONTINUOUS
 62
     7
 10
157.1461116543574
 20
235.5211585021143
  0
VERTEX
  8
0
  6
CONTINUOUS
 62
     7
 10
157.161640684422
 20
235.5197906570704
  0
VERTEX
  8
0
  6
CONTINUOUS
 62
     7
 10
157.1769393678475
 20
235.5178883540173
  0
VERTEX
  8
0
  6
CONTINUOUS
 62
     7
 10
157.1925222002488
 20
235.5153609158901
  0
VERTEX
  8
0
  6
CONTINUOUS
 62
     7
 10
157.2078301857397
 20
235.5122810399619
  0
VERTEX
  8
0
  6
CONTINUOUS
 62
     7
 10
157.2228222561727
 20
235.5086698426674
  0
VERTEX
  8
0
  6
CONTINUOUS
 62
     7
 10
157.2374573434006
 20
235.5045484404417
  0
VERTEX
  8
0
  6
CONTINUOUS
 62
     7
 10
157.2559169229336
 20
235.4984529167963
  0
VERTEX
  8
0
  6
CONTINUOUS
 62
     7
 10
157.2737688777831
 20
235.4915507875862
  0
VERTEX
  8
0
  6
CONTINUOUS
 62
     7
 10
157.2909748971564
 20
235.4839006305414
  0
VERTEX
  8
0
  6
CONTINUOUS
 62
     7
 10
157.3074966702608
 20
235.4755610233922
  0
VERTEX
  8
0
  6
CONTINUOUS
 62
     7
 10
157.3232958863036
 20
235.4665905438687
  0
VERTEX
  8
0
  6
CONTINUOUS
 62
     7
 10
157.3383342344921
 20
235.4570477697011
  0
VERTEX
  8
0
  6
CONTINUOUS
 62
     7
 10
157.3535060076011
 20
235.4463154090587
  0
VERTEX
  8
0
  6
CONTINUOUS
 62
     7
 10
157.3678906168201
 20
235.4350058214633
  0
VERTEX
  8
0
  6
CONTINUOUS
 62
     7
 10
157.381483649669
 20
235.4231759303497
  0
VERTEX
  8
0
  6
CONTINUOUS
 62
     7
 10
157.3942806936677
 20
235.410882659153
  0
VERTEX
  8
0
  6
CONTINUOUS
 62
     7
 10
157.4105714493421
 20
235.3933340051452
  0
VERTEX
  8
0
  6
CONTINUOUS
 62
     7
 10
157.4254609024046
 20
235.3750534960163
  0
VERTEX
  8
0
  6
CONTINUOUS
 62
     7
 10
157.4389690712013
 20
235.3561491634497
  0
VERTEX
  8
0
  6
CONTINUOUS
 62
     7
 10
157.451412582801
 20
235.3362249093122
  0
VERTEX
  8
0
  6
CONTINUOUS
 62
     7
 10
157.4625109340111
 20
235.3157675156248
  0
VERTEX
  8
0
  6
CONTINUOUS
 62
     7
 10
157.4722930524398
 20
235.2948563821137
  0
VERTEX
  8
0
  6
CONTINUOUS
 62
     7
 10
157.4807878656952
 20
235.2735709085044
  0
VERTEX
  8
0
  6
CONTINUOUS
 62
     7
 10
157.4904180543677
 20
235.2438493140706
  0
VERTEX
  8
0
  6
CONTINUOUS
 62
     7
 10
157.4977969937316
 20
235.2135764574564
  0
VERTEX
  8
0
  6
CONTINUOUS
 62
     7
 10
157.5029851124995
 20
235.1828919646462
  0
VERTEX
  8
0
  6
CONTINUOUS
 62
     7
 10
157.5060280370529
 20
235.1521636132738
  0
VERTEX
  8
0
  6
CONTINUOUS
 62
     7
 10
157.5070331776264
 20
235.1211785664816
  0
SEQEND
  8
0
  6
CONTINUOUS
 62
     7
  0
LINE
  8
0
  6
CONTINUOUS
 62
     7
 10
157.1145600593469
 20
235.5222615566169
 11
161.4532697367662
 21
235.5222615566168
  0
POLYLINE
  8
0
  6
CONTINUOUS
 62
     7
 66
     1
  0
VERTEX
  8
0
  6
CONTINUOUS
 62
     7
 10
161.0070331776264
 20
235.0671366021261
  0
VERTEX
  8
0
  6
CONTINUOUS
 62
     7
 10
161.0078064471909
 20
235.0948070500279
  0
VERTEX
  8
0
  6
CONTINUOUS
 62
     7
 10
161.0101375001515
 20
235.1223994360793
  0
VERTEX
  8
0
  6
CONTINUOUS
 62
     7
 10
161.0140432029087
 20
235.1498433548405
  0
VERTEX
  8
0
  6
CONTINUOUS
 62
     7
 10
161.0195404218632
 20
235.1770684008718
  0
VERTEX
  8
0
  6
CONTINUOUS
 62
     7
 10
161.0268940824068
 20
235.2048378144647
  0
VERTEX
  8
0
  6
CONTINUOUS
 62
     7
 10
161.0360126014497
 20
235.2323078988456
  0
VERTEX
  8
0
  6
CONTINUOUS
 62
     7
 10
161.0469306015772
 20
235.2593743904897
  0
VERTEX
  8
0
  6
CONTINUOUS
 62
     7
 10
161.0596827053747
 20
235.2859330258721
  0
VERTEX
  8
0
  6
CONTINUOUS
 62
     7
 10
161.0723021616367
 20
235.3085476627127
  0
VERTEX
  8
0
  6
CONTINUOUS
 62
     7
 10
161.0864362537723
 20
235.3307285689298
  0
VERTEX
  8
0
  6
CONTINUOUS
 62
     7
 10
161.1021056601125
 20
235.3523547056664
  0
VERTEX
  8
0
  6
CONTINUOUS
 62
     7
 10
161.1193310589881
 20
235.3733050340653
  0
VERTEX
  8
0
  6
CONTINUOUS
 62
     7
 10
161.1381331287301
 20
235.3934585152693
  0
VERTEX
  8
0
  6
CONTINUOUS
 62
     7
 10
161.1585325476693
 20
235.4126941104212
  0
VERTEX
  8
0
  6
CONTINUOUS
 62
     7
 10
161.1748318770893
 20
235.4263955044488
  0
VERTEX
  8
0
  6
CONTINUOUS
 62
     7
 10
161.1920820464914
 20
235.4394910687659
  0
VERTEX
  8
0
  6
CONTINUOUS
 62
     7
 10
161.21026964162
 20
235.4519011028605
  0
VERTEX
  8
0
  6
CONTINUOUS
 62
     7
 10
161.2248951958771
 20
235.4609340192826
  0
VERTEX
  8
0
  6
CONTINUOUS
 62
     7
 10
161.2400934608448
 20
235.4695000242305
  0
VERTEX
  8
0
  6
CONTINUOUS
 62
     7
 10
161.2558417999255
 20
235.4775554185756
  0
VERTEX
  8
0
  6
CONTINUOUS
 62
     7
 10
161.2721175765213
 20
235.4850565031894
  0
VERTEX
  8
0
  6
CONTINUOUS
 62
     7
 10
161.2897375542438
 20
235.4922861906991
  0
VERTEX
  8
0
  6
CONTINUOUS
 62
     7
 10
161.3079249041676
 20
235.4988363332905
  0
VERTEX
  8
0
  6
CONTINUOUS
 62
     7
 10
161.3266253016998
 20
235.5046552392148
  0
VERTEX
  8
0
  6
CONTINUOUS
 62
     7
 10
161.3413687394964
 20
235.5086133429074
  0
VERTEX
  8
0
  6
CONTINUOUS
 62
     7
 10
161.3563967095644
 20
235.5121004949198
  0
VERTEX
  8
0
  6
CONTINUOUS
 62
     7
 10
161.3716703300432
 20
235.5150978336218
  0
VERTEX
  8
0
  6
CONTINUOUS
 62
     7
 10
161.3871507190722
 20
235.5175864973832
  0
VERTEX
  8
0
  6
CONTINUOUS
 62
     7
 10
161.4034465872641
 20
235.5196193101682
  0
VERTEX
  8
0
  6
CONTINUOUS
 62
     7
 10
161.41993591053
 20
235.5210816579154
  0
VERTEX
  8
0
  6
CONTINUOUS
 62
     7
 10
161.4365623924905
 20
235.5219651902049
  0
VERTEX
  8
0
  6
CONTINUOUS
 62
     7
 10
161.4532697367662
 20
235.5222615566168
  0
SEQEND
  8
0
  6
CONTINUOUS
 62
     7
  0
LINE
  8
0
  6
CONTINUOUS
 62
     7
 10
157.5070331776264
 20
234.9009412130572
 11
157.5070331776264
 21
235.1211785664816
  0
LINE
  8
0
  6
CONTINUOUS
 62
     7
 10
161.0070331776264
 20
235.0671366021261
 11
161.0070331776264
 21
234.9009412130572
  0
LINE
  8
0
  6
CONTINUOUS
 62
     7
 10
161.5070331776263
 20
218.5222615566168
 11
161.0136843356654
 21
218.5222615566168
  0
LINE
  8
0
  6
CONTINUOUS
 62
     7
 10
161.0136843356654
 20
218.5222615566168
 11
161.0070331776263
 21
218.5222615566168
  0
LINE
  8
0
  6
CONTINUOUS
 62
     7
 10
157.5070331776263
 20
218.5222615566168
 11
157.4945827284052
 21
218.5222615566168
  0
LINE
  8
0
  6
CONTINUOUS
 62
     7
 10
157.4945827284052
 20
218.5222615566168
 11
157.0070331776263
 21
218.5222615566168
  0
LINE
  8
0
  6
CONTINUOUS
 62
     7
 10
147.5570331776264
 20
236.5222615566169
 11
172.4570331776264
 21
236.5222615566167
  0
LINE
  8
0
  6
CONTINUOUS
 62
     7
 10
161.5070331776263
 20
218.5222615566168
 11
172.4570331776263
 21
218.5222615566167
  0
LINE
  8
0
  6
CONTINUOUS
 62
     7
 10
147.5570331776263
 20
218.5222615566169
 11
157.0070331776263
 21
218.5222615566168
  0
LINE
  8
0
  6
CONTINUOUS
 62
     7
 10
157.5070331776265
 20
216.9575875345475
 11
157.5070331776265
 21
217.5511296797314
  0
LINE
  8
0
  6
CONTINUOUS
 62
     7
 10
161.0070331776265
 20
217.5511296797314
 11
161.0070331776265
 21
216.9575875345475
  0
LINE
  8
0
  6
CONTINUOUS
 62
     7
 10
157.5070331776265
 20
218.2222615566168
 11
157.5070331776265
 21
217.5511296797314
  0
LINE
  8
0
  6
CONTINUOUS
 62
     7
 10
161.0070331776265
 20
218.2222615566168
 11
157.5070331776265
 21
218.2222615566168
  0
LINE
  8
0
  6
CONTINUOUS
 62
     7
 10
161.0070331776265
 20
217.5511296797314
 11
161.0070331776265
 21
218.2222615566168
  0
LINE
  8
0
  6
CONTINUOUS
 62
     7
 10
157.5070331776265
 20
214.3571391150768
 11
157.3819800700607
 21
213.4977907265536
  0
LINE
  8
0
  6
CONTINUOUS
 62
     7
 10
161.1674922562592
 20
213.5080155248528
 11
161.0070331776265
 21
214.5125425641345
  0
LINE
  8
0
  6
CONTINUOUS
 62
     7
 10
161.1767024363592
 20
213.487288033682
 11
161.1674922562592
 21
213.5080155248528
  0
LINE
  8
0
  6
CONTINUOUS
 62
     7
 10
157.3819800700607
 20
213.4977907265536
 11
157.3778162418122
 21
213.4872880336788
  0
LINE
  8
0
  6
CONTINUOUS
 62
     7
 10
157.5070331776265
 20
216.9575875345475
 11
157.5070331776265
 21
214.3571391150768
  0
LINE
  8
0
  6
CONTINUOUS
 62
     7
 10
161.0070331776265
 20
214.5125425641345
 11
161.0070331776265
 21
216.9575875345475
  0
LINE
  8
0
  6
CONTINUOUS
 62
     7
 10
161.453461749055
 20
218.2222615566168
 11
161.0070331776265
 21
218.2222615566168
  0
LINE
  8
0
  6
CONTINUOUS
 62
     7
 10
157.5070331776265
 20
218.2222615566168
 11
157.1141760347693
 21
218.2222615566168
  0
LINE
  8
0
  6
CONTINUOUS
 62
     7
 10
173.5070331776265
 20
218.2222615566168
 11
161.453461749055
 21
218.2222615566168
  0
LINE
  8
0
  6
CONTINUOUS
 62
     7
 10
157.1141760347693
 20
218.2222615566168
 11
146.5070331776265
 21
218.2222615566168
  0
LINE
  8
0
  6
CONTINUOUS
 62
     7
 10
157.1265203097562
 20
212.916545089209
 11
157.3778162418122
 21
213.4872880336788
  0
LINE
  8
0
  6
CONTINUOUS
 62
     7
 10
161.1767024363592
 20
213.487288033682
 11
161.4472896115616
 21
212.916545089209
  0
LINE
  8
0
  6
CONTINUOUS
 62
     7
 10
171.5570331776265
 20
199.8222615566168
 11
148.4570331776264
 21
199.8222615566168
  0
LINE
  8
0
  6
CONTINUOUS
 62
     7
 10
149.0070331776265
 20
199.3222615566168
 11
171.0070331776265
 21
199.3222615566168
  0
CIRCLE
  8
0
  6
CONTINUOUS
 62
     7
 10
160.0287494333313
 20
163.3429418782313
 40
19.03513969151626
  0
CIRCLE
  8
0
  6
CONTINUOUS
 62
     7
 10
160.0070331776265
 20
163.3222615566168
 40
14.9
  0
CIRCLE
  8
0
  6
CONTINUOUS
 62
     7
 10
160.0070331776265
 20
163.3222615566168
 40
6.500000000000005
  0
ARC
  8
0
  6
CONTINUOUS
 62
     7
 10
147.5570331776264
 20
235.5222615566169
 40
1.000000000000001
 50
89.99999999999962
 51
180.0
  0
ARC
  8
0
  6
CONTINUOUS
 62
     7
 10
172.4570331776264
 20
235.5222615566167
 40
1.000000000000001
 50
0.0
 51
89.9999999999994
  0
ARC
  8
0
  6
CONTINUOUS
 62
     7
 10
172.4570331776263
 20
219.5222615566167
 40
1.000000000000001
 50
269.9999999999995
 51
359.9999999999996
  0
LINE
  8
0
  6
CONTINUOUS
 62
     7
 10
173.4570331776263
 20
219.5222615566167
 11
173.4570331776264
 21
235.5222615566167
  0
ARC
  8
0
  6
CONTINUOUS
 62
     7
 10
147.5570331776263
 20
219.5222615566169
 40
1.000000000000001
 50
179.9999999999996
 51
269.9999999999995
  0
LINE
  8
0
  6
CONTINUOUS
 62
     7
 10
146.5570331776264
 20
235.5222615566169
 11
146.5570331776263
 21
219.5222615566169
  0
ARC
  8
0
  6
CONTINUOUS
 62
     7
 10
171.5070331776265
 20
217.5735764254457
 40
2.00000000000002
 50
340.0744193418161
 51
0.0
  0
LINE
  8
0
  6
CONTINUOUS
 62
     7
 10
173.5070331776265
 20
217.5735764254457
 11
173.5070331776265
 21
218.2222615566168
  0
ARC
  8
0
  6
CONTINUOUS
 62
     7
 10
148.5070331776265
 20
217.5735764254457
 40
2.000000000000002
 50
180.0
 51
199.9255806581839
  0
LINE
  8
0
  6
CONTINUOUS
 62
     7
 10
172.1767610473015
 20
213.5525453350307
 11
173.3873053079514
 21
216.8919777782029
  0
LINE
  8
0
  6
CONTINUOUS
 62
     7
 10
146.5070331776265
 20
218.2222615566168
 11
146.5070331776265
 21
217.5735764254457
  0
LINE
  8
0
  6
CONTINUOUS
 62
     7
 10
146.6267610473015
 20
216.8919777782029
 11
147.8373053079514
 21
213.5525453350307
  0
ARC
  8
0
  6
CONTINUOUS
 62
     7
 10
145.9570331776264
 20
212.8709466877879
 40
2.000000000000003
 50
0.0
 51
19.92558065818429
  0
ARC
  8
0
  6
CONTINUOUS
 62
     7
 10
174.0570331776265
 20
212.8709466877879
 40
2.000000000000002
 50
160.0744193418157
 51
180.0
  0
LINE
  8
0
  6
CONTINUOUS
 62
     7
 10
147.9570331776264
 20
212.8709466877879
 11
147.9570331776264
 21
200.3222615566168
  0
LINE
  8
0
  6
CONTINUOUS
 62
     7
 10
172.0570331776265
 20
200.3222615566168
 11
172.0570331776265
 21
212.8709466877879
  0
LINE
  8
0
  6
CONTINUOUS
 62
     7
 10
147.9570331776264
 20
218.5222615566169
 11
147.9570331776264
 21
218.2222615566168
  0
LINE
  8
0
  6
CONTINUOUS
 62
     7
 10
172.0570331776265
 20
218.2222615566168
 11
172.0570331776265
 21
218.5222615566167
  0
ARC
  8
0
  6
CONTINUOUS
 62
     7
 10
148.4570331776264
 20
200.3222615566168
 40
0.5000000000000004
 50
180.0
 51
270.0
  0
ARC
  8
0
  6
CONTINUOUS
 62
     7
 10
171.5570331776265
 20
200.3222615566168
 40
0.5000000000000004
 50
270.0
 51
0.0
  0
LINE
  8
0
  6
CONTINUOUS
 62
     7
 10
169.0070331776265
 20
199.3222615566168
 11
169.0070331776265
 21
199.8222615566168
  0
LINE
  8
0
  6
CONTINUOUS
 62
     7
 10
151.0070331776265
 20
199.8222615566168
 11
151.0070331776265
 21
199.3222615566168
  0
LINE
  8
0
  6
CONTINUOUS
 62
     7
 10
171.0070331776265
 20
178.8481772783495
 11
171.0070331776265
 21
199.3222615566168
  0
LINE
  8
0
  6
CONTINUOUS
 62
     7
 10
149.0070331776265
 20
199.3222615566168
 11
149.0070331776265
 21
178.8476366134646
  0
ENDBLK
  8
0
  0
BLOCK
  8
0
  2
D_FRAME_VIEW_2009
 70
     0
 10
0.0
 20
0.0
  0
ENDBLK
  8
0
  0
BLOCK
  8
0
  2
D_FRAME_VIEW_1280
 70
     0
 10
0.0
 20
0.0
  0
LINE
  8
0
  6
CONTINUOUS
 62
     7
 10
30.93351706732292
 20
218.5222615566168
 11
55.2800687236188
 21
218.5222615566168
  0
LINE
  8
0
  6
CONTINUOUS
 62
     7
 10
55.2800687236188
 20
218.5222615566168
 11
55.37597472427942
 21
218.5222615566168
  0
LINE
  8
0
  6
CONTINUOUS
 62
     7
 10
29.84282530039164
 20
235.5222615566168
 11
29.92080601327545
 21
235.5222615566168
  0
LINE
  8
0
  6
CONTINUOUS
 62
     7
 10
30.84282530039164
 20
236.5222615566168
 11
55.74282530039162
 21
236.5222615566168
  0
LINE
  8
0
  6
CONTINUOUS
 62
     7
 10
56.42812504040632
 20
235.5222615566168
 11
56.74282530039162
 21
235.5222615566168
  0
LINE
  8
0
  6
CONTINUOUS
 62
     7
 10
55.45291593976131
 20
218.5222615566168
 11
55.37597472427943
 21
218.5222615566168
  0
LINE
  8
0
  6
CONTINUOUS
 62
     7
 10
56.52504152897074
 20
218.5222615566168
 11
55.52820556424573
 21
218.5222615566168
  0
LINE
  8
0
  6
CONTINUOUS
 62
     7
 10
55.52820556424573
 20
218.5222615566168
 11
55.45291593976131
 21
218.5222615566168
  0
LINE
  8
0
  6
CONTINUOUS
 62
     7
 10
56.42812504040632
 20
235.5222615566168
 11
56.91642614596887
 21
235.1211785664816
  0
LINE
  8
0
  6
CONTINUOUS
 62
     7
 10
57.14028196979758
 20
234.9009412130572
 11
56.91642614596887
 21
235.1211785664816
  0
ARC
  8
0
  6
CONTINUOUS
 62
     7
 10
55.05444756768605
 20
232.7756191506169
 40
2.977868200932888
 50
0.0769952382694378
 51
45.5372419646823
  0
LINE
  8
0
  6
CONTINUOUS
 62
     7
 10
58.03231307982277
 20
218.5222615566168
 11
58.03231307982277
 21
232.7796208694975
  0
LINE
  8
0
  6
CONTINUOUS
 62
     7
 10
56.52504152897074
 20
218.5222615566168
 11
58.03231307982277
 21
218.5222615566168
  0
LINE
  8
0
  6
CONTINUOUS
 62
     7
 10
58.03231307982276
 20
218.5222615566168
 11
58.24282530039161
 21
218.5222615566168
  0
LINE
  8
0
  6
CONTINUOUS
 62
     7
 10
30.87061281256338
 20
218.5222615566168
 11
30.77068848630278
 21
218.5222615566168
  0
LINE
  8
0
  6
CONTINUOUS
 62
     7
 10
30.77068848630278
 20
218.5222615566168
 11
29.80796170004831
 21
218.5222615566168
  0
LINE
  8
0
  6
CONTINUOUS
 62
     7
 10
29.42370492453506
 20
235.0671366021261
 11
29.92080601327543
 21
235.5222615566168
  0
LINE
  8
0
  6
CONTINUOUS
 62
     7
 10
29.42370492453506
 20
235.0671366021261
 11
29.25708320347793
 21
234.9009412130572
  0
LINE
  8
0
  6
CONTINUOUS
 62
     7
 10
28.37630761026032
 20
232.7796208694975
 11
28.37630761026032
 21
218.5222615566168
  0
ARC
  8
0
  6
CONTINUOUS
 62
     7
 10
31.37344945740618
 20
232.7787126777767
 40
2.997141984745649
 50
134.9207558678439
 51
179.9826382755116
  0
LINE
  8
0
  6
CONTINUOUS
 62
     7
 10
28.37630761026032
 20
218.5222615566168
 11
29.80796170004831
 21
218.5222615566168
  0
LINE
  8
0
  6
CONTINUOUS
 62
     7
 10
28.34282530039163
 20
218.5222615566168
 11
28.37630761026032
 21
218.5222615566168
  0
LINE
  8
0
  6
CONTINUOUS
 62
     7
 10
56.47923411974122
 20
218.2222615566168
 11
29.87053621142638
 21
218.2222615566168
  0
LINE
  8
0
  6
CONTINUOUS
 62
     7
 10
54.84282530039162
 20
199.8222615566168
 11
31.74282530039163
 21
199.8222615566168
  0
LINE
  8
0
  6
CONTINUOUS
 62
     7
 10
55.26153760077904
 20
213.4977907265536
 11
55.25269302961196
 21
213.4872880336788
  0
LINE
  8
0
  6
CONTINUOUS
 62
     7
 10
54.99400792362595
 20
212.916545089209
 11
55.25269302961196
 21
213.4872880336788
  0
LINE
  8
0
  6
CONTINUOUS
 62
     7
 10
55.93497909107094
 20
214.3571391150768
 11
55.26153760077904
 21
213.4977907265536
  0
LINE
  8
0
  6
CONTINUOUS
 62
     7
 10
56.96761963156897
 20
218.2222615566168
 11
56.47923411974121
 21
218.2222615566168
  0
LINE
  8
0
  6
CONTINUOUS
 62
     7
 10
57.88502147390027
 20
216.9575875345475
 11
55.93497909107094
 21
214.3571391150768
  0
LINE
  8
0
  6
CONTINUOUS
 62
     7
 10
58.08302475814067
 20
218.2222615566168
 11
58.08302475814067
 21
217.5511296797314
  0
POLYLINE
  8
0
  6
CONTINUOUS
 62
     7
 66
     1
  0
VERTEX
  8
0
  6
CONTINUOUS
 62
     7
 10
57.88502147390027
 20
216.9575875345475
  0
VERTEX
  8
0
  6
CONTINUOUS
 62
     7
 10
57.90902822623221
 20
216.9910953949891
  0
VERTEX
  8
0
  6
CONTINUOUS
 62
     7
 10
57.93165127081966
 20
217.0255947586599
  0
VERTEX
  8
0
  6
CONTINUOUS
 62
     7
 10
57.95283232385619
 20
217.0609975119199
  0
VERTEX
  8
0
  6
CONTINUOUS
 62
     7
 10
57.97251310153536
 20
217.0972155411289
  0
VERTEX
  8
0
  6
CONTINUOUS
 62
     7
 10
57.99117068884395
 20
217.1353003349017
  0
VERTEX
  8
0
  6
CONTINUOUS
 62
     7
 10
58.00820060170447
 20
217.1741826483605
  0
VERTEX
  8
0
  6
CONTINUOUS
 62
     7
 10
58.02355645534936
 20
217.2137558144227
  0
VERTEX
  8
0
  6
CONTINUOUS
 62
     7
 10
58.03719186501102
 20
217.2539131660058
  0
VERTEX
  8
0
  6
CONTINUOUS
 62
     7
 10
58.05095948206812
 20
217.3016788588358
  0
VERTEX
  8
0
  6
CONTINUOUS
 62
     7
 10
58.06231793418706
 20
217.350106366546
  0
VERTEX
  8
0
  6
CONTINUOUS
 62
     7
 10
58.07122201854158
 20
217.3990125336881
  0
VERTEX
  8
0
  6
CONTINUOUS
 62
     7
 10
58.07776808157554
 20
217.4494816723424
  0
VERTEX
  8
0
  6
CONTINUOUS
 62
     7
 10
58.08170783536912
 20
217.5002548761419
  0
VERTEX
  8
0
  6
CONTINUOUS
 62
     7
 10
58.08302475814067
 20
217.5511296797314
  0
SEQEND
  8
0
  6
CONTINUOUS
 62
     7
  0
LINE
  8
0
  6
CONTINUOUS
 62
     7
 10
56.96761963156897
 20
218.2222615566168
 11
58.08302475814067
 21
218.2222615566168
  0
LINE
  8
0
  6
CONTINUOUS
 62
     7
 10
58.29282530039163
 20
218.2222615566168
 11
58.08302475814067
 21
218.2222615566168
  0
LINE
  8
0
  6
CONTINUOUS
 62
     7
 10
31.1033588796966
 20
213.487288033682
 11
31.32868343527003
 21
212.916545089209
  0
LINE
  8
0
  6
CONTINUOUS
 62
     7
 10
31.1033588796966
 20
213.487288033682
 11
31.08712306068897
 21
213.5080155248528
  0
LINE
  8
0
  6
CONTINUOUS
 62
     7
 10
31.08712306068897
 20
213.5080155248528
 11
30.32975695903648
 21
214.5125425641345
  0
LINE
  8
0
  6
CONTINUOUS
 62
     7
 10
29.8705362114264
 20
218.2222615566168
 11
29.37341439331657
 21
218.2222615566168
  0
LINE
  8
0
  6
CONTINUOUS
 62
     7
 10
30.32975695903648
 20
214.5125425641345
 11
28.52183382499774
 21
216.9575875345475
  0
LINE
  8
0
  6
CONTINUOUS
 62
     7
 10
28.32619575329586
 20
217.5511296797314
 11
28.52183382499774
 21
216.9575875345475
  0
LINE
  8
0
  6
CONTINUOUS
 62
     7
 10
28.32619575329586
 20
217.5511296797314
 11
28.32619575329586
 21
218.2222615566168
  0
LINE
  8
0
  6
CONTINUOUS
 62
     7
 10
28.32619575329586
 20
218.2222615566168
 11
29.37341439331657
 21
218.2222615566168
  0
LINE
  8
0
  6
CONTINUOUS
 62
     7
 10
28.32619575329587
 20
218.2222615566168
 11
28.29282530039163
 21
218.2222615566168
  0
LINE
  8
0
  6
CONTINUOUS
 62
     7
 10
32.29282530039164
 20
199.3222615566168
 11
43.29282530039163
 21
199.3222615566168
  0
LINE
  8
0
  6
CONTINUOUS
 62
     7
 10
43.29282530039163
 20
199.3222615566168
 11
54.29282530039161
 21
199.3222615566168
  0
LINE
  8
0
  6
CONTINUOUS
 62
     7
 10
79.29282530039161
 20
152.3222615566168
 11
79.29282530039161
 21
163.3222615566168
  0
LINE
  8
0
  6
CONTINUOUS
 62
     7
 10
79.29282530039161
 20
163.3222615566168
 11
79.29282530039161
 21
174.3222615566168
  0
ARC
  8
0
  6
CONTINUOUS
 62
     7
 10
50.23467107497036
 20
163.322261556617
 40
56.8357758147363
 50
340.446898813841
 51
19.5531011861649
  0
LINE
  8
0
  6
CONTINUOUS
 62
     7
 10
101.2928253003916
 20
144.8179171619143
 11
101.2928253003916
 21
163.3222615566168
  0
LINE
  8
0
  6
CONTINUOUS
 62
     7
 10
101.2928253003916
 20
163.3222615566168
 11
101.2928253003916
 21
181.8266059513193
  0
LINE
  8
0
  6
CONTINUOUS
 62
     7
 10
91.79282530039163
 20
163.7567581248739
 11
91.79282530039163
 21
162.8877649883597
  0
LINE
  8
0
  6
CONTINUOUS
 62
     7
 10
91.79282530039163
 20
162.8877649883597
 11
91.79282530039163
 21
161.524668669311
  0
LINE
  8
0
  6
CONTINUOUS
 62
     7
 10
91.79282530039163
 20
165.1198544439226
 11
91.79282530039163
 21
163.7567581248739
  0
LINE
  8
0
  6
CONTINUOUS
 62
     7
 10
91.79282530039163
 20
166.3222615566168
 11
91.79282530039163
 21
165.1198544439226
  0
LINE
  8
0
  6
CONTINUOUS
 62
     7
 10
91.79282530039163
 20
161.524668669311
 11
91.79282530039163
 21
160.3222615566168
  0
LINE
  8
0
  6
CONTINUOUS
 62
     7
 10
81.79282530039161
 20
148.8222615566168
 11
81.79282530039161
 21
177.8222615566168
  0
LINE
  8
0
  6
CONTINUOUS
 62
     7
 10
91.79282530039163
 20
171.9538477968605
 11
91.79282530039163
 21
166.3222615566168
  0
LINE
  8
0
  6
CONTINUOUS
 62
     7
 10
91.79282530039163
 20
160.3222615566168
 11
91.79282530039163
 21
154.6906753163732
  0
LINE
  8
0
  6
CONTINUOUS
 62
     7
 10
91.79282530039163
 20
173.6543082431265
 11
91.79282530039163
 21
171.9538477968605
  0
LINE
  8
0
  6
CONTINUOUS
 62
     7
 10
91.79282530039163
 20
154.6906753163732
 11
91.79282530039163
 21
152.9902148701071
  0
LINE
  8
0
  6
CONTINUOUS
 62
     7
 10
91.79282530039163
 20
152.9902148701071
 11
91.79282530039163
 21
151.6126086452392
  0
LINE
  8
0
  6
CONTINUOUS
 62
     7
 10
91.79282530039163
 20
175.0319144679944
 11
91.79282530039163
 21
173.6543082431265
  0
LINE
  8
0
  6
CONTINUOUS
 62
     7
 10
91.79282530039163
 20
175.6463854076281
 11
91.79282530039163
 21
175.0319144679944
  0
LINE
  8
0
  6
CONTINUOUS
 62
     7
 10
91.79282530039163
 20
151.6126086452392
 11
91.79282530039163
 21
150.9981377056055
  0
LINE
  8
0
  6
CONTINUOUS
 62
     7
 10
91.79282530039163
 20
176.1964884839797
 11
91.79282530039163
 21
175.6463854076281
  0
LINE
  8
0
  6
CONTINUOUS
 62
     7
 10
91.79282530039163
 20
150.9981377056055
 11
91.79282530039163
 21
150.4480346292539
  0
LINE
  8
0
  6
CONTINUOUS
 62
     7
 10
91.79282530039163
 20
178.5291678823624
 11
91.79282530039163
 21
176.1964884839797
  0
LINE
  8
0
  6
CONTINUOUS
 62
     7
 10
91.79282530039163
 20
150.4480346292539
 11
91.79282530039163
 21
148.1153552308712
  0
LINE
  8
0
  6
CONTINUOUS
 62
     7
 10
82.79282530039161
 20
147.6200548993636
 11
82.79282530039161
 21
147.8813167166262
  0
LINE
  8
0
  6
CONTINUOUS
 62
     7
 10
82.79282530039161
 20
178.7632063966074
 11
82.79282530039161
 21
179.02446821387
  0
LINE
  8
0
  6
CONTINUOUS
 62
     7
 10
91.79282530039163
 20
179.7315749950565
 11
91.79282530039163
 21
178.5291678823624
  0
LINE
  8
0
  6
CONTINUOUS
 62
     7
 10
91.79282530039163
 20
148.1153552308712
 11
91.79282530039163
 21
146.912948118177
  0
LINE
  8
0
  6
CONTINUOUS
 62
     7
 10
82.79282530039161
 20
179.02446821387
 11
82.79282530039161
 21
179.3170347577546
  0
LINE
  8
0
  6
CONTINUOUS
 62
     7
 10
91.79282530039163
 20
180.3167080828257
 11
91.79282530039163
 21
179.7315749950565
  0
LINE
  8
0
  6
CONTINUOUS
 62
     7
 10
91.79282530039163
 20
146.912948118177
 11
91.79282530039163
 21
146.3278150304079
  0
LINE
  8
0
  6
CONTINUOUS
 62
     7
 10
82.79282530039161
 20
147.327488355479
 11
82.79282530039161
 21
147.6200548993636
  0
LINE
  8
0
  6
CONTINUOUS
 62
     7
 10
91.79282530039163
 20
180.3222615566168
 11
91.79282530039163
 21
180.3167080828257
  0
LINE
  8
0
  6
CONTINUOUS
 62
     7
 10
91.79282530039163
 20
146.3278150304079
 11
91.79282530039163
 21
146.3222615566168
  0
LINE
  8
0
  6
CONTINUOUS
 62
     7
 10
116.7928253003916
 20
178.8222615566168
 11
116.7928253003916
 21
147.8222615566168
  0
LINE
  8
0
  6
CONTINUOUS
 62
     7
 10
120.7928253003916
 20
147.4222615566168
 11
120.7928253003916
 21
163.3222615566168
  0
LINE
  8
0
  6
CONTINUOUS
 62
     7
 10
121.7928253003916
 20
178.2222615566168
 11
121.7928253003916
 21
163.3222615566168
  0
LINE
  8
0
  6
CONTINUOUS
 62
     7
 10
120.7928253003916
 20
163.3222615566168
 11
120.7928253003916
 21
179.2222615566168
  0
LINE
  8
0
  6
CONTINUOUS
 62
     7
 10
121.7928253003916
 20
163.3222615566168
 11
121.7928253003916
 21
148.4222615566168
  0
LINE
  8
0
  6
CONTINUOUS
 62
     7
 10
118.7928253003916
 20
147.4222615566168
 11
118.7928253003916
 21
163.3222615566168
  0
LINE
  8
0
  6
CONTINUOUS
 62
     7
 10
118.7928253003916
 20
163.3222615566168
 11
118.7928253003916
 21
179.2222615566168
  0
LINE
  8
0
  6
CONTINUOUS
 62
     7
 10
91.80826355934019
 20
166.1536888352394
 11
91.83442084560564
 21
165.0964816694752
  0
LINE
  8
0
  6
CONTINUOUS
 62
     7
 10
91.82891948809116
 20
154.6664392839211
 11
91.81784922631691
 21
154.985800542465
  0
LINE
  8
0
  6
CONTINUOUS
 62
     7
 10
79.79282530039161
 20
151.9222615566168
 11
79.79282530039161
 21
163.3222615566168
  0
LINE
  8
0
  6
CONTINUOUS
 62
     7
 10
79.79282530039161
 20
163.3222615566168
 11
79.79282530039161
 21
174.7222615566168
  0
ARC
  8
0
  6
CONTINUOUS
 62
     7
 10
30.84282530039163
 20
235.5222615566168
 40
1.000000000000001
 50
90.0000000000002
 51
180.0
  0
ARC
  8
0
  6
CONTINUOUS
 62
     7
 10
55.74282530039162
 20
235.5222615566168
 40
1.000000000000001
 50
0.0000000000007951
 51
89.9999999999999
  0
LINE
  8
0
  6
CONTINUOUS
 62
     7
 10
55.52085401862355
 20
218.5316635465981
 11
55.45318264550336
 21
218.5223158320705
  0
LINE
  8
0
  6
CONTINUOUS
 62
     7
 10
57.36414564395127
 20
234.9009412130572
 11
56.74282530039162
 21
235.5222615566168
  0
LINE
  8
0
  6
CONTINUOUS
 62
     7
 10
58.24282530039162
 20
218.5222615566168
 11
58.24282530039162
 21
232.7796208694975
  0
ARC
  8
0
  6
CONTINUOUS
 62
     7
 10
55.24282530039162
 20
232.7796208694975
 40
3.000000000000003
 50
0.0
 51
45.00000000000011
  0
LINE
  8
0
  6
CONTINUOUS
 62
     7
 10
30.87031044068445
 20
218.5222841619083
 11
30.82000699384328
 21
218.5285418850041
  0
LINE
  8
0
  6
CONTINUOUS
 62
     7
 10
29.84282530039162
 20
235.5222615566168
 11
29.22150495683199
 21
234.9009412130572
  0
LINE
  8
0
  6
CONTINUOUS
 62
     7
 10
28.34282530039163
 20
232.7796208694975
 11
28.34282530039163
 21
218.5222615566168
  0
ARC
  8
0
  6
CONTINUOUS
 62
     7
 10
31.34282530039163
 20
232.7796208694975
 40
2.999999999999992
 50
134.9999999999999
 51
180.0
  0
ARC
  8
0
  6
CONTINUOUS
 62
     7
 10
29.24282530039163
 20
212.8709466877879
 40
1.999999999999999
 50
0.0
 51
1.306411173188451
  0
ARC
  8
0
  6
CONTINUOUS
 62
     7
 10
57.34282530039162
 20
212.8709466877879
 40
2.000000000000002
 50
178.6935888268115
 51
180.0
  0
LINE
  8
0
  6
CONTINUOUS
 62
     7
 10
31.24282530039163
 20
218.5222615566168
 11
31.24282530039163
 21
218.2222615566168
  0
LINE
  8
0
  6
CONTINUOUS
 62
     7
 10
55.34282530039162
 20
218.2222615566168
 11
55.34282530039162
 21
218.5222615566168
  0
LINE
  8
0
  6
CONTINUOUS
 62
     7
 10
31.24282530039163
 20
212.8709466877879
 11
31.24282530039163
 21
200.3222615566168
  0
LINE
  8
0
  6
CONTINUOUS
 62
     7
 10
55.34282530039162
 20
200.3222615566168
 11
55.34282530039162
 21
212.8709466877879
  0
ARC
  8
0
  6
CONTINUOUS
 62
     7
 10
31.74282530039163
 20
200.3222615566168
 40
0.5000000000000039
 50
180.0
 51
270.0
  0
ARC
  8
0
  6
CONTINUOUS
 62
     7
 10
54.84282530039162
 20
200.3222615566168
 40
0.5000000000000004
 50
270.0
 51
0.0
  0
LINE
  8
0
  6
CONTINUOUS
 62
     7
 10
52.29282530039163
 20
199.3222615566168
 11
52.29282530039163
 21
199.8222615566168
  0
LINE
  8
0
  6
CONTINUOUS
 62
     7
 10
34.29282530039163
 20
199.8222615566168
 11
34.29282530039163
 21
199.3222615566168
  0
ARC
  8
0
  6
CONTINUOUS
 62
     7
 10
56.3430852359514
 20
212.8937458884985
 40
1.000000000000004
 50
143.5912254322274
 51
178.6935888268115
  0
LINE
  8
0
  6
CONTINUOUS
 62
     7
 10
55.53828232722747
 20
213.4872880336823
 11
58.09762820911556
 21
216.9575875345476
  0
LINE
  8
0
  6
CONTINUOUS
 62
     7
 10
58.29282530039163
 20
217.5511296797314
 11
58.29282530039163
 21
218.2222615566168
  0
ARC
  8
0
  6
CONTINUOUS
 62
     7
 10
57.29282530039163
 20
217.5511296797314
 40
0.9999999999999881
 50
323.5912254322283
 51
0.0
  0
ARC
  8
0
  6
CONTINUOUS
 62
     7
 10
30.24256536483186
 20
212.8937458884985
 40
0.9999999999999963
 50
1.306411173188451
 51
36.40877456777265
  0
LINE
  8
0
  6
CONTINUOUS
 62
     7
 10
28.48802239166769
 20
216.9575875345476
 11
31.04736827355579
 21
213.4872880336823
  0
ARC
  8
0
  6
CONTINUOUS
 62
     7
 10
29.29282530039163
 20
217.5511296797314
 40
1.000000000000001
 50
180.0
 51
216.4087745677717
  0
LINE
  8
0
  6
CONTINUOUS
 62
     7
 10
28.29282530039163
 20
218.2222615566168
 11
28.29282530039163
 21
217.5511296797314
  0
LINE
  8
0
  6
CONTINUOUS
 62
     7
 10
54.29282530039162
 20
174.3222615566168
 11
54.29282530039162
 21
199.3222615566168
  0
LINE
  8
0
  6
CONTINUOUS
 62
     7
 10
32.29282530039163
 20
199.3222615566168
 11
32.29282530039163
 21
172.3222615566168
  0
ARC
  8
0
  6
CONTINUOUS
 62
     7
 10
52.29282530039161
 20
172.3222615566168
 40
19.99999999999998
 50
180.0
 51
270.0
  0
LINE
  8
0
  6
CONTINUOUS
 62
     7
 10
79.29282530039161
 20
174.3222615566168
 11
54.29282530039163
 21
174.3222615566168
  0
LINE
  8
0
  6
CONTINUOUS
 62
     7
 10
52.29282530039162
 20
152.3222615566168
 11
79.29282530039161
 21
152.3222615566168
  0
LINE
  8
0
  6
CONTINUOUS
 62
     7
 10
103.7935126009685
 20
182.3440847240749
 11
101.7884620326424
 21
182.3265869128514
  0
LINE
  8
0
  6
CONTINUOUS
 62
     7
 10
101.7884620326424
 20
144.3179362003822
 11
103.7939394343827
 21
144.3004346642399
  0
ARC
  8
0
  6
CONTINUOUS
 62
     7
 10
101.7928253003916
 20
144.8179171619143
 40
0.5000000000000004
 50
180.0
 51
269.5000000000003
  0
ARC
  8
0
  6
CONTINUOUS
 62
     7
 10
101.7928253003916
 20
181.8266059513193
 40
0.5000000000000014
 50
90.4999999999997
 51
180.0
  0
ARC
  8
0
  6
CONTINUOUS
 62
     7
 10
100.7928253003916
 20
146.8437007073071
 40
0.5000000000000019
 50
0.0
 51
89.49999999999477
  0
ARC
  8
0
  6
CONTINUOUS
 62
     7
 10
100.7928253003916
 20
179.8008224059265
 40
0.5000000000000004
 50
270.5000000000052
 51
0.0
  0
LINE
  8
0
  6
CONTINUOUS
 62
     7
 10
100.7971885681409
 20
179.3008414443944
 11
92.28846203264246
 21
179.2265869128514
  0
LINE
  8
0
  6
CONTINUOUS
 62
     7
 10
92.28846203264246
 20
147.4179362003822
 11
100.7971885681409
 21
147.3436816688392
  0
ARC
  8
0
  6
CONTINUOUS
 62
     7
 10
92.29282530039163
 20
178.7266059513193
 40
0.5000000000000013
 50
90.4999999999973
 51
180.0
  0
ARC
  8
0
  6
CONTINUOUS
 62
     7
 10
92.29282530039163
 20
147.9179171619143
 40
0.5000000000000004
 50
180.0
 51
269.5000000000027
  0
ARC
  8
0
  6
CONTINUOUS
 62
     7
 10
82.79282530039161
 20
177.8222615566168
 40
1.000000000000001
 50
90.0
 51
180.0
  0
ARC
  8
0
  6
CONTINUOUS
 62
     7
 10
82.79282530039161
 20
148.8222615566168
 40
1.000000000000001
 50
180.0
 51
270.0
  0
LINE
  8
0
  6
CONTINUOUS
 62
     7
 10
91.79282530039163
 20
180.3222615566168
 11
83.79282530039161
 21
180.3222615566168
  0
ARC
  8
0
  6
CONTINUOUS
 62
     7
 10
83.79282530039161
 20
179.3222615566168
 40
1.000000000000001
 50
90.0
 51
180.0000000000004
  0
LINE
  8
0
  6
CONTINUOUS
 62
     7
 10
83.79282530039161
 20
146.3222615566168
 11
91.79282530039163
 21
146.3222615566168
  0
ARC
  8
0
  6
CONTINUOUS
 62
     7
 10
83.79282530039161
 20
147.3222615566168
 40
1.000000000000001
 50
179.9999999999996
 51
270.0
  0
LINE
  8
0
  6
CONTINUOUS
 62
     7
 10
116.7928253003916
 20
178.8222615566168
 11
104.8722827687546
 21
178.8222615566168
  0
LINE
  8
0
  6
CONTINUOUS
 62
     7
 10
104.8722778158822
 20
147.8222615566168
 11
116.7928253003916
 21
147.8222615566168
  0
LINE
  8
0
  6
CONTINUOUS
 62
     7
 10
116.7928253003916
 20
147.8222615566168
 11
118.7928253003916
 21
148.3222615566168
  0
LINE
  8
0
  6
CONTINUOUS
 62
     7
 10
118.7928253003916
 20
178.3222615566168
 11
116.7928253003916
 21
178.8222615566168
  0
LINE
  8
0
  6
CONTINUOUS
 62
     7
 10
120.7928253003916
 20
147.4222615566168
 11
121.7928253003916
 21
148.4222615566168
  0
LINE
  8
0
  6
CONTINUOUS
 62
     7
 10
121.7928253003916
 20
178.2222615566168
 11
120.7928253003916
 21
179.2222615566168
  0
LINE
  8
0
  6
CONTINUOUS
 62
     7
 10
120.7928253003916
 20
179.2222615566168
 11
118.7928253003916
 21
179.2222615566168
  0
LINE
  8
0
  6
CONTINUOUS
 62
     7
 10
118.7928253003916
 20
147.4222615566168
 11
120.7928253003916
 21
147.4222615566168
  0
LINE
  8
0
  6
CONTINUOUS
 62
     7
 10
91.79282530039164
 20
150.9217608585974
 11
91.82704548871675
 21
150.9873690239426
  0
LINE
  8
0
  6
CONTINUOUS
 62
     7
 10
81.79282530039161
 20
175.2222615566168
 11
80.29282530039161
 21
175.2222615566168
  0
LINE
  8
0
  6
CONTINUOUS
 62
     7
 10
80.29282530039161
 20
151.4222615566168
 11
81.79282530039161
 21
151.4222615566168
  0
ARC
  8
0
  6
CONTINUOUS
 62
     7
 10
80.29282530039161
 20
151.9222615566168
 40
0.5000000000000004
 50
180.0
 51
270.0
  0
ARC
  8
0
  6
CONTINUOUS
 62
     7
 10
80.29282530039161
 20
174.7222615566168
 40
0.5000000000000004
 50
90.0
 51
180.0
  0
LINE
  8
0
  6
CONTINUOUS
 62
     7
 10
79.29282530039161
 20
154.3222615566168
 11
79.79282530039161
 21
154.3222615566168
  0
LINE
  8
0
  6
CONTINUOUS
 62
     7
 10
79.79282530039161
 20
172.3222615566168
 11
79.29282530039161
 21
172.3222615566168
  0
ENDBLK
  8
0
  0
ENDSEC
  0
SECTION
  2
ENTITIES
  0
TEXT
  8
0
  6
CONTINUOUS
 62
     7
 10
137.3704107790421
 20
105.9795454545454
 40
3.0
  1
ＡＭＳ－ＡＳＶ
  0
LINE
  8
0
  6
CENTER
 62
     1
 10
138.993609741815
 20
163.3429418782313
 11
181.0638891248476
 21
163.3429418782313
  0
INSERT
  8
0
  6
CONTINUOUS
 62
     7
  2
D_FRAME_VIEW_1552
 10
0.0
 20
0.0
 30
0.0
  0
LINE
  8
0
  6
CENTER
 62
     1
 10
160.0287494333313
 20
140.0
 11
160.0287494333313
 21
240.0
  0
LINE
  8
0
  6
CENTER
 62
     1
 10
43.29282530039163
 20
163.3222615566168
 11
125.0
 21
163.3222615566168
  0
LINE
  8
0
  6
CENTER
 62
     1
 10
43.29282530039163
 20
240.0
 11
43.29282530039163
 21
163.3222615566168
  0
INSERT
  8
0
  6
CONTINUOUS
 62
     7
  2
D_FRAME_VIEW_2009
 10
0.0
 20
0.0
 30
0.0
  0
INSERT
  8
0
  6
CONTINUOUS
 62
     7
  2
D_FRAME_VIEW_1280
 10
0.0
 20
0.0
 30
0.0
  0
ENDSEC
  0
EOF
