  0
SECTION
  2
HEADER
  9
$ACADVER
  1
AC1006
  9
$DWGCODEPAGE
  3
ansi_932
  9
$INSBASE
 10
0.0
 20
0.0
 30
0.0
  9
$EXTMIN
 10
-383.6666666666667
 20
-144.7295454545455
  9
$EXTMAX
 10
-259.6666666666667
 20
259.5
  9
$LIMMIN
 10
0.0
 20
0.0
  9
$LIMMAX
 10
12.0
 20
9.0
  9
$ORTHOMODE
 70
     0
  9
$REGENMODE
 70
     1
  9
$FILLMODE
 70
     1
  9
$QTEXTMODE
 70
     0
  9
$MIRRTEXT
 70
     1
  9
$DRAGMODE
 70
     2
  9
$LTSCALE
 40
1.0
  9
$OSMODE
 70
    37
  9
$ATTMODE
 70
     1
  9
$TEXTSIZE
 40
0.2
  9
$TRACEWID
 40
0.05
  9
$TEXTSTYLE
  7
STANDARD
  9
$CLAYER
  8
0
  9
$CELTYPE
  6
BYLAYER
  9
$CECOLOR
 62
   256
  9
$DIMSCALE
 40
1.0
  9
$DIMASZ
 40
3.0
  9
$DIMEXO
 40
0.0625
  9
$DIMDLI
 40
0.38
  9
$DIMRND
 40
0.0
  9
$DIMDLE
 40
0.0
  9
$DIMEXE
 40
1.5
  9
$DIMTP
 40
0.0
  9
$DIMTM
 40
0.0
  9
$DIMTXT
 40
3.0
  9
$DIMCEN
 40
0.09
  9
$DIMTSZ
 40
0.0
  9
$DIMTOL
 70
     0
  9
$DIMLIM
 70
     0
  9
$DIMTIH
 70
     1
  9
$DIMTOH
 70
     1
  9
$DIMSE1
 70
     0
  9
$DIMSE2
 70
     0
  9
$DIMTAD
 70
     1
  9
$DIMZIN
 70
     0
  9
$DIMBLK
  1

  9
$DIMASO
 70
     1
  9
$DIMSHO
 70
     1
  9
$DIMPOST
  1

  9
$DIMAPOST
  1

  9
$DIMALT
 70
     0
  9
$DIMALTD
 70
     2
  9
$DIMALTF
 40
25.4
  9
$DIMLFAC
 40
1.0
  9
$DIMTOFL
 70
     0
  9
$DIMTVP
 40
0.0
  9
$DIMTIX
 70
     0
  9
$DIMSOXD
 70
     0
  9
$DIMSAH
 70
     0
  9
$DIMBLK1
  1

  9
$DIMBLK2
  1

  9
$LUNITS
 70
     2
  9
$LUPREC
 70
     4
  9
$SKETCHINC
 40
0.1
  9
$FILLETRAD
 40
0.5
  9
$AUNITS
 70
     0
  9
$AUPREC
 70
     0
  9
$MENU
  1
.
  9
$ELEVATION
 40
0.0
  9
$THICKNESS
 40
0.0
  9
$LIMCHECK
 70
     0
  9
$CHAMFERA
 40
0.0
  9
$CHAMFERB
 40
0.0
  9
$SKPOLY
 70
     0
  9
$TDCREATE
 40
2460669.391017072
  9
$TDUPDATE
 40
2460669.391017569
  9
$TDINDWG
 40
0.0000000116
  9
$TDUSRTIMER
 40
0.0000000116
  9
$USRTIMER
 70
     1
  9
$ANGBASE
 50
0.0
  9
$ANGDIR
 70
     0
  9
$PDMODE
 70
     0
  9
$PDSIZE
 40
0.0
  9
$PLINEWID
 40
0.0
  9
$COORDS
 70
     1
  9
$SPLFRAME
 70
     0
  9
$SPLINETYPE
 70
     6
  9
$SPLINESEGS
 70
     8
  9
$ATTDIA
 70
     0
  9
$ATTREQ
 70
     1
  9
$HANDLING
 70
     1
  9
$HANDSEED
  5
46B
  9
$SURFTAB1
 70
     6
  9
$SURFTAB2
 70
     6
  9
$SURFTYPE
 70
     6
  9
$SURFU
 70
     6
  9
$SURFV
 70
     6
  9
$UCSNAME
  2

  9
$UCSORG
 10
0.0
 20
0.0
 30
0.0
  9
$UCSXDIR
 10
1.0
 20
0.0
 30
0.0
  9
$UCSYDIR
 10
0.0
 20
1.0
 30
0.0
  9
$USERI1
 70
     0
  9
$USERI2
 70
     0
  9
$USERI3
 70
     0
  9
$USERI4
 70
     0
  9
$USERI5
 70
     0
  9
$USERR1
 40
0.0
  9
$USERR2
 40
0.0
  9
$USERR3
 40
0.0
  9
$USERR4
 40
0.0
  9
$USERR5
 40
0.0
  9
$WORLDVIEW
 70
     1
  0
ENDSEC
  0
SECTION
  2
TABLES
  0
TABLE
  2
VPORT
 70
     1
  0
VPORT
  2
*ACTIVE
 70
     0
 10
0.0
 20
0.0
 11
1.0
 21
1.0
 12
-321.6666666666667
 22
57.38522727272726
 13
0.0
 23
0.0
 14
0.5
 24
0.5
 15
0.5
 25
0.5
 16
0.0
 26
0.0
 36
1.0
 17
0.0
 27
0.0
 37
0.0
 40
404.2295454545455
 41
1.6
 42
50.0
 43
0.0
 44
0.0
 50
0.0
 51
0.0
 71
     0
 72
   100
 73
     1
 74
     3
 75
     0
 76
     0
 77
     0
 78
     0
  0
ENDTAB
  0
TABLE
  2
LTYPE
 70
     2
  0
LTYPE
  2
CONTINUOUS
 70
     0
  3
Solid line
 72
    65
 73
     0
 40
0.0
  0
LTYPE
  2
CENTER
 70
     0
  3

 72
    65
 73
     0
 40
0.0
  0
ENDTAB
  0
TABLE
  2
LAYER
 70
     2
  0
LAYER
  2
0
 70
     0
 62
     7
  6
CONTINUOUS
  0
LAYER
  2
1
 70
     0
 62
     7
  6
CONTINUOUS
  0
ENDTAB
  0
TABLE
  2
STYLE
 70
     2
  0
STYLE
  2
STANDARD
 70
     0
 40
0.0
 41
1.0
 50
0.0
 71
     0
 42
0.2
  3
txt
  4

  0
STYLE
  2
ＭＳ_ゴシック
 70
     0
 40
0.0
 41
1.0
 50
0.0
 71
     0
 42
0.2
  3
ＭＳ ゴシック.shx
  4

  0
ENDTAB
  0
TABLE
  2
VIEW
 70
     0
  0
ENDTAB
  0
TABLE
  2
UCS
 70
     0
  0
ENDTAB
  0
ENDSEC
  0
SECTION
  2
BLOCKS
  0
BLOCK
  8
0
  2
D_FRAME_VIEW_1492
 70
     0
 10
0.0
 20
0.0
 30
0.0
  0
CIRCLE
  5
78
  8
1
  6
CONTINUOUS
 62
     7
 10
-297.6666666666667
 20
197.5
 30
0.0
 40
2.000000000000002
  0
CIRCLE
  5
79
  8
1
  6
CONTINUOUS
 62
     7
 10
-345.6666666666667
 20
197.5
 30
0.0
 40
2.000000000000002
  0
ARC
  5
7A
  8
1
  6
CONTINUOUS
 62
     7
 10
-297.9581005339559
 20
188.7185585595793
 30
0.0
 40
1.999999999999998
 50
335.2790522785055
 51
0.0
  0
LINE
  5
7B
  8
1
  6
CONTINUOUS
 62
     9
 10
-297.9581005339559
 20
188.7185585595793
 30
0.0
 11
-297.4586139447586
 21
190.6551827221912
 31
0.0
  0
ARC
  5
7C
  8
1
  6
CONTINUOUS
 62
     7
 10
-297.9581005339559
 20
188.7185585595793
 30
0.0
 40
2.0
 50
0.0
 51
75.53767779197432
  0
LINE
  5
7D
  8
1
  6
CONTINUOUS
 62
     9
 10
-296.1413898503472
 20
187.8821601544744
 30
0.0
 11
-297.9581005339559
 21
188.7185585595794
 31
0.0
  0
LINE
  5
7E
  8
1
  6
CONTINUOUS
 62
     7
 10
-331.5702134467307
 20
177.1395109161884
 30
0.0
 11
-331.7497822715731
 21
175.0870298562954
 31
0.0
  0
LINE
  5
7F
  8
1
  6
CONTINUOUS
 62
     9
 10
-331.5702134467307
 20
177.1395109161884
 30
0.0
 11
-329.5778240505472
 21
176.965199430693
 31
0.0
  0
LINE
  5
80
  8
1
  6
CONTINUOUS
 62
     9
 10
-329.5778240505472
 20
176.965199430693
 30
0.0
 11
-329.7573928753895
 21
174.9127183708001
 31
0.0
  0
LINE
  5
81
  8
1
  6
CONTINUOUS
 62
     9
 10
-331.749782271573
 20
175.0870298562954
 30
0.0
 11
-329.7573928753895
 21
174.9127183708001
 31
0.0
  0
LINE
  5
82
  8
1
  6
CONTINUOUS
 62
     9
 10
-297.9581005339559
 20
188.7185585595793
 30
0.0
 11
-299.92888030604
 21
189.2268544310352
 31
0.0
  0
LINE
  5
83
  8
1
  6
CONTINUOUS
 62
     9
 10
-299.92888030604
 20
189.2268544310352
 30
0.0
 11
-299.4293937168428
 21
191.163478593647
 31
0.0
  0
LINE
  5
84
  8
1
  6
CONTINUOUS
 62
     7
 10
-297.4586139447586
 20
190.6551827221913
 30
0.0
 11
-299.4293937168428
 21
191.1634785936471
 31
0.0
  0
ARC
  5
85
  8
1
  6
CONTINUOUS
 62
     7
 10
-329.5778240505472
 20
176.965199430693
 30
0.0
 40
2.0
 50
70.52248781407008
 51
174.9999999999999
  0
LINE
  5
86
  8
1
  6
CONTINUOUS
 62
     9
 10
-329.5778240505472
 20
176.965199430693
 30
0.0
 11
-328.9109503314073
 21
178.8507442969639
 31
0.0
  0
ARC
  5
87
  8
1
  6
CONTINUOUS
 62
     9
 10
-321.5753394208686
 20
199.5917378259438
 30
0.0
 40
24.00000000000001
 50
250.52248781407
 51
334.4136973144787
  0
ARC
  5
88
  8
1
  6
CONTINUOUS
 62
     7
 10
-321.5753394208686
 20
199.5917378259438
 30
0.0
 40
22.0
 50
250.52248781407
 51
334.4136973144787
  0
LINE
  5
89
  8
1
  6
CONTINUOUS
 62
     9
 10
-299.92888030604
 20
189.2268544310352
 30
0.0
 11
-301.7327518989424
 21
190.0905947139442
 31
0.0
  0
ARC
  5
8A
  8
1
  6
CONTINUOUS
 62
     7
 10
-299.92888030604
 20
189.2268544310352
 30
0.0
 40
1.999999999999999
 50
75.53767779197437
 51
154.4136973144784
  0
ARC
  5
8B
  8
1
  6
CONTINUOUS
 62
     9
 10
-321.5753394208686
 20
199.5917378259438
 30
0.0
 40
26.00000000000001
 50
251.6576362029118
 51
335.2790522785055
  0
LINE
  5
8C
  8
1
  6
CONTINUOUS
 62
     9
 10
-330.3867816026603
 20
173.0143322588659
 30
0.0
 11
-329.7573928753895
 21
174.9127183708001
 31
0.0
  0
ARC
  5
8D
  8
1
  6
CONTINUOUS
 62
     7
 10
-329.7573928753895
 20
174.9127183708001
 30
0.0
 40
2.0
 50
174.9999999999999
 51
251.6576362029118
  0
ARC
  5
8E
  8
1
  6
CONTINUOUS
 62
     7
 10
-321.5753394208686
 20
199.5917378259438
 30
0.0
 40
28.00000000000001
 50
251.6576362029118
 51
335.2790522785055
  0
ARC
  5
8F
  8
1
  6
CONTINUOUS
 62
     7
 10
-303.0676907087725
 20
193.1345789386088
 30
0.0
 40
1.000000000000001
 50
255.5376777919744
 51
354.9999999999999
  0
LINE
  5
90
  8
1
  6
CONTINUOUS
 62
     7
 10
-302.0714960106807
 20
193.0474231958611
 30
0.0
 11
-302.0268942775929
 21
193.5572233378491
 31
0.0
  0
CIRCLE
  5
91
  8
1
  6
CONTINUOUS
 62
     7
 10
-311.4511883227953
 20
189.1004686956115
 30
0.0
 40
1.249999999999999
  0
CIRCLE
  5
92
  8
1
  6
CONTINUOUS
 62
     7
 10
-333.0479006240723
 20
194.6706089290631
 30
0.0
 40
1.250000000000001
  0
CIRCLE
  5
93
  8
1
  6
CONTINUOUS
 62
     7
 10
-322.2495444734338
 20
191.8855388123373
 30
0.0
 40
1.25
  0
LINE
  5
94
  8
1
  6
CONTINUOUS
 62
     7
 10
-336.371400502485
 20
200.6914176350436
 30
0.0
 11
-303.3174340033711
 21
192.1662668573029
 31
0.0
  0
LINE
  5
95
  8
1
  6
CONTINUOUS
 62
     7
 10
-293.9875111414687
 20
193.6580871003271
 30
0.0
 11
-294.6205839514685
 21
186.4220317705741
 31
0.0
  0
ARC
  5
96
  8
1
  6
CONTINUOUS
 62
     7
 10
-336.6211437970837
 20
199.7231055537377
 30
0.0
 40
0.9999999999999998
 50
75.53767779197457
 51
175.0000000000001
  0
LINE
  5
97
  8
1
  6
CONTINUOUS
 62
     7
 10
-339.4710961622458
 20
178.6217142052262
 30
0.0
 11
-337.6173384951754
 21
199.8102612964854
 31
0.0
  0
ARC
  5
98
  8
1
  6
CONTINUOUS
 62
     7
 10
-334.490122671787
 20
178.185935491488
 30
0.0
 40
5.000000000000001
 50
175.0000000000001
 51
238.8961188626601
  0
ARC
  5
99
  8
1
  6
CONTINUOUS
 62
     7
 10
-321.5753394208686
 20
199.5917378259438
 30
0.0
 40
30.0
 50
238.89611886266
 51
333.9605302186827
  0
LINE
  5
9A
  8
1
  6
CONTINUOUS
 62
     9
 10
-345.3752327993776
 20
206.2814414404207
 30
0.0
 11
-343.4044530272934
 21
205.7731455689648
 31
0.0
  0
LINE
  5
9B
  8
1
  6
CONTINUOUS
 62
     9
 10
-343.4044530272934
 20
205.7731455689648
 30
0.0
 11
-343.9039396164907
 21
203.836521406353
 31
0.0
  0
LINE
  5
9C
  8
1
  6
CONTINUOUS
 62
     7
 10
-345.8747193885748
 20
204.3448172778088
 30
0.0
 11
-343.9039396164907
 21
203.836521406353
 31
0.0
  0
LINE
  5
9D
  8
1
  6
CONTINUOUS
 62
     9
 10
-345.3752327993776
 20
206.2814414404206
 30
0.0
 11
-345.8747193885748
 21
204.3448172778087
 31
0.0
  0
ARC
  5
9E
  8
1
  6
CONTINUOUS
 62
     7
 10
-345.3752327993776
 20
206.2814414404207
 30
0.0
 40
2.0
 50
155.2790522785054
 51
255.5376777919742
  0
LINE
  5
9F
  8
1
  6
CONTINUOUS
 62
     9
 10
-347.1919434829862
 20
207.1178398455256
 30
0.0
 11
-345.3752327993776
 21
206.2814414404206
 31
0.0
  0
ARC
  5
A0
  8
1
  6
CONTINUOUS
 62
     7
 10
-313.7555092827862
 20
218.034800569307
 30
0.0
 40
2.0
 50
250.52248781407
 51
354.9999999999999
  0
LINE
  5
A1
  8
1
  6
CONTINUOUS
 62
     9
 10
-313.7555092827862
 20
218.034800569307
 30
0.0
 11
-314.4223830019261
 21
216.1492557030361
 31
0.0
  0
LINE
  5
A2
  8
1
  6
CONTINUOUS
 62
     9
 10
-311.7631198866027
 20
217.8604890838117
 30
0.0
 11
-313.7555092827862
 21
218.034800569307
 31
0.0
  0
LINE
  5
A3
  8
1
  6
CONTINUOUS
 62
     7
 10
-311.7631198866027
 20
217.8604890838117
 30
0.0
 11
-311.5835510617604
 21
219.9129701437046
 31
0.0
  0
LINE
  5
A4
  8
1
  6
CONTINUOUS
 62
     9
 10
-313.7555092827862
 20
218.034800569307
 30
0.0
 11
-313.5759404579439
 21
220.0872816291999
 31
0.0
  0
LINE
  5
A5
  8
1
  6
CONTINUOUS
 62
     9
 10
-311.5835510617604
 20
219.9129701437046
 30
0.0
 11
-313.5759404579439
 21
220.0872816291999
 31
0.0
  0
ARC
  5
A6
  8
1
  6
CONTINUOUS
 62
     9
 10
-321.7579939124648
 20
195.4082621740562
 30
0.0
 40
24.0
 50
70.52248781407002
 51
154.4136973144787
  0
ARC
  5
A7
  8
1
  6
CONTINUOUS
 62
     7
 10
-321.7579939124648
 20
195.4082621740562
 30
0.0
 40
22.0
 50
70.52248781407008
 51
154.4136973144787
  0
LINE
  5
A8
  8
1
  6
CONTINUOUS
 62
     9
 10
-343.4044530272934
 20
205.7731455689648
 30
0.0
 11
-341.600581434391
 21
204.9094052860558
 31
0.0
  0
ARC
  5
A9
  8
1
  6
CONTINUOUS
 62
     9
 10
-321.7579939124648
 20
195.4082621740562
 30
0.0
 40
26.00000000000001
 50
71.65763620291173
 51
155.2790522785054
  0
ARC
  5
AA
  8
1
  6
CONTINUOUS
 62
     7
 10
-343.4044530272934
 20
205.7731455689648
 30
0.0
 40
1.999999999999999
 50
255.5376777919744
 51
334.4136973144784
  0
ARC
  5
AB
  8
1
  6
CONTINUOUS
 62
     7
 10
-313.5759404579439
 20
220.0872816291999
 30
0.0
 40
2.0
 50
354.9999999999999
 51
0.0000000000001705
  0
LINE
  5
AC
  8
1
  6
CONTINUOUS
 62
     9
 10
-312.9465517306731
 20
221.9856677411341
 30
0.0
 11
-313.5759404579439
 21
220.0872816292
 31
0.0
  0
ARC
  5
AD
  8
1
  6
CONTINUOUS
 62
     7
 10
-313.5759404579439
 20
220.0872816291999
 30
0.0
 40
1.999999999999999
 50
0.0000000000002274
 51
71.65763620291159
  0
ARC
  5
AE
  8
1
  6
CONTINUOUS
 62
     7
 10
-321.7579939124648
 20
195.4082621740562
 30
0.0
 40
28.00000000000001
 50
71.65763620291173
 51
155.2790522785054
  0
LINE
  5
AF
  8
1
  6
CONTINUOUS
 62
     7
 10
-306.9619328308484
 20
194.3085823649564
 30
0.0
 11
-340.0158993299623
 21
202.8337331426972
 31
0.0
  0
LINE
  5
B0
  8
1
  6
CONTINUOUS
 62
     7
 10
-341.2618373226527
 20
201.9525768041389
 30
0.0
 11
-341.3064390557406
 21
201.4427766621509
 31
0.0
  0
ARC
  5
B1
  8
1
  6
CONTINUOUS
 62
     7
 10
-321.7579939124648
 20
195.4082621740562
 30
0.0
 40
30.0
 50
58.8961188626601
 51
153.9605302186828
  0
ARC
  5
B2
  8
1
  6
CONTINUOUS
 62
     7
 10
-308.8432106615463
 20
216.8140645085121
 30
0.0
 40
5.000000000000001
 50
355.0000000000001
 51
58.8961188626601
  0
CIRCLE
  5
B3
  8
1
  6
CONTINUOUS
 62
     7
 10
-331.8821450105381
 20
205.8995313043885
 30
0.0
 40
1.249999999999999
  0
CIRCLE
  5
B4
  8
1
  6
CONTINUOUS
 62
     7
 10
-321.0837888598996
 20
203.1144611876627
 30
0.0
 40
1.25
  0
CIRCLE
  5
B5
  8
1
  6
CONTINUOUS
 62
     7
 10
-310.2854327092611
 20
200.3293910709369
 30
0.0
 40
1.250000000000001
  0
LINE
  5
B6
  8
1
  6
CONTINUOUS
 62
     7
 10
-303.8622371710876
 20
216.3782857947738
 30
0.0
 11
-305.715994838158
 21
195.1897387035146
 31
0.0
  0
LINE
  5
B7
  8
1
  6
CONTINUOUS
 62
     7
 10
-349.3458221918647
 20
201.3419128996729
 30
0.0
 11
-348.712749381865
 21
208.5779682294259
 31
0.0
  0
ARC
  5
B8
  8
1
  6
CONTINUOUS
 62
     7
 10
-340.2656426245609
 20
201.8654210613912
 30
0.0
 40
1.000000000000001
 50
75.5376777919746
 51
174.9999999999999
  0
ARC
  5
B9
  8
1
  6
CONTINUOUS
 62
     7
 10
-306.7121895362498
 20
195.2768944462623
 30
0.0
 40
1.0
 50
255.5376777919745
 51
355.0000000000002
  0
LINE
  5
BA
  8
1
  6
CONTINUOUS
 62
     9
 10
-349.426482246458
 20
191.6775450434
 30
0.0
 11
-348.4483745878254
 21
191.8826972631157
 31
0.0
  0
LINE
  5
BB
  8
1
  6
CONTINUOUS
 62
     9
 10
-348.4483745878254
 20
190.8828495679593
 30
0.0
 11
-348.4483745878254
 21
191.8826972631157
 31
0.0
  0
POLYLINE
  5
BC
  8
1
  6
CONTINUOUS
 62
     9
 66
     1
 10
0.0
 20
0.0
 30
0.0
  0
VERTEX
  5
27D
  8
1
  6
CONTINUOUS
 62
     9
 10
-349.4264822464579
 20
191.6775450434
 30
0.0
  0
VERTEX
  5
27E
  8
1
  6
CONTINUOUS
 62
     9
 10
-349.3681806173106
 20
191.4920039585831
 30
0.0
  0
VERTEX
  5
27F
  8
1
  6
CONTINUOUS
 62
     9
 10
-349.2750859858023
 20
191.3212414168842
 30
0.0
  0
VERTEX
  5
280
  8
1
  6
CONTINUOUS
 62
     9
 10
-349.1507197919215
 20
191.1717167600843
 30
0.0
  0
VERTEX
  5
281
  8
1
  6
CONTINUOUS
 62
     9
 10
-348.9997863680368
 20
191.049085976044
 30
0.0
  0
VERTEX
  5
282
  8
1
  6
CONTINUOUS
 62
     9
 10
-348.8279949906752
 20
190.9579877527279
 30
0.0
  0
VERTEX
  5
283
  8
1
  6
CONTINUOUS
 62
     9
 10
-348.6418439188246
 20
190.9018680130776
 30
0.0
  0
VERTEX
  5
284
  8
1
  6
CONTINUOUS
 62
     9
 10
-348.4483745878254
 20
190.8828495679593
 30
0.0
  0
SEQEND
  5
44A
  8
1
  6
CONTINUOUS
 62
     9
  0
LINE
  5
BD
  8
1
  6
CONTINUOUS
 62
     9
 10
-348.8782022393244
 20
200.3889965368699
 30
0.0
 11
-349.8720078407118
 21
200.4945069713349
 31
0.0
  0
POLYLINE
  5
BE
  8
1
  6
CONTINUOUS
 62
     9
 66
     1
 10
0.0
 20
0.0
 30
0.0
  0
VERTEX
  5
285
  8
1
  6
CONTINUOUS
 62
     9
 10
-348.8782022393244
 20
201.3876260716245
 30
0.0
  0
VERTEX
  5
286
  8
1
  6
CONTINUOUS
 62
     9
 10
-349.0856492521648
 20
201.3655625930029
 30
0.0
  0
VERTEX
  5
287
  8
1
  6
CONTINUOUS
 62
     9
 10
-349.284062817898
 20
201.3009737596226
 30
0.0
  0
VERTEX
  5
288
  8
1
  6
CONTINUOUS
 62
     9
 10
-349.4648028581404
 20
201.1966721442078
 30
0.0
  0
VERTEX
  5
289
  8
1
  6
CONTINUOUS
 62
     9
 10
-349.619998902398
 20
201.0571996445335
 30
0.0
  0
VERTEX
  5
28A
  8
1
  6
CONTINUOUS
 62
     9
 10
-349.742892814037
 20
200.8886297028318
 30
0.0
  0
VERTEX
  5
28B
  8
1
  6
CONTINUOUS
 62
     9
 10
-349.828133078782
 20
200.6983028328625
 30
0.0
  0
VERTEX
  5
28C
  8
1
  6
CONTINUOUS
 62
     9
 10
-349.8720078407118
 20
200.4945069713349
 30
0.0
  0
SEQEND
  5
44B
  8
1
  6
CONTINUOUS
 62
     9
  0
LINE
  5
BF
  8
1
  6
CONTINUOUS
 62
     9
 10
-348.8782022393244
 20
200.3889965368699
 30
0.0
 11
-348.8782022393244
 21
201.3876260716245
 31
0.0
  0
LINE
  5
C0
  8
1
  6
CONTINUOUS
 62
     9
 10
-340.1493639297825
 20
200.3889965368699
 30
0.0
 11
-348.8782022393245
 21
200.3889965368699
 31
0.0
  0
LINE
  5
C1
  8
1
  6
CONTINUOUS
 62
     9
 10
-348.8782022393244
 20
201.3876260716245
 30
0.0
 11
-340.1493639297824
 21
201.3876260716245
 31
0.0
  0
LINE
  5
C2
  8
1
  6
CONTINUOUS
 62
     9
 10
-340.1493639297825
 20
200.3889965368699
 30
0.0
 11
-340.1493639297825
 21
201.3876260716245
 31
0.0
  0
LINE
  5
C3
  8
1
  6
CONTINUOUS
 62
     9
 10
-303.183969403551
 20
203.1173027368843
 30
0.0
 11
-304.1838170987073
 21
203.1173027368843
 31
0.0
  0
POLYLINE
  5
C4
  8
1
  6
CONTINUOUS
 62
     9
 66
     1
 10
0.0
 20
0.0
 30
0.0
  0
VERTEX
  5
28D
  8
1
  6
CONTINUOUS
 62
     9
 10
-303.183969403551
 20
204.1171504320407
 30
0.0
  0
VERTEX
  5
28E
  8
1
  6
CONTINUOUS
 62
     9
 10
-303.3789926852147
 20
204.0978866633745
 30
0.0
  0
VERTEX
  5
28F
  8
1
  6
CONTINUOUS
 62
     9
 10
-303.5665242284194
 20
204.0409541699715
 30
0.0
  0
VERTEX
  5
290
  8
1
  6
CONTINUOUS
 62
     9
 10
-303.7393600867313
 20
203.948539989947
 30
0.0
  0
VERTEX
  5
291
  8
1
  6
CONTINUOUS
 62
     9
 10
-303.8908608423549
 20
203.8241941756882
 30
0.0
  0
VERTEX
  5
292
  8
1
  6
CONTINUOUS
 62
     9
 10
-304.0152066566136
 20
203.6726934200646
 30
0.0
  0
VERTEX
  5
293
  8
1
  6
CONTINUOUS
 62
     9
 10
-304.1076208366381
 20
203.4998575617528
 30
0.0
  0
VERTEX
  5
294
  8
1
  6
CONTINUOUS
 62
     9
 10
-304.1645533300412
 20
203.312326018548
 30
0.0
  0
VERTEX
  5
295
  8
1
  6
CONTINUOUS
 62
     9
 10
-304.1838170987074
 20
203.1173027368843
 30
0.0
  0
SEQEND
  5
44C
  8
1
  6
CONTINUOUS
 62
     9
  0
LINE
  5
C5
  8
1
  6
CONTINUOUS
 62
     9
 10
-303.183969403551
 20
203.1173027368843
 30
0.0
 11
-303.183969403551
 21
204.1171504320407
 31
0.0
  0
LINE
  5
C6
  8
1
  6
CONTINUOUS
 62
     9
 10
-293.9068510868755
 20
203.3224549566001
 30
0.0
 11
-294.884958745508
 21
203.1173027368843
 31
0.0
  0
LINE
  5
C7
  8
1
  6
CONTINUOUS
 62
     9
 10
-294.884958745508
 20
204.1171504320407
 30
0.0
 11
-294.884958745508
 21
203.1173027368843
 31
0.0
  0
POLYLINE
  5
C8
  8
1
  6
CONTINUOUS
 62
     9
 66
     1
 10
0.0
 20
0.0
 30
0.0
  0
VERTEX
  5
296
  8
1
  6
CONTINUOUS
 62
     9
 10
-293.9068510868755
 20
203.3224549566001
 30
0.0
  0
VERTEX
  5
297
  8
1
  6
CONTINUOUS
 62
     9
 10
-293.9651527160228
 20
203.507996041417
 30
0.0
  0
VERTEX
  5
298
  8
1
  6
CONTINUOUS
 62
     9
 10
-294.0582473475312
 20
203.6787585831158
 30
0.0
  0
VERTEX
  5
299
  8
1
  6
CONTINUOUS
 62
     9
 10
-294.182613541412
 20
203.8282832399157
 30
0.0
  0
VERTEX
  5
29A
  8
1
  6
CONTINUOUS
 62
     9
 10
-294.3335469652966
 20
203.950914023956
 30
0.0
  0
VERTEX
  5
29B
  8
1
  6
CONTINUOUS
 62
     9
 10
-294.5053383426582
 20
204.0420122472722
 30
0.0
  0
VERTEX
  5
29C
  8
1
  6
CONTINUOUS
 62
     9
 10
-294.6914894145088
 20
204.0981319869225
 30
0.0
  0
VERTEX
  5
29D
  8
1
  6
CONTINUOUS
 62
     9
 10
-294.884958745508
 20
204.1171504320407
 30
0.0
  0
SEQEND
  5
44D
  8
1
  6
CONTINUOUS
 62
     9
  0
ARC
  5
C9
  8
1
  6
CONTINUOUS
 62
     9
 10
-321.6666666666667
 20
197.5
 30
0.0
 40
28.36385627423848
 50
173.9397187623599
 51
191.8457305943896
  0
ARC
  5
CA
  8
1
  6
CONTINUOUS
 62
     9
 10
-321.6666666666667
 20
197.5
 30
0.0
 40
27.36446544721938
 50
173.9397187623599
 51
191.8457305943896
  0
LINE
  5
CB
  8
1
  6
CONTINUOUS
 62
     9
 10
-303.183969403551
 20
203.1173027368843
 30
0.0
 11
-303.183969403551
 21
194.6110034631301
 31
0.0
  0
LINE
  5
CC
  8
1
  6
CONTINUOUS
 62
     9
 10
-303.183969403551
 20
194.6110034631301
 30
0.0
 11
-304.1838170987073
 21
194.6110034631301
 31
0.0
  0
LINE
  5
CD
  8
1
  6
CONTINUOUS
 62
     9
 10
-304.1838170987074
 20
194.6110034631301
 30
0.0
 11
-304.1838170987074
 21
203.1173027368843
 31
0.0
  0
ARC
  5
CE
  8
1
  6
CONTINUOUS
 62
     9
 10
-321.6666666666667
 20
197.5
 30
0.0
 40
28.36385627423848
 50
353.9397187623599
 51
11.84573059438964
  0
LINE
  5
CF
  8
1
  6
CONTINUOUS
 62
     9
 10
-293.4613254926216
 20
194.5054930286651
 30
0.0
 11
-294.455131094009
 21
194.6110034631301
 31
0.0
  0
ARC
  5
D0
  8
1
  6
CONTINUOUS
 62
     9
 10
-321.6666666666667
 20
197.5
 30
0.0
 40
27.36446544721938
 50
353.9397187623599
 51
11.84573059438964
  0
LINE
  5
D1
  8
1
  6
CONTINUOUS
 62
     9
 10
-340.1493639297825
 20
190.8828495679593
 30
0.0
 11
-340.1493639297825
 21
191.8826972631157
 31
0.0
  0
LINE
  5
D2
  8
1
  6
CONTINUOUS
 62
     9
 10
-339.149516234626
 20
191.8826972631157
 30
0.0
 11
-340.1493639297824
 21
191.8826972631157
 31
0.0
  0
POLYLINE
  5
D3
  8
1
  6
CONTINUOUS
 62
     9
 66
     1
 10
0.0
 20
0.0
 30
0.0
  0
VERTEX
  5
29E
  8
1
  6
CONTINUOUS
 62
     9
 10
-340.1493639297825
 20
190.8828495679593
 30
0.0
  0
VERTEX
  5
29F
  8
1
  6
CONTINUOUS
 62
     9
 10
-339.9543406481188
 20
190.9021133366255
 30
0.0
  0
VERTEX
  5
2A0
  8
1
  6
CONTINUOUS
 62
     9
 10
-339.766809104914
 20
190.9590458300286
 30
0.0
  0
VERTEX
  5
2A1
  8
1
  6
CONTINUOUS
 62
     9
 10
-339.5939732466022
 20
191.0514600100531
 30
0.0
  0
VERTEX
  5
2A2
  8
1
  6
CONTINUOUS
 62
     9
 10
-339.4424724909786
 20
191.1758058243118
 30
0.0
  0
VERTEX
  5
2A3
  8
1
  6
CONTINUOUS
 62
     9
 10
-339.3181266767198
 20
191.3273065799354
 30
0.0
  0
VERTEX
  5
2A4
  8
1
  6
CONTINUOUS
 62
     9
 10
-339.2257124966953
 20
191.5001424382473
 30
0.0
  0
VERTEX
  5
2A5
  8
1
  6
CONTINUOUS
 62
     9
 10
-339.1687800032922
 20
191.6876739814521
 30
0.0
  0
VERTEX
  5
2A6
  8
1
  6
CONTINUOUS
 62
     9
 10
-339.149516234626
 20
191.8826972631157
 30
0.0
  0
SEQEND
  5
44E
  8
1
  6
CONTINUOUS
 62
     9
  0
LINE
  5
D4
  8
1
  6
CONTINUOUS
 62
     9
 10
-303.183969403551
 20
194.6110034631301
 30
0.0
 11
-303.183969403551
 21
193.6123739283755
 31
0.0
  0
POLYLINE
  5
D5
  8
1
  6
CONTINUOUS
 62
     9
 66
     1
 10
0.0
 20
0.0
 30
0.0
  0
VERTEX
  5
2A7
  8
1
  6
CONTINUOUS
 62
     9
 10
-304.1838170987074
 20
194.6110034631301
 30
0.0
  0
VERTEX
  5
2A8
  8
1
  6
CONTINUOUS
 62
     9
 10
-304.1644495060775
 20
194.4162922519539
 30
0.0
  0
VERTEX
  5
2A9
  8
1
  6
CONTINUOUS
 62
     9
 10
-304.1074462791674
 20
194.229055011861
 30
0.0
  0
VERTEX
  5
2AA
  8
1
  6
CONTINUOUS
 62
     9
 10
-304.0149954813505
 20
194.0564788262748
 30
0.0
  0
VERTEX
  5
2AB
  8
1
  6
CONTINUOUS
 62
     9
 10
-303.8906458275948
 20
193.9051880154538
 30
0.0
  0
VERTEX
  5
2AC
  8
1
  6
CONTINUOUS
 62
     9
 10
-303.7391704673803
 20
193.7809898625966
 30
0.0
  0
VERTEX
  5
2AD
  8
1
  6
CONTINUOUS
 62
     9
 10
-303.5663837678165
 20
193.6886517018359
 30
0.0
  0
VERTEX
  5
2AE
  8
1
  6
CONTINUOUS
 62
     9
 10
-303.3789181297205
 20
193.6317179245771
 30
0.0
  0
VERTEX
  5
2AF
  8
1
  6
CONTINUOUS
 62
     9
 10
-303.183969403551
 20
193.6123739283755
 30
0.0
  0
SEQEND
  5
44F
  8
1
  6
CONTINUOUS
 62
     9
  0
LINE
  5
D6
  8
1
  6
CONTINUOUS
 62
     9
 10
-294.455131094009
 20
193.6123739283755
 30
0.0
 11
-294.455131094009
 21
194.6110034631301
 31
0.0
  0
POLYLINE
  5
D7
  8
1
  6
CONTINUOUS
 62
     9
 66
     1
 10
0.0
 20
0.0
 30
0.0
  0
VERTEX
  5
2B0
  8
1
  6
CONTINUOUS
 62
     9
 10
-294.455131094009
 20
193.6123739283755
 30
0.0
  0
VERTEX
  5
2B1
  8
1
  6
CONTINUOUS
 62
     9
 10
-294.2476840811686
 20
193.6344374069971
 30
0.0
  0
VERTEX
  5
2B2
  8
1
  6
CONTINUOUS
 62
     9
 10
-294.0492705154355
 20
193.6990262403774
 30
0.0
  0
VERTEX
  5
2B3
  8
1
  6
CONTINUOUS
 62
     9
 10
-293.868530475193
 20
193.8033278557922
 30
0.0
  0
VERTEX
  5
2B4
  8
1
  6
CONTINUOUS
 62
     9
 10
-293.7133344309354
 20
193.9428003554665
 30
0.0
  0
VERTEX
  5
2B5
  8
1
  6
CONTINUOUS
 62
     9
 10
-293.5904405192965
 20
194.1113702971682
 30
0.0
  0
VERTEX
  5
2B6
  8
1
  6
CONTINUOUS
 62
     9
 10
-293.5052002545514
 20
194.3016971671375
 30
0.0
  0
VERTEX
  5
2B7
  8
1
  6
CONTINUOUS
 62
     9
 10
-293.4613254926216
 20
194.5054930286651
 30
0.0
  0
SEQEND
  5
450
  8
1
  6
CONTINUOUS
 62
     9
  0
LINE
  5
D8
  8
1
  6
CONTINUOUS
 62
     9
 10
-303.183969403551
 20
194.6110034631301
 30
0.0
 11
-294.4551310940089
 21
194.6110034631301
 31
0.0
  0
LINE
  5
D9
  8
1
  6
CONTINUOUS
 62
     9
 10
-294.455131094009
 20
193.6123739283755
 30
0.0
 11
-303.183969403551
 21
193.6123739283755
 31
0.0
  0
CIRCLE
  5
DA
  8
1
  6
CONTINUOUS
 62
     7
 10
-345.6666666666667
 20
197.5
 30
0.0
 40
2.100000000000001
  0
LINE
  5
DB
  8
1
  6
CONTINUOUS
 62
     9
 10
-340.1493639297825
 20
191.8826972631157
 30
0.0
 11
-340.1493639297825
 21
200.3889965368699
 31
0.0
  0
LINE
  5
DC
  8
1
  6
CONTINUOUS
 62
     9
 10
-348.4483745878254
 20
191.8826972631157
 30
0.0
 11
-340.1493639297824
 21
191.8826972631157
 31
0.0
  0
POLYLINE
  5
DD
  8
1
  6
CONTINUOUS
 62
     9
 66
     1
 10
0.0
 20
0.0
 30
0.0
  0
VERTEX
  5
2B8
  8
1
  6
CONTINUOUS
 62
     9
 10
-339.149516234626
 20
200.3889965368699
 30
0.0
  0
VERTEX
  5
2B9
  8
1
  6
CONTINUOUS
 62
     9
 10
-339.1688838272559
 20
200.5837077480461
 30
0.0
  0
VERTEX
  5
2BA
  8
1
  6
CONTINUOUS
 62
     9
 10
-339.225887054166
 20
200.770944988139
 30
0.0
  0
VERTEX
  5
2BB
  8
1
  6
CONTINUOUS
 62
     9
 10
-339.3183378519829
 20
200.9435211737252
 30
0.0
  0
VERTEX
  5
2BC
  8
1
  6
CONTINUOUS
 62
     9
 10
-339.4426875057386
 20
201.0948119845462
 30
0.0
  0
VERTEX
  5
2BD
  8
1
  6
CONTINUOUS
 62
     9
 10
-339.5941628659531
 20
201.2190101374034
 30
0.0
  0
VERTEX
  5
2BE
  8
1
  6
CONTINUOUS
 62
     9
 10
-339.7669495655169
 20
201.3113482981641
 30
0.0
  0
VERTEX
  5
2BF
  8
1
  6
CONTINUOUS
 62
     9
 10
-339.9544152036129
 20
201.3682820754229
 30
0.0
  0
VERTEX
  5
2C0
  8
1
  6
CONTINUOUS
 62
     9
 10
-340.1493639297825
 20
201.3876260716245
 30
0.0
  0
SEQEND
  5
451
  8
1
  6
CONTINUOUS
 62
     9
  0
LINE
  5
DE
  8
1
  6
CONTINUOUS
 62
     9
 10
-340.1493639297825
 20
200.3889965368699
 30
0.0
 11
-339.149516234626
 21
200.3889965368699
 31
0.0
  0
LINE
  5
DF
  8
1
  6
CONTINUOUS
 62
     9
 10
-339.149516234626
 20
200.3889965368699
 30
0.0
 11
-339.149516234626
 21
191.8826972631157
 31
0.0
  0
LINE
  5
E0
  8
1
  6
CONTINUOUS
 62
     9
 10
-294.884958745508
 20
203.1173027368843
 30
0.0
 11
-303.183969403551
 21
203.1173027368843
 31
0.0
  0
CIRCLE
  5
E1
  8
1
  6
CONTINUOUS
 62
     7
 10
-297.6666666666667
 20
197.5
 30
0.0
 40
2.100000000000001
  0
LINE
  5
E2
  8
1
  6
CONTINUOUS
 62
     9
 10
-340.1493639297825
 20
190.8828495679593
 30
0.0
 11
-348.4483745878255
 21
190.8828495679593
 31
0.0
  0
LINE
  5
E3
  8
1
  6
CONTINUOUS
 62
     9
 10
-303.183969403551
 20
204.1171504320407
 30
0.0
 11
-294.884958745508
 21
204.1171504320407
 31
0.0
  0
LINE
  5
E4
  8
1
  6
CONTINUOUS
 62
     9
 10
-348.9092531255819
 20
201.4427766621523
 30
0.0
 11
-348.8782022393231
 21
201.3876260716259
 31
0.0
  0
LINE
  5
E5
  8
1
  6
CONTINUOUS
 62
     9
 10
-349.8720078407118
 20
200.4945069713349
 30
0.0
 11
-349.9023480621387
 21
200.5505827900219
 31
0.0
  0
POLYLINE
  5
E6
  8
1
  6
CONTINUOUS
 62
     7
 66
     1
 10
0.0
 20
0.0
 30
0.0
  0
VERTEX
  5
2C1
  8
1
  6
CONTINUOUS
 62
     7
 10
-349.9023480621387
 20
200.550582790022
 30
0.0
  0
VERTEX
  5
2C2
  8
1
  6
CONTINUOUS
 62
     7
 10
-349.8979898803168
 20
200.5852488448645
 30
0.0
  0
VERTEX
  5
2C3
  8
1
  6
CONTINUOUS
 62
     7
 10
-349.8902757765671
 20
200.6313254493484
 30
0.0
  0
VERTEX
  5
2C4
  8
1
  6
CONTINUOUS
 62
     7
 10
-349.8804173231781
 20
200.6770173725184
 30
0.0
  0
VERTEX
  5
2C5
  8
1
  6
CONTINUOUS
 62
     7
 10
-349.8684461541172
 20
200.7221754196044
 30
0.0
  0
VERTEX
  5
2C6
  8
1
  6
CONTINUOUS
 62
     7
 10
-349.8542357289542
 20
200.7670946265681
 30
0.0
  0
VERTEX
  5
2C7
  8
1
  6
CONTINUOUS
 62
     7
 10
-349.8378798367809
 20
200.8113895489325
 30
0.0
  0
VERTEX
  5
2C8
  8
1
  6
CONTINUOUS
 62
     7
 10
-349.8194425860937
 20
200.8549169006395
 30
0.0
  0
VERTEX
  5
2C9
  8
1
  6
CONTINUOUS
 62
     7
 10
-349.7989880853887
 20
200.8975333956309
 30
0.0
  0
VERTEX
  5
2CA
  8
1
  6
CONTINUOUS
 62
     7
 10
-349.7765804431623
 20
200.9390957478483
 30
0.0
  0
VERTEX
  5
2CB
  8
1
  6
CONTINUOUS
 62
     7
 10
-349.7522837679108
 20
200.9794606712336
 30
0.0
  0
VERTEX
  5
2CC
  8
1
  6
CONTINUOUS
 62
     7
 10
-349.7255358268823
 20
201.0193849188656
 30
0.0
  0
VERTEX
  5
2CD
  8
1
  6
CONTINUOUS
 62
     7
 10
-349.6967983657343
 20
201.0580753245274
 30
0.0
  0
VERTEX
  5
2CE
  8
1
  6
CONTINUOUS
 62
     7
 10
-349.666183205285
 20
201.0954075616568
 30
0.0
  0
VERTEX
  5
2CF
  8
1
  6
CONTINUOUS
 62
     7
 10
-349.6338021663529
 20
201.1312573036912
 30
0.0
  0
VERTEX
  5
2D0
  8
1
  6
CONTINUOUS
 62
     7
 10
-349.5997670697566
 20
201.1655002240682
 30
0.0
  0
VERTEX
  5
2D1
  8
1
  6
CONTINUOUS
 62
     7
 10
-349.5641897363143
 20
201.1980119962253
 30
0.0
  0
VERTEX
  5
2D2
  8
1
  6
CONTINUOUS
 62
     7
 10
-349.5271819868445
 20
201.2286682936001
 30
0.0
  0
VERTEX
  5
2D3
  8
1
  6
CONTINUOUS
 62
     7
 10
-349.4887652482295
 20
201.2574320359867
 30
0.0
  0
VERTEX
  5
2D4
  8
1
  6
CONTINUOUS
 62
     7
 10
-349.4488831366872
 20
201.284375379747
 30
0.0
  0
VERTEX
  5
2D5
  8
1
  6
CONTINUOUS
 62
     7
 10
-349.4076820953776
 20
201.3094186355094
 30
0.0
  0
VERTEX
  5
2D6
  8
1
  6
CONTINUOUS
 62
     7
 10
-349.3653085674604
 20
201.3324821139024
 30
0.0
  0
VERTEX
  5
2D7
  8
1
  6
CONTINUOUS
 62
     7
 10
-349.3219089960954
 20
201.3534861255547
 30
0.0
  0
VERTEX
  5
2D8
  8
1
  6
CONTINUOUS
 62
     7
 10
-349.2776298244423
 20
201.3723509810948
 30
0.0
  0
VERTEX
  5
2D9
  8
1
  6
CONTINUOUS
 62
     7
 10
-349.232617495661
 20
201.3889969911511
 30
0.0
  0
VERTEX
  5
2DA
  8
1
  6
CONTINUOUS
 62
     7
 10
-349.1878868687022
 20
201.4031141273545
 30
0.0
  0
VERTEX
  5
2DB
  8
1
  6
CONTINUOUS
 62
     7
 10
-349.1424124776996
 20
201.4151284159199
 30
0.0
  0
VERTEX
  5
2DC
  8
1
  6
CONTINUOUS
 62
     7
 10
-349.0963477244691
 20
201.4250147002181
 30
0.0
  0
VERTEX
  5
2DD
  8
1
  6
CONTINUOUS
 62
     7
 10
-349.0498460108265
 20
201.4327478236196
 30
0.0
  0
VERTEX
  5
2DE
  8
1
  6
CONTINUOUS
 62
     7
 10
-349.0030607385874
 20
201.4383026294951
 30
0.0
  0
VERTEX
  5
2DF
  8
1
  6
CONTINUOUS
 62
     7
 10
-348.9561453095678
 20
201.4416539612153
 30
0.0
  0
VERTEX
  5
2E0
  8
1
  6
CONTINUOUS
 62
     7
 10
-348.9092531255833
 20
201.4427766621509
 30
0.0
  0
SEQEND
  5
452
  8
1
  6
CONTINUOUS
 62
     7
  0
LINE
  5
E7
  8
1
  6
CONTINUOUS
 62
     9
 10
-294.4240802077514
 20
193.5572233378477
 30
0.0
 11
-294.4551310940103
 21
193.6123739283742
 31
0.0
  0
LINE
  5
E8
  8
1
  6
CONTINUOUS
 62
     9
 10
-293.4613254926216
 20
194.5054930286651
 30
0.0
 11
-293.4309852711947
 21
194.4494172099781
 31
0.0
  0
POLYLINE
  5
E9
  8
1
  6
CONTINUOUS
 62
     7
 66
     1
 10
0.0
 20
0.0
 30
0.0
  0
VERTEX
  5
2E1
  8
1
  6
CONTINUOUS
 62
     7
 10
-293.4309852711947
 20
194.4494172099781
 30
0.0
  0
VERTEX
  5
2E2
  8
1
  6
CONTINUOUS
 62
     7
 10
-293.4353434530166
 20
194.4147511551355
 30
0.0
  0
VERTEX
  5
2E3
  8
1
  6
CONTINUOUS
 62
     7
 10
-293.4430575567663
 20
194.3686745506516
 30
0.0
  0
VERTEX
  5
2E4
  8
1
  6
CONTINUOUS
 62
     7
 10
-293.4529160101553
 20
194.3229826274816
 30
0.0
  0
VERTEX
  5
2E5
  8
1
  6
CONTINUOUS
 62
     7
 10
-293.4648871792162
 20
194.2778245803956
 30
0.0
  0
VERTEX
  5
2E6
  8
1
  6
CONTINUOUS
 62
     7
 10
-293.4790976043792
 20
194.2329053734319
 30
0.0
  0
VERTEX
  5
2E7
  8
1
  6
CONTINUOUS
 62
     7
 10
-293.4954534965526
 20
194.1886104510675
 30
0.0
  0
VERTEX
  5
2E8
  8
1
  6
CONTINUOUS
 62
     7
 10
-293.5138907472398
 20
194.1450830993605
 30
0.0
  0
VERTEX
  5
2E9
  8
1
  6
CONTINUOUS
 62
     7
 10
-293.5343452479448
 20
194.1024666043692
 30
0.0
  0
VERTEX
  5
2EA
  8
1
  6
CONTINUOUS
 62
     7
 10
-293.5567528901711
 20
194.0609042521517
 30
0.0
  0
VERTEX
  5
2EB
  8
1
  6
CONTINUOUS
 62
     7
 10
-293.5810495654226
 20
194.0205393287664
 30
0.0
  0
VERTEX
  5
2EC
  8
1
  6
CONTINUOUS
 62
     7
 10
-293.6077975064511
 20
193.9806150811345
 30
0.0
  0
VERTEX
  5
2ED
  8
1
  6
CONTINUOUS
 62
     7
 10
-293.6365349675992
 20
193.9419246754726
 30
0.0
  0
VERTEX
  5
2EE
  8
1
  6
CONTINUOUS
 62
     7
 10
-293.6671501280484
 20
193.9045924383432
 30
0.0
  0
VERTEX
  5
2EF
  8
1
  6
CONTINUOUS
 62
     7
 10
-293.6995311669805
 20
193.8687426963088
 30
0.0
  0
VERTEX
  5
2F0
  8
1
  6
CONTINUOUS
 62
     7
 10
-293.7335662635768
 20
193.8344997759318
 30
0.0
  0
VERTEX
  5
2F1
  8
1
  6
CONTINUOUS
 62
     7
 10
-293.7691435970191
 20
193.8019880037747
 30
0.0
  0
VERTEX
  5
2F2
  8
1
  6
CONTINUOUS
 62
     7
 10
-293.8061513464889
 20
193.7713317064
 30
0.0
  0
VERTEX
  5
2F3
  8
1
  6
CONTINUOUS
 62
     7
 10
-293.844568085104
 20
193.7425679640133
 30
0.0
  0
VERTEX
  5
2F4
  8
1
  6
CONTINUOUS
 62
     7
 10
-293.8844501966462
 20
193.715624620253
 30
0.0
  0
VERTEX
  5
2F5
  8
1
  6
CONTINUOUS
 62
     7
 10
-293.9256512379558
 20
193.6905813644906
 30
0.0
  0
VERTEX
  5
2F6
  8
1
  6
CONTINUOUS
 62
     7
 10
-293.968024765873
 20
193.6675178860976
 30
0.0
  0
VERTEX
  5
2F7
  8
1
  6
CONTINUOUS
 62
     7
 10
-294.0114243372381
 20
193.6465138744453
 30
0.0
  0
VERTEX
  5
2F8
  8
1
  6
CONTINUOUS
 62
     7
 10
-294.0557035088912
 20
193.6276490189053
 30
0.0
  0
VERTEX
  5
2F9
  8
1
  6
CONTINUOUS
 62
     7
 10
-294.1007158376725
 20
193.6110030088489
 30
0.0
  0
VERTEX
  5
2FA
  8
1
  6
CONTINUOUS
 62
     7
 10
-294.1454464646313
 20
193.5968858726455
 30
0.0
  0
VERTEX
  5
2FB
  8
1
  6
CONTINUOUS
 62
     7
 10
-294.1909208556339
 20
193.5848715840801
 30
0.0
  0
VERTEX
  5
2FC
  8
1
  6
CONTINUOUS
 62
     7
 10
-294.2369856088644
 20
193.5749852997819
 30
0.0
  0
VERTEX
  5
2FD
  8
1
  6
CONTINUOUS
 62
     7
 10
-294.283487322507
 20
193.5672521763804
 30
0.0
  0
VERTEX
  5
2FE
  8
1
  6
CONTINUOUS
 62
     7
 10
-294.330272594746
 20
193.5616973705049
 30
0.0
  0
VERTEX
  5
2FF
  8
1
  6
CONTINUOUS
 62
     7
 10
-294.3771880237657
 20
193.5583460387847
 30
0.0
  0
VERTEX
  5
300
  8
1
  6
CONTINUOUS
 62
     7
 10
-294.4240802077501
 20
193.5572233378491
 30
0.0
  0
SEQEND
  5
453
  8
1
  6
CONTINUOUS
 62
     7
  0
LINE
  5
EA
  8
1
  6
CONTINUOUS
 62
     9
 10
-304.2539419913078
 20
194.4004577041334
 30
0.0
 11
-304.1838170987074
 21
194.6110034631301
 31
0.0
  0
LINE
  5
EB
  8
1
  6
CONTINUOUS
 62
     9
 10
-303.183969403551
 20
193.6123739283755
 30
0.0
 11
-303.2547031907781
 21
193.4
 31
0.0
  0
POLYLINE
  5
EC
  8
1
  6
CONTINUOUS
 62
     7
 66
     1
 10
0.0
 20
0.0
 30
0.0
  0
VERTEX
  5
301
  8
1
  6
CONTINUOUS
 62
     7
 10
-304.2539419913078
 20
194.4004577041334
 30
0.0
  0
VERTEX
  5
302
  8
1
  6
CONTINUOUS
 62
     7
 10
-304.234746615927
 20
194.2052294210577
 30
0.0
  0
VERTEX
  5
303
  8
1
  6
CONTINUOUS
 62
     7
 10
-304.1778973024194
 20
194.0175300652601
 30
0.0
  0
VERTEX
  5
304
  8
1
  6
CONTINUOUS
 62
     7
 10
-304.0855762062074
 20
193.8445644584311
 30
0.0
  0
VERTEX
  5
305
  8
1
  6
CONTINUOUS
 62
     7
 10
-303.9613270636753
 20
193.6929718687257
 30
0.0
  0
VERTEX
  5
306
  8
1
  6
CONTINUOUS
 62
     7
 10
-303.8099191661894
 20
193.5685711630962
 30
0.0
  0
VERTEX
  5
307
  8
1
  6
CONTINUOUS
 62
     7
 10
-303.637164291309
 20
193.4761374506439
 30
0.0
  0
VERTEX
  5
308
  8
1
  6
CONTINUOUS
 62
     7
 10
-303.4496936182637
 20
193.4192187905166
 30
0.0
  0
VERTEX
  5
309
  8
1
  6
CONTINUOUS
 62
     7
 10
-303.2547031907782
 20
193.4
 30
0.0
  0
SEQEND
  5
454
  8
1
  6
CONTINUOUS
 62
     7
  0
LINE
  5
ED
  8
1
  6
CONTINUOUS
 62
     9
 10
-339.0793913420256
 20
200.5995422958666
 30
0.0
 11
-339.149516234626
 21
200.3889965368699
 31
0.0
  0
LINE
  5
EE
  8
1
  6
CONTINUOUS
 62
     9
 10
-340.1493639297825
 20
201.3876260716245
 30
0.0
 11
-340.0786301425553
 21
201.6
 31
0.0
  0
POLYLINE
  5
EF
  8
1
  6
CONTINUOUS
 62
     7
 66
     1
 10
0.0
 20
0.0
 30
0.0
  0
VERTEX
  5
30A
  8
1
  6
CONTINUOUS
 62
     7
 10
-339.0793913420256
 20
200.5995422958666
 30
0.0
  0
VERTEX
  5
30B
  8
1
  6
CONTINUOUS
 62
     7
 10
-339.0985867174064
 20
200.7947705789423
 30
0.0
  0
VERTEX
  5
30C
  8
1
  6
CONTINUOUS
 62
     7
 10
-339.155436030914
 20
200.9824699347399
 30
0.0
  0
VERTEX
  5
30D
  8
1
  6
CONTINUOUS
 62
     7
 10
-339.247757127126
 20
201.1554355415689
 30
0.0
  0
VERTEX
  5
30E
  8
1
  6
CONTINUOUS
 62
     7
 10
-339.3720062696581
 20
201.3070281312743
 30
0.0
  0
VERTEX
  5
30F
  8
1
  6
CONTINUOUS
 62
     7
 10
-339.523414167144
 20
201.4314288369038
 30
0.0
  0
VERTEX
  5
310
  8
1
  6
CONTINUOUS
 62
     7
 10
-339.6961690420245
 20
201.5238625493561
 30
0.0
  0
VERTEX
  5
311
  8
1
  6
CONTINUOUS
 62
     7
 10
-339.8836397150698
 20
201.5807812094834
 30
0.0
  0
VERTEX
  5
312
  8
1
  6
CONTINUOUS
 62
     7
 10
-340.0786301425553
 20
201.6
 30
0.0
  0
SEQEND
  5
455
  8
1
  6
CONTINUOUS
 62
     7
  0
LINE
  5
F0
  8
1
  6
CONTINUOUS
 62
     7
 10
-348.9092531255833
 20
201.4427766621509
 30
0.0
 11
-341.1666666666667
 21
201.4427766621509
 31
0.0
  0
LINE
  5
F1
  8
1
  6
CONTINUOUS
 62
     7
 10
-341.1666666666667
 20
201.4427766621509
 30
0.0
 11
-341.1666666666667
 21
201.6
 31
0.0
  0
LINE
  5
F2
  8
1
  6
CONTINUOUS
 62
     7
 10
-340.0786301425553
 20
201.6
 30
0.0
 11
-341.1666666666667
 21
201.6
 31
0.0
  0
LINE
  5
F3
  8
1
  6
CONTINUOUS
 62
     7
 10
-294.4240802077501
 20
193.5572233378491
 30
0.0
 11
-302.1666666666667
 21
193.5572233378491
 31
0.0
  0
LINE
  5
F4
  8
1
  6
CONTINUOUS
 62
     7
 10
-302.1666666666667
 20
193.5572233378491
 30
0.0
 11
-302.1666666666667
 21
193.4
 31
0.0
  0
LINE
  5
F5
  8
1
  6
CONTINUOUS
 62
     7
 10
-303.2547031907782
 20
193.4
 30
0.0
 11
-302.1666666666667
 21
193.4
 31
0.0
  0
LINE
  5
F6
  8
1
  6
CONTINUOUS
 62
     9
 10
-348.4483745878254
 20
190.8828495679593
 30
0.0
 11
-349.2647580828991
 21
190.43709639416
 31
0.0
  0
POLYLINE
  5
F7
  8
1
  6
CONTINUOUS
 62
     7
 66
     1
 10
0.0
 20
0.0
 30
0.0
  0
VERTEX
  5
313
  8
1
  6
CONTINUOUS
 62
     7
 10
-350.2715265958113
 20
191.2053558903337
 30
0.0
  0
VERTEX
  5
314
  8
1
  6
CONTINUOUS
 62
     7
 10
-350.2703802652406
 20
191.2009324372086
 30
0.0
  0
VERTEX
  5
315
  8
1
  6
CONTINUOUS
 62
     7
 10
-350.2524284941134
 20
191.1403358497729
 30
0.0
  0
VERTEX
  5
316
  8
1
  6
CONTINUOUS
 62
     7
 10
-350.2305046439063
 20
191.0806612458437
 30
0.0
  0
VERTEX
  5
317
  8
1
  6
CONTINUOUS
 62
     7
 10
-350.2046386296934
 20
191.0221239424422
 30
0.0
  0
VERTEX
  5
318
  8
1
  6
CONTINUOUS
 62
     7
 10
-350.174860366549
 20
190.9649392565892
 30
0.0
  0
VERTEX
  5
319
  8
1
  6
CONTINUOUS
 62
     7
 10
-350.1411997695469
 20
190.9093225053058
 30
0.0
  0
VERTEX
  5
31A
  8
1
  6
CONTINUOUS
 62
     7
 10
-350.109821020762
 20
190.8638090235484
 30
0.0
  0
VERTEX
  5
31B
  8
1
  6
CONTINUOUS
 62
     7
 10
-350.0755223428354
 20
190.8194475025639
 30
0.0
  0
VERTEX
  5
31C
  8
1
  6
CONTINUOUS
 62
     7
 10
-350.0383230265918
 20
190.7764381962395
 30
0.0
  0
VERTEX
  5
31D
  8
1
  6
CONTINUOUS
 62
     7
 10
-349.9982423628558
 20
190.734981358462
 30
0.0
  0
VERTEX
  5
31E
  8
1
  6
CONTINUOUS
 62
     7
 10
-349.9552996424518
 20
190.6952772431185
 30
0.0
  0
VERTEX
  5
31F
  8
1
  6
CONTINUOUS
 62
     7
 10
-349.9095141562044
 20
190.6575261040961
 30
0.0
  0
VERTEX
  5
320
  8
1
  6
CONTINUOUS
 62
     7
 10
-349.8609051949381
 20
190.6219281952817
 30
0.0
  0
VERTEX
  5
321
  8
1
  6
CONTINUOUS
 62
     7
 10
-349.8231863133532
 20
190.5971393841581
 30
0.0
  0
VERTEX
  5
322
  8
1
  6
CONTINUOUS
 62
     7
 10
-349.78373659088
 20
190.5736113541701
 30
0.0
  0
VERTEX
  5
323
  8
1
  6
CONTINUOUS
 62
     7
 10
-349.7426239583731
 20
190.5514840942072
 30
0.0
  0
VERTEX
  5
324
  8
1
  6
CONTINUOUS
 62
     7
 10
-349.6999163466873
 20
190.5308975931592
 30
0.0
  0
VERTEX
  5
325
  8
1
  6
CONTINUOUS
 62
     7
 10
-349.6556816866772
 20
190.5119918399155
 30
0.0
  0
VERTEX
  5
326
  8
1
  6
CONTINUOUS
 62
     7
 10
-349.6099879091974
 20
190.4949068233658
 30
0.0
  0
VERTEX
  5
327
  8
1
  6
CONTINUOUS
 62
     7
 10
-349.5629029451027
 20
190.4797825323997
 30
0.0
  0
VERTEX
  5
328
  8
1
  6
CONTINUOUS
 62
     7
 10
-349.5279292516842
 20
190.4701337065083
 30
0.0
  0
VERTEX
  5
329
  8
1
  6
CONTINUOUS
 62
     7
 10
-349.4921021135111
 20
190.4616015671926
 30
0.0
  0
VERTEX
  5
32A
  8
1
  6
CONTINUOUS
 62
     7
 10
-349.4555204794812
 20
190.4542439223949
 30
0.0
  0
VERTEX
  5
32B
  8
1
  6
CONTINUOUS
 62
     7
 10
-349.4182832984921
 20
190.4481185800575
 30
0.0
  0
VERTEX
  5
32C
  8
1
  6
CONTINUOUS
 62
     7
 10
-349.3804895194416
 20
190.443283348123
 30
0.0
  0
VERTEX
  5
32D
  8
1
  6
CONTINUOUS
 62
     7
 10
-349.3422380912275
 20
190.4397960345336
 30
0.0
  0
VERTEX
  5
32E
  8
1
  6
CONTINUOUS
 62
     7
 10
-349.3036279627474
 20
190.4377144472318
 30
0.0
  0
VERTEX
  5
32F
  8
1
  6
CONTINUOUS
 62
     7
 10
-349.2647580828992
 20
190.43709639416
 30
0.0
  0
SEQEND
  5
456
  8
1
  6
CONTINUOUS
 62
     7
  0
LINE
  5
F8
  8
1
  6
CONTINUOUS
 62
     9
 10
-350.2715265958113
 20
191.2053558903337
 30
0.0
 11
-349.426482246458
 21
191.6775450434
 31
0.0
  0
LINE
  5
F9
  8
1
  6
CONTINUOUS
 62
     9
 10
-294.884958745508
 20
204.1171504320407
 30
0.0
 11
-294.0685752504343
 21
204.56290360584
 31
0.0
  0
POLYLINE
  5
FA
  8
1
  6
CONTINUOUS
 62
     7
 66
     1
 10
0.0
 20
0.0
 30
0.0
  0
VERTEX
  5
330
  8
1
  6
CONTINUOUS
 62
     7
 10
-293.0618067375221
 20
203.7946441096663
 30
0.0
  0
VERTEX
  5
331
  8
1
  6
CONTINUOUS
 62
     7
 10
-293.0629530680927
 20
203.7990675627908
 30
0.0
  0
VERTEX
  5
332
  8
1
  6
CONTINUOUS
 62
     7
 10
-293.0809048392208
 20
203.8596641502317
 30
0.0
  0
VERTEX
  5
333
  8
1
  6
CONTINUOUS
 62
     7
 10
-293.1028286894281
 20
203.9193387541616
 30
0.0
  0
VERTEX
  5
334
  8
1
  6
CONTINUOUS
 62
     7
 10
-293.1286947036406
 20
203.9778760575614
 30
0.0
  0
VERTEX
  5
335
  8
1
  6
CONTINUOUS
 62
     7
 10
-293.1584729667847
 20
204.035060743412
 30
0.0
  0
VERTEX
  5
336
  8
1
  6
CONTINUOUS
 62
     7
 10
-293.1921335637865
 20
204.0906774946942
 30
0.0
  0
VERTEX
  5
337
  8
1
  6
CONTINUOUS
 62
     7
 10
-293.2235123125715
 20
204.1361909764516
 30
0.0
  0
VERTEX
  5
338
  8
1
  6
CONTINUOUS
 62
     7
 10
-293.257810990498
 20
204.1805524974361
 30
0.0
  0
VERTEX
  5
339
  8
1
  6
CONTINUOUS
 62
     7
 10
-293.2950103067416
 20
204.2235618037606
 30
0.0
  0
VERTEX
  5
33A
  8
1
  6
CONTINUOUS
 62
     7
 10
-293.3350909704776
 20
204.265018641538
 30
0.0
  0
VERTEX
  5
33B
  8
1
  6
CONTINUOUS
 62
     7
 10
-293.3780336908816
 20
204.3047227568815
 30
0.0
  0
VERTEX
  5
33C
  8
1
  6
CONTINUOUS
 62
     7
 10
-293.423819177129
 20
204.3424738959039
 30
0.0
  0
VERTEX
  5
33D
  8
1
  6
CONTINUOUS
 62
     7
 10
-293.4724281383953
 20
204.3780718047183
 30
0.0
  0
VERTEX
  5
33E
  8
1
  6
CONTINUOUS
 62
     7
 10
-293.5101470199803
 20
204.4028606158419
 30
0.0
  0
VERTEX
  5
33F
  8
1
  6
CONTINUOUS
 62
     7
 10
-293.5495967424534
 20
204.4263886458299
 30
0.0
  0
VERTEX
  5
340
  8
1
  6
CONTINUOUS
 62
     7
 10
-293.5907093749603
 20
204.4485159057928
 30
0.0
  0
VERTEX
  5
341
  8
1
  6
CONTINUOUS
 62
     7
 10
-293.6334169866461
 20
204.4691024068408
 30
0.0
  0
VERTEX
  5
342
  8
1
  6
CONTINUOUS
 62
     7
 10
-293.6776516466563
 20
204.4880081600845
 30
0.0
  0
VERTEX
  5
343
  8
1
  6
CONTINUOUS
 62
     7
 10
-293.723345424136
 20
204.5050931766342
 30
0.0
  0
VERTEX
  5
344
  8
1
  6
CONTINUOUS
 62
     7
 10
-293.7704303882307
 20
204.5202174676004
 30
0.0
  0
VERTEX
  5
345
  8
1
  6
CONTINUOUS
 62
     7
 10
-293.8054040816492
 20
204.5298662934917
 30
0.0
  0
VERTEX
  5
346
  8
1
  6
CONTINUOUS
 62
     7
 10
-293.8412312198223
 20
204.5383984328074
 30
0.0
  0
VERTEX
  5
347
  8
1
  6
CONTINUOUS
 62
     7
 10
-293.8778128538523
 20
204.5457560776051
 30
0.0
  0
VERTEX
  5
348
  8
1
  6
CONTINUOUS
 62
     7
 10
-293.9150500348413
 20
204.5518814199425
 30
0.0
  0
VERTEX
  5
349
  8
1
  6
CONTINUOUS
 62
     7
 10
-293.9528438138918
 20
204.5567166518771
 30
0.0
  0
VERTEX
  5
34A
  8
1
  6
CONTINUOUS
 62
     7
 10
-293.9910952421059
 20
204.5602039654664
 30
0.0
  0
VERTEX
  5
34B
  8
1
  6
CONTINUOUS
 62
     7
 10
-294.029705370586
 20
204.5622855527682
 30
0.0
  0
VERTEX
  5
34C
  8
1
  6
CONTINUOUS
 62
     7
 10
-294.0685752504342
 20
204.56290360584
 30
0.0
  0
SEQEND
  5
457
  8
1
  6
CONTINUOUS
 62
     7
  0
LINE
  5
FB
  8
1
  6
CONTINUOUS
 62
     9
 10
-293.0618067375221
 20
203.7946441096663
 30
0.0
 11
-293.9068510868755
 21
203.3224549566
 31
0.0
  0
CIRCLE
  5
FC
  8
1
  6
CONTINUOUS
 62
     7
 10
-321.6666666666667
 20
197.5
 30
0.0
 40
29.5
  0
LINE
  5
FD
  8
1
  6
CONTINUOUS
 62
     9
 10
-293.7780064254027
 20
191.605607533662
 30
0.0
 11
-293.0618067375221
 21
191.2053558903337
 31
0.0
  0
ARC
  5
FE
  8
1
  6
CONTINUOUS
 62
     7
 10
-321.6666666666667
 20
197.5
 30
0.0
 40
28.50475806948519
 50
348.065914653131
 51
350.5599677038496
  0
LINE
  5
FF
  8
1
  6
CONTINUOUS
 62
     7
 10
-293.5479255690969
 20
192.8247853859187
 30
0.0
 11
-292.611544572189
 21
192.8166137127569
 31
0.0
  0
ARC
  5
100
  8
1
  6
CONTINUOUS
 62
     7
 10
-321.6666666666667
 20
197.5
 30
0.0
 40
29.4301584610165
 50
350.8432723580056
 51
9.15672764199428
  0
LINE
  5
101
  8
1
  6
CONTINUOUS
 62
     7
 10
-292.611544572189
 20
202.1833862872431
 30
0.0
 11
-293.6539770336388
 21
202.1742891169712
 31
0.0
  0
ARC
  5
102
  8
1
  6
CONTINUOUS
 62
     7
 10
-321.6666666666667
 20
197.5
 30
0.0
 40
28.39999576100994
 50
353.8336826165866
 51
9.473282198033415
  0
ARC
  5
103
  8
1
  6
CONTINUOUS
 62
     9
 10
-321.6666666666667
 20
197.5
 30
0.0
 40
29.28925666576978
 50
12.4104274479738
 51
167.5895725520261
  0
LINE
  5
104
  8
1
  6
CONTINUOUS
 62
     9
 10
-349.5553269079307
 20
203.394392466338
 30
0.0
 11
-350.2715265958113
 21
203.7946441096663
 31
0.0
  0
ARC
  5
105
  8
1
  6
CONTINUOUS
 62
     7
 10
-321.6666666666667
 20
197.5
 30
0.0
 40
28.50475806948519
 50
168.065914653131
 51
170.5599677038496
  0
LINE
  5
106
  8
1
  6
CONTINUOUS
 62
     7
 10
-349.7854077642365
 20
202.1752146140813
 30
0.0
 11
-350.7217887611444
 21
202.1833862872431
 31
0.0
  0
ARC
  5
107
  8
1
  6
CONTINUOUS
 62
     7
 10
-321.6666666666667
 20
197.5
 30
0.0
 40
29.4301584610165
 50
170.8432723580057
 51
189.1567276419943
  0
LINE
  5
108
  8
1
  6
CONTINUOUS
 62
     7
 10
-350.7217887611444
 20
192.8166137127569
 30
0.0
 11
-349.6793562996946
 21
192.8257108830288
 31
0.0
  0
ARC
  5
109
  8
1
  6
CONTINUOUS
 62
     7
 10
-321.6666666666667
 20
197.5
 30
0.0
 40
28.39999576100994
 50
173.8336826165867
 51
189.4732821980334
  0
ARC
  5
10A
  8
1
  6
CONTINUOUS
 62
     9
 10
-321.6666666666667
 20
197.5
 30
0.0
 40
29.28925666576978
 50
192.4104274479739
 51
347.5895725520261
  0
LINE
  5
10B
  8
1
  6
CONTINUOUS
 62
     9
 10
-339.149516234626
 20
191.8826972631157
 30
0.0
 11
-338.6514376183968
 21
191.3846186468864
 31
0.0
  0
POLYLINE
  5
10C
  8
1
  6
CONTINUOUS
 62
     9
 66
     1
 10
0.0
 20
0.0
 30
0.0
  0
VERTEX
  5
34D
  8
1
  6
CONTINUOUS
 62
     9
 10
-339.2737068916792
 20
190.458660271331
 30
0.0
  0
VERTEX
  5
34E
  8
1
  6
CONTINUOUS
 62
     9
 10
-339.0995322733034
 20
190.5505714113099
 30
0.0
  0
VERTEX
  5
34F
  8
1
  6
CONTINUOUS
 62
     9
 10
-338.946777314995
 20
190.6748490946555
 30
0.0
  0
VERTEX
  5
350
  8
1
  6
CONTINUOUS
 62
     9
 10
-338.821365591272
 20
190.8266740465871
 30
0.0
  0
VERTEX
  5
351
  8
1
  6
CONTINUOUS
 62
     9
 10
-338.7281603530502
 20
191.0001587566343
 30
0.0
  0
VERTEX
  5
352
  8
1
  6
CONTINUOUS
 62
     9
 10
-338.6707759391384
 20
191.1885757861657
 30
0.0
  0
VERTEX
  5
353
  8
1
  6
CONTINUOUS
 62
     9
 10
-338.6514376183968
 20
191.3846186468865
 30
0.0
  0
SEQEND
  5
458
  8
1
  6
CONTINUOUS
 62
     9
  0
LINE
  5
10D
  8
1
  6
CONTINUOUS
 62
     9
 10
-339.6487592946476
 20
190.3822449328244
 30
0.0
 11
-339.2737068916792
 21
190.458660271331
 31
0.0
  0
LINE
  5
10E
  8
1
  6
CONTINUOUS
 62
     9
 10
-339.6487592946476
 20
190.3822449328244
 30
0.0
 11
-340.1493639297824
 21
190.8828495679593
 31
0.0
  0
LINE
  5
10F
  8
1
  6
CONTINUOUS
 62
     9
 10
-304.1838170987074
 20
203.1173027368843
 30
0.0
 11
-304.6818957149366
 21
203.6153813531136
 31
0.0
  0
POLYLINE
  5
110
  8
1
  6
CONTINUOUS
 62
     9
 66
     1
 10
0.0
 20
0.0
 30
0.0
  0
VERTEX
  5
354
  8
1
  6
CONTINUOUS
 62
     9
 10
-304.0596264416542
 20
204.541339728669
 30
0.0
  0
VERTEX
  5
355
  8
1
  6
CONTINUOUS
 62
     9
 10
-304.23380106003
 20
204.4494285886901
 30
0.0
  0
VERTEX
  5
356
  8
1
  6
CONTINUOUS
 62
     9
 10
-304.3865560183384
 20
204.3251509053445
 30
0.0
  0
VERTEX
  5
357
  8
1
  6
CONTINUOUS
 62
     9
 10
-304.5119677420614
 20
204.1733259534129
 30
0.0
  0
VERTEX
  5
358
  8
1
  6
CONTINUOUS
 62
     9
 10
-304.6051729802832
 20
203.9998412433657
 30
0.0
  0
VERTEX
  5
359
  8
1
  6
CONTINUOUS
 62
     9
 10
-304.6625573941951
 20
203.8114242138343
 30
0.0
  0
VERTEX
  5
35A
  8
1
  6
CONTINUOUS
 62
     9
 10
-304.6818957149367
 20
203.6153813531135
 30
0.0
  0
SEQEND
  5
459
  8
1
  6
CONTINUOUS
 62
     9
  0
LINE
  5
111
  8
1
  6
CONTINUOUS
 62
     9
 10
-303.6845740386859
 20
204.6177550671756
 30
0.0
 11
-304.0596264416542
 21
204.541339728669
 31
0.0
  0
LINE
  5
112
  8
1
  6
CONTINUOUS
 62
     9
 10
-303.6845740386859
 20
204.6177550671756
 30
0.0
 11
-303.183969403551
 21
204.1171504320407
 31
0.0
  0
LINE
  5
113
  8
1
  6
CONTINUOUS
 62
     7
 10
-339.0793913420256
 20
200.5995422958666
 30
0.0
 11
-339.0793913420256
 21
202.5921926364486
 31
0.0
  0
LINE
  5
114
  8
1
  6
CONTINUOUS
 62
     9
 10
-338.6514376183968
 20
191.3846186468865
 30
0.0
 11
-338.6514376183968
 21
202.4818164726702
 31
0.0
  0
LINE
  5
115
  8
1
  6
CONTINUOUS
 62
     7
 10
-295.0326066630297
 20
204.57121059194
 30
0.0
 11
-295.1218094631747
 21
204.6847446750972
 31
0.0
  0
LINE
  5
116
  8
1
  6
CONTINUOUS
 62
     7
 10
-294.5133773047609
 20
204.5625592205978
 30
0.0
 11
-295.0326066630297
 21
204.57121059194
 31
0.0
  0
LINE
  5
117
  8
1
  6
CONTINUOUS
 62
     7
 10
-294.2725657244919
 20
204.5625592205978
 30
0.0
 11
-294.5133773047609
 21
204.5625592205978
 31
0.0
  0
LINE
  5
118
  8
1
  6
CONTINUOUS
 62
     7
 10
-294.0685752504342
 20
204.56290360584
 30
0.0
 11
-294.2725657244919
 21
204.5625592205978
 31
0.0
  0
LINE
  5
119
  8
1
  6
CONTINUOUS
 62
     9
 10
-302.331591452075
 20
204.6498345336389
 30
0.0
 11
-303.6845740386858
 21
204.6177550671756
 31
0.0
  0
LINE
  5
11A
  8
1
  6
CONTINUOUS
 62
     9
 10
-302.3315914520726
 20
204.6498345336386
 30
0.0
 11
-302.3273892697543
 21
204.6847446750949
 31
0.0
  0
LINE
  5
11B
  8
1
  6
CONTINUOUS
 62
     7
 10
-302.3273892697567
 20
204.6847446750953
 30
0.0
 11
-295.1218094631764
 21
204.6847446750953
 31
0.0
  0
LINE
  5
11C
  8
1
  6
CONTINUOUS
 62
     7
 10
-348.3007266703037
 20
190.42878940806
 30
0.0
 11
-348.2115238701587
 21
190.3152553249028
 31
0.0
  0
LINE
  5
11D
  8
1
  6
CONTINUOUS
 62
     7
 10
-348.8199560285725
 20
190.4374407794022
 30
0.0
 11
-348.3007266703037
 21
190.42878940806
 31
0.0
  0
LINE
  5
11E
  8
1
  6
CONTINUOUS
 62
     7
 10
-349.0607676088415
 20
190.4374407794022
 30
0.0
 11
-348.8199560285725
 21
190.4374407794022
 31
0.0
  0
LINE
  5
11F
  8
1
  6
CONTINUOUS
 62
     7
 10
-349.2647580828992
 20
190.43709639416
 30
0.0
 11
-349.0607676088415
 21
190.4374407794022
 31
0.0
  0
LINE
  5
120
  8
1
  6
CONTINUOUS
 62
     9
 10
-341.0017418812584
 20
190.3501654663611
 30
0.0
 11
-339.6487592946476
 21
190.3822449328244
 31
0.0
  0
LINE
  5
121
  8
1
  6
CONTINUOUS
 62
     9
 10
-341.0017418812607
 20
190.3501654663614
 30
0.0
 11
-341.005944063579
 21
190.3152553249051
 31
0.0
  0
LINE
  5
122
  8
1
  6
CONTINUOUS
 62
     7
 10
-341.0059440635767
 20
190.3152553249047
 30
0.0
 11
-348.211523870157
 21
190.3152553249047
 31
0.0
  0
LINE
  5
123
  8
1
  6
CONTINUOUS
 62
     7
 10
-304.2539419913078
 20
194.4004577041334
 30
0.0
 11
-304.2539419913078
 21
192.4078073635515
 31
0.0
  0
LINE
  5
124
  8
1
  6
CONTINUOUS
 62
     9
 10
-304.6818957149366
 20
203.6153813531135
 30
0.0
 11
-304.6818957149366
 21
192.5181835273298
 31
0.0
  0
ARC
  5
125
  8
1
  6
CONTINUOUS
 62
     7
 10
-300.3666666666667
 20
197.5
 30
0.0
 40
1.0
 50
315.9323016533292
 51
322.602813478705
  0
ARC
  5
126
  8
1
  6
CONTINUOUS
 62
     7
 10
-300.3666666666667
 20
197.5
 30
0.0
 40
1.000000000000001
 50
37.39718652129494
 51
44.06769834667073
  0
ARC
  5
127
  8
1
  6
CONTINUOUS
 62
     7
 10
-342.9666666666667
 20
197.5
 30
0.0
 40
1.000000000000001
 50
217.397186521295
 51
224.0676983466708
  0
ARC
  5
128
  8
1
  6
CONTINUOUS
 62
     7
 10
-342.9666666666667
 20
197.5
 30
0.0
 40
1.0
 50
135.9323016533293
 51
142.6028134787051
  0
ARC
  5
129
  8
1
  6
CONTINUOUS
 62
     7
 10
-345.6666666666667
 20
200.2
 30
0.0
 40
1.000000000000001
 50
307.3971865213972
 51
314.0676983466706
  0
ARC
  5
12A
  8
1
  6
CONTINUOUS
 62
     7
 10
-345.6666666666667
 20
200.2
 30
0.0
 40
1.000000000000001
 50
225.9323016533301
 51
232.6028134785921
  0
ARC
  5
12B
  8
1
  6
CONTINUOUS
 62
     7
 10
-297.6666666666667
 20
194.8
 30
0.0
 40
1.000000000000001
 50
127.3971865213977
 51
134.0676983466706
  0
ARC
  5
12C
  8
1
  6
CONTINUOUS
 62
     7
 10
-297.6666666666667
 20
194.8
 30
0.0
 40
1.000000000000001
 50
45.93230165332999
 51
52.60281347859159
  0
ARC
  5
12D
  8
1
  6
CONTINUOUS
 62
     7
 10
-348.3666666666667
 20
197.5
 30
0.0
 40
1.000000000000001
 50
315.9323016533302
 51
322.6028134787075
  0
ARC
  5
12E
  8
1
  6
CONTINUOUS
 62
     7
 10
-348.3666666666667
 20
197.5
 30
0.0
 40
1.000000000000001
 50
37.3971865212925
 51
44.06769834666989
  0
ARC
  5
12F
  8
1
  6
CONTINUOUS
 62
     7
 10
-294.9666666666667
 20
197.5
 30
0.0
 40
1.000000000000001
 50
217.3971865212923
 51
224.0676983466699
  0
ARC
  5
130
  8
1
  6
CONTINUOUS
 62
     7
 10
-294.9666666666667
 20
197.5
 30
0.0
 40
1.000000000000001
 50
135.9323016533303
 51
142.6028134787076
  0
ARC
  5
131
  8
1
  6
CONTINUOUS
 62
     7
 10
-297.6666666666667
 20
200.2
 30
0.0
 40
1.000000000000001
 50
307.3971865214094
 51
314.06769834667
  0
ARC
  5
132
  8
1
  6
CONTINUOUS
 62
     7
 10
-297.6666666666667
 20
200.2
 30
0.0
 40
1.000000000000001
 50
225.9323016533297
 51
232.6028134786013
  0
ARC
  5
133
  8
1
  6
CONTINUOUS
 62
     7
 10
-345.6666666666667
 20
194.8
 30
0.0
 40
1.000000000000001
 50
127.3971865214099
 51
134.06769834667
  0
ARC
  5
134
  8
1
  6
CONTINUOUS
 62
     7
 10
-345.6666666666667
 20
194.8
 30
0.0
 40
1.000000000000001
 50
45.93230165332967
 51
52.6028134786011
  0
LINE
  5
135
  8
1
  6
CONTINUOUS
 62
     9
 10
-349.2647580828992
 20
204.56290360584
 30
0.0
 11
-349.0733565047803
 21
204.458271424323
 31
0.0
  0
LINE
  5
136
  8
1
  6
CONTINUOUS
 62
     7
 10
-349.0640522561111
 20
204.5625593088918
 30
0.0
 11
-349.2647580828991
 21
204.56290360584
 31
0.0
  0
POLYLINE
  5
137
  8
1
  6
CONTINUOUS
 62
     7
 66
     1
 10
0.0
 20
0.0
 30
0.0
  0
VERTEX
  5
35B
  8
1
  6
CONTINUOUS
 62
     7
 10
-294.0685752504342
 20
190.43709639416
 30
0.0
  0
VERTEX
  5
35C
  8
1
  6
CONTINUOUS
 62
     7
 10
-294.029705370586
 20
190.4377144472318
 30
0.0
  0
VERTEX
  5
35D
  8
1
  6
CONTINUOUS
 62
     7
 10
-293.9910952421059
 20
190.4397960345336
 30
0.0
  0
VERTEX
  5
35E
  8
1
  6
CONTINUOUS
 62
     7
 10
-293.9528438138917
 20
190.443283348123
 30
0.0
  0
VERTEX
  5
35F
  8
1
  6
CONTINUOUS
 62
     7
 10
-293.9150500348413
 20
190.4481185800575
 30
0.0
  0
VERTEX
  5
360
  8
1
  6
CONTINUOUS
 62
     7
 10
-293.8778128538523
 20
190.4542439223949
 30
0.0
  0
VERTEX
  5
361
  8
1
  6
CONTINUOUS
 62
     7
 10
-293.8412312198223
 20
190.4616015671926
 30
0.0
  0
VERTEX
  5
362
  8
1
  6
CONTINUOUS
 62
     7
 10
-293.8054040816492
 20
190.4701337065083
 30
0.0
  0
VERTEX
  5
363
  8
1
  6
CONTINUOUS
 62
     7
 10
-293.7704303882307
 20
190.4797825323997
 30
0.0
  0
VERTEX
  5
364
  8
1
  6
CONTINUOUS
 62
     7
 10
-293.723345424136
 20
190.4949068233658
 30
0.0
  0
VERTEX
  5
365
  8
1
  6
CONTINUOUS
 62
     7
 10
-293.6776516466563
 20
190.5119918399155
 30
0.0
  0
VERTEX
  5
366
  8
1
  6
CONTINUOUS
 62
     7
 10
-293.6334169866461
 20
190.5308975931592
 30
0.0
  0
VERTEX
  5
367
  8
1
  6
CONTINUOUS
 62
     7
 10
-293.5907093749603
 20
190.5514840942072
 30
0.0
  0
VERTEX
  5
368
  8
1
  6
CONTINUOUS
 62
     7
 10
-293.5495967424534
 20
190.5736113541701
 30
0.0
  0
VERTEX
  5
369
  8
1
  6
CONTINUOUS
 62
     7
 10
-293.5101470199803
 20
190.5971393841581
 30
0.0
  0
VERTEX
  5
36A
  8
1
  6
CONTINUOUS
 62
     7
 10
-293.4724281383953
 20
190.6219281952817
 30
0.0
  0
VERTEX
  5
36B
  8
1
  6
CONTINUOUS
 62
     7
 10
-293.423819177129
 20
190.6575261040961
 30
0.0
  0
VERTEX
  5
36C
  8
1
  6
CONTINUOUS
 62
     7
 10
-293.3780336908816
 20
190.6952772431185
 30
0.0
  0
VERTEX
  5
36D
  8
1
  6
CONTINUOUS
 62
     7
 10
-293.3350909704776
 20
190.734981358462
 30
0.0
  0
VERTEX
  5
36E
  8
1
  6
CONTINUOUS
 62
     7
 10
-293.2950103067416
 20
190.7764381962395
 30
0.0
  0
VERTEX
  5
36F
  8
1
  6
CONTINUOUS
 62
     7
 10
-293.257810990498
 20
190.8194475025639
 30
0.0
  0
VERTEX
  5
370
  8
1
  6
CONTINUOUS
 62
     7
 10
-293.2235123125715
 20
190.8638090235484
 30
0.0
  0
VERTEX
  5
371
  8
1
  6
CONTINUOUS
 62
     7
 10
-293.1921335637865
 20
190.9093225053058
 30
0.0
  0
VERTEX
  5
372
  8
1
  6
CONTINUOUS
 62
     7
 10
-293.1584729667848
 20
190.9649392565875
 30
0.0
  0
VERTEX
  5
373
  8
1
  6
CONTINUOUS
 62
     7
 10
-293.1286947036409
 20
191.0221239424371
 30
0.0
  0
VERTEX
  5
374
  8
1
  6
CONTINUOUS
 62
     7
 10
-293.1028286894285
 20
191.0806612458362
 30
0.0
  0
VERTEX
  5
375
  8
1
  6
CONTINUOUS
 62
     7
 10
-293.0809048392212
 20
191.1403358497664
 30
0.0
  0
VERTEX
  5
376
  8
1
  6
CONTINUOUS
 62
     7
 10
-293.0629530680927
 20
191.2009324372092
 30
0.0
  0
VERTEX
  5
377
  8
1
  6
CONTINUOUS
 62
     7
 10
-293.0618067375221
 20
191.2053558903337
 30
0.0
  0
SEQEND
  5
45A
  8
1
  6
CONTINUOUS
 62
     7
  0
LINE
  5
138
  8
1
  6
CONTINUOUS
 62
     9
 10
-294.0685752504342
 20
190.43709639416
 30
0.0
 11
-294.2599768285531
 21
190.541728575677
 31
0.0
  0
POLYLINE
  5
139
  8
1
  6
CONTINUOUS
 62
     7
 66
     1
 10
0.0
 20
0.0
 30
0.0
  0
VERTEX
  5
378
  8
1
  6
CONTINUOUS
 62
     7
 10
-294.2227569831321
 20
190.9668919752109
 30
0.0
  0
VERTEX
  5
379
  8
1
  6
CONTINUOUS
 62
     7
 10
-294.2094130702121
 20
190.9755356997453
 30
0.0
  0
VERTEX
  5
37A
  8
1
  6
CONTINUOUS
 62
     7
 10
-294.1696737040418
 20
191.0028249199746
 30
0.0
  0
VERTEX
  5
37B
  8
1
  6
CONTINUOUS
 62
     7
 10
-294.1314159977115
 20
191.0319264835714
 30
0.0
  0
VERTEX
  5
37C
  8
1
  6
CONTINUOUS
 62
     7
 10
-294.094649464969
 20
191.0628555735474
 30
0.0
  0
VERTEX
  5
37D
  8
1
  6
CONTINUOUS
 62
     7
 10
-294.059324961479
 20
191.0956263454147
 30
0.0
  0
VERTEX
  5
37E
  8
1
  6
CONTINUOUS
 62
     7
 10
-294.0255534974942
 20
191.1301141952635
 30
0.0
  0
VERTEX
  5
37F
  8
1
  6
CONTINUOUS
 62
     7
 10
-293.9934460832675
 20
191.166194519184
 30
0.0
  0
VERTEX
  5
380
  8
1
  6
CONTINUOUS
 62
     7
 10
-293.9631137290516
 20
191.2037427132665
 30
0.0
  0
VERTEX
  5
381
  8
1
  6
CONTINUOUS
 62
     7
 10
-293.9346674450991
 20
191.242634173601
 30
0.0
  0
VERTEX
  5
382
  8
1
  6
CONTINUOUS
 62
     7
 10
-293.9082182416629
 20
191.2827442962779
 30
0.0
  0
VERTEX
  5
383
  8
1
  6
CONTINUOUS
 62
     7
 10
-293.8829046932065
 20
191.3256588270177
 30
0.0
  0
VERTEX
  5
384
  8
1
  6
CONTINUOUS
 62
     7
 10
-293.8597124654427
 20
191.3699307420252
 30
0.0
  0
VERTEX
  5
385
  8
1
  6
CONTINUOUS
 62
     7
 10
-293.8387111380399
 20
191.415387368517
 30
0.0
  0
VERTEX
  5
386
  8
1
  6
CONTINUOUS
 62
     7
 10
-293.8199702906662
 20
191.4618560337099
 30
0.0
  0
VERTEX
  5
387
  8
1
  6
CONTINUOUS
 62
     7
 10
-293.80355950299
 20
191.5091640648206
 30
0.0
  0
VERTEX
  5
388
  8
1
  6
CONTINUOUS
 62
     7
 10
-293.7895483546794
 20
191.5571387890658
 30
0.0
  0
VERTEX
  5
389
  8
1
  6
CONTINUOUS
 62
     7
 10
-293.7780064254027
 20
191.605607533662
 30
0.0
  0
SEQEND
  5
45B
  8
1
  6
CONTINUOUS
 62
     7
  0
LINE
  5
13A
  8
1
  6
CONTINUOUS
 62
     7
 10
-294.2692810772223
 20
190.4374406911082
 30
0.0
 11
-294.0685752504343
 21
190.43709639416
 31
0.0
  0
POLYLINE
  5
13B
  8
1
  6
CONTINUOUS
 62
     7
 66
     1
 10
0.0
 20
0.0
 30
0.0
  0
VERTEX
  5
38A
  8
1
  6
CONTINUOUS
 62
     7
 10
-349.1105763502013
 20
204.0331080247891
 30
0.0
  0
VERTEX
  5
38B
  8
1
  6
CONTINUOUS
 62
     7
 10
-349.1239202631212
 20
204.0244643002547
 30
0.0
  0
VERTEX
  5
38C
  8
1
  6
CONTINUOUS
 62
     7
 10
-349.1636596292915
 20
203.9971750800254
 30
0.0
  0
VERTEX
  5
38D
  8
1
  6
CONTINUOUS
 62
     7
 10
-349.2019173356219
 20
203.9680735164286
 30
0.0
  0
VERTEX
  5
38E
  8
1
  6
CONTINUOUS
 62
     7
 10
-349.2386838683644
 20
203.9371444264526
 30
0.0
  0
VERTEX
  5
38F
  8
1
  6
CONTINUOUS
 62
     7
 10
-349.2740083718544
 20
203.9043736545853
 30
0.0
  0
VERTEX
  5
390
  8
1
  6
CONTINUOUS
 62
     7
 10
-349.3077798358391
 20
203.8698858047365
 30
0.0
  0
VERTEX
  5
391
  8
1
  6
CONTINUOUS
 62
     7
 10
-349.3398872500659
 20
203.833805480816
 30
0.0
  0
VERTEX
  5
392
  8
1
  6
CONTINUOUS
 62
     7
 10
-349.3702196042818
 20
203.7962572867335
 30
0.0
  0
VERTEX
  5
393
  8
1
  6
CONTINUOUS
 62
     7
 10
-349.3986658882343
 20
203.757365826399
 30
0.0
  0
VERTEX
  5
394
  8
1
  6
CONTINUOUS
 62
     7
 10
-349.4251150916705
 20
203.7172557037221
 30
0.0
  0
VERTEX
  5
395
  8
1
  6
CONTINUOUS
 62
     7
 10
-349.450428640127
 20
203.6743411729823
 30
0.0
  0
VERTEX
  5
396
  8
1
  6
CONTINUOUS
 62
     7
 10
-349.4736208678908
 20
203.6300692579749
 30
0.0
  0
VERTEX
  5
397
  8
1
  6
CONTINUOUS
 62
     7
 10
-349.4946221952935
 20
203.584612631483
 30
0.0
  0
VERTEX
  5
398
  8
1
  6
CONTINUOUS
 62
     7
 10
-349.5133630426672
 20
203.5381439662901
 30
0.0
  0
VERTEX
  5
399
  8
1
  6
CONTINUOUS
 62
     7
 10
-349.5297738303435
 20
203.4908359351794
 30
0.0
  0
VERTEX
  5
39A
  8
1
  6
CONTINUOUS
 62
     7
 10
-349.543784978654
 20
203.4428612109342
 30
0.0
  0
VERTEX
  5
39B
  8
1
  6
CONTINUOUS
 62
     7
 10
-349.5553269079307
 20
203.394392466338
 30
0.0
  0
SEQEND
  5
45C
  8
1
  6
CONTINUOUS
 62
     7
  0
LINE
  5
13C
  8
1
  6
CONTINUOUS
 62
     7
 10
-341.1666666666667
 20
202.1
 30
0.0
 11
-341.2375901324207
 21
202.1006189397089
 31
0.0
  0
LINE
  5
13D
  8
1
  6
CONTINUOUS
 62
     7
 10
-349.2733087271961
 20
202.1707455934892
 30
0.0
 11
-349.7854077642365
 21
202.1752146140813
 31
0.0
  0
LINE
  5
13E
  8
1
  6
CONTINUOUS
 62
     7
 10
-341.1666666666667
 20
201.6
 30
0.0
 11
-341.1666666666667
 21
202.1
 31
0.0
  0
POLYLINE
  5
13F
  8
1
  6
CONTINUOUS
 62
     7
 66
     1
 10
0.0
 20
0.0
 30
0.0
  0
VERTEX
  5
39C
  8
1
  6
CONTINUOUS
 62
     7
 10
-349.2647580828992
 20
204.56290360584
 30
0.0
  0
VERTEX
  5
39D
  8
1
  6
CONTINUOUS
 62
     7
 10
-349.3036279627474
 20
204.5622855527682
 30
0.0
  0
VERTEX
  5
39E
  8
1
  6
CONTINUOUS
 62
     7
 10
-349.3422380912275
 20
204.5602039654664
 30
0.0
  0
VERTEX
  5
39F
  8
1
  6
CONTINUOUS
 62
     7
 10
-349.3804895194416
 20
204.5567166518771
 30
0.0
  0
VERTEX
  5
3A0
  8
1
  6
CONTINUOUS
 62
     7
 10
-349.4182832984921
 20
204.5518814199425
 30
0.0
  0
VERTEX
  5
3A1
  8
1
  6
CONTINUOUS
 62
     7
 10
-349.4555204794812
 20
204.5457560776051
 30
0.0
  0
VERTEX
  5
3A2
  8
1
  6
CONTINUOUS
 62
     7
 10
-349.4921021135111
 20
204.5383984328074
 30
0.0
  0
VERTEX
  5
3A3
  8
1
  6
CONTINUOUS
 62
     7
 10
-349.5279292516842
 20
204.5298662934917
 30
0.0
  0
VERTEX
  5
3A4
  8
1
  6
CONTINUOUS
 62
     7
 10
-349.5629029451027
 20
204.5202174676004
 30
0.0
  0
VERTEX
  5
3A5
  8
1
  6
CONTINUOUS
 62
     7
 10
-349.6099879091974
 20
204.5050931766342
 30
0.0
  0
VERTEX
  5
3A6
  8
1
  6
CONTINUOUS
 62
     7
 10
-349.6556816866772
 20
204.4880081600845
 30
0.0
  0
VERTEX
  5
3A7
  8
1
  6
CONTINUOUS
 62
     7
 10
-349.6999163466873
 20
204.4691024068408
 30
0.0
  0
VERTEX
  5
3A8
  8
1
  6
CONTINUOUS
 62
     7
 10
-349.7426239583731
 20
204.4485159057928
 30
0.0
  0
VERTEX
  5
3A9
  8
1
  6
CONTINUOUS
 62
     7
 10
-349.78373659088
 20
204.4263886458299
 30
0.0
  0
VERTEX
  5
3AA
  8
1
  6
CONTINUOUS
 62
     7
 10
-349.8231863133532
 20
204.4028606158419
 30
0.0
  0
VERTEX
  5
3AB
  8
1
  6
CONTINUOUS
 62
     7
 10
-349.8609051949381
 20
204.3780718047183
 30
0.0
  0
VERTEX
  5
3AC
  8
1
  6
CONTINUOUS
 62
     7
 10
-349.9095141562044
 20
204.3424738959039
 30
0.0
  0
VERTEX
  5
3AD
  8
1
  6
CONTINUOUS
 62
     7
 10
-349.9552996424518
 20
204.3047227568815
 30
0.0
  0
VERTEX
  5
3AE
  8
1
  6
CONTINUOUS
 62
     7
 10
-349.9982423628558
 20
204.265018641538
 30
0.0
  0
VERTEX
  5
3AF
  8
1
  6
CONTINUOUS
 62
     7
 10
-350.0383230265918
 20
204.2235618037606
 30
0.0
  0
VERTEX
  5
3B0
  8
1
  6
CONTINUOUS
 62
     7
 10
-350.0755223428354
 20
204.1805524974361
 30
0.0
  0
VERTEX
  5
3B1
  8
1
  6
CONTINUOUS
 62
     7
 10
-350.109821020762
 20
204.1361909764516
 30
0.0
  0
VERTEX
  5
3B2
  8
1
  6
CONTINUOUS
 62
     7
 10
-350.1411997695469
 20
204.0906774946942
 30
0.0
  0
VERTEX
  5
3B3
  8
1
  6
CONTINUOUS
 62
     7
 10
-350.1748603665488
 20
204.0350607434115
 30
0.0
  0
VERTEX
  5
3B4
  8
1
  6
CONTINUOUS
 62
     7
 10
-350.2046386296931
 20
203.9778760575597
 30
0.0
  0
VERTEX
  5
3B5
  8
1
  6
CONTINUOUS
 62
     7
 10
-350.2305046439058
 20
203.9193387541592
 30
0.0
  0
VERTEX
  5
3B6
  8
1
  6
CONTINUOUS
 62
     7
 10
-350.2524284941129
 20
203.8596641502297
 30
0.0
  0
VERTEX
  5
3B7
  8
1
  6
CONTINUOUS
 62
     7
 10
-350.2703802652406
 20
203.7990675627913
 30
0.0
  0
VERTEX
  5
3B8
  8
1
  6
CONTINUOUS
 62
     7
 10
-350.2715265958113
 20
203.7946441096663
 30
0.0
  0
SEQEND
  5
45D
  8
1
  6
CONTINUOUS
 62
     7
  0
LINE
  5
140
  8
1
  6
CONTINUOUS
 62
     7
 10
-302.1666666666667
 20
192.9
 30
0.0
 11
-302.0957432009127
 21
192.8993810602911
 31
0.0
  0
LINE
  5
141
  8
1
  6
CONTINUOUS
 62
     7
 10
-294.0600246061373
 20
192.8292544065108
 30
0.0
 11
-293.5479255690969
 21
192.8247853859187
 31
0.0
  0
LINE
  5
142
  8
1
  6
CONTINUOUS
 62
     7
 10
-302.1666666666667
 20
193.4
 30
0.0
 11
-302.1666666666667
 21
192.9
 31
0.0
  0
ARC
  5
143
  8
1
  6
CONTINUOUS
 62
     9
 10
-321.6666666666667
 20
197.5
 30
0.0
 40
28.28986583875068
 50
14.45678986085934
 51
123.9408314772873
  0
ARC
  5
144
  8
1
  6
CONTINUOUS
 62
     9
 10
-321.6666666666667
 20
197.5
 30
0.0
 40
28.28986583875068
 50
194.4567898608593
 51
303.940831477288
  0
ARC
  5
145
  8
1
  6
CONTINUOUS
 62
     7
 10
-321.6666666666667
 20
197.5
 30
0.0
 40
27.5567627183007
 50
194.8687258977701
 51
230.9217752267052
  0
ARC
  5
146
  8
1
  6
CONTINUOUS
 62
     9
 10
-321.6666666666667
 20
197.5
 30
0.0
 40
28.0567436798328
 50
244.8628032977376
 51
290.1371967022546
  0
ARC
  5
147
  8
1
  6
CONTINUOUS
 62
     9
 10
-321.6666666666667
 20
197.5
 30
0.0
 40
28.0567436798328
 50
194.5795604337565
 51
233.904772413249
  0
ARC
  5
148
  8
1
  6
CONTINUOUS
 62
     7
 10
-321.6666666666667
 20
197.5
 30
0.0
 40
27.5567627183007
 50
14.86872589777011
 51
50.92177522670537
  0
ARC
  5
149
  8
1
  6
CONTINUOUS
 62
     9
 10
-321.6666666666667
 20
197.5
 30
0.0
 40
28.0567436798328
 50
64.86280329773825
 51
110.1371967022536
  0
ARC
  5
14A
  8
1
  6
CONTINUOUS
 62
     9
 10
-321.6666666666667
 20
197.5
 30
0.0
 40
28.0567436798328
 50
14.57956043375668
 51
53.90477241324913
  0
ARC
  5
14B
  8
1
  6
CONTINUOUS
 62
     7
 10
-321.6666666666667
 20
197.5
 30
0.0
 40
27.5
 50
15.14504357314608
 51
50.68958240802438
  0
ARC
  5
14C
  8
1
  6
CONTINUOUS
 62
     7
 10
-321.6666666666667
 20
197.5
 30
0.0
 40
27.5
 50
195.1450435731461
 51
230.6895824080243
  0
LINE
  5
14D
  8
1
  6
CONTINUOUS
 62
     9
 10
-338.8963133001105
 20
189.5328867260807
 30
0.0
 11
-339.2737068916792
 21
190.458660271331
 31
0.0
  0
LINE
  5
14E
  8
1
  6
CONTINUOUS
 62
     9
 10
-338.8963133001104
 20
189.5328867260807
 30
0.0
 11
-339.3083659403541
 21
189.5360600004106
 31
0.0
  0
POLYLINE
  5
14F
  8
1
  6
CONTINUOUS
 62
     9
 66
     1
 10
0.0
 20
0.0
 30
0.0
  0
VERTEX
  5
3B9
  8
1
  6
CONTINUOUS
 62
     9
 10
-339.3083659403538
 20
189.5360600004105
 30
0.0
  0
VERTEX
  5
3BA
  8
1
  6
CONTINUOUS
 62
     9
 10
-339.3268077488665
 20
189.7293219159858
 30
0.0
  0
VERTEX
  5
3BB
  8
1
  6
CONTINUOUS
 62
     9
 10
-339.3580873123961
 20
189.9087502777611
 30
0.0
  0
VERTEX
  5
3BC
  8
1
  6
CONTINUOUS
 62
     9
 10
-339.4009573644551
 20
190.0671904148497
 30
0.0
  0
VERTEX
  5
3BD
  8
1
  6
CONTINUOUS
 62
     9
 10
-339.4537084700895
 20
190.1983245577257
 30
0.0
  0
VERTEX
  5
3BE
  8
1
  6
CONTINUOUS
 62
     9
 10
-339.5142371892634
 20
190.29692375805
 30
0.0
  0
VERTEX
  5
3BF
  8
1
  6
CONTINUOUS
 62
     9
 10
-339.5801299511199
 20
190.3590563919642
 30
0.0
  0
VERTEX
  5
3C0
  8
1
  6
CONTINUOUS
 62
     9
 10
-339.6487592946475
 20
190.3822449328244
 30
0.0
  0
SEQEND
  5
45E
  8
1
  6
CONTINUOUS
 62
     9
  0
LINE
  5
150
  8
1
  6
CONTINUOUS
 62
     9
 10
-304.437020033223
 20
205.4671132739193
 30
0.0
 11
-304.0596264416542
 21
204.541339728669
 31
0.0
  0
LINE
  5
151
  8
1
  6
CONTINUOUS
 62
     9
 10
-304.437020033223
 20
205.4671132739193
 30
0.0
 11
-304.0249673929794
 21
205.4639399995895
 31
0.0
  0
POLYLINE
  5
152
  8
1
  6
CONTINUOUS
 62
     9
 66
     1
 10
0.0
 20
0.0
 30
0.0
  0
VERTEX
  5
3C1
  8
1
  6
CONTINUOUS
 62
     9
 10
-304.0249673929796
 20
205.4639399995895
 30
0.0
  0
VERTEX
  5
3C2
  8
1
  6
CONTINUOUS
 62
     9
 10
-304.0065255844669
 20
205.2706780840142
 30
0.0
  0
VERTEX
  5
3C3
  8
1
  6
CONTINUOUS
 62
     9
 10
-303.9752460209373
 20
205.0912497222389
 30
0.0
  0
VERTEX
  5
3C4
  8
1
  6
CONTINUOUS
 62
     9
 10
-303.9323759688783
 20
204.9328095851503
 30
0.0
  0
VERTEX
  5
3C5
  8
1
  6
CONTINUOUS
 62
     9
 10
-303.8796248632439
 20
204.8016754422743
 30
0.0
  0
VERTEX
  5
3C6
  8
1
  6
CONTINUOUS
 62
     9
 10
-303.81909614407
 20
204.70307624195
 30
0.0
  0
VERTEX
  5
3C7
  8
1
  6
CONTINUOUS
 62
     9
 10
-303.7532033822135
 20
204.6409436080358
 30
0.0
  0
VERTEX
  5
3C8
  8
1
  6
CONTINUOUS
 62
     9
 10
-303.6845740386859
 20
204.6177550671756
 30
0.0
  0
SEQEND
  5
45F
  8
1
  6
CONTINUOUS
 62
     9
  0
LINE
  5
153
  8
1
  6
CONTINUOUS
 62
     9
 10
-305.681743410093
 20
192.7760603650828
 30
0.0
 11
-305.681743410093
 21
195.5812343177417
 31
0.0
  0
LINE
  5
154
  8
1
  6
CONTINUOUS
 62
     9
 10
-304.9788466233976
 20
203.6153813531135
 30
0.0
 11
-304.6818957149366
 21
203.6153813531135
 31
0.0
  0
LINE
  5
155
  8
1
  6
CONTINUOUS
 62
     9
 10
-304.437020033223
 20
205.4671132739193
 30
0.0
 11
-304.8359568536619
 21
205.2486188947229
 31
0.0
  0
LINE
  5
156
  8
1
  6
CONTINUOUS
 62
     9
 10
-338.3544867099358
 20
191.3846186468865
 30
0.0
 11
-338.6514376183968
 21
191.3846186468865
 31
0.0
  0
LINE
  5
157
  8
1
  6
CONTINUOUS
 62
     9
 10
-338.8963133001104
 20
189.5328867260807
 30
0.0
 11
-338.4973764796716
 21
189.7513811052771
 31
0.0
  0
LINE
  5
158
  8
1
  6
CONTINUOUS
 62
     9
 10
-337.6515899232404
 20
202.2239396349172
 30
0.0
 11
-337.6515899232404
 21
199.4187656822584
 31
0.0
  0
LINE
  5
159
  8
1
  6
CONTINUOUS
 62
     9
 10
-304.0249673929793
 20
205.4639399995895
 30
0.0
 11
-303.2530451217229
 21
205.2612919839763
 31
0.0
  0
POLYLINE
  5
15A
  8
1
  6
CONTINUOUS
 62
     9
 66
     1
 10
0.0
 20
0.0
 30
0.0
  0
VERTEX
  5
3C9
  8
1
  6
CONTINUOUS
 62
     9
 10
-303.2530451217229
 20
205.2612919839763
 30
0.0
  0
VERTEX
  5
3CA
  8
1
  6
CONTINUOUS
 62
     9
 10
-303.160137533246
 20
205.089879915586
 30
0.0
  0
VERTEX
  5
3CB
  8
1
  6
CONTINUOUS
 62
     9
 10
-303.0357271868712
 20
204.9397525012957
 30
0.0
  0
VERTEX
  5
3CC
  8
1
  6
CONTINUOUS
 62
     9
 10
-302.8845443795741
 20
204.8166178455714
 30
0.0
  0
VERTEX
  5
3CD
  8
1
  6
CONTINUOUS
 62
     9
 10
-302.7123373436919
 20
204.7251577414192
 30
0.0
  0
VERTEX
  5
3CE
  8
1
  6
CONTINUOUS
 62
     9
 10
-302.525653689168
 20
204.6688496605018
 30
0.0
  0
VERTEX
  5
3CF
  8
1
  6
CONTINUOUS
 62
     9
 10
-302.331591452075
 20
204.6498345336389
 30
0.0
  0
SEQEND
  5
460
  8
1
  6
CONTINUOUS
 62
     9
  0
LINE
  5
15B
  8
1
  6
CONTINUOUS
 62
     9
 10
-339.3083659403541
 20
189.5360600004106
 30
0.0
 11
-340.0802882116105
 21
189.7387080160237
 31
0.0
  0
POLYLINE
  5
15C
  8
1
  6
CONTINUOUS
 62
     9
 66
     1
 10
0.0
 20
0.0
 30
0.0
  0
VERTEX
  5
3D0
  8
1
  6
CONTINUOUS
 62
     9
 10
-340.0802882116104
 20
189.7387080160237
 30
0.0
  0
VERTEX
  5
3D1
  8
1
  6
CONTINUOUS
 62
     9
 10
-340.1731958000875
 20
189.910120084414
 30
0.0
  0
VERTEX
  5
3D2
  8
1
  6
CONTINUOUS
 62
     9
 10
-340.2976061464622
 20
190.0602474987043
 30
0.0
  0
VERTEX
  5
3D3
  8
1
  6
CONTINUOUS
 62
     9
 10
-340.4487889537593
 20
190.1833821544286
 30
0.0
  0
VERTEX
  5
3D4
  8
1
  6
CONTINUOUS
 62
     9
 10
-340.6209959896415
 20
190.2748422585808
 30
0.0
  0
VERTEX
  5
3D5
  8
1
  6
CONTINUOUS
 62
     9
 10
-340.8076796441654
 20
190.3311503394982
 30
0.0
  0
VERTEX
  5
3D6
  8
1
  6
CONTINUOUS
 62
     9
 10
-341.0017418812584
 20
190.3501654663611
 30
0.0
  0
SEQEND
  5
461
  8
1
  6
CONTINUOUS
 62
     9
  0
ARC
  5
15D
  8
1
  6
CONTINUOUS
 62
     9
 10
-321.6666666666667
 20
197.5
 30
0.0
 40
18.98250818603275
 50
204.8161627569355
 51
207.0384416963512
  0
ARC
  5
15E
  8
1
  6
CONTINUOUS
 62
     9
 10
-321.6666666666667
 20
197.5
 30
0.0
 40
19.98247010909692
 50
202.8552923092955
 51
211.3634506853416
  0
ARC
  5
15F
  8
1
  6
CONTINUOUS
 62
     9
 10
-321.6666666666667
 20
197.5
 30
0.0
 40
18.98250818603275
 50
24.81616275693544
 51
27.03844169635116
  0
ARC
  5
160
  8
1
  6
CONTINUOUS
 62
     9
 10
-321.6666666666667
 20
197.5
 30
0.0
 40
19.98247010909692
 50
22.85529230929547
 51
31.36345068534155
  0
ARC
  5
161
  8
1
  6
CONTINUOUS
 62
     7
 10
-321.6666666666667
 20
197.5
 30
0.0
 40
13.9
 50
343.1374763173862
 51
347.9378792665626
  0
ARC
  5
162
  8
1
  6
CONTINUOUS
 62
     7
 10
-321.6666666666667
 20
197.5
 30
0.0
 40
13.9
 50
163.1374763173862
 51
167.9378792665626
  0
ARC
  5
163
  8
1
  6
CONTINUOUS
 62
     9
 10
-321.6666666666667
 20
197.5
 30
0.0
 40
14.4
 50
163.2208629176844
 51
167.8544926662644
  0
ARC
  5
164
  8
1
  6
CONTINUOUS
 62
     9
 10
-321.6666666666667
 20
197.5
 30
0.0
 40
14.4
 50
343.2208629176844
 51
347.8544926662644
  0
LINE
  5
165
  8
1
  6
CONTINUOUS
 62
     9
 10
-340.0802882116105
 20
189.7387080160236
 30
0.0
 11
-340.0850768485967
 21
189.7049909320014
 31
0.0
  0
POLYLINE
  5
166
  8
1
  6
CONTINUOUS
 62
     7
 66
     1
 10
0.0
 20
0.0
 30
0.0
  0
VERTEX
  5
3D7
  8
1
  6
CONTINUOUS
 62
     7
 10
-340.0850768485967
 20
189.7049909320015
 30
0.0
  0
VERTEX
  5
3D8
  8
1
  6
CONTINUOUS
 62
     7
 10
-340.1048849977711
 20
189.7487711019118
 30
0.0
  0
VERTEX
  5
3D9
  8
1
  6
CONTINUOUS
 62
     7
 10
-340.1268560081973
 20
189.7916626810515
 30
0.0
  0
VERTEX
  5
3DA
  8
1
  6
CONTINUOUS
 62
     7
 10
-340.1509000831147
 20
189.833525183783
 30
0.0
  0
VERTEX
  5
3DB
  8
1
  6
CONTINUOUS
 62
     7
 10
-340.1769274257628
 20
189.8742181244685
 30
0.0
  0
VERTEX
  5
3DC
  8
1
  6
CONTINUOUS
 62
     7
 10
-340.2048482393812
 20
189.9136010174706
 30
0.0
  0
VERTEX
  5
3DD
  8
1
  6
CONTINUOUS
 62
     7
 10
-340.2345727272095
 20
189.9515333771515
 30
0.0
  0
VERTEX
  5
3DE
  8
1
  6
CONTINUOUS
 62
     7
 10
-340.266011092487
 20
189.9878747178737
 30
0.0
  0
VERTEX
  5
3DF
  8
1
  6
CONTINUOUS
 62
     7
 10
-340.2991939334981
 20
190.0226308434679
 30
0.0
  0
VERTEX
  5
3E0
  8
1
  6
CONTINUOUS
 62
     7
 10
-340.3341239000073
 20
190.0558323137788
 30
0.0
  0
VERTEX
  5
3E1
  8
1
  6
CONTINUOUS
 62
     7
 10
-340.3706697102659
 20
190.0873762588567
 30
0.0
  0
VERTEX
  5
3E2
  8
1
  6
CONTINUOUS
 62
     7
 10
-340.4087000825247
 20
190.1171598087516
 30
0.0
  0
VERTEX
  5
3E3
  8
1
  6
CONTINUOUS
 62
     7
 10
-340.448083735035
 20
190.1450800935136
 30
0.0
  0
VERTEX
  5
3E4
  8
1
  6
CONTINUOUS
 62
     7
 10
-340.4886893860479
 20
190.1710342431927
 30
0.0
  0
VERTEX
  5
3E5
  8
1
  6
CONTINUOUS
 62
     7
 10
-340.5303857538144
 20
190.1949193878389
 30
0.0
  0
VERTEX
  5
3E6
  8
1
  6
CONTINUOUS
 62
     7
 10
-340.5731986932341
 20
190.2167285209078
 30
0.0
  0
VERTEX
  5
3E7
  8
1
  6
CONTINUOUS
 62
     7
 10
-340.6171454822652
 20
190.2364924612064
 30
0.0
  0
VERTEX
  5
3E8
  8
1
  6
CONTINUOUS
 62
     7
 10
-340.6620681982586
 20
190.2541576284338
 30
0.0
  0
VERTEX
  5
3E9
  8
1
  6
CONTINUOUS
 62
     7
 10
-340.707808918565
 20
190.2696704422895
 30
0.0
  0
VERTEX
  5
3EA
  8
1
  6
CONTINUOUS
 62
     7
 10
-340.7542097205353
 20
190.2829773224729
 30
0.0
  0
VERTEX
  5
3EB
  8
1
  6
CONTINUOUS
 62
     7
 10
-340.8011126815204
 20
190.2940246886831
 30
0.0
  0
VERTEX
  5
3EC
  8
1
  6
CONTINUOUS
 62
     7
 10
-340.8483598788708
 20
190.3027589606197
 30
0.0
  0
VERTEX
  5
3ED
  8
1
  6
CONTINUOUS
 62
     7
 10
-340.88752446841
 20
190.3082151245642
 30
0.0
  0
VERTEX
  5
3EE
  8
1
  6
CONTINUOUS
 62
     7
 10
-340.9269050068325
 20
190.3121214601177
 30
0.0
  0
VERTEX
  5
3EF
  8
1
  6
CONTINUOUS
 62
     7
 10
-340.9664090274506
 20
190.3144706369935
 30
0.0
  0
VERTEX
  5
3F0
  8
1
  6
CONTINUOUS
 62
     7
 10
-341.0059440635767
 20
190.3152553249047
 30
0.0
  0
SEQEND
  5
462
  8
1
  6
CONTINUOUS
 62
     7
  0
ARC
  5
167
  8
1
  6
CONTINUOUS
 62
     7
 10
-321.6666666666667
 20
197.5
 30
0.0
 40
20.0
 50
202.9389727767154
 51
211.4316026901371
  0
LINE
  5
168
  8
1
  6
CONTINUOUS
 62
     9
 10
-303.2530451217229
 20
205.2612919839764
 30
0.0
 11
-303.2482564847367
 21
205.2950090679985
 31
0.0
  0
POLYLINE
  5
169
  8
1
  6
CONTINUOUS
 62
     7
 66
     1
 10
0.0
 20
0.0
 30
0.0
  0
VERTEX
  5
3F1
  8
1
  6
CONTINUOUS
 62
     7
 10
-303.2482564847367
 20
205.2950090679985
 30
0.0
  0
VERTEX
  5
3F2
  8
1
  6
CONTINUOUS
 62
     7
 10
-303.2284483355623
 20
205.2512288980882
 30
0.0
  0
VERTEX
  5
3F3
  8
1
  6
CONTINUOUS
 62
     7
 10
-303.2064773251362
 20
205.2083373189485
 30
0.0
  0
VERTEX
  5
3F4
  8
1
  6
CONTINUOUS
 62
     7
 10
-303.1824332502188
 20
205.1664748162171
 30
0.0
  0
VERTEX
  5
3F5
  8
1
  6
CONTINUOUS
 62
     7
 10
-303.1564059075706
 20
205.1257818755315
 30
0.0
  0
VERTEX
  5
3F6
  8
1
  6
CONTINUOUS
 62
     7
 10
-303.1284850939522
 20
205.0863989825295
 30
0.0
  0
VERTEX
  5
3F7
  8
1
  6
CONTINUOUS
 62
     7
 10
-303.098760606124
 20
205.0484666228485
 30
0.0
  0
VERTEX
  5
3F8
  8
1
  6
CONTINUOUS
 62
     7
 10
-303.0673222408464
 20
205.0121252821263
 30
0.0
  0
VERTEX
  5
3F9
  8
1
  6
CONTINUOUS
 62
     7
 10
-303.0341393998353
 20
204.9773691565322
 30
0.0
  0
VERTEX
  5
3FA
  8
1
  6
CONTINUOUS
 62
     7
 10
-302.9992094333261
 20
204.9441676862212
 30
0.0
  0
VERTEX
  5
3FB
  8
1
  6
CONTINUOUS
 62
     7
 10
-302.9626636230676
 20
204.9126237411433
 30
0.0
  0
VERTEX
  5
3FC
  8
1
  6
CONTINUOUS
 62
     7
 10
-302.9246332508087
 20
204.8828401912484
 30
0.0
  0
VERTEX
  5
3FD
  8
1
  6
CONTINUOUS
 62
     7
 10
-302.8852495982983
 20
204.8549199064864
 30
0.0
  0
VERTEX
  5
3FE
  8
1
  6
CONTINUOUS
 62
     7
 10
-302.8446439472855
 20
204.8289657568074
 30
0.0
  0
VERTEX
  5
3FF
  8
1
  6
CONTINUOUS
 62
     7
 10
-302.8029475795189
 20
204.8050806121611
 30
0.0
  0
VERTEX
  5
400
  8
1
  6
CONTINUOUS
 62
     7
 10
-302.7601346400992
 20
204.7832714790922
 30
0.0
  0
VERTEX
  5
401
  8
1
  6
CONTINUOUS
 62
     7
 10
-302.7161878510682
 20
204.7635075387936
 30
0.0
  0
VERTEX
  5
402
  8
1
  6
CONTINUOUS
 62
     7
 10
-302.6712651350748
 20
204.7458423715662
 30
0.0
  0
VERTEX
  5
403
  8
1
  6
CONTINUOUS
 62
     7
 10
-302.6255244147683
 20
204.7303295577105
 30
0.0
  0
VERTEX
  5
404
  8
1
  6
CONTINUOUS
 62
     7
 10
-302.579123612798
 20
204.7170226775271
 30
0.0
  0
VERTEX
  5
405
  8
1
  6
CONTINUOUS
 62
     7
 10
-302.5322206518131
 20
204.7059753113169
 30
0.0
  0
VERTEX
  5
406
  8
1
  6
CONTINUOUS
 62
     7
 10
-302.4849734544626
 20
204.6972410393803
 30
0.0
  0
VERTEX
  5
407
  8
1
  6
CONTINUOUS
 62
     7
 10
-302.4458088649234
 20
204.6917848754358
 30
0.0
  0
VERTEX
  5
408
  8
1
  6
CONTINUOUS
 62
     7
 10
-302.4064283265009
 20
204.6878785398823
 30
0.0
  0
VERTEX
  5
409
  8
1
  6
CONTINUOUS
 62
     7
 10
-302.3669243058828
 20
204.6855293630065
 30
0.0
  0
VERTEX
  5
40A
  8
1
  6
CONTINUOUS
 62
     7
 10
-302.3273892697567
 20
204.6847446750953
 30
0.0
  0
SEQEND
  5
463
  8
1
  6
CONTINUOUS
 62
     7
  0
ARC
  5
16A
  8
1
  6
CONTINUOUS
 62
     7
 10
-321.6666666666667
 20
197.5
 30
0.0
 40
20.0
 50
22.93897277671546
 51
31.43160269013711
  0
CIRCLE
  5
16B
  8
1
  6
CONTINUOUS
 62
     9
 10
-321.6666666666667
 20
197.5
 30
0.0
 40
58.01312837934691
  0
CIRCLE
  5
16C
  8
1
  6
CONTINUOUS
 62
     9
 10
-321.6666666666667
 20
197.5
 30
0.0
 40
58.51310934087901
  0
CIRCLE
  5
16D
  8
1
  6
CONTINUOUS
 62
     7
 10
-321.6666666666667
 20
197.5
 30
0.0
 40
60.0
  0
CIRCLE
  5
16E
  8
1
  6
CONTINUOUS
 62
     7
 10
-321.6666666666667
 20
197.5
 30
0.0
 40
57.99999999999999
  0
ENDBLK
  8
0
  0
BLOCK
  8
0
  2
D_FRAME_VIEW_2430
 70
     0
 10
0.0
 20
0.0
 30
0.0
  0
LINE
  5
174
  8
1
  6
CONTINUOUS
 62
     7
 10
-294.9166666666667
 20
-48.66666666666666
 30
0.0
 11
-296.3666666666667
 21
-48.66666666666667
 31
0.0
  0
ARC
  5
175
  8
1
  6
CONTINUOUS
 62
     7
 10
-296.3666666666667
 20
-47.86666666666667
 30
0.0
 40
0.800000000000002
 50
180.0
 51
269.9999999999995
  0
LINE
  5
176
  8
1
  6
CONTINUOUS
 62
     7
 10
-297.1666666666667
 20
-47.86666666666667
 30
0.0
 11
-297.1666666666667
 21
-46.97292556981863
 31
0.0
  0
ARC
  5
177
  8
1
  6
CONTINUOUS
 62
     7
 10
-297.6666666666667
 20
-49.16666666666666
 30
0.0
 40
2.250000000000014
 50
77.16041159309584
 51
102.8395884069041
  0
LINE
  5
178
  8
1
  6
CONTINUOUS
 62
     7
 10
-298.1666666666667
 20
-46.97292556981863
 30
0.0
 11
-298.1666666666667
 21
-47.86666666666667
 31
0.0
  0
ARC
  5
179
  8
1
  6
CONTINUOUS
 62
     7
 10
-298.9666666666667
 20
-47.86666666666666
 30
0.0
 40
0.8000000000000229
 50
269.9999999999998
 51
359.9999999999994
  0
LINE
  5
17A
  8
1
  6
CONTINUOUS
 62
     7
 10
-298.9666666666667
 20
-48.66666666666666
 30
0.0
 11
-300.4166666666667
 21
-48.66666666666666
 31
0.0
  0
LINE
  5
17B
  8
1
  6
CONTINUOUS
 62
     7
 10
-300.4166666666667
 20
-48.66666666666666
 30
0.0
 11
-300.4166666666667
 21
-49.66666666666666
 31
0.0
  0
LINE
  5
17C
  8
1
  6
CONTINUOUS
 62
     7
 10
-300.4166666666667
 20
-49.66666666666666
 30
0.0
 11
-298.9666666666667
 21
-49.66666666666666
 31
0.0
  0
ARC
  5
17D
  8
1
  6
CONTINUOUS
 62
     7
 10
-298.9666666666667
 20
-50.46666666666666
 30
0.0
 40
0.800000000000002
 50
359.9999999999999
 51
89.99999999999949
  0
LINE
  5
17E
  8
1
  6
CONTINUOUS
 62
     7
 10
-298.1666666666667
 20
-50.46666666666666
 30
0.0
 11
-298.1666666666667
 21
-51.36040776351469
 31
0.0
  0
ARC
  5
17F
  8
1
  6
CONTINUOUS
 62
     7
 10
-297.6666666666667
 20
-49.16666666666666
 30
0.0
 40
2.249999999999989
 50
257.1604115930959
 51
282.8395884069041
  0
LINE
  5
180
  8
1
  6
CONTINUOUS
 62
     7
 10
-297.1666666666667
 20
-51.36040776351469
 30
0.0
 11
-297.1666666666667
 21
-50.46666666666666
 31
0.0
  0
ARC
  5
181
  8
1
  6
CONTINUOUS
 62
     7
 10
-296.3666666666667
 20
-50.46666666666667
 30
0.0
 40
0.8000000000000229
 50
90.00000000000021
 51
180.0
  0
LINE
  5
182
  8
1
  6
CONTINUOUS
 62
     7
 10
-296.3666666666667
 20
-49.66666666666666
 30
0.0
 11
-294.9166666666667
 21
-49.66666666666666
 31
0.0
  0
LINE
  5
183
  8
1
  6
CONTINUOUS
 62
     7
 10
-294.9166666666667
 20
-49.66666666666666
 30
0.0
 11
-294.9166666666667
 21
-48.66666666666666
 31
0.0
  0
CIRCLE
  5
184
  8
1
  6
CONTINUOUS
 62
     7
 10
-297.6666666666667
 20
-49.16666666666666
 30
0.0
 40
4.000000000000004
  0
ARC
  5
185
  8
1
  6
CONTINUOUS
 62
     9
 10
-297.6666666666667
 20
-49.16666666666666
 30
0.0
 40
1.200223116976663
 50
63.68628105136501
 51
116.3137189486362
  0
ARC
  5
186
  8
1
  6
CONTINUOUS
 62
     9
 10
-297.6666666666667
 20
-49.16666666666666
 30
0.0
 40
1.200223116976638
 50
243.686281051365
 51
296.3137189486361
  0
ARC
  5
187
  8
1
  6
CONTINUOUS
 62
     9
 10
-297.6666666666667
 20
-49.16666666666666
 30
0.0
 40
1.200223116976606
 50
153.686281051365
 51
206.3137189486361
  0
ARC
  5
188
  8
1
  6
CONTINUOUS
 62
     7
 10
-297.6666666666667
 20
-49.16666666666666
 30
0.0
 40
1.801276552751907
 50
163.8841207182081
 51
196.1158792817919
  0
ARC
  5
189
  8
1
  6
CONTINUOUS
 62
     9
 10
-297.6666666666667
 20
-49.16666666666666
 30
0.0
 40
1.200223116976654
 50
333.6862810513651
 51
26.31371894863611
  0
ARC
  5
18A
  8
1
  6
CONTINUOUS
 62
     7
 10
-297.6666666666667
 20
-49.16666666666666
 30
0.0
 40
1.80127655275196
 50
343.8841207182082
 51
16.11587928179193
  0
CIRCLE
  5
18B
  8
1
  6
CONTINUOUS
 62
     9
 10
-297.6666666666667
 20
-49.16666666666666
 30
0.0
 40
1.021236244656276
  0
LINE
  5
18C
  8
1
  6
CONTINUOUS
 62
     7
 10
-342.9166666666667
 20
-48.66666666666666
 30
0.0
 11
-344.3666666666667
 21
-48.66666666666667
 31
0.0
  0
ARC
  5
18D
  8
1
  6
CONTINUOUS
 62
     7
 10
-344.3666666666667
 20
-47.86666666666667
 30
0.0
 40
0.800000000000002
 50
180.0
 51
269.9999999999995
  0
LINE
  5
18E
  8
1
  6
CONTINUOUS
 62
     7
 10
-345.1666666666667
 20
-47.86666666666667
 30
0.0
 11
-345.1666666666667
 21
-46.97292556981863
 31
0.0
  0
ARC
  5
18F
  8
1
  6
CONTINUOUS
 62
     7
 10
-345.6666666666667
 20
-49.16666666666666
 30
0.0
 40
2.249999999999989
 50
77.16041159309584
 51
102.8395884069041
  0
LINE
  5
190
  8
1
  6
CONTINUOUS
 62
     7
 10
-346.1666666666667
 20
-46.97292556981863
 30
0.0
 11
-346.1666666666667
 21
-47.86666666666667
 31
0.0
  0
ARC
  5
191
  8
1
  6
CONTINUOUS
 62
     7
 10
-346.9666666666667
 20
-47.86666666666666
 30
0.0
 40
0.8000000000000229
 50
269.9999999999998
 51
359.9999999999994
  0
LINE
  5
192
  8
1
  6
CONTINUOUS
 62
     7
 10
-346.9666666666667
 20
-48.66666666666666
 30
0.0
 11
-348.4166666666667
 21
-48.66666666666666
 31
0.0
  0
LINE
  5
193
  8
1
  6
CONTINUOUS
 62
     7
 10
-348.4166666666667
 20
-48.66666666666666
 30
0.0
 11
-348.4166666666667
 21
-49.66666666666666
 31
0.0
  0
LINE
  5
194
  8
1
  6
CONTINUOUS
 62
     7
 10
-348.4166666666667
 20
-49.66666666666666
 30
0.0
 11
-346.9666666666667
 21
-49.66666666666666
 31
0.0
  0
ARC
  5
195
  8
1
  6
CONTINUOUS
 62
     7
 10
-346.9666666666667
 20
-50.46666666666666
 30
0.0
 40
0.800000000000002
 50
359.9999999999999
 51
89.99999999999949
  0
LINE
  5
196
  8
1
  6
CONTINUOUS
 62
     7
 10
-346.1666666666667
 20
-50.46666666666666
 30
0.0
 11
-346.1666666666667
 21
-51.36040776351469
 31
0.0
  0
ARC
  5
197
  8
1
  6
CONTINUOUS
 62
     7
 10
-345.6666666666667
 20
-49.16666666666666
 30
0.0
 40
2.250000000000014
 50
257.1604115930959
 51
282.8395884069041
  0
LINE
  5
198
  8
1
  6
CONTINUOUS
 62
     7
 10
-345.1666666666667
 20
-51.36040776351469
 30
0.0
 11
-345.1666666666667
 21
-50.46666666666666
 31
0.0
  0
ARC
  5
199
  8
1
  6
CONTINUOUS
 62
     7
 10
-344.3666666666667
 20
-50.46666666666667
 30
0.0
 40
0.8000000000000229
 50
90.00000000000021
 51
180.0
  0
LINE
  5
19A
  8
1
  6
CONTINUOUS
 62
     7
 10
-344.3666666666667
 20
-49.66666666666666
 30
0.0
 11
-342.9166666666667
 21
-49.66666666666666
 31
0.0
  0
LINE
  5
19B
  8
1
  6
CONTINUOUS
 62
     7
 10
-342.9166666666667
 20
-49.66666666666666
 30
0.0
 11
-342.9166666666667
 21
-48.66666666666666
 31
0.0
  0
CIRCLE
  5
19C
  8
1
  6
CONTINUOUS
 62
     7
 10
-345.6666666666667
 20
-49.16666666666666
 30
0.0
 40
3.999999999999948
  0
ARC
  5
19D
  8
1
  6
CONTINUOUS
 62
     9
 10
-345.6666666666667
 20
-49.16666666666666
 30
0.0
 40
1.200223116976638
 50
63.68628105136501
 51
116.3137189486362
  0
ARC
  5
19E
  8
1
  6
CONTINUOUS
 62
     9
 10
-345.6666666666667
 20
-49.16666666666666
 30
0.0
 40
1.200223116976663
 50
243.686281051365
 51
296.3137189486361
  0
ARC
  5
19F
  8
1
  6
CONTINUOUS
 62
     9
 10
-345.6666666666667
 20
-49.16666666666666
 30
0.0
 40
1.200223116976604
 50
333.6862810513651
 51
26.31371894863611
  0
ARC
  5
1A0
  8
1
  6
CONTINUOUS
 62
     7
 10
-345.6666666666667
 20
-49.16666666666666
 30
0.0
 40
1.801276552751907
 50
343.8841207182082
 51
16.11587928179193
  0
ARC
  5
1A1
  8
1
  6
CONTINUOUS
 62
     7
 10
-345.6666666666667
 20
-49.16666666666666
 30
0.0
 40
1.80127655275196
 50
163.8841207182081
 51
196.1158792817919
  0
ARC
  5
1A2
  8
1
  6
CONTINUOUS
 62
     9
 10
-345.6666666666667
 20
-49.16666666666666
 30
0.0
 40
1.200223116976655
 50
153.686281051365
 51
206.3137189486361
  0
CIRCLE
  5
1A3
  8
1
  6
CONTINUOUS
 62
     9
 10
-345.6666666666667
 20
-49.16666666666666
 30
0.0
 40
1.021236244656221
  0
ARC
  5
1A4
  8
1
  6
CONTINUOUS
 62
     7
 10
-311.4511883227954
 20
-40.76713536227819
 30
0.0
 40
0.7499999999999963
 50
66.02045063552413
 51
275.0
  0
ARC
  5
1A5
  8
1
  6
CONTINUOUS
 62
     7
 10
-311.4511883227954
 20
-40.76713536227819
 30
0.0
 40
0.7500000000000028
 50
275.0
 51
12.83607735142914
  0
CIRCLE
  5
1A6
  8
1
  6
CONTINUOUS
 62
     7
 10
-322.2495444734338
 20
-43.55220547900396
 30
0.0
 40
0.7499999999999729
  0
CIRCLE
  5
1A7
  8
1
  6
CONTINUOUS
 62
     7
 10
-333.0479006240723
 20
-46.33727559572975
 30
0.0
 40
0.7500000000000284
  0
LINE
  5
1A8
  8
1
  6
CONTINUOUS
 62
     7
 10
-335.2597769852508
 20
-52.07137867765882
 30
0.0
 11
-308.3643176920933
 21
-45.13460618117485
 31
0.0
  0
ARC
  5
1A9
  8
1
  6
CONTINUOUS
 62
     7
 10
-331.882145010538
 20
-57.56619797105514
 30
0.0
 40
0.7500000000000032
 50
246.0204506355226
 51
95.0
  0
ARC
  5
1AA
  8
1
  6
CONTINUOUS
 62
     7
 10
-331.882145010538
 20
-57.56619797105514
 30
0.0
 40
0.7500000000000068
 50
94.9999999999999
 51
192.8360773514304
  0
CIRCLE
  5
1AB
  8
1
  6
CONTINUOUS
 62
     7
 10
-321.0837888598996
 20
-54.78112785432937
 30
0.0
 40
0.7499999999999729
  0
CIRCLE
  5
1AC
  8
1
  6
CONTINUOUS
 62
     7
 10
-310.285432709261
 20
-51.99605773760357
 30
0.0
 40
0.7499999999999729
  0
LINE
  5
1AD
  8
1
  6
CONTINUOUS
 62
     7
 10
-308.0735563480826
 20
-46.26195465567451
 30
0.0
 11
-334.9690156412402
 21
-53.19872715215848
 31
0.0
  0
ARC
  5
1AE
  8
1
  6
CONTINUOUS
 62
     9
 10
-345.6666666666668
 20
-73.16666666666664
 30
0.0
 40
29.99999999999992
 50
128.4332063408507
 51
179.3609057373142
  0
ARC
  5
1AF
  8
1
  6
CONTINUOUS
 62
     9
 10
-321.6666666666667
 20
-49.16666666666666
 30
0.0
 40
58.95632758266046
 50
75.26044708602028
 51
203.6660553415981
  0
LINE
  5
1B0
  8
1
  6
CONTINUOUS
 62
     9
 10
-306.6666666666667
 20
-24.05566310249185
 30
0.0
 11
-306.6666666666667
 21
7.849546483927355
 31
0.0
  0
ARC
  5
1B1
  8
1
  6
CONTINUOUS
 62
     7
 10
-321.6666666666667
 20
-49.16666666666666
 30
0.0
 40
29.25000000000001
 50
59.14811401393465
 51
88.07372859138843
  0
ARC
  5
1B2
  8
1
  6
CONTINUOUS
 62
     7
 10
-320.6666666666667
 20
-19.43347813936606
 30
0.0
 40
0.5000000000000004
 50
180.0
 51
268.0737285913884
  0
LINE
  5
1B3
  8
1
  6
CONTINUOUS
 62
     7
 10
-321.1666666666667
 20
8.333333333333332
 30
0.0
 11
-321.1666666666667
 21
-19.43347813936606
 31
0.0
  0
ARC
  5
1B4
  8
1
  6
CONTINUOUS
 62
     7
 10
-321.6666666666667
 20
8.333333333333332
 30
0.0
 40
0.5000000000000004
 50
0.0
 51
90.0
  0
ARC
  5
1B5
  8
1
  6
CONTINUOUS
 62
     7
 10
-321.6666666666667
 20
8.333333333333332
 30
0.0
 40
0.5000000000000004
 50
90.0000000000005
 51
180.0
  0
LINE
  5
1B6
  8
1
  6
CONTINUOUS
 62
     7
 10
-322.1666666666667
 20
-19.43347813936606
 30
0.0
 11
-322.1666666666667
 21
8.333333333333332
 31
0.0
  0
ARC
  5
1B7
  8
1
  6
CONTINUOUS
 62
     7
 10
-322.6666666666667
 20
-19.43347813936606
 30
0.0
 40
0.5000000000000036
 50
271.9262714086115
 51
0.0
  0
ARC
  5
1B8
  8
1
  6
CONTINUOUS
 62
     7
 10
-321.6666666666667
 20
-49.16666666666666
 30
0.0
 40
29.24999999999999
 50
91.92627140861157
 51
158.5790380545452
  0
ARC
  5
1B9
  8
1
  6
CONTINUOUS
 62
     7
 10
-348.4306816868389
 20
-38.66666666666666
 30
0.0
 40
0.5000000000000004
 50
158.5790380545453
 51
270.0
  0
ARC
  5
1BA
  8
1
  6
CONTINUOUS
 62
     7
 10
-348.4306816868389
 20
-38.66666666666666
 30
0.0
 40
0.5000000000000028
 50
270.0000000000005
 51
338.5790380545449
  0
ARC
  5
1BB
  8
1
  6
CONTINUOUS
 62
     7
 10
-321.6666666666667
 20
-49.16666666666666
 30
0.0
 40
28.25000000000002
 50
57.9287493672532
 51
158.5790380545452
  0
LINE
  5
1BC
  8
1
  6
CONTINUOUS
 62
     9
 10
-306.6666666666667
 20
-37.50476287697606
 30
0.0
 11
-306.6666666666667
 21
-25.22794280761351
 31
0.0
  0
ARC
  5
1BD
  8
1
  6
CONTINUOUS
 62
     7
 10
-321.6666666666667
 20
-49.16666666666666
 30
0.0
 40
19.00000000000002
 50
37.86364636173039
 51
163.3776606853946
  0
ARC
  5
1BE
  8
1
  6
CONTINUOUS
 62
     9
 10
-345.6666666666667
 20
-73.16666666666676
 30
0.0
 40
30.00000000000008
 50
78.86432299908337
 51
125.2475069920525
  0
LINE
  5
1BF
  8
1
  6
CONTINUOUS
 62
     7
 10
-374.1666666666667
 20
-48.66666666666666
 30
0.0
 11
-362.9799563598474
 21
-48.66666666666666
 31
0.0
  0
ARC
  5
1C0
  8
1
  6
CONTINUOUS
 62
     7
 10
-374.1666666666667
 20
-49.16666666666666
 30
0.0
 40
0.5000000000000004
 50
90.0
 51
180.0
  0
ARC
  5
1C1
  8
1
  6
CONTINUOUS
 62
     7
 10
-374.1666666666667
 20
-49.16666666666666
 30
0.0
 40
0.5000000000000004
 50
180.0
 51
270.0
  0
LINE
  5
1C2
  8
1
  6
CONTINUOUS
 62
     7
 10
-364.3147228656382
 20
-49.66666666666667
 30
0.0
 11
-374.1666666666667
 21
-49.66666666666666
 31
0.0
  0
ARC
  5
1C3
  8
1
  6
CONTINUOUS
 62
     9
 10
-321.6666666666667
 20
-49.16666666666666
 30
0.0
 40
58.95632758266045
 50
23.66605534159807
 51
75.26044708602026
  0
ARC
  5
1C4
  8
1
  6
CONTINUOUS
 62
     9
 10
-321.6666666666667
 20
-49.16666666666666
 30
0.0
 40
58.95632758266045
 50
203.6660553415981
 51
255.2604470860203
  0
ARC
  5
1C5
  8
1
  6
CONTINUOUS
 62
     9
 10
-321.6666666666667
 20
-49.16666666666666
 30
0.0
 40
58.95632758266046
 50
255.2604470860203
 51
23.66605534159811
  0
CIRCLE
  5
1C6
  8
1
  6
CONTINUOUS
 62
     9
 10
-321.6666666666667
 20
-49.16666666666666
 30
0.0
 40
59.95628950572463
  0
ARC
  5
1C7
  8
1
  6
CONTINUOUS
 62
     7
 10
-298.6666666666667
 20
-17.16666666666666
 30
0.0
 40
2.000000000000002
 50
90.0
 51
180.0
  0
LINE
  5
1C8
  8
1
  6
CONTINUOUS
 62
     7
 10
-300.6666666666667
 20
-25.16666666666666
 30
0.0
 11
-300.6666666666667
 21
-17.16666666666666
 31
0.0
  0
ARC
  5
1C9
  8
1
  6
CONTINUOUS
 62
     7
 10
-298.6666666666667
 20
-25.16666666666666
 30
0.0
 40
2.000000000000002
 50
180.0
 51
270.0
  0
LINE
  5
1CA
  8
1
  6
CONTINUOUS
 62
     7
 10
-276.6666666666667
 20
-27.16666666666666
 30
0.0
 11
-298.6666666666667
 21
-27.16666666666666
 31
0.0
  0
ARC
  5
1CB
  8
1
  6
CONTINUOUS
 62
     7
 10
-276.6666666666667
 20
-25.16666666666666
 30
0.0
 40
2.000000000000002
 50
270.0
 51
0.0
  0
LINE
  5
1CC
  8
1
  6
CONTINUOUS
 62
     7
 10
-274.6666666666667
 20
-17.16666666666666
 30
0.0
 11
-274.6666666666667
 21
-25.16666666666666
 31
0.0
  0
ARC
  5
1CD
  8
1
  6
CONTINUOUS
 62
     7
 10
-276.6666666666667
 20
-17.16666666666666
 30
0.0
 40
2.000000000000002
 50
0.0
 51
90.0
  0
LINE
  5
1CE
  8
1
  6
CONTINUOUS
 62
     7
 10
-298.6666666666667
 20
-15.16666666666666
 30
0.0
 11
-276.6666666666667
 21
-15.16666666666666
 31
0.0
  0
CIRCLE
  5
1CF
  8
1
  6
CONTINUOUS
 62
     7
 10
-297.6666666666667
 20
-49.16666666666666
 30
0.0
 40
4.100000000000048
  0
ARC
  5
1D0
  8
1
  6
CONTINUOUS
 62
     7
 10
-321.6666666666667
 20
-49.16666666666666
 30
0.0
 40
19.00000000000001
 50
343.3776606853947
 51
37.86364636173039
  0
ARC
  5
1D1
  8
1
  6
CONTINUOUS
 62
     7
 10
-321.6666666666667
 20
-49.16666666666666
 30
0.0
 40
28.25000000000001
 50
11.02891423394834
 51
57.9287493672532
  0
ARC
  5
1D2
  8
1
  6
CONTINUOUS
 62
     7
 10
-293.4476571163653
 20
-43.66666666666666
 30
0.0
 40
0.5000000000000246
 50
191.0289142339474
 51
11.02891423394823
  0
ARC
  5
1D3
  8
1
  6
CONTINUOUS
 62
     7
 10
-321.6666666666667
 20
-49.16666666666666
 30
0.0
 40
29.24999999999997
 50
11.02891423394832
 51
59.14811401393465
  0
ARC
  5
1D4
  8
1
  6
CONTINUOUS
 62
     9
 10
-297.666666666667
 20
-25.1666666666665
 30
0.0
 40
30.00000000000031
 50
308.433206340851
 51
359.3609057373139
  0
LINE
  5
1D5
  8
1
  6
CONTINUOUS
 62
     7
 10
-279.0186104676952
 20
-48.66666666666666
 30
0.0
 11
-291.9166666666667
 21
-48.66666666666666
 31
0.0
  0
ARC
  5
1D6
  8
1
  6
CONTINUOUS
 62
     7
 10
-291.9166666666667
 20
-49.16666666666666
 30
0.0
 40
0.5000000000000004
 50
90.0
 51
180.0
  0
ARC
  5
1D7
  8
1
  6
CONTINUOUS
 62
     7
 10
-291.9166666666667
 20
-49.16666666666666
 30
0.0
 40
0.5000000000000004
 50
180.0
 51
270.0
  0
LINE
  5
1D8
  8
1
  6
CONTINUOUS
 62
     7
 10
-291.9166666666667
 20
-49.66666666666666
 30
0.0
 11
-280.3533769734859
 21
-49.66666666666666
 31
0.0
  0
ARC
  5
1D9
  8
1
  6
CONTINUOUS
 62
     9
 10
-297.6666666666667
 20
-25.16666666666671
 30
0.0
 40
29.99999999999994
 50
258.8643229990832
 51
305.2475069920526
  0
LINE
  5
1DA
  8
1
  6
CONTINUOUS
 62
     7
 10
-269.1666666666667
 20
-48.66666666666666
 30
0.0
 11
-279.0186104676952
 21
-48.66666666666666
 31
0.0
  0
LINE
  5
1DB
  8
1
  6
CONTINUOUS
 62
     9
 10
-336.6666666666667
 20
-74.27767023084148
 30
0.0
 11
-336.6666666666667
 21
-106.1828798172607
 31
0.0
  0
ARC
  5
1DC
  8
1
  6
CONTINUOUS
 62
     7
 10
-321.6666666666667
 20
-49.16666666666666
 30
0.0
 40
29.25
 50
239.1481140139346
 51
268.0737285913884
  0
ARC
  5
1DD
  8
1
  6
CONTINUOUS
 62
     7
 10
-322.6666666666667
 20
-78.89985519396726
 30
0.0
 40
0.5000000000000004
 50
0.0
 51
88.07372859138842
  0
LINE
  5
1DE
  8
1
  6
CONTINUOUS
 62
     7
 10
-322.1666666666667
 20
-78.89985519396726
 30
0.0
 11
-322.1666666666667
 21
-106.6666666666667
 31
0.0
  0
ARC
  5
1DF
  8
1
  6
CONTINUOUS
 62
     7
 10
-321.6666666666667
 20
-106.6666666666667
 30
0.0
 40
0.5000000000000004
 50
180.0
 51
269.9999999999999
  0
ARC
  5
1E0
  8
1
  6
CONTINUOUS
 62
     7
 10
-321.6666666666667
 20
-106.6666666666667
 30
0.0
 40
0.5000000000000004
 50
270.0
 51
0.0
  0
LINE
  5
1E1
  8
1
  6
CONTINUOUS
 62
     7
 10
-321.1666666666667
 20
-106.6666666666667
 30
0.0
 11
-321.1666666666667
 21
-78.89985519396726
 31
0.0
  0
ARC
  5
1E2
  8
1
  6
CONTINUOUS
 62
     7
 10
-320.6666666666667
 20
-78.89985519396726
 30
0.0
 40
0.5
 50
91.92627140861161
 51
180.0
  0
ARC
  5
1E3
  8
1
  6
CONTINUOUS
 62
     7
 10
-321.6666666666667
 20
-49.16666666666666
 30
0.0
 40
29.24999999999998
 50
271.9262714086115
 51
338.5790380545452
  0
ARC
  5
1E4
  8
1
  6
CONTINUOUS
 62
     7
 10
-294.9026516464946
 20
-59.66666666666666
 30
0.0
 40
0.5000000000000004
 50
338.5790380545453
 51
89.99999999999962
  0
ARC
  5
1E5
  8
1
  6
CONTINUOUS
 62
     7
 10
-294.9026516464946
 20
-59.66666666666666
 30
0.0
 40
0.4999999999999512
 50
90.0
 51
158.579038054545
  0
ARC
  5
1E6
  8
1
  6
CONTINUOUS
 62
     7
 10
-321.6666666666667
 20
-49.16666666666666
 30
0.0
 40
28.25000000000001
 50
237.9287493672532
 51
338.5790380545452
  0
LINE
  5
1E7
  8
1
  6
CONTINUOUS
 62
     9
 10
-336.6666666666667
 20
-60.82857045635727
 30
0.0
 11
-336.6666666666667
 21
-73.10539052571983
 31
0.0
  0
ARC
  5
1E8
  8
1
  6
CONTINUOUS
 62
     7
 10
-321.6666666666667
 20
-49.16666666666666
 30
0.0
 40
19.00000000000002
 50
217.8636463617304
 51
343.3776606853947
  0
LINE
  5
1E9
  8
1
  6
CONTINUOUS
 62
     7
 10
-280.3533769734859
 20
-49.66666666666666
 30
0.0
 11
-269.1666666666667
 21
-49.66666666666666
 31
0.0
  0
ARC
  5
1EA
  8
1
  6
CONTINUOUS
 62
     7
 10
-269.1666666666667
 20
-49.16666666666666
 30
0.0
 40
0.5000000000000004
 50
270.0
 51
0.0
  0
ARC
  5
1EB
  8
1
  6
CONTINUOUS
 62
     7
 10
-269.1666666666667
 20
-49.16666666666666
 30
0.0
 40
0.5000000000000004
 50
0.0
 51
90.0
  0
ARC
  5
1EC
  8
1
  6
CONTINUOUS
 62
     7
 10
-321.6666666666667
 20
-49.16666666666666
 30
0.0
 40
19.00000000000001
 50
163.3776606853946
 51
217.8636463617304
  0
CIRCLE
  5
1ED
  8
1
  6
CONTINUOUS
 62
     7
 10
-321.6666666666667
 20
-49.16666666666666
 30
0.0
 40
18.00000000000001
  0
ARC
  5
1EE
  8
1
  6
CONTINUOUS
 62
     7
 10
-344.6666666666667
 20
-73.16666666666666
 30
0.0
 40
2.000000000000002
 50
0.0
 51
90.0
  0
LINE
  5
1EF
  8
1
  6
CONTINUOUS
 62
     7
 10
-366.6666666666667
 20
-71.16666666666666
 30
0.0
 11
-344.6666666666667
 21
-71.16666666666666
 31
0.0
  0
ARC
  5
1F0
  8
1
  6
CONTINUOUS
 62
     7
 10
-366.6666666666667
 20
-73.16666666666666
 30
0.0
 40
2.000000000000002
 50
90.0
 51
180.0
  0
LINE
  5
1F1
  8
1
  6
CONTINUOUS
 62
     7
 10
-368.6666666666667
 20
-81.16666666666666
 30
0.0
 11
-368.6666666666667
 21
-73.16666666666666
 31
0.0
  0
ARC
  5
1F2
  8
1
  6
CONTINUOUS
 62
     7
 10
-366.6666666666667
 20
-81.16666666666666
 30
0.0
 40
2.000000000000002
 50
180.0
 51
270.0
  0
LINE
  5
1F3
  8
1
  6
CONTINUOUS
 62
     7
 10
-344.6666666666667
 20
-83.16666666666667
 30
0.0
 11
-366.6666666666667
 21
-83.16666666666667
 31
0.0
  0
ARC
  5
1F4
  8
1
  6
CONTINUOUS
 62
     7
 10
-344.6666666666667
 20
-81.16666666666666
 30
0.0
 40
2.000000000000002
 50
270.0
 51
0.0
  0
LINE
  5
1F5
  8
1
  6
CONTINUOUS
 62
     7
 10
-342.6666666666667
 20
-73.16666666666666
 30
0.0
 11
-342.6666666666667
 21
-81.16666666666666
 31
0.0
  0
ARC
  5
1F6
  8
1
  6
CONTINUOUS
 62
     7
 10
-321.6666666666667
 20
-49.16666666666666
 30
0.0
 40
28.25000000000004
 50
191.0289142339483
 51
237.9287493672532
  0
ARC
  5
1F7
  8
1
  6
CONTINUOUS
 62
     7
 10
-349.8856762169681
 20
-54.66666666666666
 30
0.0
 40
0.4999999999995151
 50
11.02891423394834
 51
191.0289142339467
  0
ARC
  5
1F8
  8
1
  6
CONTINUOUS
 62
     7
 10
-321.6666666666667
 20
-49.16666666666666
 30
0.0
 40
29.25000000000001
 50
191.0289142339484
 51
239.1481140139346
  0
LINE
  5
1F9
  8
1
  6
CONTINUOUS
 62
     7
 10
-351.4166666666667
 20
-49.66666666666666
 30
0.0
 11
-364.3147228656382
 21
-49.66666666666667
 31
0.0
  0
ARC
  5
1FA
  8
1
  6
CONTINUOUS
 62
     7
 10
-351.4166666666667
 20
-49.16666666666666
 30
0.0
 40
0.5000000000000004
 50
270.0
 51
0.0
  0
ARC
  5
1FB
  8
1
  6
CONTINUOUS
 62
     7
 10
-351.4166666666667
 20
-49.16666666666666
 30
0.0
 40
0.5000000000000004
 50
0.0
 51
90.0
  0
LINE
  5
1FC
  8
1
  6
CONTINUOUS
 62
     7
 10
-362.9799563598474
 20
-48.66666666666666
 30
0.0
 11
-351.4166666666667
 21
-48.66666666666666
 31
0.0
  0
CIRCLE
  5
1FD
  8
1
  6
CONTINUOUS
 62
     7
 10
-345.6666666666667
 20
-49.16666666666666
 30
0.0
 40
4.099999999999993
  0
CIRCLE
  5
1FE
  8
1
  6
CONTINUOUS
 62
     7
 10
-321.6666666666667
 20
-49.16666666666666
 30
0.0
 40
60.0
  0
CIRCLE
  5
1FF
  8
1
  6
CONTINUOUS
 62
     9
 10
-321.6666666666667
 20
-49.16666666666666
 30
0.0
 40
14.40000000000002
  0
ARC
  5
200
  8
1
  6
CONTINUOUS
 62
     7
 10
-321.6666666666667
 20
-49.16666666666666
 30
0.0
 40
13.9
 50
90.0
 51
0.0
  0
ARC
  5
201
  8
1
  6
CONTINUOUS
 62
     7
 10
-321.6666666666667
 20
-49.16666666666666
 30
0.0
 40
13.90000000000002
 50
0.0
 51
90.0
  0
ENDBLK
  8
0
  0
BLOCK
  8
0
  2
D_FRAME_VIEW_1956
 70
     0
 10
0.0
 20
0.0
 30
0.0
  0
LINE
  5
206
  8
1
  6
CONTINUOUS
 62
     7
 10
-295.6666666666667
 20
104.6833333333334
 30
0.0
 11
-299.6666666666667
 21
104.6833333333334
 31
0.0
  0
LINE
  5
207
  8
1
  6
CONTINUOUS
 62
     7
 10
-343.6666666666667
 20
104.6833333333334
 30
0.0
 11
-347.6666666666667
 21
104.6833333333334
 31
0.0
  0
LINE
  5
208
  8
1
  6
CONTINUOUS
 62
     7
 10
-294.6205839514685
 20
99.98333333333333
 30
0.0
 11
-294.6205839514685
 21
101.9833333333333
 31
0.0
  0
LINE
  5
209
  8
1
  6
CONTINUOUS
 62
     7
 10
-294.6205839514685
 20
99.98333333333333
 30
0.0
 11
-337.0730793219708
 21
99.98333333333333
 31
0.0
  0
LINE
  5
20A
  8
1
  6
CONTINUOUS
 62
     9
 10
-337.0730793219708
 20
101.9833333333333
 30
0.0
 11
-337.0730793219708
 21
99.98333333333335
 31
0.0
  0
LINE
  5
20B
  8
1
  6
CONTINUOUS
 62
     7
 10
-294.6205839514685
 20
101.9833333333333
 30
0.0
 11
-337.0730793219708
 21
101.9833333333333
 31
0.0
  0
POLYLINE
  5
20C
  8
1
  6
CONTINUOUS
 62
     9
 66
     1
 10
0.0
 20
0.0
 30
0.0
  0
VERTEX
  5
40D
  8
1
  6
CONTINUOUS
 62
     9
 10
-329.7573928753895
 20
103.9833333333333
 30
0.0
  0
VERTEX
  5
40E
  8
1
  6
CONTINUOUS
 62
     9
 10
-329.8801805248661
 20
103.9449038941398
 30
0.0
  0
VERTEX
  5
40F
  8
1
  6
CONTINUOUS
 62
     9
 10
-329.9982495138335
 20
103.8310923983559
 30
0.0
  0
VERTEX
  5
410
  8
1
  6
CONTINUOUS
 62
     9
 10
-330.1070625172593
 20
103.6462725579384
 30
0.0
  0
VERTEX
  5
411
  8
1
  6
CONTINUOUS
 62
     9
 10
-330.2024379124451
 20
103.3975468957064
 30
0.0
  0
VERTEX
  5
412
  8
1
  6
CONTINUOUS
 62
     9
 10
-330.280710476441
 20
103.0944737993725
 30
0.0
  0
VERTEX
  5
413
  8
1
  6
CONTINUOUS
 62
     9
 10
-330.3388722385084
 20
102.7487001980635
 30
0.0
  0
VERTEX
  5
414
  8
1
  6
CONTINUOUS
 62
     9
 10
-330.3746880747485
 20
102.3735139773656
 30
0.0
  0
VERTEX
  5
415
  8
1
  6
CONTINUOUS
 62
     9
 10
-330.3867816026604
 20
101.9833333333333
 30
0.0
  0
SEQEND
  5
464
  8
1
  6
CONTINUOUS
 62
     9
  0
LINE
  5
20D
  8
1
  6
CONTINUOUS
 62
     7
 10
-329.7573928753895
 20
103.9833333333333
 30
0.0
 11
-297.9581005339558
 21
103.9833333333333
 31
0.0
  0
POLYLINE
  5
20E
  8
1
  6
CONTINUOUS
 62
     9
 66
     1
 10
0.0
 20
0.0
 30
0.0
  0
VERTEX
  5
416
  8
1
  6
CONTINUOUS
 62
     9
 10
-296.1413898503472
 20
101.9833333333333
 30
0.0
  0
VERTEX
  5
417
  8
1
  6
CONTINUOUS
 62
     9
 10
-296.1762974367212
 20
102.3735139773656
 30
0.0
  0
VERTEX
  5
418
  8
1
  6
CONTINUOUS
 62
     9
 10
-296.2796787168753
 20
102.7487001980635
 30
0.0
  0
VERTEX
  5
419
  8
1
  6
CONTINUOUS
 62
     9
 10
-296.4475608061899
 20
103.0944737993725
 30
0.0
  0
VERTEX
  5
41A
  8
1
  6
CONTINUOUS
 62
     9
 10
-296.6734920901221
 20
103.3975468957064
 30
0.0
  0
VERTEX
  5
41B
  8
1
  6
CONTINUOUS
 62
     9
 10
-296.9487901561342
 20
103.6462725579384
 30
0.0
  0
VERTEX
  5
41C
  8
1
  6
CONTINUOUS
 62
     9
 10
-297.2628754539382
 20
103.8310923983559
 30
0.0
  0
VERTEX
  5
41D
  8
1
  6
CONTINUOUS
 62
     9
 10
-297.6036778616805
 20
103.9449038941398
 30
0.0
  0
VERTEX
  5
41E
  8
1
  6
CONTINUOUS
 62
     9
 10
-297.9581005339559
 20
103.9833333333333
 30
0.0
  0
SEQEND
  5
465
  8
1
  6
CONTINUOUS
 62
     9
  0
LINE
  5
20F
  8
1
  6
CONTINUOUS
 62
     7
 10
-339.490122671787
 20
101.9833333333333
 30
0.0
 11
-337.0730793219708
 21
101.9833333333333
 31
0.0
  0
LINE
  5
210
  8
1
  6
CONTINUOUS
 62
     7
 10
-337.0730793219708
 20
99.98333333333335
 30
0.0
 11
-339.490122671787
 21
99.98333333333335
 31
0.0
  0
LINE
  5
211
  8
1
  6
CONTINUOUS
 62
     9
 10
-293.6818878742997
 20
99.98333333333333
 30
0.0
 11
-293.6818878742997
 21
101.9833333333333
 31
0.0
  0
LINE
  5
212
  8
1
  6
CONTINUOUS
 62
     7
 10
-293.6818878742997
 20
99.98333333333333
 30
0.0
 11
-294.6205839514685
 21
99.98333333333333
 31
0.0
  0
LINE
  5
213
  8
1
  6
CONTINUOUS
 62
     7
 10
-293.6818878742997
 20
101.9833333333333
 30
0.0
 11
-294.6205839514685
 21
101.9833333333333
 31
0.0
  0
LINE
  5
214
  8
1
  6
CONTINUOUS
 62
     7
 10
-312.2011883227954
 20
99.48333333333333
 30
0.0
 11
-310.7011883227954
 21
99.48333333333333
 31
0.0
  0
LINE
  5
215
  8
1
  6
CONTINUOUS
 62
     7
 10
-322.9995444734338
 20
99.48333333333333
 30
0.0
 11
-321.4995444734338
 21
99.48333333333333
 31
0.0
  0
LINE
  5
216
  8
1
  6
CONTINUOUS
 62
     7
 10
-333.7979006240723
 20
99.48333333333335
 30
0.0
 11
-332.2979006240723
 21
99.48333333333335
 31
0.0
  0
LINE
  5
217
  8
1
  6
CONTINUOUS
 62
     7
 10
-293.6666666666667
 20
99.98333333333333
 30
0.0
 11
-293.6818878742997
 21
99.98333333333333
 31
0.0
  0
LINE
  5
218
  8
1
  6
CONTINUOUS
 62
     7
 10
-293.6666666666667
 20
101.9833333333333
 30
0.0
 11
-293.6818878742997
 21
101.9833333333333
 31
0.0
  0
LINE
  5
219
  8
1
  6
CONTINUOUS
 62
     7
 10
-310.7011883227954
 20
99.48333333333333
 30
0.0
 11
-310.3507995163218
 21
99.48333333333333
 31
0.0
  0
LINE
  5
21A
  8
1
  6
CONTINUOUS
 62
     7
 10
-310.3507995163218
 20
99.48333333333333
 30
0.0
 11
-309.5354327092611
 21
99.48333333333333
 31
0.0
  0
LINE
  5
21B
  8
1
  6
CONTINUOUS
 62
     7
 10
-321.4995444734338
 20
99.48333333333333
 30
0.0
 11
-321.1491556669603
 21
99.48333333333333
 31
0.0
  0
LINE
  5
21C
  8
1
  6
CONTINUOUS
 62
     7
 10
-321.1491556669603
 20
99.48333333333333
 30
0.0
 11
-320.3337888598996
 21
99.48333333333333
 31
0.0
  0
LINE
  5
21D
  8
1
  6
CONTINUOUS
 62
     7
 10
-329.7573928753895
 20
103.9833333333333
 30
0.0
 11
-339.283338525998
 21
103.9833333333333
 31
0.0
  0
LINE
  5
21E
  8
1
  6
CONTINUOUS
 62
     7
 10
-332.2979006240723
 20
99.48333333333333
 30
0.0
 11
-331.9475118175988
 21
99.48333333333333
 31
0.0
  0
LINE
  5
21F
  8
1
  6
CONTINUOUS
 62
     7
 10
-331.9475118175988
 20
99.48333333333333
 30
0.0
 11
-331.1321450105381
 21
99.48333333333333
 31
0.0
  0
LINE
  5
220
  8
1
  6
CONTINUOUS
 62
     7
 10
-261.6666666666667
 20
72.98333333333335
 30
0.0
 11
-381.6666666666667
 21
72.98333333333335
 31
0.0
  0
LINE
  5
221
  8
1
  6
CONTINUOUS
 62
     9
 10
-381.6229561723914
 20
67.97460679783568
 30
0.0
 11
-261.7103771609421
 21
67.97460679783568
 31
0.0
  0
LINE
  5
222
  8
1
  6
CONTINUOUS
 62
     7
 10
-262.7103390840063
 20
66.98333333333333
 30
0.0
 11
-267.6685329231479
 21
66.98333333333333
 31
0.0
  0
LINE
  5
223
  8
1
  6
CONTINUOUS
 62
     7
 10
-267.6685329231478
 20
66.98333333333333
 30
0.0
 11
-306.6666666666667
 21
66.98333333333333
 31
0.0
  0
LINE
  5
224
  8
1
  6
CONTINUOUS
 62
     7
 10
-306.6666666666667
 20
66.98333333333333
 30
0.0
 11
-380.6229942493272
 21
66.98333333333333
 31
0.0
  0
LINE
  5
225
  8
1
  6
CONTINUOUS
 62
     7
 10
-293.2666709056568
 20
102.4833333333333
 30
0.0
 11
-293.4309852711947
 21
102.4833333333333
 31
0.0
  0
LINE
  5
226
  8
1
  6
CONTINUOUS
 62
     9
 10
-293.3028103924282
 20
103.5182328300357
 30
0.0
 11
-293.4613254926216
 21
103.5182328300357
 31
0.0
  0
LINE
  5
227
  8
1
  6
CONTINUOUS
 62
     9
 10
-293.7780064254027
 20
99.48333333333333
 30
0.0
 11
-293.0618067375221
 21
77.01823283003586
 31
0.0
  0
LINE
  5
228
  8
1
  6
CONTINUOUS
 62
     7
 10
-293.7780064254027
 20
99.48333333333333
 30
0.0
 11
-293.5479255690969
 21
99.48333333333333
 31
0.0
  0
LINE
  5
229
  8
1
  6
CONTINUOUS
 62
     7
 10
-293.5479255690969
 20
99.48333333333333
 30
0.0
 11
-292.611544572189
 21
72.98333333333335
 31
0.0
  0
LINE
  5
22A
  8
1
  6
CONTINUOUS
 62
     7
 10
-293.547925620747
 20
99.48333479448665
 30
0.0
 11
-293.6368594688224
 21
101.9991276429712
 31
0.0
  0
LINE
  5
22B
  8
1
  6
CONTINUOUS
 62
     7
 10
-293.6368594688224
 20
101.9991276429712
 30
0.0
 11
-293.6539770336388
 21
102.4833333333333
 31
0.0
  0
LINE
  5
22C
  8
1
  6
CONTINUOUS
 62
     9
 10
-293.4613254926216
 20
103.5182328300358
 30
0.0
 11
-293.4309852711947
 21
102.4833333333333
 31
0.0
  0
LINE
  5
22D
  8
1
  6
CONTINUOUS
 62
     7
 10
-350.7217887611444
 20
72.98333333333335
 30
0.0
 11
-349.6793562996946
 21
102.4833333333333
 31
0.0
  0
LINE
  5
22E
  8
1
  6
CONTINUOUS
 62
     7
 10
-349.6793562996945
 20
102.4833333333333
 30
0.0
 11
-350.0666624276766
 21
102.4833333333333
 31
0.0
  0
LINE
  5
22F
  8
1
  6
CONTINUOUS
 62
     9
 10
-349.426482246458
 20
103.5182328300358
 30
0.0
 11
-350.0305229409052
 21
103.5182328300358
 31
0.0
  0
LINE
  5
230
  8
1
  6
CONTINUOUS
 62
     9
 10
-350.2715265958113
 20
77.01823283003584
 30
0.0
 11
-349.426482246458
 21
103.5182328300358
 31
0.0
  0
LINE
  5
231
  8
1
  6
CONTINUOUS
 62
     9
 10
-293.0618067375221
 20
77.01823283003586
 30
0.0
 11
-350.2715265958113
 21
77.01823283003593
 31
0.0
  0
ARC
  5
232
  8
1
  6
CONTINUOUS
 62
     7
 10
-294.3272193638562
 20
76.7033803915833
 30
0.0
 40
1.286491002988146
 50
50.33123989535858
 51
78.40185601673517
  0
ARC
  5
233
  8
1
  6
CONTINUOUS
 62
     7
 10
-294.3039788551593
 20
76.6850984805115
 30
0.0
 40
1.286067674995513
 50
15.01270912529219
 51
51.64826766451642
  0
ARC
  5
234
  8
1
  6
CONTINUOUS
 62
     7
 10
-348.9844753980118
 20
76.6563553789265
 30
0.0
 40
1.336957768734158
 50
102.1013814410494
 51
164.2957227249878
  0
LINE
  5
235
  8
1
  6
CONTINUOUS
 62
     7
 10
-349.2647580828992
 20
77.96360351601865
 30
0.0
 11
-349.0607676088415
 21
77.98333333333335
 31
0.0
  0
LINE
  5
236
  8
1
  6
CONTINUOUS
 62
     7
 10
-349.0607676088415
 20
77.98333333333335
 30
0.0
 11
-294.2725657244919
 21
77.98333333333335
 31
0.0
  0
LINE
  5
237
  8
1
  6
CONTINUOUS
 62
     7
 10
-294.2725657244919
 20
77.98333333333335
 30
0.0
 11
-294.0685752504342
 21
77.96360351601865
 31
0.0
  0
LINE
  5
238
  8
1
  6
CONTINUOUS
 62
     9
 10
-348.4483745878254
 20
103.5007857397706
 30
0.0
 11
-349.2647580828992
 21
77.96360351601865
 31
0.0
  0
LINE
  5
239
  8
1
  6
CONTINUOUS
 62
     9
 10
-340.1493639297825
 20
103.5007857397706
 30
0.0
 11
-348.4483745878254
 21
103.5007857397706
 31
0.0
  0
LINE
  5
23A
  8
1
  6
CONTINUOUS
 62
     9
 10
-339.7039551412254
 20
77.98333333333335
 30
0.0
 11
-340.1493639297825
 21
103.5007857397706
 31
0.0
  0
LINE
  5
23B
  8
1
  6
CONTINUOUS
 62
     9
 10
-303.2540942961513
 20
99.48333333333333
 30
0.0
 11
-303.629378192108
 21
77.98333333333335
 31
0.0
  0
LINE
  5
23C
  8
1
  6
CONTINUOUS
 62
     7
 10
-303.2540942961513
 20
99.48333333333333
 30
0.0
 11
-294.756354919803
 21
99.48333333333333
 31
0.0
  0
LINE
  5
23D
  8
1
  6
CONTINUOUS
 62
     9
 10
-294.0685752504342
 20
77.96360351601865
 30
0.0
 11
-294.756354919803
 21
99.48333333333333
 31
0.0
  0
LINE
  5
23E
  8
1
  6
CONTINUOUS
 62
     7
 10
-304.6292258872645
 20
77.98333333333333
 30
0.0
 11
-304.2539419913078
 21
99.48333333333333
 31
0.0
  0
LINE
  5
23F
  8
1
  6
CONTINUOUS
 62
     7
 10
-304.2539419913078
 20
99.48333333333333
 30
0.0
 11
-303.2540942961513
 21
99.48333333333333
 31
0.0
  0
LINE
  5
240
  8
1
  6
CONTINUOUS
 62
     7
 10
-294.756354919803
 20
99.48333333333333
 30
0.0
 11
-293.7780064254027
 21
99.48333333333333
 31
0.0
  0
POLYLINE
  5
241
  8
1
  6
CONTINUOUS
 62
     9
 66
     1
 10
0.0
 20
0.0
 30
0.0
  0
VERTEX
  5
41F
  8
1
  6
CONTINUOUS
 62
     9
 10
-348.4483745878254
 20
103.5007857397706
 30
0.0
  0
VERTEX
  5
420
  8
1
  6
CONTINUOUS
 62
     9
 10
-348.6418439188246
 20
103.5066485693894
 30
0.0
  0
VERTEX
  5
421
  8
1
  6
CONTINUOUS
 62
     9
 10
-348.8279949906752
 20
103.511629466256
 30
0.0
  0
VERTEX
  5
422
  8
1
  6
CONTINUOUS
 62
     9
 10
-348.9997863680368
 20
103.5155400206937
 30
0.0
  0
VERTEX
  5
423
  8
1
  6
CONTINUOUS
 62
     9
 10
-349.1507197919214
 20
103.5182323102871
 30
0.0
  0
VERTEX
  5
424
  8
1
  6
CONTINUOUS
 62
     9
 10
-349.2750859858023
 20
103.5196044952621
 30
0.0
  0
VERTEX
  5
425
  8
1
  6
CONTINUOUS
 62
     9
 10
-349.3681806173105
 20
103.5196046707241
 30
0.0
  0
VERTEX
  5
426
  8
1
  6
CONTINUOUS
 62
     9
 10
-349.426482246458
 20
103.5182328300359
 30
0.0
  0
SEQEND
  5
466
  8
1
  6
CONTINUOUS
 62
     9
  0
POLYLINE
  5
242
  8
1
  6
CONTINUOUS
 62
     9
 66
     1
 10
0.0
 20
0.0
 30
0.0
  0
VERTEX
  5
427
  8
1
  6
CONTINUOUS
 62
     9
 10
-339.1495162346261
 20
103.5007857397706
 30
0.0
  0
VERTEX
  5
428
  8
1
  6
CONTINUOUS
 62
     9
 10
-339.1687800032923
 20
103.5038536334818
 30
0.0
  0
VERTEX
  5
429
  8
1
  6
CONTINUOUS
 62
     9
 10
-339.2257124966953
 20
103.5061332483756
 30
0.0
  0
VERTEX
  5
42A
  8
1
  6
CONTINUOUS
 62
     9
 10
-339.3181266767199
 20
103.5075370139918
 30
0.0
  0
VERTEX
  5
42B
  8
1
  6
CONTINUOUS
 62
     9
 10
-339.4424724909786
 20
103.5080110052564
 30
0.0
  0
VERTEX
  5
42C
  8
1
  6
CONTINUOUS
 62
     9
 10
-339.5939732466022
 20
103.5075370139917
 30
0.0
  0
VERTEX
  5
42D
  8
1
  6
CONTINUOUS
 62
     9
 10
-339.766809104914
 20
103.5061332483756
 30
0.0
  0
VERTEX
  5
42E
  8
1
  6
CONTINUOUS
 62
     9
 10
-339.9543406481188
 20
103.5038536334818
 30
0.0
  0
VERTEX
  5
42F
  8
1
  6
CONTINUOUS
 62
     9
 10
-340.1493639297824
 20
103.5007857397706
 30
0.0
  0
SEQEND
  5
467
  8
1
  6
CONTINUOUS
 62
     9
  0
LINE
  5
243
  8
1
  6
CONTINUOUS
 62
     7
 10
-339.149516234626
 20
103.5007857397706
 30
0.0
 11
-339.1230290043462
 21
101.9833333333333
 31
0.0
  0
LINE
  5
244
  8
1
  6
CONTINUOUS
 62
     7
 10
-339.0881188744897
 20
99.98333333333333
 30
0.0
 11
-338.704107446069
 21
77.98333333333333
 31
0.0
  0
LINE
  5
245
  8
1
  6
CONTINUOUS
 62
     9
 10
-348.4483745878254
 20
103.5007857397706
 30
0.0
 11
-348.4483745878254
 21
104.4833333333333
 31
0.0
  0
LINE
  5
246
  8
1
  6
CONTINUOUS
 62
     7
 10
-348.4483745878254
 20
104.4833333333333
 30
0.0
 11
-340.1493639297825
 21
104.4833333333333
 31
0.0
  0
LINE
  5
247
  8
1
  6
CONTINUOUS
 62
     9
 10
-340.1493639297825
 20
103.5007857397706
 30
0.0
 11
-340.1493639297825
 21
104.4833333333333
 31
0.0
  0
ARC
  5
248
  8
1
  6
CONTINUOUS
 62
     7
 10
-340.1493639297825
 20
103.4833333333333
 30
0.0
 40
1.00000000000004
 50
1.000000000000042
 51
90.0
  0
POLYLINE
  5
249
  8
1
  6
CONTINUOUS
 62
     9
 66
     1
 10
0.0
 20
0.0
 30
0.0
  0
VERTEX
  5
430
  8
1
  6
CONTINUOUS
 62
     9
 10
-348.4483745878254
 20
104.4833333333333
 30
0.0
  0
VERTEX
  5
431
  8
1
  6
CONTINUOUS
 62
     9
 10
-348.6351200878521
 20
104.464960516781
 30
0.0
  0
VERTEX
  5
432
  8
1
  6
CONTINUOUS
 62
     9
 10
-348.8150035062509
 20
104.4105171879001
 30
0.0
  0
VERTEX
  5
433
  8
1
  6
CONTINUOUS
 62
     9
 10
-348.9814149129276
 20
104.3220039012788
 30
0.0
  0
VERTEX
  5
434
  8
1
  6
CONTINUOUS
 62
     9
 10
-349.1282394153882
 20
104.202673133672
 30
0.0
  0
VERTEX
  5
435
  8
1
  6
CONTINUOUS
 62
     9
 10
-349.2500818543343
 20
104.0569097696844
 30
0.0
  0
VERTEX
  5
436
  8
1
  6
CONTINUOUS
 62
     9
 10
-349.342465052208
 20
103.8900699764092
 30
0.0
  0
VERTEX
  5
437
  8
1
  6
CONTINUOUS
 62
     9
 10
-349.4019943299151
 20
103.7082843876772
 30
0.0
  0
VERTEX
  5
438
  8
1
  6
CONTINUOUS
 62
     9
 10
-349.426482246458
 20
103.5182328300359
 30
0.0
  0
SEQEND
  5
468
  8
1
  6
CONTINUOUS
 62
     9
  0
LINE
  5
24A
  8
1
  6
CONTINUOUS
 62
     7
 10
-349.0311321138861
 20
104.4833333333333
 30
0.0
 11
-348.4483745878254
 21
104.4833333333333
 31
0.0
  0
LINE
  5
24B
  8
1
  6
CONTINUOUS
 62
     9
 10
-294.4240802077514
 20
102.4833333333057
 30
0.0
 11
-294.4551310940102
 21
103.5356692895461
 31
0.0
  0
LINE
  5
24C
  8
1
  6
CONTINUOUS
 62
     7
 10
-294.4240802077501
 20
102.4833333333333
 30
0.0
 11
-296.0216088608522
 21
102.4833333333333
 31
0.0
  0
LINE
  5
24D
  8
1
  6
CONTINUOUS
 62
     9
 10
-303.2459756583141
 20
99.98333333333333
 30
0.0
 11
-303.2547031907782
 21
99.48333333333333
 31
0.0
  0
LINE
  5
24E
  8
1
  6
CONTINUOUS
 62
     9
 10
-294.455131094009
 20
103.5356692895763
 30
0.0
 11
-296.6970481643235
 21
103.5356692895763
 31
0.0
  0
LINE
  5
24F
  8
1
  6
CONTINUOUS
 62
     7
 10
-302.1666666666667
 20
99.98333333333333
 30
0.0
 11
-302.1666666666667
 21
99.48333333333333
 31
0.0
  0
LINE
  5
250
  8
1
  6
CONTINUOUS
 62
     7
 10
-304.2539419913078
 20
99.48333333333333
 30
0.0
 11
-304.2452144588437
 21
99.98333333333333
 31
0.0
  0
POLYLINE
  5
251
  8
1
  6
CONTINUOUS
 62
     9
 66
     1
 10
0.0
 20
0.0
 30
0.0
  0
VERTEX
  5
439
  8
1
  6
CONTINUOUS
 62
     9
 10
-293.4613254926217
 20
103.5182328300358
 30
0.0
  0
VERTEX
  5
43A
  8
1
  6
CONTINUOUS
 62
     9
 10
-293.5052002545514
 20
103.5276166880705
 30
0.0
  0
VERTEX
  5
43B
  8
1
  6
CONTINUOUS
 62
     9
 10
-293.5904405192965
 20
103.5350721917882
 30
0.0
  0
VERTEX
  5
43C
  8
1
  6
CONTINUOUS
 62
     9
 10
-293.7133344309354
 20
103.5402746852802
 30
0.0
  0
VERTEX
  5
43D
  8
1
  6
CONTINUOUS
 62
     9
 10
-293.868530475193
 20
103.5429976217808
 30
0.0
  0
VERTEX
  5
43E
  8
1
  6
CONTINUOUS
 62
     9
 10
-294.0492705154355
 20
103.543122428829
 30
0.0
  0
VERTEX
  5
43F
  8
1
  6
CONTINUOUS
 62
     9
 10
-294.2476840811687
 20
103.5406436716014
 30
0.0
  0
VERTEX
  5
440
  8
1
  6
CONTINUOUS
 62
     9
 10
-294.455131094009
 20
103.5356692895763
 30
0.0
  0
SEQEND
  5
469
  8
1
  6
CONTINUOUS
 62
     9
  0
LINE
  5
252
  8
1
  6
CONTINUOUS
 62
     7
 10
-293.4309852711947
 20
102.4833333333333
 30
0.0
 11
-294.4240802077501
 21
102.4833333333333
 31
0.0
  0
LINE
  5
253
  8
1
  6
CONTINUOUS
 62
     9
 10
-303.183969403551
 20
104.4833333333333
 30
0.0
 11
-303.183969403551
 21
103.9833333333333
 31
0.0
  0
ARC
  5
254
  8
1
  6
CONTINUOUS
 62
     7
 10
-303.183969403551
 20
103.4833333333333
 30
0.0
 40
1.000000000000001
 50
90.0
 51
149.9999999999997
  0
LINE
  5
255
  8
1
  6
CONTINUOUS
 62
     9
 10
-294.455131094009
 20
103.5356692895763
 30
0.0
 11
-294.455131094009
 21
104.4833333333333
 31
0.0
  0
POLYLINE
  5
256
  8
1
  6
CONTINUOUS
 62
     9
 66
     1
 10
0.0
 20
0.0
 30
0.0
  0
VERTEX
  5
441
  8
1
  6
CONTINUOUS
 62
     9
 10
-293.4613254926217
 20
103.5182328300358
 30
0.0
  0
VERTEX
  5
442
  8
1
  6
CONTINUOUS
 62
     9
 10
-293.4862064230712
 20
103.7082843876772
 30
0.0
  0
VERTEX
  5
443
  8
1
  6
CONTINUOUS
 62
     9
 10
-293.5466911039851
 20
103.8900699764091
 30
0.0
  0
VERTEX
  5
444
  8
1
  6
CONTINUOUS
 62
     9
 10
-293.64055698747
 20
104.0569097696844
 30
0.0
  0
VERTEX
  5
445
  8
1
  6
CONTINUOUS
 62
     9
 10
-293.7643549122104
 20
104.202673133672
 30
0.0
  0
VERTEX
  5
446
  8
1
  6
CONTINUOUS
 62
     9
 10
-293.9135358450846
 20
104.3220039012788
 30
0.0
  0
VERTEX
  5
447
  8
1
  6
CONTINUOUS
 62
     9
 10
-294.082618038267
 20
104.4105171879001
 30
0.0
  0
VERTEX
  5
448
  8
1
  6
CONTINUOUS
 62
     9
 10
-294.2653884595225
 20
104.464960516781
 30
0.0
  0
VERTEX
  5
449
  8
1
  6
CONTINUOUS
 62
     9
 10
-294.455131094009
 20
104.4833333333333
 30
0.0
  0
SEQEND
  5
46A
  8
1
  6
CONTINUOUS
 62
     9
  0
LINE
  5
257
  8
1
  6
CONTINUOUS
 62
     7
 10
-303.183969403551
 20
104.4833333333333
 30
0.0
 11
-294.455131094009
 21
104.4833333333333
 31
0.0
  0
LINE
  5
258
  8
1
  6
CONTINUOUS
 62
     7
 10
-294.455131094009
 20
104.4833333333333
 30
0.0
 11
-294.3022012194473
 21
104.4833333333333
 31
0.0
  0
LINE
  5
259
  8
1
  6
CONTINUOUS
 62
     7
 10
-299.6666666666667
 20
104.6833333333334
 30
0.0
 11
-299.6666666666667
 21
104.4833333333333
 31
0.0
  0
LINE
  5
25A
  8
1
  6
CONTINUOUS
 62
     7
 10
-299.6666666666667
 20
99.98333333333333
 30
0.0
 11
-299.6666666666667
 21
99.48333333333333
 31
0.0
  0
LINE
  5
25B
  8
1
  6
CONTINUOUS
 62
     7
 10
-295.6666666666667
 20
99.48333333333333
 30
0.0
 11
-295.6666666666667
 21
99.98333333333333
 31
0.0
  0
LINE
  5
25C
  8
1
  6
CONTINUOUS
 62
     7
 10
-295.6666666666667
 20
101.9833333333333
 30
0.0
 11
-295.6666666666667
 21
102.4833333333333
 31
0.0
  0
LINE
  5
25D
  8
1
  6
CONTINUOUS
 62
     7
 10
-295.6666666666667
 20
104.4833333333333
 30
0.0
 11
-295.6666666666667
 21
104.6833333333334
 31
0.0
  0
LINE
  5
25E
  8
1
  6
CONTINUOUS
 62
     7
 10
-347.6666666666667
 20
104.6833333333334
 30
0.0
 11
-347.6666666666667
 21
104.4833333333333
 31
0.0
  0
LINE
  5
25F
  8
1
  6
CONTINUOUS
 62
     7
 10
-343.6666666666667
 20
104.4833333333333
 30
0.0
 11
-343.6666666666667
 21
104.6833333333334
 31
0.0
  0
ARC
  5
260
  8
1
  6
CONTINUOUS
 62
     7
 10
-329.7573928753895
 20
101.9833333333333
 30
0.0
 40
2.000000000000002
 50
90.00000000000458
 51
180.0
  0
LINE
  5
261
  8
1
  6
CONTINUOUS
 62
     7
 10
-339.490122671787
 20
101.9833333333333
 30
0.0
 11
-339.490122671787
 21
99.98333333333335
 31
0.0
  0
ARC
  5
262
  8
1
  6
CONTINUOUS
 62
     7
 10
-297.9581005339559
 20
101.9833333333333
 30
0.0
 40
2.000000000000002
 50
0.0
 51
90.00000000000009
  0
LINE
  5
263
  8
1
  6
CONTINUOUS
 62
     7
 10
-310.7011883227954
 20
99.48333333333336
 30
0.0
 11
-310.7011883227954
 21
99.98333333333336
 31
0.0
  0
LINE
  5
264
  8
1
  6
CONTINUOUS
 62
     7
 10
-312.2011883227954
 20
99.98333333333336
 30
0.0
 11
-312.2011883227954
 21
99.48333333333336
 31
0.0
  0
LINE
  5
265
  8
1
  6
CONTINUOUS
 62
     7
 10
-321.4995444734338
 20
99.48333333333336
 30
0.0
 11
-321.4995444734338
 21
99.98333333333336
 31
0.0
  0
LINE
  5
266
  8
1
  6
CONTINUOUS
 62
     7
 10
-322.9995444734338
 20
99.98333333333336
 30
0.0
 11
-322.9995444734338
 21
99.48333333333336
 31
0.0
  0
LINE
  5
267
  8
1
  6
CONTINUOUS
 62
     7
 10
-332.2979006240723
 20
99.48333333333338
 30
0.0
 11
-332.2979006240723
 21
99.98333333333336
 31
0.0
  0
LINE
  5
268
  8
1
  6
CONTINUOUS
 62
     7
 10
-333.7979006240723
 20
99.98333333333336
 30
0.0
 11
-333.7979006240723
 21
99.48333333333338
 31
0.0
  0
LINE
  5
269
  8
1
  6
CONTINUOUS
 62
     7
 10
-293.6666666666667
 20
99.98333333333333
 30
0.0
 11
-293.6666666666667
 21
101.9833333333333
 31
0.0
  0
LINE
  5
26A
  8
1
  6
CONTINUOUS
 62
     7
 10
-309.5354327092611
 20
99.48333333333336
 30
0.0
 11
-309.5354327092611
 21
99.98333333333336
 31
0.0
  0
LINE
  5
26B
  8
1
  6
CONTINUOUS
 62
     7
 10
-320.3337888598996
 20
99.48333333333336
 30
0.0
 11
-320.3337888598996
 21
99.98333333333336
 31
0.0
  0
LINE
  5
26C
  8
1
  6
CONTINUOUS
 62
     7
 10
-331.1321450105381
 20
99.48333333333336
 30
0.0
 11
-331.1321450105381
 21
99.98333333333336
 31
0.0
  0
LINE
  5
26D
  8
1
  6
CONTINUOUS
 62
     7
 10
-381.6666666666667
 20
72.98333333333335
 30
0.0
 11
-381.6229561723914
 21
67.97460679783568
 31
0.0
  0
LINE
  5
26E
  8
1
  6
CONTINUOUS
 62
     7
 10
-261.7103771609421
 20
67.97460679783568
 30
0.0
 11
-261.6666666666667
 21
72.98333333333335
 31
0.0
  0
ARC
  5
26F
  8
1
  6
CONTINUOUS
 62
     7
 10
-262.7103390840063
 20
67.98333333333333
 30
0.0
 40
1.000000000000001
 50
270.0000000000004
 51
359.5000000000405
  0
ARC
  5
270
  8
1
  6
CONTINUOUS
 62
     7
 10
-380.6229942493272
 20
67.98333333333333
 30
0.0
 40
0.9999999999999968
 50
180.4999999999594
 51
270.0000000000004
  0
LINE
  5
271
  8
1
  6
CONTINUOUS
 62
     7
 10
-293.2666709056568
 20
102.4833333333333
 30
0.0
 11
-293.3028103924282
 21
103.5182328300357
 31
0.0
  0
LINE
  5
272
  8
1
  6
CONTINUOUS
 62
     7
 10
-350.0305229409052
 20
103.5182328300357
 30
0.0
 11
-350.0666624276766
 21
102.4833333333333
 31
0.0
  0
ARC
  5
273
  8
1
  6
CONTINUOUS
 62
     7
 10
-349.0311321138861
 20
103.4833333333333
 30
0.0
 40
1.000000000000001
 50
89.99999999999982
 51
178.0000000000056
  0
ARC
  5
274
  8
1
  6
CONTINUOUS
 62
     7
 10
-294.3022012194473
 20
103.4833333333333
 30
0.0
 40
1.00000000000001
 50
1.999999999994377
 51
90.0000000000002
  0
ENDBLK
  8
0
  0
ENDSEC
  0
SECTION
  2
ENTITIES
  0
LINE
  5
70
  8
1
  6
CENTER
 62
     1
 10
-383.6229561723914
 20
-49.16666666666666
 30
0.0
 11
-259.7103771609421
 21
-49.16666666666666
 31
0.0
  0
LINE
  5
72
  8
1
  6
CENTER
 62
     1
 10
-383.6666666666667
 20
197.5
 30
0.0
 11
-259.6666666666667
 21
197.5
 31
0.0
  0
LINE
  5
73
  8
1
  6
CENTER
 62
     1
 10
-321.6666666666667
 20
-111.1229561723913
 30
0.0
 11
-321.6666666666667
 21
12.78962283905796
 31
0.0
  0
LINE
  5
74
  8
1
  6
CENTER
 62
     1
 10
-321.6666666666667
 20
135.5
 30
0.0
 11
-321.6666666666667
 21
259.5
 31
0.0
  0
TEXT
  5
75
  8
1
  6
CONTINUOUS
 62
     7
 10
-323.7133069692802
 20
-144.1704545454546
 30
0.0
 40
3.0
  1
APD-60
 41
0.9
  0
LINE
  5
76
  8
1
  6
CONTINUOUS
 62
     2
 10
-323.7934848484849
 20
-144.7295454545455
 30
0.0
 11
-314.5398484848486
 21
-144.7295454545455
 31
0.0
  0
INSERT
  5
16F
  8
1
  6
CENTER
 62
     7
  2
D_FRAME_VIEW_1492
 10
0.0
 20
0.0
 30
0.0
  0
LINE
  5
170
  8
1
  6
CENTER
 62
     1
 10
-321.6666678259293
 20
70.47012617439191
 30
0.0
 11
-321.6666416865586
 21
103.9885384866434
 31
0.0
  0
INSERT
  5
202
  8
1
  6
CENTER
 62
     7
  2
D_FRAME_VIEW_2430
 10
0.0
 20
0.0
 30
0.0
  0
INSERT
  5
275
  8
1
  6
CENTER
 62
     7
  2
D_FRAME_VIEW_1956
 10
0.0
 20
0.0
 30
0.0
  0
ENDSEC
  0
EOF
