  0
SECTION
  2
HEADER
  9
$ACADVER
  1
AC1006
  9
$DWGCODEPAGE
  3
ansi_932
  9
$INSBASE
 10
0.0
 20
0.0
 30
0.0
  9
$EXTMIN
 10
-42.7164151964
 20
-153.6322852487
  9
$EXTMAX
 10
372.350270305
 20
475.4333586795
  9
$LIMMIN
 10
0.0
 20
0.0
  9
$LIMMAX
 10
12.0
 20
9.0
  9
$ORTHOMODE
 70
     0
  9
$REGENMODE
 70
     1
  9
$FILLMODE
 70
     1
  9
$QTEXTMODE
 70
     0
  9
$MIRRTEXT
 70
     1
  9
$DRAGMODE
 70
     2
  9
$LTSCALE
 40
1.0
  9
$OSMODE
 70
    37
  9
$ATTMODE
 70
     1
  9
$TEXTSIZE
 40
0.2
  9
$TRACEWID
 40
0.05
  9
$TEXTSTYLE
  7
STANDARD
  9
$CLAYER
  8
0
  9
$CELTYPE
  6
BYLAYER
  9
$CECOLOR
 62
   256
  9
$DIMSCALE
 40
1.0
  9
$DIMASZ
 40
2.0
  9
$DIMEXO
 40
0.0625
  9
$DIMDLI
 40
0.38
  9
$DIMRND
 40
0.0
  9
$DIMDLE
 40
0.0
  9
$DIMEXE
 40
1.0
  9
$DIMTP
 40
0.0
  9
$DIMTM
 40
0.0
  9
$DIMTXT
 40
3.5
  9
$DIMCEN
 40
0.09
  9
$DIMTSZ
 40
0.0
  9
$DIMTOL
 70
     0
  9
$DIMLIM
 70
     0
  9
$DIMTIH
 70
     1
  9
$DIMTOH
 70
     1
  9
$DIMSE1
 70
     0
  9
$DIMSE2
 70
     0
  9
$DIMTAD
 70
     1
  9
$DIMZIN
 70
     0
  9
$DIMBLK
  1

  9
$DIMASO
 70
     1
  9
$DIMSHO
 70
     1
  9
$DIMPOST
  1

  9
$DIMAPOST
  1

  9
$DIMALT
 70
     0
  9
$DIMALTD
 70
     2
  9
$DIMALTF
 40
25.4
  9
$DIMLFAC
 40
1.0
  9
$DIMTOFL
 70
     0
  9
$DIMTVP
 40
0.0
  9
$DIMTIX
 70
     0
  9
$DIMSOXD
 70
     0
  9
$DIMSAH
 70
     0
  9
$DIMBLK1
  1

  9
$DIMBLK2
  1

  9
$LUNITS
 70
     2
  9
$LUPREC
 70
     4
  9
$SKETCHINC
 40
0.1
  9
$FILLETRAD
 40
0.5
  9
$AUNITS
 70
     0
  9
$AUPREC
 70
     0
  9
$MENU
  1
.
  9
$ELEVATION
 40
0.0
  9
$THICKNESS
 40
0.0
  9
$LIMCHECK
 70
     0
  9
$CHAMFERA
 40
0.0
  9
$CHAMFERB
 40
0.0
  9
$SKPOLY
 70
     0
  9
$TDCREATE
 40
2459402.384776493
  9
$TDUPDATE
 40
2459402.384777176
  9
$TDINDWG
 40
0.0000000116
  9
$TDUSRTIMER
 40
0.0000000116
  9
$USRTIMER
 70
     1
  9
$ANGBASE
 50
0.0
  9
$ANGDIR
 70
     0
  9
$PDMODE
 70
     0
  9
$PDSIZE
 40
0.0
  9
$PLINEWID
 40
0.0
  9
$COORDS
 70
     1
  9
$SPLFRAME
 70
     0
  9
$SPLINETYPE
 70
     6
  9
$SPLINESEGS
 70
     8
  9
$ATTDIA
 70
     0
  9
$ATTREQ
 70
     1
  9
$HANDLING
 70
     1
  9
$HANDSEED
  5
22C
  9
$SURFTAB1
 70
     6
  9
$SURFTAB2
 70
     6
  9
$SURFTYPE
 70
     6
  9
$SURFU
 70
     6
  9
$SURFV
 70
     6
  9
$UCSNAME
  2

  9
$UCSORG
 10
0.0
 20
0.0
 30
0.0
  9
$UCSXDIR
 10
1.0
 20
0.0
 30
0.0
  9
$UCSYDIR
 10
0.0
 20
1.0
 30
0.0
  9
$USERI1
 70
     0
  9
$USERI2
 70
     0
  9
$USERI3
 70
     0
  9
$USERI4
 70
     0
  9
$USERI5
 70
     0
  9
$USERR1
 40
0.0
  9
$USERR2
 40
0.0
  9
$USERR3
 40
0.0
  9
$USERR4
 40
0.0
  9
$USERR5
 40
0.0
  9
$WORLDVIEW
 70
     1
  0
ENDSEC
  0
SECTION
  2
TABLES
  0
TABLE
  2
VPORT
 70
     1
  0
VPORT
  2
*ACTIVE
 70
     0
 10
0.0
 20
0.0
 11
1.0
 21
1.0
 12
164.8169275543
 22
160.9005367154
 13
0.0
 23
0.0
 14
0.5
 24
0.5
 15
0.5
 25
0.5
 16
0.0
 26
0.0
 36
1.0
 17
0.0
 27
0.0
 37
0.0
 40
629.0656439282
 41
1.6
 42
50.0
 43
0.0
 44
0.0
 50
0.0
 51
0.0
 71
     0
 72
   100
 73
     1
 74
     3
 75
     0
 76
     0
 77
     0
 78
     0
  0
ENDTAB
  0
TABLE
  2
LTYPE
 70
     3
  0
LTYPE
  2
CONTINUOUS
 70
     0
  3
Solid line
 72
    65
 73
     0
 40
0.0
  0
LTYPE
  2
DASHED
 70
     0
  3

 72
    65
 73
     0
 40
0.0
  0
LTYPE
  2
CENTER
 70
     0
  3

 72
    65
 73
     0
 40
0.0
  0
ENDTAB
  0
TABLE
  2
LAYER
 70
     3
  0
LAYER
  2
0
 70
     0
 62
     7
  6
CONTINUOUS
  0
LAYER
  2
1
 70
     0
 62
     7
  6
CONTINUOUS
  0
LAYER
  2
3
 70
     0
 62
     7
  6
CONTINUOUS
  0
ENDTAB
  0
TABLE
  2
STYLE
 70
     2
  0
STYLE
  2
STANDARD
 70
     0
 40
0.0
 41
1.0
 50
0.0
 71
     0
 42
0.2
  3
txt
  4

  0
STYLE
  2
ＭＳ_ゴシック
 70
     0
 40
0.0
 41
1.0
 50
0.0
 71
     0
 42
0.2
  3
ＭＳ ゴシック.shx
  4

  0
ENDTAB
  0
TABLE
  2
VIEW
 70
     0
  0
ENDTAB
  0
TABLE
  2
UCS
 70
     0
  0
ENDTAB
  0
ENDSEC
  0
SECTION
  2
BLOCKS
  0
ENDSEC
  0
SECTION
  2
ENTITIES
  0
LINE
  5
71
  8
0
  6
CONTINUOUS
 62
     7
 10
25.63358480359988
 20
234.3894307229499
 30
0.0
 11
18.93358480349988
 21
234.3894307229499
 31
0.0
  0
LINE
  5
72
  8
1
  6
CONTINUOUS
 62
     7
 10
-42.7164151964
 20
-145.5440021196
 30
0.0
 11
217.2835848036
 21
-145.5440021196
 31
0.0
  0
ARC
  5
73
  8
1
  6
CONTINUOUS
 62
     7
 10
-41.0355153362
 20
-106.5440021196
 30
0.0
 40
1.0
 50
90.0000000001
 51
179.0
  0
ARC
  5
74
  8
1
  6
CONTINUOUS
 62
     7
 10
315.9032183783
 20
70.8469212129
 30
0.0
 40
0.5
 50
90.0
 51
180.0
  0
LINE
  5
75
  8
1
  6
CONTINUOUS
 62
     7
 10
77.2835848036
 20
-117.5440021196
 30
0.0
 11
97.2835848036
 21
-117.544002119
 31
0.0
  0
LINE
  5
76
  8
1
  6
CONTINUOUS
 62
     7
 10
-42.0353630313
 20
-106.5265497131
 30
0.0
 11
-42.7164151964
 21
-145.5440021196
 31
0.0
  0
LINE
  5
77
  8
1
  6
CONTINUOUS
 62
     7
 10
95.2835848036
 20
-108.5440021191
 30
0.0
 11
79.2835848036
 21
-108.5440021195
 31
0.0
  0
LINE
  5
78
  8
1
  6
CONTINUOUS
 62
     7
 10
81.2835848036
 20
-108.5440021196
 30
0.0
 11
81.2835848036
 21
-117.5440021196
 31
0.0
  0
LINE
  5
79
  8
1
  6
CONTINUOUS
 62
     7
 10
-41.0355153362
 20
-105.5440021196
 30
0.0
 11
215.6026849433
 21
-105.5440021196
 31
0.0
  0
LINE
  5
7A
  8
1
  6
CONTINUOUS
 62
     7
 10
93.2835848036
 20
-117.5440021196
 30
0.0
 11
93.2835848036
 21
-108.5440021196
 31
0.0
  0
ARC
  5
7B
  8
1
  6
CONTINUOUS
 62
     7
 10
215.6026849433
 20
-106.5440021196
 30
0.0
 40
1.0
 50
1.0
 51
90.0
  0
LINE
  5
7C
  8
1
  6
CONTINUOUS
 62
     7
 10
216.6025326385
 20
-106.5265497131
 30
0.0
 11
217.2835848036
 21
-145.5440021196
 31
0.0
  0
LINE
  5
7D
  8
1
  6
CONTINUOUS
 62
     7
 10
-37.5164151964
 20
-101.5440021196
 30
0.0
 11
-37.5164151964
 21
-105.5440021196
 31
0.0
  0
ARC
  5
7E
  8
1
  6
CONTINUOUS
 62
     7
 10
-36.5164151964
 20
-101.5440021196
 30
0.0
 40
1.0
 50
90.0
 51
180.0
  0
LINE
  5
7F
  8
1
  6
CONTINUOUS
 62
     7
 10
212.0835848036
 20
-101.5440021196
 30
0.0
 11
212.0835848036
 21
-105.5440021196
 31
0.0
  0
ARC
  5
80
  8
1
  6
CONTINUOUS
 62
     7
 10
211.0835848036
 20
-101.5440021196
 30
0.0
 40
1.0
 50
0.0
 51
90.0
  0
ARC
  5
81
  8
1
  6
CONTINUOUS
 62
     7
 10
316.4257183783
 20
414.8469212129
 30
0.0
 40
6.5225
 50
133.8973981671
 51
226.1026018329
  0
LINE
  5
82
  8
1
  6
CONTINUOUS
 62
     7
 10
312.4032183783
 20
419.5469212129
 30
0.0
 11
311.9032183783
 21
419.5469212129
 31
0.0
  0
LINE
  5
83
  8
1
  6
CONTINUOUS
 62
     7
 10
311.9032183783
 20
410.1469212129
 30
0.0
 11
312.4032183783
 21
410.1469212129
 31
0.0
  0
LINE
  5
84
  8
1
  6
CONTINUOUS
 62
     7
 10
312.4032183783
 20
412.8469212129
 30
0.0
 11
317.4032183783
 21
412.8469212129
 31
0.0
  0
LINE
  5
85
  8
1
  6
DASHED
 62
     7
 10
328.4032183783
 20
412.8469212129
 30
0.0
 11
328.4032183783
 21
416.8469212129
 31
0.0
  0
LINE
  5
87
  8
1
  6
CONTINUOUS
 62
     7
 10
317.4032183783
 20
416.8469212129
 30
0.0
 11
312.4032183783
 21
416.8469212129
 31
0.0
  0
CIRCLE
  5
88
  8
1
  6
CONTINUOUS
 62
     7
 10
87.2835848036
 20
414.8469212129
 30
0.0
 40
4.7
  0
ARC
  5
89
  8
1
  6
CONTINUOUS
 62
     7
 10
87.2835848036
 20
414.8469212129
 30
0.0
 40
2.0
 50
255.5224878141
 51
284.4775121859
  0
ARC
  5
8A
  8
1
  6
CONTINUOUS
 62
     7
 10
87.2835848036
 20
414.8469212129
 30
0.0
 40
2.0
 50
345.5224878141
 51
14.47751218590003
  0
ARC
  5
8B
  8
1
  6
CONTINUOUS
 62
     7
 10
87.2835848036
 20
414.8469212129
 30
0.0
 40
2.0
 50
75.5224878141
 51
104.4775121859
  0
ARC
  5
8C
  8
1
  6
CONTINUOUS
 62
     7
 10
87.2835848036
 20
414.8469212129
 30
0.0
 40
2.0
 50
165.5224878141
 51
194.4775121859
  0
LINE
  5
8D
  8
1
  6
CONTINUOUS
 62
     7
 10
86.2835848036
 20
415.3469212129
 30
0.0
 11
85.3470931305
 21
415.3469212129
 31
0.0
  0
LINE
  5
8E
  8
1
  6
CONTINUOUS
 62
     7
 10
86.7835848036
 20
415.8469212129
 30
0.0
 11
86.7835848036
 21
416.783412886
 31
0.0
  0
ARC
  5
8F
  8
1
  6
CONTINUOUS
 62
     7
 10
86.2835848036
 20
415.8469212129
 30
0.0
 40
0.5
 50
270.0
 51
0.0
  0
LINE
  5
90
  8
1
  6
CONTINUOUS
 62
     7
 10
86.7835848036
 20
413.8469212129
 30
0.0
 11
86.7835848036
 21
412.9104295398
 31
0.0
  0
LINE
  5
91
  8
1
  6
CONTINUOUS
 62
     7
 10
86.2835848036
 20
414.3469212129
 30
0.0
 11
85.3470931305
 21
414.3469212129
 31
0.0
  0
ARC
  5
92
  8
1
  6
CONTINUOUS
 62
     7
 10
86.2835848036
 20
413.8469212129
 30
0.0
 40
0.5
 50
0.0
 51
90.0
  0
LINE
  5
93
  8
1
  6
CONTINUOUS
 62
     7
 10
88.2835848036
 20
414.3469212129
 30
0.0
 11
89.2200764767
 21
414.3469212129
 31
0.0
  0
LINE
  5
94
  8
1
  6
CONTINUOUS
 62
     7
 10
87.7835848036
 20
413.8469212129
 30
0.0
 11
87.7835848036
 21
412.9104295398
 31
0.0
  0
ARC
  5
95
  8
1
  6
CONTINUOUS
 62
     7
 10
88.2835848036
 20
413.8469212129
 30
0.0
 40
0.5
 50
90.0
 51
180.0
  0
LINE
  5
96
  8
1
  6
CONTINUOUS
 62
     7
 10
87.7835848036
 20
415.8469212129
 30
0.0
 11
87.7835848036
 21
416.783412886
 31
0.0
  0
LINE
  5
97
  8
1
  6
CONTINUOUS
 62
     7
 10
88.2835848036
 20
415.3469212129
 30
0.0
 11
89.2200764767
 21
415.3469212129
 31
0.0
  0
ARC
  5
98
  8
1
  6
CONTINUOUS
 62
     7
 10
88.2835848036
 20
415.8469212129
 30
0.0
 40
0.5
 50
180.0
 51
270.0
  0
LINE
  5
99
  8
1
  6
CONTINUOUS
 62
     7
 10
312.4032183783
 20
419.5469212129
 30
0.0
 11
312.4032183783
 21
410.1469212129
 31
0.0
  0
ARC
  5
9A
  8
0
  6
CONTINUOUS
 62
     7
 10
18.93358480350003
 20
232.73943072295
 30
0.0
 40
1.649999999999707
 50
90.0
 51
270.0
  0
TEXT
  5
9B
  8
1
  6
CONTINUOUS
 62
     7
 10
329.9858493452581
 20
-111.7424593636364
 30
0.0
 40
3.0
  1
Ｂ－３
 41
0.899303
 51
14.999825
  0
LINE
  5
9C
  8
1
  6
CONTINUOUS
 62
     7
 10
116.7835848036
 20
-98.5440021196
 30
0.0
 11
57.78358480360001
 21
-98.5440021196
 31
0.0
  0
LINE
  5
9D
  8
3
  6
CONTINUOUS
 62
     7
 10
-37.5164151964
 20
446.3469212129
 30
0.0
 11
-37.5164151964
 21
66.34692121289997
 31
0.0
  0
ARC
  5
9E
  8
3
  6
CONTINUOUS
 62
     7
 10
-22.7164151964
 20
446.3469212129
 30
0.0
 40
14.8
 50
90.0
 51
180.0
  0
CIRCLE
  5
9F
  8
3
  6
CONTINUOUS
 62
     7
 10
87.2835848036
 20
387.3469212129
 30
0.0
 40
1.5
  0
ARC
  5
A0
  8
1
  6
CONTINUOUS
 62
     7
 10
116.7835848036
 20
-99.0440021196
 30
0.0
 40
0.5
 50
0.0
 51
90.0
  0
LINE
  5
A1
  8
1
  6
CONTINUOUS
 62
     7
 10
117.2835848036
 20
-99.0440021196
 30
0.0
 11
117.2835848036
 21
-100.5440021196
 31
0.0
  0
LINE
  5
A2
  8
1
  6
CONTINUOUS
 62
     7
 10
89.5335848036
 20
-143.0440021196
 30
0.0
 11
89.5335848036
 21
-145.5440021196
 31
0.0
  0
ARC
  5
A3
  8
1
  6
CONTINUOUS
 62
     7
 10
57.7835848036
 20
-99.0440021196
 30
0.0
 40
0.5
 50
90.0
 51
180.0
  0
LINE
  5
A4
  8
1
  6
CONTINUOUS
 62
     7
 10
88.5335848036
 20
-142.0440021196
 30
0.0
 11
86.0335848036
 21
-142.0440021196
 31
0.0
  0
CIRCLE
  5
A5
  8
3
  6
CONTINUOUS
 62
     7
 10
-12.7164151964
 20
436.3469212129
 30
0.0
 40
5.3
  0
CIRCLE
  5
A6
  8
3
  6
CONTINUOUS
 62
     7
 10
-12.7164151964
 20
76.3469212129
 30
0.0
 40
5.3
  0
CIRCLE
  5
A7
  8
3
  6
CONTINUOUS
 62
     7
 10
87.2835848036
 20
387.3469212129
 30
0.0
 40
2.5
  0
CIRCLE
  5
A8
  8
3
  6
CONTINUOUS
 62
     7
 10
32.2835848036
 20
373.3469212129
 30
0.0
 40
2.5
  0
CIRCLE
  5
A9
  8
3
  6
CONTINUOUS
 62
     7
 10
37.2835848036
 20
375.3469212129
 30
0.0
 40
2.5
  0
CIRCLE
  5
AA
  8
3
  6
CONTINUOUS
 62
     7
 10
37.2835848036
 20
383.3469212129
 30
0.0
 40
1.5
  0
ARC
  5
AB
  8
3
  6
CONTINUOUS
 62
     7
 10
-22.7164151964
 20
66.3469212129
 30
0.0
 40
20.0
 50
180.0
 51
270.0
  0
ARC
  5
AC
  8
1
  6
CONTINUOUS
 62
     7
 10
88.5335848036
 20
-143.0440021196
 30
0.0
 40
1.0
 50
0.0
 51
90.0
  0
LINE
  5
AD
  8
1
  6
CONTINUOUS
 62
     7
 10
57.2835848036
 20
-99.0440021196
 30
0.0
 11
57.2835848036
 21
-100.5440021196
 31
0.0
  0
CIRCLE
  5
AE
  8
3
  6
CONTINUOUS
 62
     7
 10
37.2835848036
 20
383.3469212129
 30
0.0
 40
2.5
  0
CIRCLE
  5
AF
  8
3
  6
CONTINUOUS
 62
     7
 10
22.2835848036
 20
403.3469212129
 30
0.0
 40
1.5
  0
CIRCLE
  5
B0
  8
3
  6
CONTINUOUS
 62
     7
 10
32.2835848036
 20
373.3469212129
 30
0.0
 40
1.5
  0
ARC
  5
B1
  8
3
  6
CONTINUOUS
 62
     7
 10
-22.7164151964
 20
66.3469212129
 30
0.0
 40
14.8
 50
180.0
 51
270.0
  0
CIRCLE
  5
B2
  8
3
  6
CONTINUOUS
 62
     7
 10
37.2835848036
 20
375.3469212129
 30
0.0
 40
1.5
  0
LINE
  5
B3
  8
1
  6
CONTINUOUS
 62
     7
 10
85.0335848036
 20
-143.0440021196
 30
0.0
 11
85.0335848036
 21
-145.5440021196
 31
0.0
  0
CIRCLE
  5
B4
  8
3
  6
CONTINUOUS
 62
     7
 10
22.2835848036
 20
403.3469212129
 30
0.0
 40
2.5
  0
ARC
  5
B5
  8
1
  6
CONTINUOUS
 62
     7
 10
86.0335848036
 20
-143.0440021196
 30
0.0
 40
1.0
 50
90.0
 51
180.0
  0
LINE
  5
B6
  8
1
  6
CONTINUOUS
 62
     7
 10
-36.5164151964
 20
-100.5440021196
 30
0.0
 11
211.0835848036
 21
-100.5440021196
 31
0.0
  0
LINE
  5
B7
  8
1
  6
CENTER
 62
     7
 10
87.2835848036
 20
-153.6322852487
 30
0.0
 11
87.2835848036
 21
-88.7227347973
 31
0.0
  0
ARC
  5
B9
  8
1
  6
CONTINUOUS
 62
     7
 10
323.4032183783
 20
48.0278210732
 30
0.0
 40
1.0
 50
180.0
 51
269.0
  0
LINE
  5
BA
  8
1
  6
CONTINUOUS
 62
     7
 10
362.4032183783
 20
466.3469212129
 30
0.0
 11
362.4032183783
 21
46.34692121290001
 31
0.0
  0
ARC
  5
BB
  8
1
  6
CONTINUOUS
 62
     7
 10
335.4032183783
 20
45.8180556379
 30
0.0
 40
1.0
 50
89.00000000000001
 51
180.0
  0
LINE
  5
BC
  8
1
  6
CENTER
 62
     7
 10
304.9946856164
 20
256.3469212129
 30
0.0
 11
372.350270305
 21
256.3469212129
 31
0.0
  0
LINE
  5
BD
  8
1
  6
CONTINUOUS
 62
     7
 10
318.4032183783
 20
461.1469212129
 30
0.0
 11
322.4032183783
 21
461.1469212129
 31
0.0
  0
LINE
  5
BE
  8
1
  6
CONTINUOUS
 62
     7
 10
317.4032183783
 20
52.5469212129
 30
0.0
 11
317.4032183783
 21
460.1469212128999
 31
0.0
  0
LINE
  5
BF
  8
1
  6
CONTINUOUS
 62
     7
 10
315.9032183783
 20
53.3469212129
 30
0.0
 11
317.4032183783
 21
53.3469212129
 31
0.0
  0
ARC
  5
C0
  8
1
  6
CONTINUOUS
 62
     7
 10
315.9032183783
 20
53.8469212129
 30
0.0
 40
0.5
 50
180.0
 51
270.0
  0
LINE
  5
C1
  8
1
  6
CONTINUOUS
 62
     7
 10
322.4032183783
 20
464.7469212129
 30
0.0
 11
322.4032183783
 21
48.02782107319997
 31
0.0
  0
ARC
  5
C2
  8
1
  6
CONTINUOUS
 62
     7
 10
318.4032183783
 20
460.1469212129
 30
0.0
 40
1.0
 50
90.0
 51
180.0
  0
LINE
  5
C3
  8
1
  6
CONTINUOUS
 62
     7
 10
315.9032183783
 20
71.3469212129
 30
0.0
 11
317.4032183783
 21
71.3469212129
 31
0.0
  0
LINE
  5
C4
  8
1
  6
CONTINUOUS
 62
     7
 10
315.4032183783
 20
70.8469212129
 30
0.0
 11
315.4032183783
 21
53.8469212129
 31
0.0
  0
LINE
  5
C5
  8
1
  6
CONTINUOUS
 62
     7
 10
334.4032183783
 20
35.8469212129
 30
0.0
 11
325.4032183783
 21
35.8469212129
 31
0.0
  0
LINE
  5
C6
  8
1
  6
CONTINUOUS
 62
     7
 10
323.3857659718
 20
465.6658690478
 30
0.0
 11
362.4032183783
 21
466.3469212129
 31
0.0
  0
ARC
  5
C7
  8
1
  6
CONTINUOUS
 62
     7
 10
323.4032190569
 20
464.6660206858
 30
0.0
 40
1.0000006786
 50
91.0
 51
180.0
  0
LINE
  5
C8
  8
1
  6
CONTINUOUS
 62
     7
 10
323.3857659718
 20
47.027973378
 30
0.0
 11
362.4032183783
 21
46.3469212129
 31
0.0
  0
LINE
  5
C9
  8
1
  6
CONTINUOUS
 62
     7
 10
334.4032183783
 20
45.8180556379
 30
0.0
 11
334.4032183783
 21
35.8469212129
 31
0.0
  0
LINE
  5
CA
  8
1
  6
CONTINUOUS
 62
     7
 10
318.4032183783
 20
51.5469212129
 30
0.0
 11
322.4032183783
 21
51.5469212129
 31
0.0
  0
ARC
  5
CB
  8
1
  6
CONTINUOUS
 62
     7
 10
318.4032183783
 20
52.5469212129
 30
0.0
 40
1.0
 50
180.0
 51
270.0
  0
LINE
  5
CC
  8
1
  6
CONTINUOUS
 62
     7
 10
325.4032183783
 20
35.8469212129
 30
0.0
 11
325.4032183783
 21
46.9927586153
 31
0.0
  0
CIRCLE
  5
CD
  8
3
  6
CONTINUOUS
 62
     7
 10
152.2835848036
 20
403.3469212129
 30
0.0
 40
1.5
  0
CIRCLE
  5
CE
  8
3
  6
CONTINUOUS
 62
     7
 10
142.2835848036
 20
373.3469212129
 30
0.0
 40
2.5
  0
CIRCLE
  5
CF
  8
3
  6
CONTINUOUS
 62
     7
 10
152.2835848036
 20
423.3469212129
 30
0.0
 40
1.5
  0
CIRCLE
  5
D0
  8
3
  6
CONTINUOUS
 62
     7
 10
137.2835848036
 20
375.3469212129
 30
0.0
 40
1.5
  0
CIRCLE
  5
D1
  8
3
  6
CONTINUOUS
 62
     7
 10
145.2835848036
 20
413.3469212129
 30
0.0
 40
1.5
  0
CIRCLE
  5
D2
  8
3
  6
CONTINUOUS
 62
     7
 10
142.2835848036
 20
373.3469212129
 30
0.0
 40
1.5
  0
CIRCLE
  5
D3
  8
3
  6
CONTINUOUS
 62
     7
 10
29.2835848036
 20
413.3469212129
 30
0.0
 40
2.5
  0
CIRCLE
  5
D4
  8
3
  6
CONTINUOUS
 62
     7
 10
152.2835848036
 20
423.3469212129
 30
0.0
 40
2.5
  0
CIRCLE
  5
D5
  8
3
  6
CONTINUOUS
 62
     7
 10
87.2835848036
 20
353.3469212129
 30
0.0
 40
2.5
  0
CIRCLE
  5
D6
  8
3
  6
CONTINUOUS
 62
     7
 10
145.2835848036
 20
413.3469212129
 30
0.0
 40
2.5
  0
CIRCLE
  5
D7
  8
3
  6
CONTINUOUS
 62
     7
 10
22.2835848036
 20
423.3469212129
 30
0.0
 40
2.5
  0
CIRCLE
  5
D8
  8
3
  6
CONTINUOUS
 62
     7
 10
152.2835848036
 20
403.3469212129
 30
0.0
 40
2.5
  0
CIRCLE
  5
D9
  8
3
  6
CONTINUOUS
 62
     7
 10
137.2835848036
 20
428.3469212129
 30
0.0
 40
2.5
  0
LINE
  5
DA
  8
3
  6
CONTINUOUS
 62
     7
 10
-42.7164151964
 20
450.8469212129
 30
0.0
 11
-42.7164151964
 21
66.34692121290003
 31
0.0
  0
ARC
  5
DB
  8
3
  6
CONTINUOUS
 62
     7
 10
-27.2164151964
 20
450.8469212129
 30
0.0
 40
15.5
 50
90.0
 51
180.0
  0
CIRCLE
  5
DC
  8
3
  6
CONTINUOUS
 62
     7
 10
87.2835848036
 20
353.3469212129
 30
0.0
 40
1.5
  0
CIRCLE
  5
DD
  8
3
  6
CONTINUOUS
 62
     7
 10
137.2835848036
 20
383.3469212129
 30
0.0
 40
2.5
  0
CIRCLE
  5
DE
  8
3
  6
CONTINUOUS
 62
     7
 10
147.2835848036
 20
408.3469212129
 30
0.0
 40
1.5
  0
CIRCLE
  5
DF
  8
3
  6
CONTINUOUS
 62
     7
 10
147.2835848036
 20
408.3469212129
 30
0.0
 40
2.5
  0
CIRCLE
  5
E0
  8
3
  6
CONTINUOUS
 62
     7
 10
27.2835848036
 20
408.3469212129
 30
0.0
 40
2.5
  0
CIRCLE
  5
E1
  8
3
  6
CONTINUOUS
 62
     7
 10
137.2835848036
 20
428.3469212129
 30
0.0
 40
1.5
  0
CIRCLE
  5
E2
  8
3
  6
CONTINUOUS
 62
     7
 10
37.2835848036
 20
428.3469212129
 30
0.0
 40
1.5
  0
CIRCLE
  5
E3
  8
3
  6
CONTINUOUS
 62
     7
 10
37.2835848036
 20
428.3469212129
 30
0.0
 40
2.5
  0
CIRCLE
  5
E4
  8
3
  6
CONTINUOUS
 62
     7
 10
27.2835848036
 20
408.3469212129
 30
0.0
 40
1.5
  0
CIRCLE
  5
E5
  8
3
  6
CONTINUOUS
 62
     7
 10
22.2835848036
 20
423.3469212129
 30
0.0
 40
1.5
  0
CIRCLE
  5
E6
  8
3
  6
CONTINUOUS
 62
     7
 10
29.2835848036
 20
413.3469212129
 30
0.0
 40
1.5
  0
CIRCLE
  5
E7
  8
3
  6
CONTINUOUS
 62
     7
 10
137.2835848036
 20
383.3469212129
 30
0.0
 40
1.5
  0
CIRCLE
  5
E8
  8
3
  6
CONTINUOUS
 62
     7
 10
137.2835848036
 20
375.3469212129
 30
0.0
 40
2.5
  0
LINE
  5
E9
  8
3
  6
CONTINUOUS
 62
     7
 10
140.6835848036
 20
216.9969212129
 30
0.0
 11
140.6835848036
 21
226.6969212129
 31
0.0
  0
ARC
  5
EA
  8
3
  6
CONTINUOUS
 62
     7
 10
87.2835848036
 20
219.9969212129
 30
0.0
 40
1.65
 50
180.0
 51
0.0
  0
ARC
  5
EB
  8
3
  6
CONTINUOUS
 62
     7
 10
135.2835848036
 20
227.9969212129
 30
0.0
 40
1.65
 50
180.0
 51
0.0
  0
LINE
  5
EC
  8
3
  6
CONTINUOUS
 62
     7
 10
88.9335848036
 20
219.9969212129
 30
0.0
 11
88.9335848036
 21
257.6969212129
 31
0.0
  0
ARC
  5
ED
  8
3
  6
CONTINUOUS
 62
     7
 10
140.2835848036
 20
229.9969212129
 30
0.0
 40
1.65
 50
180.0
 51
0.0
  0
ARC
  5
EE
  8
3
  6
CONTINUOUS
 62
     7
 10
135.2835848036
 20
233.6969212129
 30
0.0
 40
1.65
 50
0.0
 51
180.0
  0
LINE
  5
EF
  8
3
  6
CONTINUOUS
 62
     7
 10
138.6335848036
 20
238.6969212129
 30
0.0
 11
138.6335848036
 21
229.9969212129
 31
0.0
  0
ARC
  5
F0
  8
3
  6
CONTINUOUS
 62
     7
 10
139.0335848036
 20
216.9969212129
 30
0.0
 40
1.65
 50
180.0
 51
0.0
  0
LINE
  5
F1
  8
3
  6
CONTINUOUS
 62
     7
 10
85.6335848036
 20
257.6969212129
 30
0.0
 11
85.6335848036
 21
219.9969212129
 31
0.0
  0
LINE
  5
F2
  8
3
  6
CONTINUOUS
 62
     7
 10
136.9335848036
 20
227.9969212129
 30
0.0
 11
136.9335848036
 21
233.6969212129
 31
0.0
  0
LINE
  5
F3
  8
3
  6
CONTINUOUS
 62
     7
 10
132.6335848036
 20
255.6969212129
 30
0.0
 11
132.6335848036
 21
240.9969212129
 31
0.0
  0
LINE
  5
F4
  8
3
  6
CONTINUOUS
 62
     7
 10
133.6335848036
 20
233.6969212129
 30
0.0
 11
133.6335848036
 21
227.9969212129
 31
0.0
  0
ARC
  5
F5
  8
3
  6
CONTINUOUS
 62
     7
 10
87.2835848036
 20
186.6969212129
 30
0.0
 40
1.65
 50
0.0
 51
180.0
  0
ARC
  5
F6
  8
3
  6
CONTINUOUS
 62
     7
 10
87.2835848036
 20
257.6969212129
 30
0.0
 40
1.65
 50
0.0
 51
180.0
  0
LINE
  5
F7
  8
3
  6
CONTINUOUS
 62
     7
 10
88.9335848036
 20
129.9969212129
 30
0.0
 11
88.9335848036
 21
186.6969212129
 31
0.0
  0
ARC
  5
F8
  8
3
  6
CONTINUOUS
 62
     7
 10
134.2835848036
 20
255.6969212129
 30
0.0
 40
1.65
 50
0.0
 51
180.0
  0
ARC
  5
F9
  8
3
  6
CONTINUOUS
 62
     7
 10
134.2835848036
 20
240.9969212129
 30
0.0
 40
1.65
 50
180.0
 51
0.0
  0
ARC
  5
FA
  8
3
  6
CONTINUOUS
 62
     7
 10
139.0335848036
 20
226.6969212129
 30
0.0
 40
1.65
 50
0.0
 51
180.0
  0
ARC
  5
FB
  8
3
  6
CONTINUOUS
 62
     7
 10
87.2835848036
 20
129.9969212129
 30
0.0
 40
1.65
 50
180.0
 51
0.0
  0
LINE
  5
FC
  8
3
  6
CONTINUOUS
 62
     7
 10
85.6335848036
 20
186.6969212129
 30
0.0
 11
85.6335848036
 21
129.9969212129
 31
0.0
  0
LINE
  5
FD
  8
3
  6
CONTINUOUS
 62
     7
 10
135.9335848036
 20
240.9969212129
 30
0.0
 11
135.9335848036
 21
255.6969212129
 31
0.0
  0
LINE
  5
FE
  8
3
  6
CONTINUOUS
 62
     7
 10
141.9335848036
 20
229.9969212129
 30
0.0
 11
141.9335848036
 21
238.6969212129
 31
0.0
  0
ARC
  5
FF
  8
3
  6
CONTINUOUS
 62
     7
 10
140.2835848036
 20
238.6969212129
 30
0.0
 40
1.65
 50
0.0
 51
180.0
  0
LINE
  5
100
  8
3
  6
CONTINUOUS
 62
     7
 10
137.3835848036
 20
226.6969212129
 30
0.0
 11
137.3835848036
 21
216.9969212129
 31
0.0
  0
LINE
  5
101
  8
3
  6
CONTINUOUS
 62
     7
 10
33.8835848036
 20
216.9969212129
 30
0.0
 11
33.8835848036
 21
226.6969212129
 31
0.0
  0
CIRCLE
  5
102
  8
3
  6
CONTINUOUS
 62
     7
 10
-12.7164151964
 20
256.3469212129
 30
0.0
 40
5.3
  0
LINE
  5
103
  8
3
  6
CONTINUOUS
 62
     7
 10
41.9335848036
 20
255.6969212129
 30
0.0
 11
41.9335848036
 21
240.9969212129
 31
0.0
  0
LINE
  5
104
  8
3
  6
CONTINUOUS
 62
     7
 10
37.6335848036
 20
227.9969212129
 30
0.0
 11
37.6335848036
 21
233.6969212129
 31
0.0
  0
ARC
  5
105
  8
3
  6
CONTINUOUS
 62
     7
 10
34.2835848036
 20
238.6969212129
 30
0.0
 40
1.65
 50
0.0
 51
180.0
  0
CIRCLE
  5
106
  8
3
  6
CONTINUOUS
 62
     7
 10
87.2835848036
 20
88.3469212129
 30
0.0
 40
2.5
  0
ARC
  5
107
  8
3
  6
CONTINUOUS
 62
     7
 10
135.2835848036
 20
88.3469212129
 30
0.0
 40
2.5
 50
270.0
 51
90.0
  0
ARC
  5
108
  8
3
  6
CONTINUOUS
 62
     7
 10
131.2835848036
 20
88.3469212129
 30
0.0
 40
5.3
 50
90.0
 51
270.0
  0
ARC
  5
109
  8
3
  6
CONTINUOUS
 62
     7
 10
39.2835848036
 20
227.9969212129
 30
0.0
 40
1.65
 50
180.0
 51
0.0
  0
LINE
  5
10A
  8
3
  6
CONTINUOUS
 62
     7
 10
40.9335848036
 20
233.6969212129
 30
0.0
 11
40.9335848036
 21
227.9969212129
 31
0.0
  0
LINE
  5
10B
  8
3
  6
CONTINUOUS
 62
     7
 10
38.6335848036
 20
240.9969212129
 30
0.0
 11
38.6335848036
 21
255.6969212129
 31
0.0
  0
ARC
  5
10C
  8
3
  6
CONTINUOUS
 62
     7
 10
39.2835848036
 20
233.6969212129
 30
0.0
 40
1.65
 50
0.0
 51
180.0
  0
ARC
  5
10D
  8
3
  6
CONTINUOUS
 62
     7
 10
34.2835848036
 20
229.9969212129
 30
0.0
 40
1.65
 50
180.0
 51
0.0
  0
LINE
  5
10E
  8
3
  6
CONTINUOUS
 62
     7
 10
32.6335848036
 20
229.9969212129
 30
0.0
 11
32.6335848036
 21
238.6969212129
 31
0.0
  0
ARC
  5
10F
  8
3
  6
CONTINUOUS
 62
     7
 10
131.2835848036
 20
88.3469212129
 30
0.0
 40
2.5
 50
90.0
 51
270.0
  0
LINE
  5
110
  8
3
  6
CONTINUOUS
 62
     7
 10
131.2835848036
 20
93.6469212129
 30
0.0
 11
135.2835848036
 21
93.6469212129
 31
0.0
  0
ARC
  5
111
  8
3
  6
CONTINUOUS
 62
     7
 10
40.2835848036
 20
240.9969212129
 30
0.0
 40
1.65
 50
180.0
 51
0.0
  0
ARC
  5
112
  8
3
  6
CONTINUOUS
 62
     7
 10
35.5335848036
 20
226.6969212129
 30
0.0
 40
1.65
 50
0.0
 51
180.0
  0
CIRCLE
  5
113
  8
3
  6
CONTINUOUS
 62
     7
 10
87.2835848036
 20
88.3469212129
 30
0.0
 40
5.3
  0
LINE
  5
114
  8
3
  6
CONTINUOUS
 62
     7
 10
35.9335848036
 20
238.6969212129
 30
0.0
 11
35.9335848036
 21
229.9969212129
 31
0.0
  0
ARC
  5
115
  8
3
  6
CONTINUOUS
 62
     7
 10
135.2835848036
 20
88.3469212129
 30
0.0
 40
5.3
 50
270.0
 51
90.0
  0
ARC
  5
116
  8
3
  6
CONTINUOUS
 62
     7
 10
40.2835848036
 20
255.6969212129
 30
0.0
 40
1.65
 50
0.0
 51
180.0
  0
LINE
  5
117
  8
3
  6
CONTINUOUS
 62
     7
 10
37.1835848036
 20
226.6969212129
 30
0.0
 11
37.1835848036
 21
216.9969212129
 31
0.0
  0
ARC
  5
118
  8
3
  6
CONTINUOUS
 62
     7
 10
35.5335848036
 20
216.9969212129
 30
0.0
 40
1.65
 50
180.0
 51
0.0
  0
ARC
  5
119
  8
3
  6
CONTINUOUS
 62
     7
 10
39.2835848036
 20
88.3469212129
 30
0.0
 40
5.3
 50
90.0
 51
270.0
  0
ARC
  5
11A
  8
3
  6
CONTINUOUS
 62
     7
 10
39.551533996
 20
170.8469212129
 30
0.0
 40
5.3
 50
120.0
 51
300.0
  0
ARC
  5
11B
  8
3
  6
CONTINUOUS
 62
     7
 10
39.2835848036
 20
88.3469212129
 30
0.0
 40
2.5
 50
90.0
 51
270.0
  0
LINE
  5
11C
  8
3
  6
CONTINUOUS
 62
     7
 10
43.2835848036
 20
93.6469212129
 30
0.0
 11
39.2835848036
 21
93.6469212129
 31
0.0
  0
ARC
  5
11D
  8
3
  6
CONTINUOUS
 62
     7
 10
135.0156356111
 20
170.8469212129
 30
0.0
 40
2.5
 50
240.0
 51
60.0
  0
LINE
  5
11E
  8
3
  6
CONTINUOUS
 62
     7
 10
135.2835848036
 20
90.8469212129
 30
0.0
 11
131.2835848036
 21
90.8469212129
 31
0.0
  0
LINE
  5
11F
  8
3
  6
CONTINUOUS
 62
     7
 10
43.2835848036
 20
85.8469212129
 30
0.0
 11
39.2835848036
 21
85.8469212129
 31
0.0
  0
LINE
  5
120
  8
3
  6
CONTINUOUS
 62
     7
 10
39.2835848036
 20
90.8469212129
 30
0.0
 11
43.2835848036
 21
90.8469212129
 31
0.0
  0
LINE
  5
121
  8
3
  6
CONTINUOUS
 62
     7
 10
134.201533996
 20
177.436855853
 30
0.0
 11
137.6656356111
 21
175.436855853
 31
0.0
  0
ARC
  5
122
  8
3
  6
CONTINUOUS
 62
     7
 10
43.0156356111
 20
172.8469212129
 30
0.0
 40
5.3
 50
300.0
 51
120.0
  0
ARC
  5
123
  8
3
  6
CONTINUOUS
 62
     7
 10
131.551533996
 20
172.8469212129
 30
0.0
 40
5.3
 50
60.0
 51
240.0
  0
ARC
  5
124
  8
3
  6
CONTINUOUS
 62
     7
 10
43.0156356111
 20
172.8469212129
 30
0.0
 40
2.5
 50
300.0
 51
120.0
  0
LINE
  5
125
  8
3
  6
CONTINUOUS
 62
     7
 10
131.2835848036
 20
85.8469212129
 30
0.0
 11
135.2835848036
 21
85.8469212129
 31
0.0
  0
LINE
  5
126
  8
3
  6
CONTINUOUS
 62
     7
 10
132.3656356111
 20
166.2569865729
 30
0.0
 11
128.901533996
 21
168.2569865729
 31
0.0
  0
LINE
  5
127
  8
3
  6
CONTINUOUS
 62
     7
 10
40.3656356111
 20
177.436855853
 30
0.0
 11
36.901533996
 21
175.436855853
 31
0.0
  0
LINE
  5
128
  8
3
  6
CONTINUOUS
 62
     7
 10
38.301533996
 20
173.0119847224
 30
0.0
 11
41.7656356111
 21
175.0119847224
 31
0.0
  0
ARC
  5
129
  8
3
  6
CONTINUOUS
 62
     7
 10
131.551533996
 20
172.8469212129
 30
0.0
 40
2.5
 50
60.0
 51
240.0
  0
LINE
  5
12A
  8
3
  6
CONTINUOUS
 62
     7
 10
44.2656356111
 20
170.6818577035
 30
0.0
 11
40.801533996
 21
168.6818577035
 31
0.0
  0
LINE
  5
12B
  8
3
  6
CONTINUOUS
 62
     7
 10
135.2835848036
 20
83.0469212129
 30
0.0
 11
131.2835848036
 21
83.0469212129
 31
0.0
  0
ARC
  5
12C
  8
3
  6
CONTINUOUS
 62
     7
 10
135.0156356111
 20
170.8469212129
 30
0.0
 40
5.3
 50
240.0
 51
60.0
  0
LINE
  5
12D
  8
3
  6
CONTINUOUS
 62
     7
 10
42.201533996
 20
166.2569865729
 30
0.0
 11
45.6656356111
 21
168.2569865729
 31
0.0
  0
ARC
  5
12E
  8
3
  6
CONTINUOUS
 62
     7
 10
39.551533996
 20
170.8469212129
 30
0.0
 40
2.5
 50
120.0
 51
300.0
  0
ARC
  5
12F
  8
3
  6
CONTINUOUS
 62
     7
 10
155.2835848036
 20
201.6969212129
 30
0.0
 40
1.65
 50
0.0
 51
180.0
  0
LINE
  5
130
  8
3
  6
CONTINUOUS
 62
     7
 10
130.301533996
 20
170.6818577035
 30
0.0
 11
133.7656356111
 21
168.6818577035
 31
0.0
  0
LINE
  5
131
  8
3
  6
CONTINUOUS
 62
     7
 10
39.2835848036
 20
83.0469212129
 30
0.0
 11
43.2835848036
 21
83.0469212129
 31
0.0
  0
ARC
  5
132
  8
3
  6
CONTINUOUS
 62
     7
 10
43.2835848036
 20
88.3469212129
 30
0.0
 40
2.5
 50
270.0
 51
90.0
  0
ARC
  5
133
  8
3
  6
CONTINUOUS
 62
     7
 10
43.2835848036
 20
88.3469212129
 30
0.0
 40
5.3
 50
270.0
 51
90.0
  0
LINE
  5
134
  8
3
  6
CONTINUOUS
 62
     7
 10
136.2656356111
 20
173.0119847224
 30
0.0
 11
132.801533996
 21
175.0119847224
 31
0.0
  0
LINE
  5
135
  8
3
  6
CONTINUOUS
 62
     7
 10
158.6335848036
 20
203.6969212129
 30
0.0
 11
158.6335848036
 21
199.4969212129
 31
0.0
  0
CIRCLE
  5
136
  8
3
  6
CONTINUOUS
 62
     7
 10
87.2835848036
 20
398.8469212129
 30
0.0
 40
2.5
  0
ARC
  5
137
  8
3
  6
CONTINUOUS
 62
     7
 10
14.2835848036
 20
203.6969212129
 30
0.0
 40
1.65
 50
0.0
 51
180.0
  0
ARC
  5
138
  8
3
  6
CONTINUOUS
 62
     7
 10
95.2874997397
 20
44.3469212129
 30
0.0
 40
2.0
 50
90.0
 51
179.9103324769
  0
LINE
  5
139
  8
3
  6
CONTINUOUS
 62
     7
 10
17.6335848036
 20
199.4969212129
 30
0.0
 11
17.6335848036
 21
201.6969212129
 31
0.0
  0
CIRCLE
  5
13A
  8
3
  6
CONTINUOUS
 62
     7
 10
87.2835848036
 20
41.8469212129
 30
0.0
 40
2.25
  0
LINE
  5
13B
  8
3
  6
CONTINUOUS
 62
     7
 10
206.2835848036
 20
199.3469212129
 30
0.0
 11
206.2835848036
 21
207.3469212129
 31
0.0
  0
LINE
  5
13C
  8
3
  6
CONTINUOUS
 62
     7
 10
153.6335848036
 20
201.6969212129
 30
0.0
 11
153.6335848036
 21
199.4969212129
 31
0.0
  0
LINE
  5
13D
  8
3
  6
CONTINUOUS
 62
     7
 10
217.2835848036
 20
66.3469212129
 30
0.0
 11
217.2835848036
 21
446.3469212129
 31
0.0
  0
ARC
  5
13E
  8
3
  6
CONTINUOUS
 62
     7
 10
197.2835848036
 20
446.3469212129
 30
0.0
 40
20.0
 50
0.0
 51
90.0
  0
LINE
  5
13F
  8
3
  6
CONTINUOUS
 62
     7
 10
-22.7164151964
 20
46.3469212129
 30
0.0
 11
197.2835848036
 21
46.3469212129
 31
0.0
  0
LINE
  5
140
  8
3
  6
CONTINUOUS
 62
     7
 10
197.2835848036
 20
51.5469212129
 30
0.0
 11
-22.7164151964
 21
51.5469212129
 31
0.0
  0
LINE
  5
141
  8
3
  6
CONTINUOUS
 62
     7
 10
161.9335848036
 20
199.4969212129
 30
0.0
 11
161.9335848036
 21
203.6969212129
 31
0.0
  0
CIRCLE
  5
142
  8
3
  6
CONTINUOUS
 62
     7
 10
87.2835848036
 20
407.3469212129
 30
0.0
 40
1.5
  0
ARC
  5
143
  8
3
  6
CONTINUOUS
 62
     7
 10
197.2835848036
 20
66.3469212129
 30
0.0
 40
14.8
 50
270.0
 51
0.0
  0
LINE
  5
144
  8
3
  6
CONTINUOUS
 62
     7
 10
202.7835848036
 20
199.3469212129
 30
0.0
 11
206.2835848036
 21
199.3469212129
 31
0.0
  0
CIRCLE
  5
145
  8
3
  6
CONTINUOUS
 62
     7
 10
87.2835848036
 20
407.3469212129
 30
0.0
 40
2.5
  0
ARC
  5
146
  8
3
  6
CONTINUOUS
 62
     7
 10
157.7835848036
 20
199.4969212129
 30
0.0
 40
0.85
 50
180.0
 51
0.0
  0
LINE
  5
147
  8
3
  6
CONTINUOUS
 62
     7
 10
15.9335848036
 20
203.6969212129
 30
0.0
 11
15.9335848036
 21
199.4969212129
 31
0.0
  0
LINE
  5
148
  8
3
  6
CONTINUOUS
 62
     7
 10
-22.7164151964
 20
461.1469212129
 30
0.0
 11
197.2835848036
 21
461.1469212129
 31
0.0
  0
CIRCLE
  5
149
  8
3
  6
CONTINUOUS
 62
     7
 10
187.2835848036
 20
76.3469212129
 30
0.0
 40
5.3
  0
LINE
  5
14A
  8
3
  6
CONTINUOUS
 62
     7
 10
159.2835848036
 20
446.6469212129
 30
0.0
 11
159.2835848036
 21
445.1469212129
 31
0.0
  0
LINE
  5
14B
  8
3
  6
CONTINUOUS
 62
     7
 10
15.2835848036
 20
445.1469212129
 30
0.0
 11
-0.7164151964000002
 21
445.1469212129
 31
0.0
  0
LINE
  5
14C
  8
3
  6
CONTINUOUS
 62
     7
 10
175.2835848036
 20
446.6469212129
 30
0.0
 11
159.2835848036
 21
446.6469212129
 31
0.0
  0
CIRCLE
  5
14D
  8
3
  6
CONTINUOUS
 62
     7
 10
167.2835848036
 20
451.1469212129
 30
0.0
 40
1.5
  0
LINE
  5
14E
  8
3
  6
CONTINUOUS
 62
     7
 10
20.9335848036
 20
201.6969212129
 30
0.0
 11
20.9335848036
 21
199.4969212129
 31
0.0
  0
ARC
  5
14F
  8
3
  6
CONTINUOUS
 62
     7
 10
157.7835848036
 20
199.4969212129
 30
0.0
 40
4.15
 50
180.0
 51
0.0
  0
ARC
  5
150
  8
3
  6
CONTINUOUS
 62
     7
 10
16.7835848036
 20
199.4969212129
 30
0.0
 40
0.85
 50
180.0
 51
0.0
  0
LINE
  5
151
  8
3
  6
CONTINUOUS
 62
     7
 10
81.2796674182
 20
44.3500511987
 30
0.0
 11
81.2835848036
 21
41.8469212129
 31
0.0
  0
ARC
  5
152
  8
3
  6
CONTINUOUS
 62
     7
 10
16.7835848036
 20
199.4969212129
 30
0.0
 40
4.15
 50
180.0
 51
0.0
  0
ARC
  5
153
  8
3
  6
CONTINUOUS
 62
     7
 10
79.2796698674
 20
44.3469212129
 30
0.0
 40
2.0
 50
0.0896675231
 51
90.0
  0
LINE
  5
154
  8
3
  6
CONTINUOUS
 62
     7
 10
-31.7164151964
 20
207.3469212129
 30
0.0
 11
-28.2164151964
 21
207.3469212129
 31
0.0
  0
LINE
  5
155
  8
3
  6
CONTINUOUS
 62
     7
 10
212.0835848036
 20
446.3469212129
 30
0.0
 11
212.0835848036
 21
66.34692121289997
 31
0.0
  0
CIRCLE
  5
156
  8
3
  6
CONTINUOUS
 62
     7
 10
187.2835848036
 20
256.3469212129
 30
0.0
 40
5.3
  0
ARC
  5
157
  8
3
  6
CONTINUOUS
 62
     7
 10
160.2835848036
 20
203.6969212129
 30
0.0
 40
1.65
 50
0.0
 51
180.0
  0
LINE
  5
158
  8
3
  6
CONTINUOUS
 62
     7
 10
156.9335848036
 20
199.4969212129
 30
0.0
 11
156.9335848036
 21
201.6969212129
 31
0.0
  0
LINE
  5
159
  8
3
  6
CONTINUOUS
 62
     7
 10
-27.2164151964
 20
466.3469212129
 30
0.0
 11
197.2835848036
 21
466.3469212129
 31
0.0
  0
LINE
  5
15A
  8
3
  6
CONTINUOUS
 62
     7
 10
202.7835848036
 20
207.3469212129
 30
0.0
 11
202.7835848036
 21
199.3469212129
 31
0.0
  0
LINE
  5
15B
  8
3
  6
CONTINUOUS
 62
     7
 10
12.6335848036
 20
199.4969212129
 30
0.0
 11
12.6335848036
 21
203.6969212129
 31
0.0
  0
LINE
  5
15C
  8
3
  6
CONTINUOUS
 62
     7
 10
-31.7164151964
 20
199.3469212129
 30
0.0
 11
-31.7164151964
 21
207.3469212129
 31
0.0
  0
LINE
  5
15D
  8
3
  6
CONTINUOUS
 62
     7
 10
175.2835848036
 20
445.1469212129
 30
0.0
 11
175.2835848036
 21
446.6469212129
 31
0.0
  0
LINE
  5
15E
  8
3
  6
CONTINUOUS
 62
     7
 10
-0.7164151964
 20
445.1469212129
 30
0.0
 11
-0.7164151964
 21
446.6469212129
 31
0.0
  0
CIRCLE
  5
15F
  8
3
  6
CONTINUOUS
 62
     7
 10
87.2835848036
 20
398.8469212129
 30
0.0
 40
1.5
  0
LINE
  5
160
  8
3
  6
CONTINUOUS
 62
     7
 10
-28.2164151964
 20
207.3469212129
 30
0.0
 11
-28.2164151964
 21
199.3469212129
 31
0.0
  0
CIRCLE
  5
161
  8
3
  6
CONTINUOUS
 62
     7
 10
187.2835848036
 20
436.3469212129
 30
0.0
 40
5.3
  0
ARC
  5
162
  8
3
  6
CONTINUOUS
 62
     7
 10
197.2835848036
 20
66.3469212129
 30
0.0
 40
20.0
 50
270.0
 51
0.0
  0
LINE
  5
163
  8
3
  6
CONTINUOUS
 62
     7
 10
93.2875021889
 20
44.3500511987
 30
0.0
 11
93.2835848036
 21
41.8469212129
 31
0.0
  0
LINE
  5
164
  8
3
  6
CONTINUOUS
 62
     7
 10
206.2835848036
 20
207.3469212129
 30
0.0
 11
202.7835848036
 21
207.3469212129
 31
0.0
  0
LINE
  5
165
  8
3
  6
CONTINUOUS
 62
     7
 10
159.2835848036
 20
445.1469212129
 30
0.0
 11
175.2835848036
 21
445.1469212129
 31
0.0
  0
CIRCLE
  5
166
  8
3
  6
CONTINUOUS
 62
     7
 10
167.2835848036
 20
451.1469212129
 30
0.0
 40
2.5
  0
LINE
  5
167
  8
3
  6
CONTINUOUS
 62
     7
 10
15.2835848036
 20
446.6469212129
 30
0.0
 11
15.2835848036
 21
445.1469212129
 31
0.0
  0
LINE
  5
168
  8
3
  6
CONTINUOUS
 62
     7
 10
-28.2164151964
 20
199.3469212129
 30
0.0
 11
-31.7164151964
 21
199.3469212129
 31
0.0
  0
ARC
  5
169
  8
3
  6
CONTINUOUS
 62
     7
 10
87.2835848036
 20
41.8469212129
 30
0.0
 40
6.0
 50
180.0
 51
0.0
  0
ARC
  5
16A
  8
3
  6
CONTINUOUS
 62
     7
 10
197.2835848036
 20
446.3469212129
 30
0.0
 40
14.8
 50
0.0
 51
90.0
  0
LINE
  5
16B
  8
3
  6
CONTINUOUS
 62
     7
 10
-0.7164151964
 20
446.6469212129
 30
0.0
 11
15.2835848036
 21
446.6469212129
 31
0.0
  0
ARC
  5
16C
  8
3
  6
CONTINUOUS
 62
     7
 10
19.2835848036
 20
201.6969212129
 30
0.0
 40
1.65
 50
0.0
 51
180.0
  0
LINE
  5
16D
  8
3
  6
CENTER
 62
     7
 10
87.2835848036
 20
475.4333586795
 30
0.0
 11
87.2835848036
 21
32.70937232659998
 31
0.0
  0
LINE
  5
16E
  8
1
  6
DASHED
 62
     7
 10
60.2835848036
 20
71.3469212129
 30
0.0
 11
60.2835848036
 21
54.8469212129
 31
0.0
  0
CIRCLE
  5
16F
  8
3
  6
CONTINUOUS
 62
     7
 10
7.2835848036
 20
451.1469212129
 30
0.0
 40
2.5
  0
LINE
  5
170
  8
3
  6
CONTINUOUS
 62
     7
 10
172.4335892427
 20
189.4969212129
 30
0.0
 11
172.4335892427
 21
198.1969212129
 31
0.0
  0
ARC
  5
171
  8
1
  6
CONTINUOUS
 62
     7
 10
58.0335848036
 20
70.3469212129
 30
0.0
 40
1.0
 50
90.0
 51
180.0
  0
LINE
  5
172
  8
1
  6
CONTINUOUS
 62
     7
 10
56.0335848036
 20
59.4469212129
 30
0.0
 11
57.0335848036
 21
59.4469212129
 31
0.0
  0
LINE
  5
173
  8
1
  6
CONTINUOUS
 62
     7
 10
56.0335848036
 20
65.2469212129
 30
0.0
 11
56.0335848036
 21
59.4469212129
 31
0.0
  0
ARC
  5
174
  8
3
  6
CONTINUOUS
 62
     7
 10
170.7835892427
 20
189.4969212129
 30
0.0
 40
1.65
 50
180.0
 51
0.0
  0
LINE
  5
175
  8
1
  6
CONTINUOUS
 62
     7
 10
81.6267305541
 20
71.3469212129
 30
0.0
 11
58.03358480360001
 21
71.3469212129
 31
0.0
  0
LINE
  5
176
  8
1
  6
CONTINUOUS
 62
     7
 10
117.5335848036
 20
59.4469212129
 30
0.0
 11
118.5335848036
 21
59.4469212129
 31
0.0
  0
LINE
  5
177
  8
1
  6
CONTINUOUS
 62
     7
 10
118.5335848036
 20
59.4469212129
 30
0.0
 11
118.5335848036
 21
65.2469212129
 31
0.0
  0
CIRCLE
  5
178
  8
3
  6
CONTINUOUS
 62
     7
 10
7.2835848036
 20
451.1469212129
 30
0.0
 40
1.5
  0
ARC
  5
179
  8
1
  6
CONTINUOUS
 62
     7
 10
58.0335848036
 20
54.3469212129
 30
0.0
 40
1.0
 50
180.0
 51
270.0
  0
ARC
  5
17A
  8
1
  6
CONTINUOUS
 62
     7
 10
116.5335848036
 20
54.3469212129
 30
0.0
 40
1.0
 50
270.0
 51
0.0
  0
LINE
  5
17B
  8
1
  6
CONTINUOUS
 62
     7
 10
57.0335848036
 20
65.2469212129
 30
0.0
 11
56.0335848036
 21
65.2469212129
 31
0.0
  0
LINE
  5
17C
  8
1
  6
DASHED
 62
     7
 10
114.2835848036
 20
54.8469212129
 30
0.0
 11
60.2835848036
 21
54.8469212129
 31
0.0
  0
ARC
  5
17D
  8
1
  6
CONTINUOUS
 62
     7
 10
116.5335848036
 20
70.3469212129
 30
0.0
 40
1.0
 50
0.0
 51
90.0
  0
ARC
  5
17E
  8
3
  6
CONTINUOUS
 62
     7
 10
3.7835848032
 20
189.4969212129
 30
0.0
 40
1.65
 50
180.0
 51
0.0
  0
LINE
  5
17F
  8
3
  6
CONTINUOUS
 62
     7
 10
99.5335848036
 20
54.8469212129
 30
0.0
 11
99.5335848036
 21
51.5469212129
 31
0.0
  0
LINE
  5
180
  8
3
  6
CONTINUOUS
 62
     7
 10
95.0335848036
 20
51.5469212129
 30
0.0
 11
95.0335848036
 21
54.8469212129
 31
0.0
  0
LINE
  5
181
  8
1
  6
CONTINUOUS
 62
     7
 10
57.0335848036
 20
54.3469212129
 30
0.0
 11
57.0335848036
 21
70.3469212129
 31
0.0
  0
LINE
  5
182
  8
3
  6
CONTINUOUS
 62
     7
 10
2.1335848032
 20
189.4969212129
 30
0.0
 11
2.1335848032
 21
198.1969212129
 31
0.0
  0
ARC
  5
183
  8
3
  6
CONTINUOUS
 62
     7
 10
3.7835848032
 20
198.1969212129
 30
0.0
 40
1.65
 50
0.0
 51
180.0
  0
LINE
  5
184
  8
1
  6
CONTINUOUS
 62
     7
 10
117.5335848036
 20
70.3469212129
 30
0.0
 11
117.5335848036
 21
54.3469212129
 31
0.0
  0
LINE
  5
185
  8
1
  6
CONTINUOUS
 62
     7
 10
116.5335848036
 20
71.3469212129
 30
0.0
 11
92.9404390531
 21
71.3469212129
 31
0.0
  0
LINE
  5
186
  8
1
  6
CONTINUOUS
 62
     7
 10
116.5335848036
 20
53.3469212129
 30
0.0
 11
58.0335848036
 21
53.3469212129
 31
0.0
  0
LINE
  5
187
  8
1
  6
DASHED
 62
     7
 10
114.2835848036
 20
54.8469212129
 30
0.0
 11
114.2835848036
 21
71.3469212129
 31
0.0
  0
ARC
  5
188
  8
1
  6
CONTINUOUS
 62
     7
 10
87.2835848036
 20
73.3469212129
 30
0.0
 40
6.0
 50
199.4712206345
 51
340.5287793655
  0
LINE
  5
189
  8
1
  6
CONTINUOUS
 62
     7
 10
118.5335848036
 20
65.2469212129
 30
0.0
 11
117.5335848036
 21
65.2469212129
 31
0.0
  0
LINE
  5
18A
  8
3
  6
CONTINUOUS
 62
     7
 10
169.1335892427
 20
198.1969212129
 30
0.0
 11
169.1335892427
 21
189.4969212129
 31
0.0
  0
ARC
  5
18B
  8
3
  6
CONTINUOUS
 62
     7
 10
170.7835892427
 20
198.1969212129
 30
0.0
 40
1.65
 50
0.0
 51
180.0
  0
LINE
  5
18C
  8
3
  6
CONTINUOUS
 62
     7
 10
5.4335848032
 20
198.1969212129
 30
0.0
 11
5.4335848032
 21
189.4969212129
 31
0.0
  0
LINE
  5
18D
  8
1
  6
DASHED
 62
     7
 10
85.2835848036
 20
-111.5440021196
 30
0.0
 11
89.2835848036
 21
-111.5440021196
 31
0.0
  0
ARC
  5
18E
  8
1
  6
CONTINUOUS
 62
     7
 10
33.2835848542
 20
138.9968809513
 30
0.0
 40
1.65
 50
180.0
 51
0.0
  0
LINE
  5
18F
  8
1
  6
CONTINUOUS
 62
     7
 10
139.6335847481
 20
143.6968809513
 30
0.0
 11
139.6335847481
 21
138.9968809513
 31
0.0
  0
LINE
  5
190
  8
1
  6
DASHED
 62
     7
 10
317.4032183783
 20
412.8469212129
 30
0.0
 11
328.4032183783
 21
412.8469212129
 31
0.0
  0
ARC
  5
191
  8
1
  6
CONTINUOUS
 62
     7
 10
3.7835804055
 20
204.3968812981
 30
0.0
 40
1.65
 50
180.0
 51
0.0
  0
ARC
  5
192
  8
1
  6
CONTINUOUS
 62
     7
 10
141.2835847481
 20
138.9968809513
 30
0.0
 40
1.65
 50
180.0
 51
0.0
  0
ARC
  5
193
  8
1
  6
CONTINUOUS
 62
     7
 10
87.2835848036
 20
319.8469212129
 30
0.0
 40
6.0
 50
180.0
 51
0.0
  0
ARC
  5
194
  8
1
  6
CONTINUOUS
 62
     7
 10
87.2835848036
 20
324.8469212129
 30
0.0
 40
6.0
 50
0.0
 51
180.0
  0
LINE
  5
195
  8
1
  6
CONTINUOUS
 62
     7
 10
31.6335848542
 20
138.9968809513
 30
0.0
 11
31.6335848542
 21
143.6968809513
 31
0.0
  0
LINE
  5
196
  8
1
  6
CONTINUOUS
 62
     7
 10
89.2835848036
 20
-98.5440021196
 30
0.0
 11
89.2835848036
 21
-95.5440021196
 31
0.0
  0
CIRCLE
  5
197
  8
1
  6
CONTINUOUS
 62
     7
 10
187.2835848036
 20
436.3469212129
 30
0.0
 40
3.0
  0
ARC
  5
198
  8
1
  6
CONTINUOUS
 62
     7
 10
87.2835848036
 20
324.8469212129
 30
0.0
 40
3.0
 50
0.0
 51
180.0
  0
LINE
  5
199
  8
1
  6
CONTINUOUS
 62
     7
 10
34.9335848542
 20
143.6968809513
 30
0.0
 11
34.9335848542
 21
138.9968809513
 31
0.0
  0
LINE
  5
19A
  8
1
  6
DASHED
 62
     7
 10
317.4032183783
 20
416.8469212129
 30
0.0
 11
328.4032183783
 21
416.8469212129
 31
0.0
  0
CIRCLE
  5
19B
  8
1
  6
CONTINUOUS
 62
     7
 10
87.2835848035
 20
335.34687807
 30
0.0
 40
1.65
  0
ARC
  5
19C
  8
1
  6
CONTINUOUS
 62
     7
 10
62.2835848085
 20
111.3469212316
 30
0.0
 40
15.25
 50
270.0
 51
0.000000003699995
  0
LINE
  5
19D
  8
1
  6
DASHED
 62
     7
 10
85.2835848036
 20
-98.5440021196
 30
0.0
 11
85.2835848036
 21
-111.5440021196
 31
0.0
  0
CIRCLE
  5
19E
  8
1
  6
CONTINUOUS
 62
     7
 10
87.2835848035
 20
335.34687807
 30
0.0
 40
2.65
  0
CIRCLE
  5
19F
  8
1
  6
CONTINUOUS
 62
     7
 10
187.2835848036
 20
76.3469212129
 30
0.0
 40
3.0
  0
LINE
  5
1A0
  8
1
  6
CONTINUOUS
 62
     7
 10
142.9335847481
 20
138.9968809513
 30
0.0
 11
142.9335847481
 21
143.6968809513
 31
0.0
  0
CIRCLE
  5
1A1
  8
1
  6
CONTINUOUS
 62
     7
 10
187.2835848036
 20
256.3469212129
 30
0.0
 40
3.0
  0
CIRCLE
  5
1A2
  8
1
  6
CONTINUOUS
 62
     7
 10
-12.7164151964
 20
256.3469212129
 30
0.0
 40
3.0
  0
LINE
  5
1A3
  8
1
  6
CONTINUOUS
 62
     7
 10
93.2835848036
 20
319.8469212129
 30
0.0
 11
93.2835848036
 21
324.8469212129
 31
0.0
  0
LINE
  5
1A4
  8
1
  6
CONTINUOUS
 62
     7
 10
91.9835848036
 20
-95.5440021196
 30
0.0
 11
82.5835848036
 21
-95.5440021196
 31
0.0
  0
LINE
  5
1A5
  8
1
  6
CONTINUOUS
 62
     7
 10
81.2835848036
 20
324.8469212129
 30
0.0
 11
81.2835848036
 21
319.8469212129
 31
0.0
  0
LINE
  5
1A6
  8
1
  6
CONTINUOUS
 62
     7
 10
2.1335804055
 20
204.3968812981
 30
0.0
 11
2.1335804059
 21
219.0968812981
 31
0.0
  0
ARC
  5
1A7
  8
1
  6
CONTINUOUS
 62
     7
 10
141.2835847481
 20
143.6968809513
 30
0.0
 40
1.65
 50
0.0
 51
180.0
  0
LINE
  5
1A8
  8
1
  6
CONTINUOUS
 62
     7
 10
5.4335804055
 20
219.0968812981
 30
0.0
 11
5.4335804055
 21
204.3968812981
 31
0.0
  0
ARC
  5
1A9
  8
1
  6
CONTINUOUS
 62
     7
 10
87.2835848036
 20
319.8469212129
 30
0.0
 40
3.0
 50
179.9999999953
 51
0.0
  0
ARC
  5
1AA
  8
1
  6
CONTINUOUS
 62
     7
 10
62.2835848085
 20
111.3469212316
 30
0.0
 40
15.25
 50
35.37459044719999
 51
90.0
  0
LINE
  5
1AB
  8
1
  6
CONTINUOUS
 62
     7
 10
90.2835848036
 20
324.8469212129
 30
0.0
 11
90.2835848036
 21
319.8469212129
 31
0.0
  0
LINE
  5
1AC
  8
1
  6
CONTINUOUS
 62
     7
 10
77.5335848086
 20
161.3469212129
 30
0.0
 11
77.5335848078
 21
111.346921092
 31
0.0
  0
LINE
  5
1AD
  8
1
  6
CONTINUOUS
 62
     7
 10
76.4544175274
 20
162.8469212316
 30
0.0
 11
77.5007626021
 21
162.3469212316
 31
0.0
  0
LINE
  5
1AE
  8
1
  6
CONTINUOUS
 62
     7
 10
77.5335848082
 20
160.3469212316
 30
0.0
 11
76.4544175314
 21
159.8469212316
 31
0.0
  0
LINE
  5
1AF
  8
1
  6
CONTINUOUS
 62
     7
 10
91.9835848036
 20
-95.5440021196
 30
0.0
 11
91.9835848036
 21
-95.0440021196
 31
0.0
  0
LINE
  5
1B0
  8
1
  6
CONTINUOUS
 62
     7
 10
82.5835848036
 20
-95.0440021196
 30
0.0
 11
82.5835848036
 21
-95.5440021196
 31
0.0
  0
LINE
  5
1B1
  8
1
  6
CONTINUOUS
 62
     7
 10
85.2835848036
 20
-95.5440021196
 30
0.0
 11
85.2835848036
 21
-98.5440021196
 31
0.0
  0
ARC
  5
1B2
  8
1
  6
CONTINUOUS
 62
     7
 10
33.2835848542
 20
143.6968809513
 30
0.0
 40
1.65
 50
0.0
 51
180.0
  0
LINE
  5
1B3
  8
1
  6
CONTINUOUS
 62
     7
 10
169.133589197
 20
219.0968812981
 30
0.0
 11
169.133589197
 21
204.3968812981
 31
0.0
  0
LINE
  5
1B4
  8
1
  6
CONTINUOUS
 62
     7
 10
172.433589197
 20
204.3968812981
 30
0.0
 11
172.4335891965
 21
219.0968812981
 31
0.0
  0
ARC
  5
1B5
  8
1
  6
CONTINUOUS
 62
     7
 10
170.783589197
 20
219.0968812981
 30
0.0
 40
1.65
 50
0.0
 51
180.0
  0
CIRCLE
  5
1B6
  8
1
  6
CONTINUOUS
 62
     7
 10
-12.7164151964
 20
436.3469212129
 30
0.0
 40
3.0
  0
CIRCLE
  5
1B7
  8
1
  6
CONTINUOUS
 62
     7
 10
-12.7164151964
 20
76.3469212129
 30
0.0
 40
3.0
  0
ARC
  5
1B8
  8
1
  6
CONTINUOUS
 62
     7
 10
87.2835848036
 20
-99.5665021196
 30
0.0
 40
6.5225
 50
43.89739816710001
 51
136.1026018329
  0
LINE
  5
1B9
  8
1
  6
DASHED
 62
     7
 10
89.2835848036
 20
-98.5440021196
 30
0.0
 11
89.2835848036
 21
-111.5440021196
 31
0.0
  0
LINE
  5
1BA
  8
1
  6
CONTINUOUS
 62
     7
 10
84.2835848036
 20
319.8469212132
 30
0.0
 11
84.2835848036
 21
324.8469212131
 31
0.0
  0
ARC
  5
1BB
  8
1
  6
CONTINUOUS
 62
     7
 10
3.7835804055
 20
219.0968812981
 30
0.0
 40
1.65
 50
0.0
 51
180.0
  0
ARC
  5
1BC
  8
1
  6
CONTINUOUS
 62
     7
 10
170.783589197
 20
204.3968812981
 30
0.0
 40
1.65
 50
180.0
 51
0.0
  0
ARC
  5
1BD
  8
0
  6
CONTINUOUS
 62
     7
 10
25.63358480359988
 20
224.2394307229499
 30
0.0
 40
1.650000000000151
 50
270.0
 51
90.0
  0
LINE
  5
1BE
  8
1
  6
CONTINUOUS
 62
     7
 10
145.0699630584
 20
124.3692223606
 30
0.0
 11
146.1660937444
 21
125.2677764005
 31
0.0
  0
ARC
  5
1BF
  8
1
  6
CONTINUOUS
 62
     7
 10
139.2835848037
 20
111.3469212317
 30
0.0
 40
14.25
 50
269.9999999868
 51
89.9999999891
  0
LINE
  5
1C0
  8
1
  6
CONTINUOUS
 62
     7
 10
139.2835848034
 20
97.0969211933
 30
0.0
 11
112.2835847835
 21
97.0969211933
 31
0.0
  0
LINE
  5
1C1
  8
1
  6
CONTINUOUS
 62
     7
 10
76.5335848085
 20
120.7543650928
 30
0.0
 11
76.5335848085
 21
151.9394773724
 31
0.0
  0
LINE
  5
1C2
  8
1
  6
CONTINUOUS
 62
     7
 10
61.2835848085
 20
176.5640990252
 30
0.0
 11
60.7835848085
 21
175.5177539337
 31
0.0
  0
LINE
  5
1C3
  8
1
  6
CONTINUOUS
 62
     7
 10
36.7835848078
 20
97.0969211933
 30
0.0
 11
36.2835848085
 21
96.0969212317
 31
0.0
  0
ARC
  5
1C4
  8
1
  6
CONTINUOUS
 62
     7
 10
112.2835848037
 20
111.3469212317
 30
0.0
 40
14.25
 50
90.0
 51
269.9999999186
  0
LINE
  5
1C5
  8
1
  6
CONTINUOUS
 62
     7
 10
77.5007626067
 20
112.3469212317
 30
0.0
 11
76.4544175168
 21
112.8469212317
 31
0.0
  0
LINE
  5
1C6
  8
1
  6
CONTINUOUS
 62
     7
 10
46.9453932274
 20
160.3469212316
 30
0.0
 11
48.1127520859
 21
159.8469212316
 31
0.0
  0
ARC
  5
1C7
  8
1
  6
CONTINUOUS
 62
     7
 10
35.2835848085
 20
111.3469212317
 30
0.0
 40
15.25
 50
125.8179656184
 51
270.0000000109
  0
LINE
  5
1C8
  8
1
  6
CONTINUOUS
 62
     7
 10
154.5007625973
 20
110.3469212259
 30
0.0
 11
153.4544175074
 21
109.8469212259
 31
0.0
  0
ARC
  5
1C9
  8
1
  6
CONTINUOUS
 62
     7
 10
139.2835848037
 20
111.3469212317
 30
0.0
 40
15.25
 50
269.9999999890999
 51
54.18203438159998
  0
ARC
  5
1CA
  8
1
  6
CONTINUOUS
 62
     7
 10
177.4686653727
 20
164.2568647389
 30
0.0
 40
51.0
 50
191.8195657626
 51
224.8294562817
  0
LINE
  5
1CB
  8
1
  6
CONTINUOUS
 62
     7
 10
111.2835847605
 20
96.1297358451
 30
0.0
 11
110.7835847605
 21
97.1760809178
 31
0.0
  0
LINE
  5
1CC
  8
1
  6
CONTINUOUS
 62
     7
 10
97.0664070055
 20
112.3469212317
 30
0.0
 11
98.1127520954
 21
112.8469212317
 31
0.0
  0
LINE
  5
1CD
  8
1
  6
CONTINUOUS
 62
     7
 10
26.8020610125
 20
124.0373513721
 30
0.0
 11
26.8991303999
 21
122.8692222611
 31
0.0
  0
LINE
  5
1CE
  8
1
  6
CONTINUOUS
 62
     7
 10
97.0335848036
 20
161.3469212129
 30
0.0
 11
97.0335848044
 21
111.346921092
 31
0.0
  0
LINE
  5
1CF
  8
1
  6
CONTINUOUS
 62
     7
 10
29.4972065538
 20
124.3692223606
 30
0.0
 11
28.4010758678
 21
125.2677764005
 31
0.0
  0
LINE
  5
1D0
  8
1
  6
CONTINUOUS
 62
     7
 10
63.78358480850001
 20
175.5177539337
 30
0.0
 11
63.2835848085
 21
176.5640990252
 31
0.0
  0
LINE
  5
1D1
  8
1
  6
CONTINUOUS
 62
     7
 10
20.066407015
 20
112.3469212317
 30
0.0
 11
21.1127521049
 21
112.8469212317
 31
0.0
  0
ARC
  5
1D2
  8
1
  6
CONTINUOUS
 62
     7
 10
35.2835848085
 20
111.3469212317
 30
0.0
 40
14.25
 50
90.00000001089998
 51
270.0000000132
  0
ARC
  5
1D3
  8
1
  6
CONTINUOUS
 62
     7
 10
-2.9014957605
 20
164.2568647389
 30
0.0
 40
51.0
 50
315.1705437183
 51
348.1804342374
  0
LINE
  5
1D4
  8
1
  6
CONTINUOUS
 62
     7
 10
35.2835848088
 20
97.0969211933
 30
0.0
 11
62.2835848287
 21
97.0969211933
 31
0.0
  0
ARC
  5
1D5
  8
1
  6
CONTINUOUS
 62
     7
 10
177.4686653727
 20
164.2568647389
 30
0.0
 40
50.0
 50
182.5560582049
 51
234.1820343816
  0
LINE
  5
1D6
  8
1
  6
CONTINUOUS
 62
     7
 10
34.2835848085
 20
96.1297434382
 30
0.0
 11
33.7835848085
 21
97.1760885109
 31
0.0
  0
LINE
  5
1D7
  8
1
  6
CONTINUOUS
 62
     7
 10
126.4544175224
 20
162.8469212316
 30
0.0
 11
127.5007625973
 21
162.3469212316
 31
0.0
  0
LINE
  5
1D8
  8
1
  6
CONTINUOUS
 62
     7
 10
127.6217763848
 20
160.3469212316
 30
0.0
 11
126.4544175263
 21
159.8469212316
 31
0.0
  0
LINE
  5
1D9
  8
1
  6
CONTINUOUS
 62
     7
 10
140.2835848037
 20
96.1297434382
 30
0.0
 11
140.7835848037
 21
97.1760885109
 31
0.0
  0
LINE
  5
1DA
  8
1
  6
CONTINUOUS
 62
     7
 10
20.066407015
 20
110.3469212259
 30
0.0
 11
21.1127521049
 21
109.8469212259
 31
0.0
  0
ARC
  5
1DB
  8
1
  6
CONTINUOUS
 62
     7
 10
62.2835848085
 20
161.3469212316
 30
0.0
 40
15.25
 50
0.0000000008
 51
177.4439417951
  0
LINE
  5
1DC
  8
1
  6
CONTINUOUS
 62
     7
 10
97.033584804
 20
160.3469212316
 30
0.0
 11
98.1127520808
 21
159.8469212316
 31
0.0
  0
ARC
  5
1DD
  8
1
  6
CONTINUOUS
 62
     7
 10
112.2835848037
 20
111.3469212316
 30
0.0
 40
15.25
 50
179.9999999963
 51
270.0
  0
LINE
  5
1DE
  8
1
  6
CONTINUOUS
 62
     7
 10
137.7835848044
 20
97.0969211933
 30
0.0
 11
138.2835848037
 21
96.0969212317
 31
0.0
  0
CIRCLE
  5
1DF
  8
1
  6
CONTINUOUS
 62
     7
 10
112.2835848036
 20
161.3469212129
 30
0.0
 40
14.25
  0
LINE
  5
1E0
  8
1
  6
CONTINUOUS
 62
     7
 10
113.7835847598
 20
97.0969136002
 30
0.0
 11
113.2835847605
 21
96.0969136386
 31
0.0
  0
ARC
  5
1E1
  8
1
  6
CONTINUOUS
 62
     7
 10
62.2835848085
 20
111.3469212317
 30
0.0
 40
14.25
 50
270.0000000814
 51
90.0
  0
LINE
  5
1E2
  8
1
  6
CONTINUOUS
 62
     7
 10
60.7835848524
 20
97.0969136002
 30
0.0
 11
61.2835848517
 21
96.0969136386
 31
0.0
  0
LINE
  5
1E3
  8
1
  6
CONTINUOUS
 62
     7
 10
112.2835848036
 20
96.0969212323
 30
0.0
 11
139.2835848014
 21
96.0969211618
 31
0.0
  0
ARC
  5
1E4
  8
1
  6
CONTINUOUS
 62
     7
 10
112.2835848037
 20
161.3469212316
 30
0.0
 40
15.25
 50
215.3745904424
 51
331.5505291079
  0
ARC
  5
1E5
  8
1
  6
CONTINUOUS
 62
     7
 10
112.2835848037
 20
161.3469212316
 30
0.0
 40
15.25
 50
2.5560582049
 51
179.9999999992
  0
LINE
  5
1E6
  8
1
  6
CONTINUOUS
 62
     7
 10
139.2835848034
 20
125.59692127
 30
0.0
 11
112.2835847835
 21
125.59692127
 31
0.0
  0
LINE
  5
1E7
  8
1
  6
CONTINUOUS
 62
     7
 10
62.2835848087
 20
96.0969212323
 30
0.0
 11
35.2835848109
 21
96.0969211618
 31
0.0
  0
ARC
  5
1E8
  8
1
  6
CONTINUOUS
 62
     7
 10
112.2835848037
 20
111.3469212316
 30
0.0
 40
15.25
 50
90.0
 51
144.6254095532
  0
LINE
  5
1E9
  8
1
  6
CONTINUOUS
 62
     7
 10
110.7835848037
 20
175.5177539337
 30
0.0
 11
111.2835848037
 21
176.5640990252
 31
0.0
  0
LINE
  5
1EA
  8
1
  6
CONTINUOUS
 62
     7
 10
63.28358485170001
 20
96.1297358451
 30
0.0
 11
63.78358485170001
 21
97.1760809178
 31
0.0
  0
ARC
  5
1EB
  8
1
  6
CONTINUOUS
 62
     7
 10
-2.9014957605
 20
164.2568647389
 30
0.0
 40
50.0
 50
305.8179656184001
 51
357.4439417951
  0
LINE
  5
1EC
  8
1
  6
CONTINUOUS
 62
     7
 10
154.5007625973
 20
112.3469212317
 30
0.0
 11
153.4544175074
 21
112.8469212317
 31
0.0
  0
LINE
  5
1ED
  8
1
  6
CONTINUOUS
 62
     7
 10
33.9773402033
 20
126.5969212316
 30
0.0
 11
62.2835848085
 21
126.5969212316
 31
0.0
  0
LINE
  5
1EE
  8
1
  6
CONTINUOUS
 62
     7
 10
98.1127520848
 20
162.8469212316
 30
0.0
 11
97.0664070102
 21
162.3469212316
 31
0.0
  0
LINE
  5
1EF
  8
1
  6
CONTINUOUS
 62
     7
 10
147.7651085998
 20
124.0373513721
 30
0.0
 11
147.6680392123
 21
122.8692222611
 31
0.0
  0
LINE
  5
1F0
  8
1
  6
CONTINUOUS
 62
     7
 10
35.2835848088
 20
125.59692127
 30
0.0
 11
62.2835848287
 21
125.59692127
 31
0.0
  0
LINE
  5
1F1
  8
1
  6
CONTINUOUS
 62
     7
 10
113.2835848037
 20
176.5640990252
 30
0.0
 11
113.7835848037
 21
175.5177539337
 31
0.0
  0
LINE
  5
1F2
  8
1
  6
CONTINUOUS
 62
     7
 10
48.1127520899
 20
162.8469212316
 30
0.0
 11
47.0664070149
 21
162.3469212316
 31
0.0
  0
CIRCLE
  5
1F3
  8
1
  6
CONTINUOUS
 62
     7
 10
62.2835848087
 20
161.3469212129
 30
0.0
 40
14.25
  0
LINE
  5
1F4
  8
1
  6
CONTINUOUS
 62
     7
 10
140.5898294089
 20
126.5969212316
 30
0.0
 11
112.2835848037
 21
126.5969212316
 31
0.0
  0
ARC
  5
1F5
  8
1
  6
CONTINUOUS
 62
     7
 10
62.2835848085
 20
161.3469212316
 30
0.0
 40
15.25
 50
208.4494708921
 51
324.6254095589
  0
LINE
  5
1F6
  8
1
  6
CONTINUOUS
 62
     7
 10
97.0664070055
 20
110.3469212259
 30
0.0
 11
98.1127520954
 21
109.8469212259
 31
0.0
  0
LINE
  5
1F7
  8
1
  6
CONTINUOUS
 62
     7
 10
140.2883607666
 20
129.3480556875
 30
0.0
 11
140.6967957302
 21
130.3772306944
 31
0.0
  0
LINE
  5
1F8
  8
1
  6
CONTINUOUS
 62
     7
 10
98.0335848037
 20
120.7543650927
 30
0.0
 11
98.0335848037
 21
151.9394773721
 31
0.0
  0
LINE
  5
1F9
  8
1
  6
CONTINUOUS
 62
     7
 10
138.3001155638
 20
131.5945821203
 30
0.0
 11
139.3712989283
 21
131.874914983
 31
0.0
  0
LINE
  5
1FA
  8
1
  6
CONTINUOUS
 62
     7
 10
76.5335848085
 20
125.8469212022
 30
0.0
 11
77.5335848023
 21
125.3469212022
 31
0.0
  0
LINE
  5
1FB
  8
1
  6
CONTINUOUS
 62
     7
 10
98.0335848039
 20
122.8469212022
 30
0.0
 11
97.03358481
 21
123.3469212022
 31
0.0
  0
LINE
  5
1FC
  8
1
  6
CONTINUOUS
 62
     7
 10
98.0335848039
 20
147.8469212022
 30
0.0
 11
97.03358481
 21
148.3469212022
 31
0.0
  0
LINE
  5
1FD
  8
1
  6
CONTINUOUS
 62
     7
 10
76.5335848085
 20
122.8469212022
 30
0.0
 11
77.5335848023
 21
123.3469212022
 31
0.0
  0
LINE
  5
1FE
  8
1
  6
CONTINUOUS
 62
     7
 10
34.2788088457
 20
129.3480556875
 30
0.0
 11
33.8703738821
 21
130.3772306944
 31
0.0
  0
ARC
  5
1FF
  8
1
  6
CONTINUOUS
 62
     7
 10
75.5335848089
 20
151.9394773724
 30
0.0
 40
1.0
 50
0.0
 51
144.6254095589
  0
ARC
  5
200
  8
1
  6
CONTINUOUS
 62
     7
 10
140.5898294089
 20
127.5969212316
 30
0.0
 40
1.0
 50
270.0
 51
44.8294562817
  0
ARC
  5
201
  8
1
  6
CONTINUOUS
 62
     7
 10
47.9959741849
 20
153.6056885993
 30
0.0
 40
1.0
 50
28.44947089209999
 51
168.1804342374
  0
ARC
  5
202
  8
1
  6
CONTINUOUS
 62
     7
 10
126.5711954273
 20
153.6056885993
 30
0.0
 40
1.0
 50
11.8195657626
 51
151.5505291079
  0
LINE
  5
203
  8
1
  6
CONTINUOUS
 62
     7
 10
76.5335848085
 20
150.8469212022
 30
0.0
 11
77.5335848023
 21
150.3469212022
 31
0.0
  0
LINE
  5
204
  8
1
  6
CONTINUOUS
 62
     7
 10
127.8320013225
 20
152.5435568393
 30
0.0
 11
128.915538971
 21
152.3155952666
 31
0.0
  0
ARC
  5
205
  8
1
  6
CONTINUOUS
 62
     7
 10
33.9773402033
 20
127.5969212316
 30
0.0
 40
1.0
 50
135.1705437183
 51
270.0
  0
ARC
  5
206
  8
1
  6
CONTINUOUS
 62
     7
 10
99.0335848036
 20
151.9394773721
 30
0.0
 40
1.0
 50
35.3745904424
 51
180.0000000008
  0
LINE
  5
207
  8
1
  6
CONTINUOUS
 62
     7
 10
98.0335848039
 20
150.8469212022
 30
0.0
 11
97.03358481
 21
150.3469212022
 31
0.0
  0
LINE
  5
208
  8
1
  6
CONTINUOUS
 62
     7
 10
36.2670540486
 20
131.5945821203
 30
0.0
 11
35.195870684
 21
131.874914983
 31
0.0
  0
LINE
  5
209
  8
1
  6
CONTINUOUS
 62
     7
 10
76.5335848085
 20
147.8469212022
 30
0.0
 11
77.5335848023
 21
148.3469212022
 31
0.0
  0
ARC
  5
20A
  8
1
  6
CONTINUOUS
 62
     7
 10
99.0335848036
 20
120.7543650927
 30
0.0
 40
1.0
 50
180.0000000008
 51
324.6254095532
  0
LINE
  5
20B
  8
1
  6
CONTINUOUS
 62
     7
 10
45.9707851165
 20
149.5956967199
 30
0.0
 11
45.1345487078
 21
150.3214576882
 31
0.0
  0
ARC
  5
20C
  8
1
  6
CONTINUOUS
 62
     7
 10
75.5335848085
 20
120.7543650928
 30
0.0
 40
1.0
 50
215.3745904472
 51
0.0
  0
LINE
  5
20D
  8
1
  6
CONTINUOUS
 62
     7
 10
98.0335848039
 20
125.8469212022
 30
0.0
 11
97.03358481
 21
125.3469212022
 31
0.0
  0
LINE
  5
20E
  8
1
  6
CONTINUOUS
 62
     7
 10
128.5963844958
 20
149.5956967199
 30
0.0
 11
129.4326209045
 21
150.3214576882
 31
0.0
  0
LINE
  5
20F
  8
1
  6
CONTINUOUS
 62
     7
 10
46.7351682899
 20
152.5435568393
 30
0.0
 11
45.6516306413
 21
152.3155952666
 31
0.0
  0
ARC
  5
210
  8
0
  6
CONTINUOUS
 62
     7
 10
155.9046885512999
 20
221.88943071575
 30
0.0
 40
4.000000000000004
 50
327.5876902022
 51
90.00000000390004
  0
ARC
  5
211
  8
0
  6
CONTINUOUS
 62
     7
 10
156.2685797951998
 20
222.0894307229499
 30
0.0
 40
0.500000000000167
 50
327.5876902021
 51
90.0
  0
LINE
  5
212
  8
0
  6
CONTINUOUS
 62
     7
 10
148.9335848035999
 20
222.5894307229499
 30
0.0
 11
156.2685797951998
 21
222.5894307229499
 31
0.0
  0
LINE
  5
213
  8
0
  6
CONTINUOUS
 62
     7
 10
148.9335848035999
 20
225.88943072255
 30
0.0
 11
155.9046885510998
 21
225.88943072255
 31
0.0
  0
ARC
  5
214
  8
0
  6
CONTINUOUS
 62
     7
 10
156.7835848034998
 20
218.8394307432499
 30
0.0
 40
1.650000000000151
 50
147.5876902015
 51
327.5876902012001
  0
LINE
  5
215
  8
0
  6
CONTINUOUS
 62
     7
 10
19.17653589969991
 20
219.7238442257499
 30
0.0
 11
17.87648341919991
 21
221.8214266312499
 31
0.0
  0
LINE
  5
216
  8
0
  6
CONTINUOUS
 62
     7
 10
148.9335848035999
 20
234.3894307229499
 30
0.0
 11
155.6335848035998
 21
234.3894307229499
 31
0.0
  0
LINE
  5
217
  8
0
  6
CONTINUOUS
 62
     7
 10
155.3906337074998
 20
219.72384424605
 30
0.0
 11
156.6906861878998
 21
221.8214266312499
 31
0.0
  0
LINE
  5
218
  8
0
  6
CONTINUOUS
 62
     7
 10
159.2815396933998
 20
219.74539798175
 30
0.0
 11
158.1765358995999
 21
217.95501724045
 31
0.0
  0
LINE
  5
219
  8
0
  6
CONTINUOUS
 62
     7
 10
148.9335848035999
 20
231.0894307229499
 30
0.0
 11
155.6335848035998
 21
231.0894307229499
 31
0.0
  0
ARC
  5
21A
  8
0
  6
CONTINUOUS
 62
     7
 10
17.78358480359997
 20
218.83943072295
 30
0.0
 40
1.649999999999929
 50
212.4123097988
 51
32.41230979850002
  0
ARC
  5
21B
  8
0
  6
CONTINUOUS
 62
     7
 10
18.66248105579992
 20
221.88943071575
 30
0.0
 40
4.000000000000004
 50
89.9999999961
 51
212.4123097978
  0
ARC
  5
21C
  8
0
  6
CONTINUOUS
 62
     7
 10
148.9335848035999
 20
232.73943072295
 30
0.0
 40
1.650000000000151
 50
90.0
 51
270.0
  0
LINE
  5
21D
  8
0
  6
CONTINUOUS
 62
     7
 10
25.63358480359988
 20
231.0894307229499
 30
0.0
 11
18.93358480349988
 21
231.0894307229499
 31
0.0
  0
ARC
  5
21E
  8
0
  6
CONTINUOUS
 62
     7
 10
148.9335848035999
 20
224.2394307229499
 30
0.0
 40
1.650000000000151
 50
90.0
 51
270.0
  0
LINE
  5
21F
  8
0
  6
CONTINUOUS
 62
     7
 10
15.28562991379988
 20
219.74539798175
 30
0.0
 11
16.39063370749988
 21
217.95501722015
 31
0.0
  0
ARC
  5
220
  8
0
  6
CONTINUOUS
 62
     7
 10
155.6335848035998
 20
232.73943072295
 30
0.0
 40
1.650000000000151
 50
270.0
 51
90.0
  0
ARC
  5
221
  8
0
  6
CONTINUOUS
 62
     7
 10
18.29858981199993
 20
222.0894307229499
 30
0.0
 40
0.4999999999999449
 50
90.0
 51
212.4123097978
  0
LINE
  5
222
  8
0
  6
CONTINUOUS
 62
     7
 10
25.63358480359988
 20
225.88943072255
 30
0.0
 11
18.66248105599988
 21
225.88943072255
 31
0.0
  0
LINE
  5
223
  8
0
  6
CONTINUOUS
 62
     7
 10
25.63358480359988
 20
222.5894307229499
 30
0.0
 11
18.29858981199988
 21
222.5894307229499
 31
0.0
  0
ARC
  5
224
  8
0
  6
CONTINUOUS
 62
     7
 10
25.63358480359988
 20
232.73943072295
 30
0.0
 40
1.650000000000151
 50
270.0
 51
90.0
  0
ENDSEC
  0
EOF
