  0
SECTION
  2
HEADER
  9
$ACADVER
  1
AC1027
  9
$ACADMAINTVER
 70
   105
  9
$DWGCODEPAGE
  3
ANSI_932
  9
$REQUIREDVERSIONS
160
                 0
  9
$INSBASE
 10
0.0
 20
0.0
 30
0.0
  9
$EXTMIN
 10
-43.0536698671
 20
59.7717531964
 30
0.0
  9
$EXTMAX
 10
150.4463301329
 20
248.2717531964
 30
0.0
  9
$LIMMIN
 10
0.0
 20
0.0
  9
$LIMMAX
 10
12.0
 20
9.0
  9
$ORTHOMODE
 70
     0
  9
$REGENMODE
 70
     1
  9
$FILLMODE
 70
     1
  9
$QTEXTMODE
 70
     0
  9
$MIRRTEXT
 70
     1
  9
$LTSCALE
 40
1.0
  9
$ATTMODE
 70
     1
  9
$TEXTSIZE
 40
0.2
  9
$TRACEWID
 40
0.05
  9
$TEXTSTYLE
  7
Standard
  9
$CLAYER
  8
0
  9
$CELTYPE
  6
ByLayer
  9
$CECOLOR
 62
   256
  9
$CELTSCALE
 40
1.0
  9
$DISPSILH
 70
     0
  9
$DIMSCALE
 40
1.0
  9
$DIMASZ
 40
0.9
  9
$DIMEXO
 40
0.0625
  9
$DIMDLI
 40
0.38
  9
$DIMRND
 40
0.0
  9
$DIMDLE
 40
0.0
  9
$DIMEXE
 40
0.45
  9
$DIMTP
 40
0.0
  9
$DIMTM
 40
0.0
  9
$DIMTXT
 40
3.0
  9
$DIMCEN
 40
0.09
  9
$DIMTSZ
 40
0.0
  9
$DIMTOL
 70
     0
  9
$DIMLIM
 70
     0
  9
$DIMTIH
 70
     1
  9
$DIMTOH
 70
     1
  9
$DIMSE1
 70
     0
  9
$DIMSE2
 70
     0
  9
$DIMTAD
 70
     1
  9
$DIMZIN
 70
     0
  9
$DIMBLK
  1

  9
$DIMASO
 70
     1
  9
$DIMSHO
 70
     1
  9
$DIMPOST
  1

  9
$DIMAPOST
  1

  9
$DIMALT
 70
     0
  9
$DIMALTD
 70
     2
  9
$DIMALTF
 40
25.4
  9
$DIMLFAC
 40
1.0
  9
$DIMTOFL
 70
     0
  9
$DIMTVP
 40
0.0
  9
$DIMTIX
 70
     0
  9
$DIMSOXD
 70
     0
  9
$DIMSAH
 70
     0
  9
$DIMBLK1
  1

  9
$DIMBLK2
  1

  9
$DIMSTYLE
  2
Standard
  9
$DIMCLRD
 70
     0
  9
$DIMCLRE
 70
     0
  9
$DIMCLRT
 70
     0
  9
$DIMTFAC
 40
1.0
  9
$DIMGAP
 40
1.5
  9
$DIMJUST
 70
     0
  9
$DIMSD1
 70
     0
  9
$DIMSD2
 70
     0
  9
$DIMTOLJ
 70
     1
  9
$DIMTZIN
 70
     0
  9
$DIMALTZ
 70
     0
  9
$DIMALTTZ
 70
     0
  9
$DIMUPT
 70
     0
  9
$DIMDEC
 70
     2
  9
$DIMTDEC
 70
     4
  9
$DIMALTU
 70
     2
  9
$DIMALTTD
 70
     2
  9
$DIMTXSTY
  7
ＭＳ ゴシック
  9
$DIMAUNIT
 70
     0
  9
$DIMADEC
 70
     2
  9
$DIMALTRND
 40
0.0
  9
$DIMAZIN
 70
     0
  9
$DIMDSEP
 70
    46
  9
$DIMATFIT
 70
     3
  9
$DIMFRAC
 70
     0
  9
$DIMLDRBLK
  1

  9
$DIMLUNIT
 70
     2
  9
$DIMLWD
 70
    -2
  9
$DIMLWE
 70
    -2
  9
$DIMTMOVE
 70
     0
  9
$DIMFXL
 40
1.0
  9
$DIMFXLON
 70
     0
  9
$DIMJOGANG
 40
0.7853981633974483
  9
$DIMTFILL
 70
     0
  9
$DIMTFILLCLR
 70
     0
  9
$DIMARCSYM
 70
     0
  9
$DIMLTYPE
  6

  9
$DIMLTEX1
  6

  9
$DIMLTEX2
  6

  9
$DIMTXTDIRECTION
 70
     0
  9
$LUNITS
 70
     2
  9
$LUPREC
 70
     4
  9
$SKETCHINC
 40
0.1
  9
$FILLETRAD
 40
0.5
  9
$AUNITS
 70
     0
  9
$AUPREC
 70
     0
  9
$MENU
  1
.
  9
$ELEVATION
 40
0.0
  9
$PELEVATION
 40
0.0
  9
$THICKNESS
 40
0.0
  9
$LIMCHECK
 70
     0
  9
$CHAMFERA
 40
0.0
  9
$CHAMFERB
 40
0.0
  9
$CHAMFERC
 40
0.0
  9
$CHAMFERD
 40
0.0
  9
$SKPOLY
 70
     0
  9
$TDCREATE
 40
2460378.476252257
  9
$TDUCREATE
 40
2460378.101252257
  9
$TDUPDATE
 40
2460378.476252442
  9
$TDUUPDATE
 40
2460378.101252442
  9
$TDINDWG
 40
0.0000000116
  9
$TDUSRTIMER
 40
0.0000000116
  9
$USRTIMER
 70
     1
  9
$ANGBASE
 50
0.0
  9
$ANGDIR
 70
     0
  9
$PDMODE
 70
     0
  9
$PDSIZE
 40
0.0
  9
$PLINEWID
 40
0.0
  9
$SPLFRAME
 70
     0
  9
$SPLINETYPE
 70
     6
  9
$SPLINESEGS
 70
     8
  9
$HANDSEED
  5
3AA
  9
$SURFTAB1
 70
     6
  9
$SURFTAB2
 70
     6
  9
$SURFTYPE
 70
     6
  9
$SURFU
 70
     6
  9
$SURFV
 70
     6
  9
$UCSBASE
  2

  9
$UCSNAME
  2

  9
$UCSORG
 10
0.0
 20
0.0
 30
0.0
  9
$UCSXDIR
 10
1.0
 20
0.0
 30
0.0
  9
$UCSYDIR
 10
0.0
 20
1.0
 30
0.0
  9
$UCSORTHOREF
  2

  9
$UCSORTHOVIEW
 70
     0
  9
$UCSORGTOP
 10
0.0
 20
0.0
 30
0.0
  9
$UCSORGBOTTOM
 10
0.0
 20
0.0
 30
0.0
  9
$UCSORGLEFT
 10
0.0
 20
0.0
 30
0.0
  9
$UCSORGRIGHT
 10
0.0
 20
0.0
 30
0.0
  9
$UCSORGFRONT
 10
0.0
 20
0.0
 30
0.0
  9
$UCSORGBACK
 10
0.0
 20
0.0
 30
0.0
  9
$PUCSBASE
  2

  9
$PUCSNAME
  2

  9
$PUCSORG
 10
0.0
 20
0.0
 30
0.0
  9
$PUCSXDIR
 10
1.0
 20
0.0
 30
0.0
  9
$PUCSYDIR
 10
0.0
 20
1.0
 30
0.0
  9
$PUCSORTHOREF
  2

  9
$PUCSORTHOVIEW
 70
     0
  9
$PUCSORGTOP
 10
0.0
 20
0.0
 30
0.0
  9
$PUCSORGBOTTOM
 10
0.0
 20
0.0
 30
0.0
  9
$PUCSORGLEFT
 10
0.0
 20
0.0
 30
0.0
  9
$PUCSORGRIGHT
 10
0.0
 20
0.0
 30
0.0
  9
$PUCSORGFRONT
 10
0.0
 20
0.0
 30
0.0
  9
$PUCSORGBACK
 10
0.0
 20
0.0
 30
0.0
  9
$USERI1
 70
     0
  9
$USERI2
 70
     0
  9
$USERI3
 70
     0
  9
$USERI4
 70
     0
  9
$USERI5
 70
     0
  9
$USERR1
 40
0.0
  9
$USERR2
 40
0.0
  9
$USERR3
 40
0.0
  9
$USERR4
 40
0.0
  9
$USERR5
 40
0.0
  9
$WORLDVIEW
 70
     1
  9
$SHADEDGE
 70
     3
  9
$SHADEDIF
 70
    70
  9
$TILEMODE
 70
     1
  9
$MAXACTVP
 70
    64
  9
$PINSBASE
 10
0.0
 20
0.0
 30
0.0
  9
$PLIMCHECK
 70
     0
  9
$PEXTMIN
 10
1.000000000000000E+20
 20
1.000000000000000E+20
 30
1.000000000000000E+20
  9
$PEXTMAX
 10
-1.000000000000000E+20
 20
-1.000000000000000E+20
 30
-1.000000000000000E+20
  9
$PLIMMIN
 10
0.0
 20
0.0
  9
$PLIMMAX
 10
12.0
 20
9.0
  9
$UNITMODE
 70
     0
  9
$VISRETAIN
 70
     1
  9
$PLINEGEN
 70
     0
  9
$PSLTSCALE
 70
     1
  9
$TREEDEPTH
 70
  3020
  9
$CMLSTYLE
  2
Standard
  9
$CMLJUST
 70
     0
  9
$CMLSCALE
 40
1.0
  9
$PROXYGRAPHICS
 70
     1
  9
$MEASUREMENT
 70
     1
  9
$CELWEIGHT
370
    -1
  9
$ENDCAPS
280
     0
  9
$JOINSTYLE
280
     0
  9
$LWDISPLAY
290
     1
  9
$INSUNITS
 70
     4
  9
$HYPERLINKBASE
  1

  9
$STYLESHEET
  1

  9
$XEDIT
290
     1
  9
$CEPSNTYPE
380
     0
  9
$PSTYLEMODE
290
     1
  9
$FINGERPRINTGUID
  2
{A0AB6B28-080A-4915-957F-784630DB5DCF}
  9
$VERSIONGUID
  2
{FAEB1C32-E019-11D5-929B-00C0DF256EC4}
  9
$EXTNAMES
290
     1
  9
$PSVPSCALE
 40
0.0
  9
$OLESTARTUP
290
     0
  9
$SORTENTS
280
   127
  9
$INDEXCTL
280
     0
  9
$HIDETEXT
280
     1
  9
$XCLIPFRAME
280
     2
  9
$HALOGAP
280
     0
  9
$OBSCOLOR
 70
   257
  9
$OBSLTYPE
280
     0
  9
$INTERSECTIONDISPLAY
280
     0
  9
$INTERSECTIONCOLOR
 70
   257
  9
$DIMASSOC
280
     2
  9
$PROJECTNAME
  1

  9
$CAMERADISPLAY
290
     0
  9
$LENSLENGTH
 40
50.0
  9
$CAMERAHEIGHT
 40
0.0
  9
$STEPSPERSEC
 40
2.0
  9
$STEPSIZE
 40
6.0
  9
$3DDWFPREC
 40
2.0
  9
$PSOLWIDTH
 40
0.25
  9
$PSOLHEIGHT
 40
4.0
  9
$LOFTANG1
 40
1.570796326794897
  9
$LOFTANG2
 40
1.570796326794897
  9
$LOFTMAG1
 40
0.0
  9
$LOFTMAG2
 40
0.0
  9
$LOFTPARAM
 70
     7
  9
$LOFTNORMALS
280
     1
  9
$LATITUDE
 40
37.795
  9
$LONGITUDE
 40
-122.394
  9
$NORTHDIRECTION
 40
0.0
  9
$TIMEZONE
 70
 -8000
  9
$LIGHTGLYPHDISPLAY
280
     1
  9
$TILEMODELIGHTSYNCH
280
     1
  9
$CMATERIAL
347
44
  9
$SOLIDHIST
280
     0
  9
$SHOWHIST
280
     1
  9
$DWFFRAME
280
     2
  9
$DGNFRAME
280
     2
  9
$REALWORLDSCALE
290
     1
  9
$INTERFERECOLOR
 62
   256
  9
$CSHADOW
280
     0
  9
$SHADOWPLANELOCATION
 40
0.0
  0
ENDSEC
  0
SECTION
  2
CLASSES
  0
CLASS
  1
ACDBDICTIONARYWDFLT
  2
AcDbDictionaryWithDefault
  3
ObjectDBX Classes
 90
        0
 91
        3
280
     0
281
     0
  0
CLASS
  1
VISUALSTYLE
  2
AcDbVisualStyle
  3
ObjectDBX Classes
 90
     4095
 91
        3
280
     0
281
     0
  0
CLASS
  1
MATERIAL
  2
AcDbMaterial
  3
ObjectDBX Classes
 90
     1153
 91
        3
280
     0
281
     0
  0
CLASS
  1
SCALE
  2
AcDbScale
  3
ObjectDBX Classes
 90
     1153
 91
        3
280
     0
281
     0
  0
CLASS
  1
TABLESTYLE
  2
AcDbTableStyle
  3
ObjectDBX Classes
 90
     4095
 91
        3
280
     0
281
     0
  0
CLASS
  1
MLEADERSTYLE
  2
AcDbMLeaderStyle
  3
ACDB_MLEADERSTYLE_CLASS
 90
     4095
 91
        3
280
     0
281
     0
  0
CLASS
  1
SUN
  2
AcDbSun
  3
SCENEOE
 90
     1153
 91
        3
280
     0
281
     0
  0
CLASS
  1
DICTIONARYVAR
  2
AcDbDictionaryVar
  3
ObjectDBX Classes
 90
        0
 91
        3
280
     0
281
     0
  0
CLASS
  1
CELLSTYLEMAP
  2
AcDbCellStyleMap
  3
ObjectDBX Classes
 90
     1152
 91
        3
280
     0
281
     0
  0
ENDSEC
  0
SECTION
  2
TABLES
  0
TABLE
  2
VPORT
  5
8
330
0
100
AcDbSymbolTable
 70
     1
  0
VPORT
  5
29
330
8
100
AcDbSymbolTableRecord
100
AcDbViewportTableRecord
  2
*Active
 70
     0
 10
0.0
 20
0.0
 11
1.0
 21
1.0
 12
53.69633013289999
 22
154.0217531964
 13
0.0
 23
0.0
 14
0.5
 24
0.5
 15
0.5
 25
0.5
 16
0.0
 26
0.0
 36
1.0
 17
0.0
 27
0.0
 37
0.0
 40
188.5
 41
1.6
 42
50.0
 43
0.0
 44
0.0
 50
0.0
 51
0.0
 71
     0
 72
   100
 73
     1
 74
     3
 75
     0
 76
     0
 77
     0
 78
     0
281
     0
 65
     1
110
0.0
120
0.0
130
0.0
111
1.0
121
0.0
131
0.0
112
0.0
122
1.0
132
0.0
 79
     0
146
0.0
348
2F
 60
     3
 61
     5
292
     1
282
     1
141
0.0
142
0.0
 63
   250
361
6D
  0
ENDTAB
  0
TABLE
  2
LTYPE
  5
5
330
0
100
AcDbSymbolTable
 70
     2
  0
LTYPE
  5
14
330
5
100
AcDbSymbolTableRecord
100
AcDbLinetypeTableRecord
  2
ByBlock
 70
     0
  3

 72
    65
 73
     0
 40
0.0
  0
LTYPE
  5
15
330
5
100
AcDbSymbolTableRecord
100
AcDbLinetypeTableRecord
  2
ByLayer
 70
     0
  3

 72
    65
 73
     0
 40
0.0
  0
LTYPE
  5
16
330
5
100
AcDbSymbolTableRecord
100
AcDbLinetypeTableRecord
  2
Continuous
 70
     0
  3
Solid line
 72
    65
 73
     0
 40
0.0
  0
LTYPE
  5
7A
330
5
100
AcDbSymbolTableRecord
100
AcDbLinetypeTableRecord
  2
CENTER
 70
     0
  3

 72
    65
 73
     0
 40
0.0
  0
ENDTAB
  0
TABLE
  2
LAYER
  5
2
330
0
100
AcDbSymbolTable
 70
     2
  0
LAYER
  5
10
330
2
100
AcDbSymbolTableRecord
100
AcDbLayerTableRecord
  2
0
 70
     0
 62
     7
  6
Continuous
370
    -3
390
F
347
46
348
0
  0
LAYER
  5
6E
330
2
100
AcDbSymbolTableRecord
100
AcDbLayerTableRecord
  2
1
 70
     0
 62
     7
  6
Continuous
370
    -3
390
F
347
46
348
0
  0
ENDTAB
  0
TABLE
  2
STYLE
  5
3
330
0
100
AcDbSymbolTable
 70
     2
  0
STYLE
  5
11
330
3
100
AcDbSymbolTableRecord
100
AcDbTextStyleTableRecord
  2
Standard
 70
     0
 40
0.0
 41
1.0
 50
0.0
 71
     0
 42
0.2
  3
txt
  4

  0
STYLE
  5
6F
330
3
100
AcDbSymbolTableRecord
100
AcDbTextStyleTableRecord
  2
ＭＳ ゴシック
 70
     0
 40
0.0
 41
1.0
 50
0.0
 71
     0
 42
0.2
  3
ＭＳ ゴシック.shx
  4

  0
ENDTAB
  0
TABLE
  2
VIEW
  5
6
330
0
100
AcDbSymbolTable
 70
     0
  0
ENDTAB
  0
TABLE
  2
UCS
  5
7
330
0
100
AcDbSymbolTable
 70
     0
  0
ENDTAB
  0
TABLE
  2
APPID
  5
9
330
0
100
AcDbSymbolTable
 70
     1
  0
APPID
  5
12
330
9
100
AcDbSymbolTableRecord
100
AcDbRegAppTableRecord
  2
ACAD
 70
     0
  0
ENDTAB
  0
TABLE
  2
DIMSTYLE
  5
A
330
0
100
AcDbSymbolTable
 70
     1
100
AcDbDimStyleTable
  0
DIMSTYLE
105
27
330
A
100
AcDbSymbolTableRecord
100
AcDbDimStyleTableRecord
  2
Standard
 70
     0
178
     0
340
11
  0
ENDTAB
  0
TABLE
  2
BLOCK_RECORD
  5
1
330
0
100
AcDbSymbolTable
 70
     1
  0
BLOCK_RECORD
  5
1F
330
1
100
AcDbSymbolTableRecord
100
AcDbBlockTableRecord
  2
*Model_Space
340
22
 70
     0
280
     1
281
     0
  0
BLOCK_RECORD
  5
1B
330
1
100
AcDbSymbolTableRecord
100
AcDbBlockTableRecord
  2
*Paper_Space
340
1E
 70
     0
280
     1
281
     0
  0
BLOCK_RECORD
  5
23
330
1
100
AcDbSymbolTableRecord
100
AcDbBlockTableRecord
  2
*Paper_Space0
340
26
 70
     0
280
     1
281
     0
  0
ENDTAB
  0
ENDSEC
  0
SECTION
  2
BLOCKS
  0
BLOCK
  5
20
330
1F
100
AcDbEntity
  8
0
100
AcDbBlockBegin
  2
*Model_Space
 70
     0
 10
0.0
 20
0.0
 30
0.0
  3
*Model_Space
  1

  0
ENDBLK
  5
21
330
1F
100
AcDbEntity
  8
0
100
AcDbBlockEnd
  0
BLOCK
  5
1C
330
1B
100
AcDbEntity
 67
     1
  8
0
100
AcDbBlockBegin
  2
*Paper_Space
 70
     0
 10
0.0
 20
0.0
 30
0.0
  3
*Paper_Space
  1

  0
ENDBLK
  5
1D
330
1B
100
AcDbEntity
 67
     1
  8
0
100
AcDbBlockEnd
  0
BLOCK
  5
24
330
23
100
AcDbEntity
  8
0
100
AcDbBlockBegin
  2
*Paper_Space0
 70
     0
 10
0.0
 20
0.0
 30
0.0
  3
*Paper_Space0
  1

  0
ENDBLK
  5
25
330
23
100
AcDbEntity
  8
0
100
AcDbBlockEnd
  0
ENDSEC
  0
SECTION
  2
ENTITIES
  0
MTEXT
  5
70
330
1F
100
AcDbEntity
  8
1
 62
     7
100
AcDbMText
 10
115.6088623409091
 20
74.24745563636364
 30
0.0
 40
3.0
 41
0.0
 46
0.0
 71
     1
 72
     1
  1
{\fＭＳ ゴシック;\W0.996851;ＢＦＯ－１２１２}
 73
     1
 44
1.0
  0
POINT
  5
71
330
1F
100
AcDbEntity
  8
1
 62
     1
100
AcDbPoint
 10
22.9463301329
 20
182.2717531964
 30
0.0
  0
ARC
  5
72
330
1F
100
AcDbEntity
  8
1
  6
Continuous
 62
     7
370
     9
100
AcDbCircle
 10
80.9156481329
 20
72.9717531964
 30
0.0
 40
1.8
100
AcDbArc
 50
1.0
 51
90.0
  0
CIRCLE
  5
73
330
1F
100
AcDbEntity
  8
1
  6
Continuous
 62
     7
370
     9
100
AcDbCircle
 10
-29.5536698671
 20
140.2717531964
 30
0.0
 40
0.749572
  0
LINE
  5
74
330
1F
100
AcDbEntity
  8
1
  6
Continuous
 62
     7
370
     9
100
AcDbLine
 10
82.9463301329
 20
59.7717531964
 30
0.0
 11
82.7153741329
 21
73.0031671964
 31
0.0
  0
CIRCLE
  5
75
330
1F
100
AcDbEntity
  8
1
  6
Continuous
 62
     7
370
     9
100
AcDbCircle
 10
-22.5536698671
 20
136.7717531964
 30
0.0
 40
0.749572
  0
LINE
  5
76
330
1F
100
AcDbEntity
  8
1
  6
Continuous
 62
     7
370
     9
100
AcDbLine
 10
-37.0536698671
 20
59.7717531964
 30
0.0
 11
-36.8227158671
 21
73.0031671964
 31
0.0
  0
CIRCLE
  5
77
330
1F
100
AcDbEntity
  8
1
  6
Continuous
 62
     7
370
     9
100
AcDbCircle
 10
-15.5536698671
 20
140.2717531964
 30
0.0
 40
0.749572
  0
ARC
  5
78
330
1F
100
AcDbEntity
  8
1
  6
Continuous
 62
     7
370
     9
100
AcDbCircle
 10
76.4463301329
 20
235.7717531964
 30
0.0
 40
2.5
100
AcDbArc
 50
98.86070999999998
 51
171.13929
  0
LINE
  5
79
330
1F
100
AcDbEntity
  8
1
  6
CENTER
 62
     7
370
     9
100
AcDbLine
 10
-43.0536698671
 20
182.2717531964
 30
0.0
 11
88.94633013290002
 21
182.2717531964
 31
0.0
  0
CIRCLE
  5
7B
330
1F
100
AcDbEntity
  8
1
  6
Continuous
 62
     7
370
     9
100
AcDbCircle
 10
-19.0536698671
 20
136.7717531964
 30
0.0
 40
0.749572
  0
CIRCLE
  5
7C
330
1F
100
AcDbEntity
  8
1
  6
Continuous
 62
     7
370
     9
100
AcDbCircle
 10
-15.5536698671
 20
129.7717531964
 30
0.0
 40
0.749572
  0
LINE
  5
7D
330
1F
100
AcDbEntity
  8
1
  6
Continuous
 62
     7
370
     9
100
AcDbLine
 10
150.4463301329
 20
242.2717531964
 30
0.0
 11
150.4463301329
 21
122.2717531964
 31
0.0
  0
CIRCLE
  5
7E
330
1F
100
AcDbEntity
  8
1
  6
Continuous
 62
     7
370
     9
100
AcDbCircle
 10
-22.5536698671
 20
129.7717531964
 30
0.0
 40
0.749572
  0
CIRCLE
  5
7F
330
1F
100
AcDbEntity
  8
1
  6
Continuous
 62
     7
370
     9
100
AcDbCircle
 10
-15.5536698671
 20
136.7717531964
 30
0.0
 40
0.749572
  0
ARC
  5
80
330
1F
100
AcDbEntity
  8
1
  6
Continuous
 62
     7
370
     9
100
AcDbCircle
 10
137.2463301329
 20
124.3024351964
 30
0.0
 40
1.8
100
AcDbArc
 50
180.0
 51
269.0
  0
CIRCLE
  5
81
330
1F
100
AcDbEntity
  8
1
  6
Continuous
 62
     7
370
     9
100
AcDbCircle
 10
-29.5536698671
 20
136.7717531964
 30
0.0
 40
0.749572
  0
CIRCLE
  5
82
330
1F
100
AcDbEntity
  8
1
  6
Continuous
 62
     7
370
     9
100
AcDbCircle
 10
-33.0536698671
 20
143.7717531964
 30
0.0
 40
0.749572
  0
CIRCLE
  5
83
330
1F
100
AcDbEntity
  8
1
  6
Continuous
 62
     7
370
     9
100
AcDbCircle
 10
-19.0536698671
 20
140.2717531964
 30
0.0
 40
0.749572
  0
CIRCLE
  5
84
330
1F
100
AcDbEntity
  8
1
  6
Continuous
 62
     7
370
     9
100
AcDbCircle
 10
-15.5536698671
 20
143.7717531964
 30
0.0
 40
0.749572
  0
CIRCLE
  5
85
330
1F
100
AcDbEntity
  8
1
  6
Continuous
 62
     7
370
     9
100
AcDbCircle
 10
-26.0536698671
 20
143.7717531964
 30
0.0
 40
0.749572
  0
CIRCLE
  5
86
330
1F
100
AcDbEntity
  8
1
  6
Continuous
 62
     7
370
     9
100
AcDbCircle
 10
-22.5536698671
 20
133.2717531964
 30
0.0
 40
0.749572
  0
CIRCLE
  5
87
330
1F
100
AcDbEntity
  8
1
  6
Continuous
 62
     7
370
     9
100
AcDbCircle
 10
-19.0536698671
 20
143.7717531964
 30
0.0
 40
0.749572
  0
LINE
  5
88
330
1F
100
AcDbEntity
  8
1
  6
CENTER
 62
     7
370
     9
100
AcDbLine
 10
22.9463301329
 20
116.2717531964
 30
0.0
 11
22.9463301329
 21
248.2717531964
 31
0.0
  0
CIRCLE
  5
89
330
1F
100
AcDbEntity
  8
1
  6
Continuous
 62
     7
370
     9
100
AcDbCircle
 10
-26.0536698671
 20
140.2717531964
 30
0.0
 40
0.749572
  0
CIRCLE
  5
8A
330
1F
100
AcDbEntity
  8
1
  6
Continuous
 62
     7
370
     9
100
AcDbCircle
 10
-33.0536698671
 20
140.2717531964
 30
0.0
 40
0.749572
  0
CIRCLE
  5
8B
330
1F
100
AcDbEntity
  8
1
  6
Continuous
 62
     7
370
     9
100
AcDbCircle
 10
-29.5536698671
 20
143.7717531964
 30
0.0
 40
0.749572
  0
LINE
  5
8C
330
1F
100
AcDbEntity
  8
1
  6
Continuous
 62
     7
370
     9
100
AcDbLine
 10
135.4463301329
 20
124.3024351964
 30
0.0
 11
135.4463301329
 21
240.2410731964
 31
0.0
  0
ARC
  5
8D
330
1F
100
AcDbEntity
  8
1
  6
Continuous
 62
     7
370
     9
100
AcDbCircle
 10
137.2463301329
 20
240.2410731964
 30
0.0
 40
1.8
100
AcDbArc
 50
91.0
 51
180.0
  0
LINE
  5
8E
330
1F
100
AcDbEntity
  8
1
  6
Continuous
 62
     7
370
     9
100
AcDbLine
 10
150.4463301329
 20
242.2717531964
 30
0.0
 11
137.2149161329
 21
242.0407991964
 31
0.0
  0
ARC
  5
8F
330
1F
100
AcDbEntity
  8
1
  6
Continuous
 62
     7
370
     9
100
AcDbCircle
 10
-35.0229898671
 20
72.9717531964
 30
0.0
 40
1.8
100
AcDbArc
 50
90.0
 51
179.0
  0
CIRCLE
  5
90
330
1F
100
AcDbEntity
  8
1
  6
Continuous
 62
     7
370
     9
100
AcDbCircle
 10
-22.5536698671
 20
140.2717531964
 30
0.0
 40
0.749572
  0
CIRCLE
  5
91
330
1F
100
AcDbEntity
  8
1
  6
Continuous
 62
     7
370
     9
100
AcDbCircle
 10
-19.0536698671
 20
133.2717531964
 30
0.0
 40
0.749572
  0
CIRCLE
  5
92
330
1F
100
AcDbEntity
  8
1
  6
Continuous
 62
     7
370
     9
100
AcDbCircle
 10
-26.0536698671
 20
133.2717531964
 30
0.0
 40
0.749572
  0
LINE
  5
93
330
1F
100
AcDbEntity
  8
1
  6
Continuous
 62
     7
370
     9
100
AcDbLine
 10
150.4463301329
 20
122.2717531964
 30
0.0
 11
137.2149161329
 21
122.5027091964
 31
0.0
  0
CIRCLE
  5
94
330
1F
100
AcDbEntity
  8
1
  6
Continuous
 62
     7
370
     9
100
AcDbCircle
 10
-15.5536698671
 20
133.2717531964
 30
0.0
 40
0.749572
  0
CIRCLE
  5
95
330
1F
100
AcDbEntity
  8
1
  6
Continuous
 62
     7
370
     9
100
AcDbCircle
 10
-19.0536698671
 20
129.7717531964
 30
0.0
 40
0.749572
  0
LINE
  5
96
330
1F
100
AcDbEntity
  8
1
  6
Continuous
 62
     7
370
     9
100
AcDbLine
 10
-35.0229898671
 20
74.7717531964
 30
0.0
 11
80.9156481329
 21
74.7717531964
 31
0.0
  0
CIRCLE
  5
97
330
1F
100
AcDbEntity
  8
1
  6
Continuous
 62
     7
370
     9
100
AcDbCircle
 10
-22.5536698671
 20
143.7717531964
 30
0.0
 40
0.749572
  0
LINE
  5
98
330
1F
100
AcDbEntity
  8
1
  6
Continuous
 62
     7
370
     9
100
AcDbLine
 10
74.7463301329
 20
235.7717531964
 30
0.0
 11
73.9761661329
 21
236.1568351964
 31
0.0
  0
LINE
  5
99
330
1F
100
AcDbEntity
  8
1
  6
Continuous
 62
     7
370
     9
100
AcDbLine
 10
82.9463301329
 20
59.7717531964
 30
0.0
 11
-37.05366986709998
 21
59.7717531964
 31
0.0
  0
CIRCLE
  5
9A
330
1F
100
AcDbEntity
  8
1
  6
Continuous
 62
     7
370
     9
100
AcDbCircle
 10
-33.0536698671
 20
136.7717531964
 30
0.0
 40
0.749572
  0
CIRCLE
  5
9B
330
1F
100
AcDbEntity
  8
1
  6
Continuous
 62
     7
370
     9
100
AcDbCircle
 10
-26.0536698671
 20
136.7717531964
 30
0.0
 40
0.749572
  0
LINE
  5
9C
330
1F
100
AcDbEntity
  8
1
  6
Continuous
 62
     7
370
     9
100
AcDbLine
 10
73.9761661329
 20
235.3866711964
 30
0.0
 11
74.7463301329
 21
235.7717531964
 31
0.0
  0
LINE
  5
9D
330
1F
100
AcDbEntity
  8
1
  6
Continuous
 62
     7
370
     9
100
AcDbLine
 10
5.7279901329
 20
226.4961391964
 30
0.0
 11
5.4463301329
 21
226.5918751964
 31
0.0
  0
LINE
  5
9E
330
1F
100
AcDbEntity
  8
1
  6
Continuous
 62
     7
370
     9
100
AcDbLine
 10
6.9493841329
 20
226.4249191964
 30
0.0
 11
5.7279901329
 21
226.4961391964
 31
0.0
  0
LINE
  5
9F
330
1F
100
AcDbEntity
  8
1
  6
Continuous
 62
     7
370
     9
100
AcDbLine
 10
21.3262321329
 20
226.2717531964
 30
0.0
 11
21.7250281329
 21
226.3004531964
 31
0.0
  0
LINE
  5
A0
330
1F
100
AcDbEntity
  8
1
  6
Continuous
 62
     7
370
     9
100
AcDbLine
 10
24.4886481329
 20
226.3495311964
 30
0.0
 11
24.0898521329
 21
226.3782311964
 31
0.0
  0
LINE
  5
A1
330
1F
100
AcDbEntity
  8
1
  6
Continuous
 62
     7
370
     9
100
AcDbLine
 10
40.1646681329
 20
226.4961391964
 30
0.0
 11
40.4463301329
 21
226.5918751964
 31
0.0
  0
LINE
  5
A2
330
1F
100
AcDbEntity
  8
1
  6
Continuous
 62
     7
370
     9
100
AcDbLine
 10
33.4463301329
 20
226.3495311964
 30
0.0
 11
38.9432740315
 21
226.424926596
 31
0.0
  0
LINE
  5
A3
330
1F
100
AcDbEntity
  8
1
  6
Continuous
 62
     7
370
     9
100
AcDbLine
 10
33.4463301309
 20
138.1939750566
 30
0.0
 11
38.9432741329
 21
138.1185891964
 31
0.0
  0
LINE
  5
A4
330
1F
100
AcDbEntity
  8
1
  6
Continuous
 62
     7
370
     9
100
AcDbLine
 10
21.7250281329
 20
138.2430551964
 30
0.0
 11
21.3262321329
 21
138.2717531964
 31
0.0
  0
LINE
  5
A5
330
1F
100
AcDbEntity
  8
1
  6
Continuous
 62
     7
370
     9
100
AcDbLine
 10
24.4886481329
 20
138.1939751964
 30
0.0
 11
33.4463301329
 21
138.1939751964
 31
0.0
  0
ARC
  5
A6
330
1F
100
AcDbEntity
  8
1
  6
Continuous
 62
     7
370
     9
100
AcDbCircle
 10
40.4463301329
 20
238.2717531964
 30
0.0
 40
1.5
100
AcDbArc
 50
0.0
 51
90.0
  0
ARC
  5
A7
330
1F
100
AcDbEntity
  8
1
  6
Continuous
 62
     7
370
     9
100
AcDbCircle
 10
5.4463301329
 20
126.2717531964
 30
0.0
 40
1.5
100
AcDbArc
 50
180.0
 51
270.0
  0
LINE
  5
A8
330
1F
100
AcDbEntity
  8
1
  6
Continuous
 62
     7
370
     9
100
AcDbLine
 10
21.3262321329
 20
226.2717531964
 30
0.0
 11
5.446330132899999
 21
226.2717531964
 31
0.0
  0
LINE
  5
A9
330
1F
100
AcDbEntity
  8
1
  6
Continuous
 62
     7
370
     9
100
AcDbLine
 10
40.4463301329
 20
138.2717531964
 30
0.0
 11
24.5664261329
 21
138.2717531964
 31
0.0
  0
LINE
  5
AA
330
1F
100
AcDbEntity
  8
1
  6
Continuous
 62
     7
370
     9
100
AcDbLine
 10
40.1646681329
 20
138.0473691964
 30
0.0
 11
40.4463301329
 21
137.9516311964
 31
0.0
  0
LINE
  5
AB
330
1F
100
AcDbEntity
  8
1
  6
Continuous
 62
     7
370
     9
100
AcDbLine
 10
5.7279901329
 20
138.0473691964
 30
0.0
 11
5.4463301329
 21
137.9516311964
 31
0.0
  0
LINE
  5
AC
330
1F
100
AcDbEntity
  8
1
  6
Continuous
 62
     7
370
     9
100
AcDbLine
 10
40.4463301329
 20
124.7717531964
 30
0.0
 11
5.446330132900003
 21
124.7717531964
 31
0.0
  0
ARC
  5
AD
330
1F
100
AcDbEntity
  8
1
  6
Continuous
 62
     7
370
     9
100
AcDbCircle
 10
40.4463301329
 20
126.2717531964
 30
0.0
 40
1.5
100
AcDbArc
 50
270.0
 51
0.0
  0
CIRCLE
  5
AE
330
1F
100
AcDbEntity
  8
1
  6
Continuous
 62
     7
370
     9
100
AcDbCircle
 10
-30.5536698671
 20
128.7717531964
 30
0.0
 40
4.3
  0
LINE
  5
AF
330
1F
100
AcDbEntity
  8
1
  6
Continuous
 62
     7
370
     9
100
AcDbLine
 10
38.9432741329
 20
138.1185891964
 30
0.0
 11
40.1646681329
 21
138.0473691964
 31
0.0
  0
ARC
  5
B0
330
1F
100
AcDbEntity
  8
1
  6
Continuous
 62
     7
370
     9
100
AcDbCircle
 10
40.4463301329
 20
227.7717531964
 30
0.0
 40
1.5
100
AcDbArc
 50
270.0
 51
0.0
  0
LINE
  5
B1
330
1F
100
AcDbEntity
  8
1
  6
Continuous
 62
     7
370
     9
100
AcDbLine
 10
3.9463301329
 20
227.7717531964
 30
0.0
 11
3.9463301329
 21
238.2717531964
 31
0.0
  0
LINE
  5
B2
330
1F
100
AcDbEntity
  8
1
  6
Continuous
 62
     7
370
     9
100
AcDbLine
 10
12.4463301329
 20
226.3495311964
 30
0.0
 11
6.949384132899999
 21
226.4249191964
 31
0.0
  0
LINE
  5
B3
330
1F
100
AcDbEntity
  8
1
  6
Continuous
 62
     7
370
     9
100
AcDbLine
 10
3.9463301329
 20
136.7717531964
 30
0.0
 11
3.9463301329
 21
126.2717531964
 31
0.0
  0
LINE
  5
B4
330
1F
100
AcDbEntity
  8
1
  6
Continuous
 62
     7
370
     9
100
AcDbLine
 10
21.8028061329
 20
138.1652771964
 30
0.0
 11
21.7250281329
 21
138.2430551964
 31
0.0
  0
LINE
  5
B5
330
1F
100
AcDbEntity
  8
1
  6
Continuous
 62
     7
370
     9
100
AcDbLine
 10
41.9463301329
 20
136.7717531964
 30
0.0
 11
41.9463301329
 21
126.2717531964
 31
0.0
  0
ARC
  5
B6
330
1F
100
AcDbEntity
  8
1
  6
Continuous
 62
     7
370
     9
100
AcDbCircle
 10
40.4463301329
 20
227.7717531964
 30
0.0
 40
1.179878
100
AcDbArc
 50
270.0
 51
0.0
  0
LINE
  5
B7
330
1F
100
AcDbEntity
  8
1
  6
Continuous
 62
     7
370
     9
100
AcDbLine
 10
21.8028061329
 20
226.3782311964
 30
0.0
 11
21.4040101329
 21
226.3495311964
 31
0.0
  0
ARC
  5
B8
330
1F
100
AcDbEntity
  8
1
  6
Continuous
 62
     7
370
     9
100
AcDbCircle
 10
40.4463301329
 20
136.7717531964
 30
0.0
 40
1.5
100
AcDbArc
 50
0.0
 51
90.0
  0
LINE
  5
B9
330
1F
100
AcDbEntity
  8
1
  6
Continuous
 62
     7
370
     9
100
AcDbLine
 10
24.4886481329
 20
226.3495311964
 30
0.0
 11
33.4463301329
 21
226.3495311964
 31
0.0
  0
LINE
  5
BA
330
1F
100
AcDbEntity
  8
1
  6
Continuous
 62
     7
370
     9
100
AcDbLine
 10
41.9463301329
 20
227.7717531964
 30
0.0
 11
41.9463301329
 21
238.2717531964
 31
0.0
  0
ARC
  5
BB
330
1F
100
AcDbEntity
  8
1
  6
Continuous
 62
     7
370
     9
100
AcDbCircle
 10
5.4463301329
 20
227.7717531964
 30
0.0
 40
1.5
100
AcDbArc
 50
180.0
 51
270.0
  0
CIRCLE
  5
BC
330
1F
100
AcDbEntity
  8
1
  6
Continuous
 62
     7
370
     9
100
AcDbCircle
 10
76.4463301329
 20
128.7717531964
 30
0.0
 40
4.3
  0
LINE
  5
BD
330
1F
100
AcDbEntity
  8
1
  6
Continuous
 62
     7
370
     9
100
AcDbLine
 10
24.0898521329
 20
226.3782311964
 30
0.0
 11
24.1676301329
 21
226.3004531964
 31
0.0
  0
LINE
  5
BE
330
1F
100
AcDbEntity
  8
1
  6
Continuous
 62
     7
370
     9
100
AcDbLine
 10
24.0898521329
 20
138.1652771964
 30
0.0
 11
24.4886481329
 21
138.1939751964
 31
0.0
  0
LINE
  5
BF
330
1F
100
AcDbEntity
  8
1
  6
Continuous
 62
     7
370
     9
100
AcDbLine
 10
5.7279901329
 20
138.0473691964
 30
0.0
 11
6.9493841329
 21
138.1185891964
 31
0.0
  0
ARC
  5
C0
330
1F
100
AcDbEntity
  8
1
  6
Continuous
 62
     7
370
     9
100
AcDbCircle
 10
40.4463301329
 20
238.2717531964
 30
0.0
 40
1.179878
100
AcDbArc
 50
0.0
 51
90.0
  0
LINE
  5
C1
330
1F
100
AcDbEntity
  8
1
  6
Continuous
 62
     7
370
     9
100
AcDbLine
 10
21.4040101329
 20
138.1939751964
 30
0.0
 11
21.8028061329
 21
138.1652771964
 31
0.0
  0
CIRCLE
  5
C2
330
1F
100
AcDbEntity
  8
1
  6
Continuous
 62
     7
370
     9
100
AcDbCircle
 10
-30.5536698671
 20
235.7717531964
 30
0.0
 40
4.3
  0
LINE
  5
C3
330
1F
100
AcDbEntity
  8
1
  6
Continuous
 62
     7
370
     9
100
AcDbLine
 10
12.4463301329
 20
226.3495311964
 30
0.0
 11
21.4040101329
 21
226.3495311964
 31
0.0
  0
LINE
  5
C4
330
1F
100
AcDbEntity
  8
1
  6
Continuous
 62
     7
370
     9
100
AcDbLine
 10
24.1676301329
 20
138.2430551964
 30
0.0
 11
24.0898521329
 21
138.1652771964
 31
0.0
  0
LINE
  5
C5
330
1F
100
AcDbEntity
  8
1
  6
Continuous
 62
     7
370
     9
100
AcDbLine
 10
24.5664261329
 20
138.2717531964
 30
0.0
 11
24.1676301329
 21
138.2430551964
 31
0.0
  0
LINE
  5
C6
330
1F
100
AcDbEntity
  8
1
  6
Continuous
 62
     7
370
     9
100
AcDbLine
 10
12.4463301329
 20
138.1939751964
 30
0.0
 11
21.4040101329
 21
138.1939751964
 31
0.0
  0
LINE
  5
C7
330
1F
100
AcDbEntity
  8
1
  6
Continuous
 62
     7
370
     9
100
AcDbLine
 10
12.4463301329
 20
138.1939751964
 30
0.0
 11
6.9493841329
 21
138.1185891964
 31
0.0
  0
LINE
  5
C8
330
1F
100
AcDbEntity
  8
1
  6
Continuous
 62
     7
370
     9
100
AcDbLine
 10
21.7250281329
 20
226.3004531964
 30
0.0
 11
21.8028061329
 21
226.3782311964
 31
0.0
  0
LINE
  5
C9
330
1F
100
AcDbEntity
  8
1
  6
Continuous
 62
     7
370
     9
100
AcDbLine
 10
40.4463301329
 20
226.2717531964
 30
0.0
 11
24.5664261329
 21
226.2717531964
 31
0.0
  0
CIRCLE
  5
CA
330
1F
100
AcDbEntity
  8
1
  6
Continuous
 62
     7
370
     9
100
AcDbCircle
 10
76.4463301329
 20
235.7717531964
 30
0.0
 40
4.3
  0
LINE
  5
CB
330
1F
100
AcDbEntity
  8
1
  6
Continuous
 62
     7
370
     9
100
AcDbLine
 10
40.4463301329
 20
239.7717531964
 30
0.0
 11
5.446330132900003
 21
239.7717531964
 31
0.0
  0
ARC
  5
CC
330
1F
100
AcDbEntity
  8
1
  6
Continuous
 62
     7
370
     9
100
AcDbCircle
 10
5.4463301329
 20
238.2717531964
 30
0.0
 40
1.5
100
AcDbArc
 50
90.0
 51
180.0
  0
LINE
  5
CD
330
1F
100
AcDbEntity
  8
1
  6
Continuous
 62
     7
370
     9
100
AcDbLine
 10
4.2664521329
 20
227.7717531964
 30
0.0
 11
4.2664521329
 21
238.2717531964
 31
0.0
  0
ARC
  5
CE
330
1F
100
AcDbEntity
  8
1
  6
Continuous
 62
     7
370
     9
100
AcDbCircle
 10
5.4463301329
 20
136.7717531964
 30
0.0
 40
1.5
100
AcDbArc
 50
90.0
 51
180.0
  0
LINE
  5
CF
330
1F
100
AcDbEntity
  8
1
  6
Continuous
 62
     7
370
     9
100
AcDbLine
 10
41.6262081329
 20
227.7717531964
 30
0.0
 11
41.6262081329
 21
238.2717531964
 31
0.0
  0
LINE
  5
D0
330
1F
100
AcDbEntity
  8
1
  6
Continuous
 62
     7
370
     9
100
AcDbLine
 10
21.3262321329
 20
138.2717531964
 30
0.0
 11
5.446330132899999
 21
138.2717531964
 31
0.0
  0
LINE
  5
D1
330
1F
100
AcDbEntity
  8
1
  6
Continuous
 62
     7
370
     9
100
AcDbLine
 10
24.1676301329
 20
226.3004531964
 30
0.0
 11
24.5664261329
 21
226.2717531964
 31
0.0
  0
CIRCLE
  5
D2
330
1F
100
AcDbEntity
  8
1
  6
Continuous
 62
     7
370
     9
100
AcDbCircle
 10
76.4463301329
 20
128.7717531964
 30
0.0
 40
3.9
  0
CIRCLE
  5
D3
330
1F
100
AcDbEntity
  8
1
  6
Continuous
 62
     7
370
     9
100
AcDbCircle
 10
-30.5536698671
 20
235.7717531964
 30
0.0
 40
3.9
  0
LINE
  5
D4
330
1F
100
AcDbEntity
  8
1
  6
Continuous
 62
     7
370
     9
100
AcDbLine
 10
40.1646681329
 20
226.4961391964
 30
0.0
 11
38.9432741329
 21
226.4249191964
 31
0.0
  0
LINE
  5
D5
330
1F
100
AcDbEntity
  8
1
  6
Continuous
 62
     7
370
     9
100
AcDbLine
 10
4.2664521329
 20
136.7717531964
 30
0.0
 11
4.2664521329
 21
126.2717531964
 31
0.0
  0
LINE
  5
D6
330
1F
100
AcDbEntity
  8
1
  6
Continuous
 62
     7
370
     9
100
AcDbLine
 10
58.8463301329
 20
160.2717531964
 30
0.0
 11
58.8463301329
 21
169.2717531964
 31
0.0
  0
CIRCLE
  5
D7
330
1F
100
AcDbEntity
  8
1
  6
Continuous
 62
     7
370
     9
100
AcDbCircle
 10
61.4463301329
 20
238.2717531964
 30
0.0
 40
0.749572
  0
LINE
  5
D8
330
1F
100
AcDbEntity
  8
1
  6
Continuous
 62
     7
370
     9
100
AcDbLine
 10
58.8463301329
 20
169.2717531964
 30
0.0
 11
58.9629961329
 21
169.5217531964
 31
0.0
  0
CIRCLE
  5
D9
330
1F
100
AcDbEntity
  8
1
  6
Continuous
 62
     7
370
     9
100
AcDbCircle
 10
75.4463301329
 20
220.7717531964
 30
0.0
 40
0.749572
  0
LINE
  5
DA
330
1F
100
AcDbEntity
  8
1
  6
Continuous
 62
     7
370
     9
100
AcDbLine
 10
58.9629961329
 20
169.5217531964
 30
0.0
 11
58.9629961329
 21
170.5217531964
 31
0.0
  0
LINE
  5
DB
330
1F
100
AcDbEntity
  8
1
  6
Continuous
 62
     7
370
     9
100
AcDbLine
 10
5.7279901329
 20
124.9961391964
 30
0.0
 11
5.4463301329
 21
125.0918751964
 31
0.0
  0
LINE
  5
DC
330
1F
100
AcDbEntity
  8
1
  6
Continuous
 62
     7
370
     9
100
AcDbLine
 10
58.9629961329
 20
170.5217531964
 30
0.0
 11
58.8463301329
 21
170.7717531964
 31
0.0
  0
LINE
  5
DD
330
1F
100
AcDbEntity
  8
1
  6
Continuous
 62
     7
370
     9
100
AcDbLine
 10
41.6262081329
 20
136.7717531964
 30
0.0
 11
41.6262081329
 21
126.2717531964
 31
0.0
  0
CIRCLE
  5
DE
330
1F
100
AcDbEntity
  8
1
  6
Continuous
 62
     7
370
     9
100
AcDbCircle
 10
78.9463301329
 20
220.7717531964
 30
0.0
 40
0.749572
  0
LINE
  5
DF
330
1F
100
AcDbEntity
  8
1
  6
Continuous
 62
     7
370
     9
100
AcDbLine
 10
5.7279901329
 20
239.5473691964
 30
0.0
 11
5.4463301329
 21
239.4516311964
 31
0.0
  0
CIRCLE
  5
E0
330
1F
100
AcDbEntity
  8
1
  6
Continuous
 62
     7
370
     9
100
AcDbCircle
 10
61.4463301329
 20
234.7717531964
 30
0.0
 40
0.749572
  0
CIRCLE
  5
E1
330
1F
100
AcDbEntity
  8
1
  6
Continuous
 62
     7
370
     9
100
AcDbCircle
 10
75.4463301329
 20
224.2717531964
 30
0.0
 40
0.749572
  0
CIRCLE
  5
E2
330
1F
100
AcDbEntity
  8
1
  6
Continuous
 62
     7
370
     9
100
AcDbCircle
 10
22.9463301329
 20
182.2717531964
 30
0.0
 40
0.75
  0
LINE
  5
E3
330
1F
100
AcDbEntity
  8
1
  6
Continuous
 62
     7
370
     9
100
AcDbLine
 10
58.8463301329
 20
170.7717531964
 30
0.0
 11
58.8463301329
 21
178.7717531964
 31
0.0
  0
ARC
  5
E4
330
1F
100
AcDbEntity
  8
1
  6
Continuous
 62
     7
370
     9
100
AcDbCircle
 10
40.4463301329
 20
126.2717531964
 30
0.0
 40
1.179878
100
AcDbArc
 50
270.0
 51
0.0
  0
LINE
  5
E5
330
1F
100
AcDbEntity
  8
1
  6
Continuous
 62
     7
370
     9
100
AcDbLine
 10
58.8463301329
 20
129.7717531964
 30
0.0
 11
58.8463301329
 21
134.3717531964
 31
0.0
  0
LINE
  5
E6
330
1F
100
AcDbEntity
  8
1
  6
Continuous
 62
     7
370
     9
100
AcDbLine
 10
58.8463301329
 20
134.3717531964
 30
0.0
 11
58.9629961329
 21
134.5217531964
 31
0.0
  0
LINE
  5
E7
330
1F
100
AcDbEntity
  8
1
  6
Continuous
 62
     7
370
     9
100
AcDbLine
 10
12.4463301329
 20
239.6939751964
 30
0.0
 11
33.4463301329
 21
239.6939751964
 31
0.0
  0
LINE
  5
E8
330
1F
100
AcDbEntity
  8
1
  6
Continuous
 62
     7
370
     9
100
AcDbLine
 10
6.9493841329
 20
124.9249191964
 30
0.0
 11
5.7279901329
 21
124.9961391964
 31
0.0
  0
CIRCLE
  5
E9
330
1F
100
AcDbEntity
  8
1
  6
Continuous
 62
     7
370
     9
100
AcDbCircle
 10
64.9463301329
 20
227.7717531964
 30
0.0
 40
0.749572
  0
ARC
  5
EA
330
1F
100
AcDbEntity
  8
1
  6
Continuous
 62
     7
370
     9
100
AcDbCircle
 10
5.4463301329
 20
227.7717531964
 30
0.0
 40
1.179878
100
AcDbArc
 50
180.0
 51
270.0
  0
CIRCLE
  5
EB
330
1F
100
AcDbEntity
  8
1
  6
Continuous
 62
     7
370
     9
100
AcDbCircle
 10
64.9463301329
 20
220.7717531964
 30
0.0
 40
0.749572
  0
CIRCLE
  5
EC
330
1F
100
AcDbEntity
  8
1
  6
Continuous
 62
     7
370
     9
100
AcDbCircle
 10
64.9463301329
 20
231.2717531964
 30
0.0
 40
0.749572
  0
ARC
  5
ED
330
1F
100
AcDbEntity
  8
1
  6
Continuous
 62
     7
370
     9
100
AcDbCircle
 10
40.4463301329
 20
136.7717531964
 30
0.0
 40
1.179878
100
AcDbArc
 50
0.0
 51
90.0
  0
CIRCLE
  5
EE
330
1F
100
AcDbEntity
  8
1
  6
Continuous
 62
     7
370
     9
100
AcDbCircle
 10
61.4463301329
 20
227.7717531964
 30
0.0
 40
0.749572
  0
CIRCLE
  5
EF
330
1F
100
AcDbEntity
  8
1
  6
Continuous
 62
     7
370
     9
100
AcDbCircle
 10
71.9463301329
 20
224.2717531964
 30
0.0
 40
0.749572
  0
LINE
  5
F0
330
1F
100
AcDbEntity
  8
1
  6
Continuous
 62
     7
370
     9
100
AcDbLine
 10
58.9629961329
 20
159.0217531964
 30
0.0
 11
58.9629961329
 21
160.0217531964
 31
0.0
  0
CIRCLE
  5
F1
330
1F
100
AcDbEntity
  8
1
  6
Continuous
 62
     7
370
     9
100
AcDbCircle
 10
61.4463301329
 20
220.7717531964
 30
0.0
 40
0.749572
  0
CIRCLE
  5
F2
330
1F
100
AcDbEntity
  8
1
  6
Continuous
 62
     7
370
     9
100
AcDbCircle
 10
61.4463301329
 20
224.2717531964
 30
0.0
 40
0.749572
  0
ARC
  5
F3
330
1F
100
AcDbEntity
  8
1
  6
Continuous
 62
     7
370
     9
100
AcDbCircle
 10
5.4463301329
 20
238.2717531964
 30
0.0
 40
1.179878
100
AcDbArc
 50
90.0
 51
180.0
  0
ARC
  5
F4
330
1F
100
AcDbEntity
  8
1
  6
Continuous
 62
     7
370
     9
100
AcDbCircle
 10
5.4463301329
 20
136.7717531964
 30
0.0
 40
1.179878
100
AcDbArc
 50
90.0
 51
180.0
  0
LINE
  5
F5
330
1F
100
AcDbEntity
  8
1
  6
Continuous
 62
     7
370
     9
100
AcDbLine
 10
38.9432741329
 20
239.6185891964
 30
0.0
 11
40.1646681329
 21
239.5473691964
 31
0.0
  0
CIRCLE
  5
F6
330
1F
100
AcDbEntity
  8
1
  6
Continuous
 62
     7
370
     9
100
AcDbCircle
 10
68.4463301329
 20
234.7717531964
 30
0.0
 40
0.749572
  0
CIRCLE
  5
F7
330
1F
100
AcDbEntity
  8
1
  6
Continuous
 62
     7
370
     9
100
AcDbCircle
 10
64.9463301329
 20
234.7717531964
 30
0.0
 40
0.749572
  0
CIRCLE
  5
F8
330
1F
100
AcDbEntity
  8
1
  6
Continuous
 62
     7
370
     9
100
AcDbCircle
 10
68.4463301329
 20
231.2717531964
 30
0.0
 40
0.749572
  0
CIRCLE
  5
F9
330
1F
100
AcDbEntity
  8
1
  6
Continuous
 62
     7
370
     9
100
AcDbCircle
 10
75.4463301329
 20
227.7717531964
 30
0.0
 40
0.749572
  0
LINE
  5
FA
330
1F
100
AcDbEntity
  8
1
  6
Continuous
 62
     7
370
     9
100
AcDbLine
 10
38.9432740315
 20
124.924926596
 30
0.0
 11
33.4463301329
 21
124.8495311964
 31
0.0
  0
CIRCLE
  5
FB
330
1F
100
AcDbEntity
  8
1
  6
Continuous
 62
     7
370
     9
100
AcDbCircle
 10
-30.5536698671
 20
128.7717531964
 30
0.0
 40
3.9
  0
LINE
  5
FC
330
1F
100
AcDbEntity
  8
1
  6
Continuous
 62
     7
370
     9
100
AcDbLine
 10
40.1646681329
 20
124.9961391964
 30
0.0
 11
40.4463301329
 21
125.0918751964
 31
0.0
  0
CIRCLE
  5
FD
330
1F
100
AcDbEntity
  8
1
  6
Continuous
 62
     7
370
     9
100
AcDbCircle
 10
78.9463301329
 20
224.2717531964
 30
0.0
 40
0.749572
  0
CIRCLE
  5
FE
330
1F
100
AcDbEntity
  8
1
  6
Continuous
 62
     7
370
     9
100
AcDbCircle
 10
78.9463301329
 20
227.7717531964
 30
0.0
 40
0.749572
  0
LINE
  5
FF
330
1F
100
AcDbEntity
  8
1
  6
Continuous
 62
     7
370
     9
100
AcDbLine
 10
12.4463301329
 20
124.8495311964
 30
0.0
 11
33.4463301329
 21
124.8495311964
 31
0.0
  0
CIRCLE
  5
100
330
1F
100
AcDbEntity
  8
1
  6
Continuous
 62
     7
370
     9
100
AcDbCircle
 10
71.9463301329
 20
227.7717531964
 30
0.0
 40
0.749572
  0
CIRCLE
  5
101
330
1F
100
AcDbEntity
  8
1
  6
Continuous
 62
     7
370
     9
100
AcDbCircle
 10
71.9463301329
 20
220.7717531964
 30
0.0
 40
0.749572
  0
LINE
  5
102
330
1F
100
AcDbEntity
  8
1
  6
Continuous
 62
     7
370
     9
100
AcDbLine
 10
58.8463301329
 20
148.0217531964
 30
0.0
 11
58.8463301329
 21
158.7717531964
 31
0.0
  0
LINE
  5
103
330
1F
100
AcDbEntity
  8
1
  6
Continuous
 62
     7
370
     9
100
AcDbLine
 10
40.1646681329
 20
124.9961391964
 30
0.0
 11
38.9432741329
 21
124.9249191964
 31
0.0
  0
LINE
  5
104
330
1F
100
AcDbEntity
  8
1
  6
Continuous
 62
     7
370
     9
100
AcDbLine
 10
6.9493841329
 20
239.6185891964
 30
0.0
 11
12.4463301329
 21
239.6939751964
 31
0.0
  0
CIRCLE
  5
105
330
1F
100
AcDbEntity
  8
1
  6
Continuous
 62
     7
370
     9
100
AcDbCircle
 10
68.4463301329
 20
227.7717531964
 30
0.0
 40
0.749572
  0
CIRCLE
  5
106
330
1F
100
AcDbEntity
  8
1
  6
Continuous
 62
     7
370
     9
100
AcDbCircle
 10
68.4463301329
 20
220.7717531964
 30
0.0
 40
0.749572
  0
CIRCLE
  5
107
330
1F
100
AcDbEntity
  8
1
  6
Continuous
 62
     7
370
     9
100
AcDbCircle
 10
64.9463301329
 20
238.2717531964
 30
0.0
 40
0.749572
  0
LINE
  5
108
330
1F
100
AcDbEntity
  8
1
  6
Continuous
 62
     7
370
     9
100
AcDbLine
 10
5.7279901329
 20
239.5473691964
 30
0.0
 11
6.9493841329
 21
239.6185891964
 31
0.0
  0
CIRCLE
  5
109
330
1F
100
AcDbEntity
  8
1
  6
Continuous
 62
     7
370
     9
100
AcDbCircle
 10
76.4463301329
 20
235.7717531964
 30
0.0
 40
3.9
  0
LINE
  5
10A
330
1F
100
AcDbEntity
  8
1
  6
Continuous
 62
     7
370
     9
100
AcDbLine
 10
40.1646681329
 20
239.5473691964
 30
0.0
 11
40.4463301329
 21
239.4516311964
 31
0.0
  0
CIRCLE
  5
10B
330
1F
100
AcDbEntity
  8
1
  6
Continuous
 62
     7
370
     9
100
AcDbCircle
 10
64.9463301329
 20
224.2717531964
 30
0.0
 40
0.749572
  0
CIRCLE
  5
10C
330
1F
100
AcDbEntity
  8
1
  6
Continuous
 62
     7
370
     9
100
AcDbCircle
 10
68.4463301329
 20
238.2717531964
 30
0.0
 40
0.749572
  0
LINE
  5
10D
330
1F
100
AcDbEntity
  8
1
  6
Continuous
 62
     7
370
     9
100
AcDbLine
 10
38.9432741329
 20
239.6185891964
 30
0.0
 11
33.4463301309
 21
239.6939750566
 31
0.0
  0
LINE
  5
10E
330
1F
100
AcDbEntity
  8
1
  6
Continuous
 62
     7
370
     9
100
AcDbLine
 10
6.9493841329
 20
124.9249191964
 30
0.0
 11
12.4463301329
 21
124.8495311964
 31
0.0
  0
CIRCLE
  5
10F
330
1F
100
AcDbEntity
  8
1
  6
Continuous
 62
     7
370
     9
100
AcDbCircle
 10
71.9463301329
 20
231.2717531964
 30
0.0
 40
0.749572
  0
CIRCLE
  5
110
330
1F
100
AcDbEntity
  8
1
  6
Continuous
 62
     7
370
     9
100
AcDbCircle
 10
61.4463301329
 20
231.2717531964
 30
0.0
 40
0.749572
  0
CIRCLE
  5
111
330
1F
100
AcDbEntity
  8
1
  6
Continuous
 62
     7
370
     9
100
AcDbCircle
 10
68.4463301329
 20
224.2717531964
 30
0.0
 40
0.749572
  0
LINE
  5
112
330
1F
100
AcDbEntity
  8
1
  6
Continuous
 62
     7
370
     9
100
AcDbLine
 10
58.8463301329
 20
158.7717531964
 30
0.0
 11
58.9629961329
 21
159.0217531964
 31
0.0
  0
ARC
  5
113
330
1F
100
AcDbEntity
  8
1
  6
Continuous
 62
     7
370
     9
100
AcDbCircle
 10
5.4463301329
 20
126.2717531964
 30
0.0
 40
1.179878
100
AcDbArc
 50
180.0
 51
270.0
  0
LINE
  5
114
330
1F
100
AcDbEntity
  8
1
  6
Continuous
 62
     7
370
     9
100
AcDbLine
 10
58.9629961329
 20
160.0217531964
 30
0.0
 11
58.8463301329
 21
160.2717531964
 31
0.0
  0
LINE
  5
115
330
1F
100
AcDbEntity
  8
1
  6
Continuous
 62
     7
370
     9
100
AcDbLine
 10
57.0463301329
 20
238.2717531964
 30
0.0
 11
57.0463301329
 21
230.1717531964
 31
0.0
  0
LINE
  5
116
330
1F
100
AcDbEntity
  8
1
  6
Continuous
 62
     7
370
     9
100
AcDbLine
 10
57.0463301329
 20
216.5217531964
 30
0.0
 11
56.9296621329
 21
216.7717531964
 31
0.0
  0
LINE
  5
117
330
1F
100
AcDbEntity
  8
1
  6
Continuous
 62
     7
370
     9
100
AcDbLine
 10
11.1963301329
 20
148.2884211964
 30
0.0
 11
11.4463301329
 21
148.1717531964
 31
0.0
  0
LINE
  5
118
330
1F
100
AcDbEntity
  8
1
  6
Continuous
 62
     7
370
     9
100
AcDbLine
 10
57.0463301329
 20
193.7717531964
 30
0.0
 11
56.9296621329
 21
194.0217531964
 31
0.0
  0
LINE
  5
119
330
1F
100
AcDbEntity
  8
1
  6
Continuous
 62
     7
370
     9
100
AcDbLine
 10
45.1963301329
 20
216.2550871964
 30
0.0
 11
44.9463301329
 21
216.3717531964
 31
0.0
  0
LINE
  5
11A
330
1F
100
AcDbEntity
  8
1
  6
Continuous
 62
     7
370
     9
100
AcDbLine
 10
26.4463301329
 20
216.3717531964
 30
0.0
 11
34.4463301329
 21
216.3717531964
 31
0.0
  0
LINE
  5
11B
330
1F
100
AcDbEntity
  8
1
  6
Continuous
 62
     7
370
     9
100
AcDbLine
 10
34.6963301329
 20
216.2550871964
 30
0.0
 11
34.4463301329
 21
216.3717531964
 31
0.0
  0
LINE
  5
11C
330
1F
100
AcDbEntity
  8
1
  6
Continuous
 62
     7
370
     9
100
AcDbLine
 10
57.0463301329
 20
216.5217531964
 30
0.0
 11
57.0463301329
 21
205.7717531964
 31
0.0
  0
LINE
  5
11D
330
1F
100
AcDbEntity
  8
1
  6
Continuous
 62
     7
370
     9
100
AcDbLine
 10
58.8463301329
 20
135.6717531964
 30
0.0
 11
58.8463301329
 21
146.5217531964
 31
0.0
  0
ARC
  5
11E
330
1F
100
AcDbEntity
  8
1
  6
Continuous
 62
     7
370
     9
100
AcDbCircle
 10
-12.0536698671
 20
238.2717531964
 30
0.0
 40
0.9
100
AcDbArc
 50
0.0
 51
180.0
  0
ARC
  5
11F
330
1F
100
AcDbEntity
  8
1
  6
Continuous
 62
     7
370
     9
100
AcDbCircle
 10
57.9463301329
 20
238.2717531964
 30
0.0
 40
0.9
100
AcDbArc
 50
0.0
 51
180.0
  0
LINE
  5
120
330
1F
100
AcDbEntity
  8
1
  6
Continuous
 62
     7
370
     9
100
AcDbLine
 10
56.9296621329
 20
204.5217531964
 30
0.0
 11
56.9296621329
 21
205.5217531964
 31
0.0
  0
LINE
  5
121
330
1F
100
AcDbEntity
  8
1
  6
Continuous
 62
     7
370
     9
100
AcDbLine
 10
57.0463301329
 20
204.2717531964
 30
0.0
 11
57.0463301329
 21
195.2717531964
 31
0.0
  0
LINE
  5
122
330
1F
100
AcDbEntity
  8
1
  6
Continuous
 62
     7
370
     9
100
AcDbLine
 10
46.4463301329
 20
216.3717531964
 30
0.0
 11
54.4463301329
 21
216.3717531964
 31
0.0
  0
LINE
  5
123
330
1F
100
AcDbEntity
  8
1
  6
Continuous
 62
     7
370
     9
100
AcDbLine
 10
35.9463301329
 20
216.3717531964
 30
0.0
 11
35.6963301329
 21
216.2550871964
 31
0.0
  0
LINE
  5
124
330
1F
100
AcDbEntity
  8
1
  6
Continuous
 62
     7
370
     9
100
AcDbLine
 10
-0.5536698671
 20
148.1717531964
 30
0.0
 11
-0.3036698671
 21
148.2884211964
 31
0.0
  0
LINE
  5
125
330
1F
100
AcDbEntity
  8
1
  6
Continuous
 62
     7
370
     9
100
AcDbLine
 10
56.9296621329
 20
230.0217531964
 30
0.0
 11
57.0463301329
 21
230.1717531964
 31
0.0
  0
LINE
  5
126
330
1F
100
AcDbEntity
  8
1
  6
Continuous
 62
     7
370
     9
100
AcDbLine
 10
-13.0703378671
 20
205.5217531964
 30
0.0
 11
-12.9536698671
 21
205.7717531964
 31
0.0
  0
LINE
  5
127
330
1F
100
AcDbEntity
  8
1
  6
Continuous
 62
     7
370
     9
100
AcDbLine
 10
56.9296621329
 20
205.5217531964
 30
0.0
 11
57.0463301329
 21
205.7717531964
 31
0.0
  0
LINE
  5
128
330
1F
100
AcDbEntity
  8
1
  6
Continuous
 62
     7
370
     9
100
AcDbLine
 10
46.4463301329
 20
216.3717531964
 30
0.0
 11
46.1963301329
 21
216.2550871964
 31
0.0
  0
LINE
  5
129
330
1F
100
AcDbEntity
  8
1
  6
Continuous
 62
     7
370
     9
100
AcDbLine
 10
58.9629961329
 20
135.5217531964
 30
0.0
 11
58.8463301329
 21
135.6717531964
 31
0.0
  0
LINE
  5
12A
330
1F
100
AcDbEntity
  8
1
  6
Continuous
 62
     7
370
     9
100
AcDbLine
 10
-13.0703378671
 20
204.5217531964
 30
0.0
 11
-13.0703378671
 21
205.5217531964
 31
0.0
  0
LINE
  5
12B
330
1F
100
AcDbEntity
  8
1
  6
Continuous
 62
     7
370
     9
100
AcDbLine
 10
-12.9536698671
 20
193.7717531964
 30
0.0
 11
-12.9536698671
 21
185.7717531964
 31
0.0
  0
LINE
  5
12C
330
1F
100
AcDbEntity
  8
1
  6
Continuous
 62
     7
370
     9
100
AcDbLine
 10
-13.0703378671
 20
230.0217531964
 30
0.0
 11
-12.9536698671
 21
230.1717531964
 31
0.0
  0
LINE
  5
12D
330
1F
100
AcDbEntity
  8
1
  6
Continuous
 62
     7
370
     9
100
AcDbLine
 10
-12.9536698671
 20
228.8717531964
 30
0.0
 11
-13.0703378671
 21
229.0217531964
 31
0.0
  0
LINE
  5
12E
330
1F
100
AcDbEntity
  8
1
  6
Continuous
 62
     7
370
     9
100
AcDbLine
 10
57.0463301329
 20
193.7717531964
 30
0.0
 11
57.0463301329
 21
185.7717531964
 31
0.0
  0
LINE
  5
12F
330
1F
100
AcDbEntity
  8
1
  6
Continuous
 62
     7
370
     9
100
AcDbLine
 10
-13.0703378671
 20
229.0217531964
 30
0.0
 11
-13.0703378671
 21
230.0217531964
 31
0.0
  0
LINE
  5
130
330
1F
100
AcDbEntity
  8
1
  6
Continuous
 62
     7
370
     9
100
AcDbLine
 10
-12.9536698671
 20
218.0217531964
 30
0.0
 11
-13.0703378671
 21
217.7717531964
 31
0.0
  0
LINE
  5
131
330
1F
100
AcDbEntity
  8
1
  6
Continuous
 62
     7
370
     9
100
AcDbLine
 10
-13.0703378671
 20
217.7717531964
 30
0.0
 11
-13.0703378671
 21
216.7717531964
 31
0.0
  0
ARC
  5
132
330
1F
100
AcDbEntity
  8
1
  6
Continuous
 62
     7
370
     9
100
AcDbCircle
 10
57.9463301329
 20
178.7717531964
 30
0.0
 40
0.9
100
AcDbArc
 50
0.0
 51
180.0
  0
LINE
  5
133
330
1F
100
AcDbEntity
  8
1
  6
Continuous
 62
     7
370
     9
100
AcDbLine
 10
58.8463301329
 20
146.5217531964
 30
0.0
 11
58.9629961329
 21
146.7717531964
 31
0.0
  0
LINE
  5
134
330
1F
100
AcDbEntity
  8
1
  6
Continuous
 62
     7
370
     9
100
AcDbLine
 10
0.6963301329
 20
148.2884211964
 30
0.0
 11
0.9463301329
 21
148.1717531964
 31
0.0
  0
LINE
  5
135
330
1F
100
AcDbEntity
  8
1
  6
Continuous
 62
     7
370
     9
100
AcDbLine
 10
58.9629961329
 20
147.7717531964
 30
0.0
 11
58.8463301329
 21
148.0217531964
 31
0.0
  0
LINE
  5
136
330
1F
100
AcDbEntity
  8
1
  6
Continuous
 62
     7
370
     9
100
AcDbLine
 10
-0.5536698671
 20
148.1717531964
 30
0.0
 11
-8.5536698671
 21
148.1717531964
 31
0.0
  0
LINE
  5
137
330
1F
100
AcDbEntity
  8
1
  6
Continuous
 62
     7
370
     9
100
AcDbLine
 10
10.1963301329
 20
148.2884211964
 30
0.0
 11
11.1963301329
 21
148.2884211964
 31
0.0
  0
LINE
  5
138
330
1F
100
AcDbEntity
  8
1
  6
Continuous
 62
     7
370
     9
100
AcDbLine
 10
56.9296621329
 20
195.0217531964
 30
0.0
 11
57.0463301329
 21
195.2717531964
 31
0.0
  0
LINE
  5
139
330
1F
100
AcDbEntity
  8
1
  6
Continuous
 62
     7
370
     9
100
AcDbLine
 10
56.9296621329
 20
229.0217531964
 30
0.0
 11
56.9296621329
 21
230.0217531964
 31
0.0
  0
LINE
  5
13A
330
1F
100
AcDbEntity
  8
1
  6
Continuous
 62
     7
370
     9
100
AcDbLine
 10
35.9463301329
 20
216.3717531964
 30
0.0
 11
44.9463301329
 21
216.3717531964
 31
0.0
  0
ARC
  5
13B
330
1F
100
AcDbEntity
  8
1
  6
Continuous
 62
     7
370
     9
100
AcDbCircle
 10
19.4463301329
 20
147.2717531964
 30
0.0
 40
0.9
100
AcDbArc
 50
270.0
 51
90.0
  0
LINE
  5
13C
330
1F
100
AcDbEntity
  8
1
  6
Continuous
 62
     7
370
     9
100
AcDbLine
 10
-12.9536698671
 20
228.8717531964
 30
0.0
 11
-12.9536698671
 21
218.0217531964
 31
0.0
  0
LINE
  5
13D
330
1F
100
AcDbEntity
  8
1
  6
Continuous
 62
     7
370
     9
100
AcDbLine
 10
-12.9536698671
 20
238.2717531964
 30
0.0
 11
-12.9536698671
 21
230.1717531964
 31
0.0
  0
LINE
  5
13E
330
1F
100
AcDbEntity
  8
1
  6
Continuous
 62
     7
370
     9
100
AcDbLine
 10
56.9296621329
 20
147.7717531964
 30
0.0
 11
56.9296621329
 21
146.7717531964
 31
0.0
  0
LINE
  5
13F
330
1F
100
AcDbEntity
  8
1
  6
Continuous
 62
     7
370
     9
100
AcDbLine
 10
9.9463301329
 20
148.1717531964
 30
0.0
 11
0.9463301329000005
 21
148.1717531964
 31
0.0
  0
LINE
  5
140
330
1F
100
AcDbEntity
  8
1
  6
Continuous
 62
     7
370
     9
100
AcDbLine
 10
9.9463301329
 20
148.1717531964
 30
0.0
 11
10.1963301329
 21
148.2884211964
 31
0.0
  0
LINE
  5
141
330
1F
100
AcDbEntity
  8
1
  6
Continuous
 62
     7
370
     9
100
AcDbLine
 10
46.1963301329
 20
216.2550871964
 30
0.0
 11
45.1963301329
 21
216.2550871964
 31
0.0
  0
LINE
  5
142
330
1F
100
AcDbEntity
  8
1
  6
Continuous
 62
     7
370
     9
100
AcDbLine
 10
-12.9536698671
 20
204.2717531964
 30
0.0
 11
-13.0703378671
 21
204.5217531964
 31
0.0
  0
LINE
  5
143
330
1F
100
AcDbEntity
  8
1
  6
Continuous
 62
     7
370
     9
100
AcDbLine
 10
-13.0703378671
 20
195.0217531964
 30
0.0
 11
-12.9536698671
 21
195.2717531964
 31
0.0
  0
LINE
  5
144
330
1F
100
AcDbEntity
  8
1
  6
Continuous
 62
     7
370
     9
100
AcDbLine
 10
19.4463301329
 20
148.1717531964
 30
0.0
 11
11.4463301329
 21
148.1717531964
 31
0.0
  0
LINE
  5
145
330
1F
100
AcDbEntity
  8
1
  6
Continuous
 62
     7
370
     9
100
AcDbLine
 10
56.9296621329
 20
216.7717531964
 30
0.0
 11
56.9296621329
 21
217.7717531964
 31
0.0
  0
LINE
  5
146
330
1F
100
AcDbEntity
  8
1
  6
Continuous
 62
     7
370
     9
100
AcDbLine
 10
35.6963301329
 20
216.2550871964
 30
0.0
 11
34.6963301329
 21
216.2550871964
 31
0.0
  0
LINE
  5
147
330
1F
100
AcDbEntity
  8
1
  6
Continuous
 62
     7
370
     9
100
AcDbLine
 10
-0.3036698671
 20
148.2884211964
 30
0.0
 11
0.6963301329
 21
148.2884211964
 31
0.0
  0
ARC
  5
148
330
1F
100
AcDbEntity
  8
1
  6
Continuous
 62
     7
370
     9
100
AcDbCircle
 10
26.4463301329
 20
217.2717531964
 30
0.0
 40
0.9
100
AcDbArc
 50
90.0
 51
270.0
  0
LINE
  5
149
330
1F
100
AcDbEntity
  8
1
  6
Continuous
 62
     7
370
     9
100
AcDbLine
 10
58.9629961329
 20
146.7717531964
 30
0.0
 11
58.9629961329
 21
147.7717531964
 31
0.0
  0
LINE
  5
14A
330
1F
100
AcDbEntity
  8
1
  6
Continuous
 62
     7
370
     9
100
AcDbLine
 10
-13.0703378671
 20
194.0217531964
 30
0.0
 11
-13.0703378671
 21
195.0217531964
 31
0.0
  0
LINE
  5
14B
330
1F
100
AcDbEntity
  8
1
  6
Continuous
 62
     7
370
     9
100
AcDbLine
 10
56.9296621329
 20
194.0217531964
 30
0.0
 11
56.9296621329
 21
195.0217531964
 31
0.0
  0
LINE
  5
14C
330
1F
100
AcDbEntity
  8
1
  6
Continuous
 62
     7
370
     9
100
AcDbLine
 10
58.9629961329
 20
134.5217531964
 30
0.0
 11
58.9629961329
 21
135.5217531964
 31
0.0
  0
ARC
  5
14D
330
1F
100
AcDbEntity
  8
1
  6
Continuous
 62
     7
370
     9
100
AcDbCircle
 10
57.9463301329
 20
129.7717531964
 30
0.0
 40
0.9
100
AcDbArc
 50
180.0
 51
0.0
  0
LINE
  5
14E
330
1F
100
AcDbEntity
  8
1
  6
Continuous
 62
     7
370
     9
100
AcDbLine
 10
57.0463301329
 20
204.2717531964
 30
0.0
 11
56.9296621329
 21
204.5217531964
 31
0.0
  0
LINE
  5
14F
330
1F
100
AcDbEntity
  8
1
  6
Continuous
 62
     7
370
     9
100
AcDbLine
 10
56.9296621329
 20
217.7717531964
 30
0.0
 11
57.0463301329
 21
218.0217531964
 31
0.0
  0
LINE
  5
150
330
1F
100
AcDbEntity
  8
1
  6
Continuous
 62
     7
370
     9
100
AcDbLine
 10
-12.9536698671
 20
216.5217531964
 30
0.0
 11
-12.9536698671
 21
205.7717531964
 31
0.0
  0
LINE
  5
151
330
1F
100
AcDbEntity
  8
1
  6
Continuous
 62
     7
370
     9
100
AcDbLine
 10
57.0463301329
 20
228.8717531964
 30
0.0
 11
56.9296621329
 21
229.0217531964
 31
0.0
  0
LINE
  5
152
330
1F
100
AcDbEntity
  8
1
  6
Continuous
 62
     7
370
     9
100
AcDbLine
 10
-12.9536698671
 20
193.7717531964
 30
0.0
 11
-13.0703378671
 21
194.0217531964
 31
0.0
  0
LINE
  5
153
330
1F
100
AcDbEntity
  8
1
  6
Continuous
 62
     7
370
     9
100
AcDbLine
 10
-13.0703378671
 20
216.7717531964
 30
0.0
 11
-12.9536698671
 21
216.5217531964
 31
0.0
  0
LINE
  5
154
330
1F
100
AcDbEntity
  8
1
  6
Continuous
 62
     7
370
     9
100
AcDbLine
 10
57.0463301329
 20
228.8717531964
 30
0.0
 11
57.0463301329
 21
218.0217531964
 31
0.0
  0
LINE
  5
155
330
1F
100
AcDbEntity
  8
1
  6
Continuous
 62
     7
370
     9
100
AcDbLine
 10
57.0463301329
 20
169.2717531964
 30
0.0
 11
57.0463301329
 21
160.2717531964
 31
0.0
  0
LINE
  5
156
330
1F
100
AcDbEntity
  8
1
  6
Continuous
 62
     7
370
     9
100
AcDbLine
 10
57.0463301329
 20
158.7717531964
 30
0.0
 11
57.0463301329
 21
148.0217531964
 31
0.0
  0
LINE
  5
157
330
1F
100
AcDbEntity
  8
1
  6
Continuous
 62
     7
370
     9
100
AcDbLine
 10
56.9296621329
 20
134.5217531964
 30
0.0
 11
57.0463301329
 21
134.3717531964
 31
0.0
  0
LINE
  5
158
330
1F
100
AcDbEntity
  8
1
  6
Continuous
 62
     7
370
     9
100
AcDbLine
 10
10.1963301329
 20
216.2550871964
 30
0.0
 11
11.1963301329
 21
216.2550871964
 31
0.0
  0
LINE
  5
159
330
1F
100
AcDbEntity
  8
1
  6
Continuous
 62
     7
370
     9
100
AcDbLine
 10
11.1963301329
 20
216.2550871964
 30
0.0
 11
11.4463301329
 21
216.3717531964
 31
0.0
  0
LINE
  5
15A
330
1F
100
AcDbEntity
  8
1
  6
Continuous
 62
     7
370
     9
100
AcDbLine
 10
0.6963301329
 20
216.2550871964
 30
0.0
 11
0.9463301329
 21
216.3717531964
 31
0.0
  0
LINE
  5
15B
330
1F
100
AcDbEntity
  8
1
  6
Continuous
 62
     7
370
     9
100
AcDbLine
 10
35.9463301329
 20
148.1717531964
 30
0.0
 11
35.6963301329
 21
148.2884211964
 31
0.0
  0
ARC
  5
15C
330
1F
100
AcDbEntity
  8
1
  6
Continuous
 62
     7
370
     9
100
AcDbCircle
 10
19.4463301329
 20
217.2717531964
 30
0.0
 40
0.9
100
AcDbArc
 50
270.0
 51
90.0
  0
ARC
  5
15D
330
1F
100
AcDbEntity
  8
1
  6
Continuous
 62
     7
370
     9
100
AcDbCircle
 10
57.9463301329
 20
185.7717531964
 30
0.0
 40
0.9
100
AcDbArc
 50
180.0
 51
0.0
  0
LINE
  5
15E
330
1F
100
AcDbEntity
  8
1
  6
Continuous
 62
     7
370
     9
100
AcDbLine
 10
0.6963301329
 20
218.2884211964
 30
0.0
 11
-0.3036698671
 21
218.2884211964
 31
0.0
  0
LINE
  5
15F
330
1F
100
AcDbEntity
  8
1
  6
Continuous
 62
     7
370
     9
100
AcDbLine
 10
-0.3036698671
 20
218.2884211964
 30
0.0
 11
-0.5536698671
 21
218.1717531964
 31
0.0
  0
LINE
  5
160
330
1F
100
AcDbEntity
  8
1
  6
Continuous
 62
     7
370
     9
100
AcDbLine
 10
11.4463301329
 20
218.1717531964
 30
0.0
 11
19.4463301329
 21
218.1717531964
 31
0.0
  0
LINE
  5
161
330
1F
100
AcDbEntity
  8
1
  6
Continuous
 62
     7
370
     9
100
AcDbLine
 10
11.1963301329
 20
218.2884211964
 30
0.0
 11
10.1963301329
 21
218.2884211964
 31
0.0
  0
LINE
  5
162
330
1F
100
AcDbEntity
  8
1
  6
Continuous
 62
     7
370
     9
100
AcDbLine
 10
0.9463301329
 20
218.1717531964
 30
0.0
 11
0.6963301329
 21
218.2884211964
 31
0.0
  0
ARC
  5
163
330
1F
100
AcDbEntity
  8
1
  6
Continuous
 62
     7
370
     9
100
AcDbCircle
 10
-8.5536698671
 20
217.2717531964
 30
0.0
 40
0.9
100
AcDbArc
 50
90.0
 51
270.0
  0
LINE
  5
164
330
1F
100
AcDbEntity
  8
1
  6
Continuous
 62
     7
370
     9
100
AcDbLine
 10
57.0463301329
 20
160.2717531964
 30
0.0
 11
56.9296621329
 21
160.0217531964
 31
0.0
  0
LINE
  5
165
330
1F
100
AcDbEntity
  8
1
  6
Continuous
 62
     7
370
     9
100
AcDbLine
 10
35.6963301329
 20
148.2884211964
 30
0.0
 11
34.6963301329
 21
148.2884211964
 31
0.0
  0
ARC
  5
166
330
1F
100
AcDbEntity
  8
1
  6
Continuous
 62
     7
370
     9
100
AcDbCircle
 10
54.4463301329
 20
147.2717531964
 30
0.0
 40
0.9
100
AcDbArc
 50
270.0
 51
90.0
  0
LINE
  5
167
330
1F
100
AcDbEntity
  8
1
  6
Continuous
 62
     7
370
     9
100
AcDbLine
 10
10.1963301329
 20
218.2884211964
 30
0.0
 11
9.9463301329
 21
218.1717531964
 31
0.0
  0
LINE
  5
168
330
1F
100
AcDbEntity
  8
1
  6
Continuous
 62
     7
370
     9
100
AcDbLine
 10
-12.9536698671
 20
146.5217531964
 30
0.0
 11
-13.0703378671
 21
146.7717531964
 31
0.0
  0
LINE
  5
169
330
1F
100
AcDbEntity
  8
1
  6
Continuous
 62
     7
370
     9
100
AcDbLine
 10
-12.9536698671
 20
135.6717531964
 30
0.0
 11
-12.9536698671
 21
146.5217531964
 31
0.0
  0
LINE
  5
16A
330
1F
100
AcDbEntity
  8
1
  6
Continuous
 62
     7
370
     9
100
AcDbLine
 10
-13.0703378671
 20
135.5217531964
 30
0.0
 11
-13.0703378671
 21
134.5217531964
 31
0.0
  0
LINE
  5
16B
330
1F
100
AcDbEntity
  8
1
  6
Continuous
 62
     7
370
     9
100
AcDbLine
 10
-13.0703378671
 20
134.5217531964
 30
0.0
 11
-12.9536698671
 21
134.3717531964
 31
0.0
  0
LINE
  5
16C
330
1F
100
AcDbEntity
  8
1
  6
Continuous
 62
     7
370
     9
100
AcDbLine
 10
-12.9536698671
 20
170.7717531964
 30
0.0
 11
-12.9536698671
 21
178.7717531964
 31
0.0
  0
LINE
  5
16D
330
1F
100
AcDbEntity
  8
1
  6
Continuous
 62
     7
370
     9
100
AcDbLine
 10
45.1963301329
 20
148.2884211964
 30
0.0
 11
44.9463301329
 21
148.1717531964
 31
0.0
  0
LINE
  5
16E
330
1F
100
AcDbEntity
  8
1
  6
Continuous
 62
     7
370
     9
100
AcDbLine
 10
-12.9536698671
 20
135.6717531964
 30
0.0
 11
-13.0703378671
 21
135.5217531964
 31
0.0
  0
LINE
  5
16F
330
1F
100
AcDbEntity
  8
1
  6
Continuous
 62
     7
370
     9
100
AcDbLine
 10
-12.9536698671
 20
170.7717531964
 30
0.0
 11
-13.0703378671
 21
170.5217531964
 31
0.0
  0
LINE
  5
170
330
1F
100
AcDbEntity
  8
1
  6
Continuous
 62
     7
370
     9
100
AcDbLine
 10
-13.0703378671
 20
170.5217531964
 30
0.0
 11
-13.0703378671
 21
169.5217531964
 31
0.0
  0
LINE
  5
171
330
1F
100
AcDbEntity
  8
1
  6
Continuous
 62
     7
370
     9
100
AcDbLine
 10
57.0463301329
 20
135.6717531964
 30
0.0
 11
56.9296621329
 21
135.5217531964
 31
0.0
  0
LINE
  5
172
330
1F
100
AcDbEntity
  8
1
  6
Continuous
 62
     7
370
     9
100
AcDbLine
 10
34.6963301329
 20
148.2884211964
 30
0.0
 11
34.4463301329
 21
148.1717531964
 31
0.0
  0
LINE
  5
173
330
1F
100
AcDbEntity
  8
1
  6
Continuous
 62
     7
370
     9
100
AcDbLine
 10
-12.9536698671
 20
160.2717531964
 30
0.0
 11
-12.9536698671
 21
169.2717531964
 31
0.0
  0
LINE
  5
174
330
1F
100
AcDbEntity
  8
1
  6
Continuous
 62
     7
370
     9
100
AcDbLine
 10
56.9296621329
 20
170.5217531964
 30
0.0
 11
56.9296621329
 21
169.5217531964
 31
0.0
  0
LINE
  5
175
330
1F
100
AcDbEntity
  8
1
  6
Continuous
 62
     7
370
     9
100
AcDbLine
 10
57.0463301329
 20
134.3717531964
 30
0.0
 11
57.0463301329
 21
129.7717531964
 31
0.0
  0
LINE
  5
176
330
1F
100
AcDbEntity
  8
1
  6
Continuous
 62
     7
370
     9
100
AcDbLine
 10
11.4463301329
 20
218.1717531964
 30
0.0
 11
11.1963301329
 21
218.2884211964
 31
0.0
  0
LINE
  5
177
330
1F
100
AcDbEntity
  8
1
  6
Continuous
 62
     7
370
     9
100
AcDbLine
 10
-12.9536698671
 20
160.2717531964
 30
0.0
 11
-13.0703378671
 21
160.0217531964
 31
0.0
  0
LINE
  5
178
330
1F
100
AcDbEntity
  8
1
  6
Continuous
 62
     7
370
     9
100
AcDbLine
 10
56.9296621329
 20
160.0217531964
 30
0.0
 11
56.9296621329
 21
159.0217531964
 31
0.0
  0
LINE
  5
179
330
1F
100
AcDbEntity
  8
1
  6
Continuous
 62
     7
370
     9
100
AcDbLine
 10
-13.0703378671
 20
159.0217531964
 30
0.0
 11
-12.9536698671
 21
158.7717531964
 31
0.0
  0
ARC
  5
17A
330
1F
100
AcDbEntity
  8
1
  6
Continuous
 62
     7
370
     9
100
AcDbCircle
 10
26.4463301329
 20
147.2717531964
 30
0.0
 40
0.9
100
AcDbArc
 50
90.0
 51
270.0
  0
LINE
  5
17B
330
1F
100
AcDbEntity
  8
1
  6
Continuous
 62
     7
370
     9
100
AcDbLine
 10
-12.9536698671
 20
148.0217531964
 30
0.0
 11
-12.9536698671
 21
158.7717531964
 31
0.0
  0
LINE
  5
17C
330
1F
100
AcDbEntity
  8
1
  6
Continuous
 62
     7
370
     9
100
AcDbLine
 10
-13.0703378671
 20
169.5217531964
 30
0.0
 11
-12.9536698671
 21
169.2717531964
 31
0.0
  0
LINE
  5
17D
330
1F
100
AcDbEntity
  8
1
  6
Continuous
 62
     7
370
     9
100
AcDbLine
 10
-12.9536698671
 20
126.2717531964
 30
0.0
 11
-12.9536698671
 21
134.3717531964
 31
0.0
  0
LINE
  5
17E
330
1F
100
AcDbEntity
  8
1
  6
Continuous
 62
     7
370
     9
100
AcDbLine
 10
-13.0703378671
 20
147.7717531964
 30
0.0
 11
-12.9536698671
 21
148.0217531964
 31
0.0
  0
LINE
  5
17F
330
1F
100
AcDbEntity
  8
1
  6
Continuous
 62
     7
370
     9
100
AcDbLine
 10
57.0463301329
 20
170.7717531964
 30
0.0
 11
56.9296621329
 21
170.5217531964
 31
0.0
  0
LINE
  5
180
330
1F
100
AcDbEntity
  8
1
  6
Continuous
 62
     7
370
     9
100
AcDbLine
 10
57.0463301329
 20
178.7717531964
 30
0.0
 11
57.0463301329
 21
170.7717531964
 31
0.0
  0
LINE
  5
181
330
1F
100
AcDbEntity
  8
1
  6
Continuous
 62
     7
370
     9
100
AcDbLine
 10
35.9463301329
 20
148.1717531964
 30
0.0
 11
44.9463301329
 21
148.1717531964
 31
0.0
  0
LINE
  5
182
330
1F
100
AcDbEntity
  8
1
  6
Continuous
 62
     7
370
     9
100
AcDbLine
 10
9.9463301329
 20
216.3717531964
 30
0.0
 11
10.1963301329
 21
216.2550871964
 31
0.0
  0
LINE
  5
183
330
1F
100
AcDbEntity
  8
1
  6
Continuous
 62
     7
370
     9
100
AcDbLine
 10
-13.0703378671
 20
160.0217531964
 30
0.0
 11
-13.0703378671
 21
159.0217531964
 31
0.0
  0
LINE
  5
184
330
1F
100
AcDbEntity
  8
1
  6
Continuous
 62
     7
370
     9
100
AcDbLine
 10
56.9296621329
 20
135.5217531964
 30
0.0
 11
56.9296621329
 21
134.5217531964
 31
0.0
  0
LINE
  5
185
330
1F
100
AcDbEntity
  8
1
  6
Continuous
 62
     7
370
     9
100
AcDbLine
 10
-0.5536698671
 20
216.3717531964
 30
0.0
 11
-8.5536698671
 21
216.3717531964
 31
0.0
  0
LINE
  5
186
330
1F
100
AcDbEntity
  8
1
  6
Continuous
 62
     7
370
     9
100
AcDbLine
 10
-8.5536698671
 20
218.1717531964
 30
0.0
 11
-0.5536698671000009
 21
218.1717531964
 31
0.0
  0
LINE
  5
187
330
1F
100
AcDbEntity
  8
1
  6
Continuous
 62
     7
370
     9
100
AcDbLine
 10
56.9296621329
 20
169.5217531964
 30
0.0
 11
57.0463301329
 21
169.2717531964
 31
0.0
  0
LINE
  5
188
330
1F
100
AcDbEntity
  8
1
  6
Continuous
 62
     7
370
     9
100
AcDbLine
 10
0.9463301329
 20
218.1717531964
 30
0.0
 11
9.9463301329
 21
218.1717531964
 31
0.0
  0
LINE
  5
189
330
1F
100
AcDbEntity
  8
1
  6
Continuous
 62
     7
370
     9
100
AcDbLine
 10
57.0463301329
 20
146.5217531964
 30
0.0
 11
57.0463301329
 21
135.6717531964
 31
0.0
  0
LINE
  5
18A
330
1F
100
AcDbEntity
  8
1
  6
Continuous
 62
     7
370
     9
100
AcDbLine
 10
26.4463301329
 20
148.1717531964
 30
0.0
 11
34.4463301329
 21
148.1717531964
 31
0.0
  0
LINE
  5
18B
330
1F
100
AcDbEntity
  8
1
  6
Continuous
 62
     7
370
     9
100
AcDbLine
 10
57.0463301329
 20
148.0217531964
 30
0.0
 11
56.9296621329
 21
147.7717531964
 31
0.0
  0
LINE
  5
18C
330
1F
100
AcDbEntity
  8
1
  6
Continuous
 62
     7
370
     9
100
AcDbLine
 10
46.4463301329
 20
148.1717531964
 30
0.0
 11
46.1963301329
 21
148.2884211964
 31
0.0
  0
LINE
  5
18D
330
1F
100
AcDbEntity
  8
1
  6
Continuous
 62
     7
370
     9
100
AcDbLine
 10
9.9463301329
 20
216.3717531964
 30
0.0
 11
0.9463301329000005
 21
216.3717531964
 31
0.0
  0
LINE
  5
18E
330
1F
100
AcDbEntity
  8
1
  6
Continuous
 62
     7
370
     9
100
AcDbLine
 10
19.4463301329
 20
216.3717531964
 30
0.0
 11
11.4463301329
 21
216.3717531964
 31
0.0
  0
LINE
  5
18F
330
1F
100
AcDbEntity
  8
1
  6
Continuous
 62
     7
370
     9
100
AcDbLine
 10
-0.5536698671
 20
216.3717531964
 30
0.0
 11
-0.3036698671
 21
216.2550871964
 31
0.0
  0
LINE
  5
190
330
1F
100
AcDbEntity
  8
1
  6
Continuous
 62
     7
370
     9
100
AcDbLine
 10
46.1963301329
 20
148.2884211964
 30
0.0
 11
45.1963301329
 21
148.2884211964
 31
0.0
  0
LINE
  5
191
330
1F
100
AcDbEntity
  8
1
  6
Continuous
 62
     7
370
     9
100
AcDbLine
 10
56.9296621329
 20
159.0217531964
 30
0.0
 11
57.0463301329
 21
158.7717531964
 31
0.0
  0
LINE
  5
192
330
1F
100
AcDbEntity
  8
1
  6
Continuous
 62
     7
370
     9
100
AcDbLine
 10
46.4463301329
 20
148.1717531964
 30
0.0
 11
54.4463301329
 21
148.1717531964
 31
0.0
  0
LINE
  5
193
330
1F
100
AcDbEntity
  8
1
  6
Continuous
 62
     7
370
     9
100
AcDbLine
 10
-0.3036698671
 20
216.2550871964
 30
0.0
 11
0.6963301329
 21
216.2550871964
 31
0.0
  0
LINE
  5
194
330
1F
100
AcDbEntity
  8
1
  6
Continuous
 62
     7
370
     9
100
AcDbLine
 10
56.9296621329
 20
146.7717531964
 30
0.0
 11
57.0463301329
 21
146.5217531964
 31
0.0
  0
LINE
  5
195
330
1F
100
AcDbEntity
  8
1
  6
Continuous
 62
     7
370
     9
100
AcDbLine
 10
-11.0370038671
 20
135.5217531964
 30
0.0
 11
-11.1536698671
 21
135.6717531964
 31
0.0
  0
ARC
  5
196
330
1F
100
AcDbEntity
  8
1
  6
Continuous
 62
     7
370
     9
100
AcDbCircle
 10
-8.5536698671
 20
147.2717531964
 30
0.0
 40
0.9
100
AcDbArc
 50
90.0
 51
270.0
  0
LINE
  5
197
330
1F
100
AcDbEntity
  8
1
  6
Continuous
 62
     7
370
     9
100
AcDbLine
 10
-11.0370038671
 20
169.5217531964
 30
0.0
 11
-11.0370038671
 21
170.5217531964
 31
0.0
  0
LINE
  5
198
330
1F
100
AcDbEntity
  8
1
  6
Continuous
 62
     7
370
     9
100
AcDbLine
 10
-11.1536698671
 20
134.3717531964
 30
0.0
 11
-11.0370038671
 21
134.5217531964
 31
0.0
  0
LINE
  5
199
330
1F
100
AcDbEntity
  8
1
  6
Continuous
 62
     7
370
     9
100
AcDbLine
 10
45.1963301329
 20
146.2550871964
 30
0.0
 11
46.1963301329
 21
146.2550871964
 31
0.0
  0
LINE
  5
19A
330
1F
100
AcDbEntity
  8
1
  6
Continuous
 62
     7
370
     9
100
AcDbLine
 10
-11.1536698671
 20
158.7717531964
 30
0.0
 11
-11.0370038671
 21
159.0217531964
 31
0.0
  0
LINE
  5
19B
330
1F
100
AcDbEntity
  8
1
  6
Continuous
 62
     7
370
     9
100
AcDbLine
 10
-11.0370038671
 20
159.0217531964
 30
0.0
 11
-11.0370038671
 21
160.0217531964
 31
0.0
  0
ARC
  5
19C
330
1F
100
AcDbEntity
  8
1
  6
Continuous
 62
     7
370
     9
100
AcDbCircle
 10
22.9463301329
 20
178.7717531964
 30
0.0
 40
0.9
100
AcDbArc
 50
0.0
 51
180.0
  0
LINE
  5
19D
330
1F
100
AcDbEntity
  8
1
  6
Continuous
 62
     7
370
     9
100
AcDbLine
 10
46.1963301329
 20
146.2550871964
 30
0.0
 11
46.4463301329
 21
146.3717531964
 31
0.0
  0
LINE
  5
19E
330
1F
100
AcDbEntity
  8
1
  6
Continuous
 62
     7
370
     9
100
AcDbLine
 10
54.4463301329
 20
146.3717531964
 30
0.0
 11
46.4463301329
 21
146.3717531964
 31
0.0
  0
LINE
  5
19F
330
1F
100
AcDbEntity
  8
1
  6
Continuous
 62
     7
370
     9
100
AcDbLine
 10
34.6963301329
 20
146.2550871964
 30
0.0
 11
35.6963301329
 21
146.2550871964
 31
0.0
  0
LINE
  5
1A0
330
1F
100
AcDbEntity
  8
1
  6
Continuous
 62
     7
370
     9
100
AcDbLine
 10
-11.1536698671
 20
169.2717531964
 30
0.0
 11
-11.1536698671
 21
160.2717531964
 31
0.0
  0
ARC
  5
1A1
330
1F
100
AcDbEntity
  8
1
  6
Continuous
 62
     7
370
     9
100
AcDbCircle
 10
-12.0536698671
 20
178.7717531964
 30
0.0
 40
0.9
100
AcDbArc
 50
0.0
 51
180.0
  0
LINE
  5
1A2
330
1F
100
AcDbEntity
  8
1
  6
Continuous
 62
     7
370
     9
100
AcDbLine
 10
35.6963301329
 20
146.2550871964
 30
0.0
 11
35.9463301329
 21
146.3717531964
 31
0.0
  0
LINE
  5
1A3
330
1F
100
AcDbEntity
  8
1
  6
Continuous
 62
     7
370
     9
100
AcDbLine
 10
44.9463301329
 20
146.3717531964
 30
0.0
 11
35.9463301329
 21
146.3717531964
 31
0.0
  0
LINE
  5
1A4
330
1F
100
AcDbEntity
  8
1
  6
Continuous
 62
     7
370
     9
100
AcDbLine
 10
-11.1536698671
 20
146.5217531964
 30
0.0
 11
-11.1536698671
 21
135.6717531964
 31
0.0
  0
LINE
  5
1A5
330
1F
100
AcDbEntity
  8
1
  6
Continuous
 62
     7
370
     9
100
AcDbLine
 10
-11.0370038671
 20
216.7717531964
 30
0.0
 11
-11.0370038671
 21
217.7717531964
 31
0.0
  0
LINE
  5
1A6
330
1F
100
AcDbEntity
  8
1
  6
Continuous
 62
     7
370
     9
100
AcDbLine
 10
-11.1536698671
 20
218.0217531964
 30
0.0
 11
-11.1536698671
 21
228.8717531964
 31
0.0
  0
LINE
  5
1A7
330
1F
100
AcDbEntity
  8
1
  6
Continuous
 62
     7
370
     9
100
AcDbLine
 10
-11.0370038671
 20
229.0217531964
 30
0.0
 11
-11.1536698671
 21
228.8717531964
 31
0.0
  0
LINE
  5
1A8
330
1F
100
AcDbEntity
  8
1
  6
Continuous
 62
     7
370
     9
100
AcDbLine
 10
34.4463301329
 20
218.1717531964
 30
0.0
 11
26.4463301329
 21
218.1717531964
 31
0.0
  0
LINE
  5
1A9
330
1F
100
AcDbEntity
  8
1
  6
Continuous
 62
     7
370
     9
100
AcDbLine
 10
-11.0370038671
 20
170.5217531964
 30
0.0
 11
-11.1536698671
 21
170.7717531964
 31
0.0
  0
LINE
  5
1AA
330
1F
100
AcDbEntity
  8
1
  6
Continuous
 62
     7
370
     9
100
AcDbLine
 10
-11.0370038671
 20
230.0217531964
 30
0.0
 11
-11.0370038671
 21
229.0217531964
 31
0.0
  0
LINE
  5
1AB
330
1F
100
AcDbEntity
  8
1
  6
Continuous
 62
     7
370
     9
100
AcDbLine
 10
-11.1536698671
 20
230.1717531964
 30
0.0
 11
-11.1536698671
 21
238.2717531964
 31
0.0
  0
LINE
  5
1AC
330
1F
100
AcDbEntity
  8
1
  6
Continuous
 62
     7
370
     9
100
AcDbLine
 10
-11.0370038671
 20
194.0217531964
 30
0.0
 11
-11.1536698671
 21
193.7717531964
 31
0.0
  0
LINE
  5
1AD
330
1F
100
AcDbEntity
  8
1
  6
Continuous
 62
     7
370
     9
100
AcDbLine
 10
34.4463301329
 20
146.3717531964
 30
0.0
 11
26.4463301329
 21
146.3717531964
 31
0.0
  0
LINE
  5
1AE
330
1F
100
AcDbEntity
  8
1
  6
Continuous
 62
     7
370
     9
100
AcDbLine
 10
-11.0370038671
 20
134.5217531964
 30
0.0
 11
-11.0370038671
 21
135.5217531964
 31
0.0
  0
LINE
  5
1AF
330
1F
100
AcDbEntity
  8
1
  6
Continuous
 62
     7
370
     9
100
AcDbLine
 10
34.4463301329
 20
218.1717531964
 30
0.0
 11
34.6963301329
 21
218.2884211964
 31
0.0
  0
LINE
  5
1B0
330
1F
100
AcDbEntity
  8
1
  6
Continuous
 62
     7
370
     9
100
AcDbLine
 10
-11.0370038671
 20
195.0217531964
 30
0.0
 11
-11.0370038671
 21
194.0217531964
 31
0.0
  0
LINE
  5
1B1
330
1F
100
AcDbEntity
  8
1
  6
Continuous
 62
     7
370
     9
100
AcDbLine
 10
-11.0370038671
 20
205.5217531964
 30
0.0
 11
-11.0370038671
 21
204.5217531964
 31
0.0
  0
LINE
  5
1B2
330
1F
100
AcDbEntity
  8
1
  6
Continuous
 62
     7
370
     9
100
AcDbLine
 10
-11.1536698671
 20
205.7717531964
 30
0.0
 11
-11.0370038671
 21
205.5217531964
 31
0.0
  0
LINE
  5
1B3
330
1F
100
AcDbEntity
  8
1
  6
Continuous
 62
     7
370
     9
100
AcDbLine
 10
-11.1536698671
 20
205.7717531964
 30
0.0
 11
-11.1536698671
 21
216.5217531964
 31
0.0
  0
LINE
  5
1B4
330
1F
100
AcDbEntity
  8
1
  6
Continuous
 62
     7
370
     9
100
AcDbLine
 10
-11.1536698671
 20
216.5217531964
 30
0.0
 11
-11.0370038671
 21
216.7717531964
 31
0.0
  0
LINE
  5
1B5
330
1F
100
AcDbEntity
  8
1
  6
Continuous
 62
     7
370
     9
100
AcDbLine
 10
-11.1536698671
 20
169.2717531964
 30
0.0
 11
-11.0370038671
 21
169.5217531964
 31
0.0
  0
LINE
  5
1B6
330
1F
100
AcDbEntity
  8
1
  6
Continuous
 62
     7
370
     9
100
AcDbLine
 10
-11.1536698671
 20
185.7717531964
 30
0.0
 11
-11.1536698671
 21
193.7717531964
 31
0.0
  0
LINE
  5
1B7
330
1F
100
AcDbEntity
  8
1
  6
Continuous
 62
     7
370
     9
100
AcDbLine
 10
23.8463301329
 20
134.3717531964
 30
0.0
 11
23.8463301329
 21
126.2717531964
 31
0.0
  0
LINE
  5
1B8
330
1F
100
AcDbEntity
  8
1
  6
Continuous
 62
     7
370
     9
100
AcDbLine
 10
-11.0370038671
 20
146.7717531964
 30
0.0
 11
-11.1536698671
 21
146.5217531964
 31
0.0
  0
ARC
  5
1B9
330
1F
100
AcDbEntity
  8
1
  6
Continuous
 62
     7
370
     9
100
AcDbCircle
 10
-12.0536698671
 20
185.7717531964
 30
0.0
 40
0.9
100
AcDbArc
 50
180.0
 51
0.0
  0
LINE
  5
1BA
330
1F
100
AcDbEntity
  8
1
  6
Continuous
 62
     7
370
     9
100
AcDbLine
 10
34.4463301329
 20
146.3717531964
 30
0.0
 11
34.6963301329
 21
146.2550871964
 31
0.0
  0
LINE
  5
1BB
330
1F
100
AcDbEntity
  8
1
  6
Continuous
 62
     7
370
     9
100
AcDbLine
 10
23.8463301329
 20
134.3717531964
 30
0.0
 11
23.9629961329
 21
134.5217531964
 31
0.0
  0
LINE
  5
1BC
330
1F
100
AcDbEntity
  8
1
  6
Continuous
 62
     7
370
     9
100
AcDbLine
 10
23.8463301329
 20
146.5217531964
 30
0.0
 11
23.9629961329
 21
146.7717531964
 31
0.0
  0
LINE
  5
1BD
330
1F
100
AcDbEntity
  8
1
  6
Continuous
 62
     7
370
     9
100
AcDbLine
 10
-11.0370038671
 20
217.7717531964
 30
0.0
 11
-11.1536698671
 21
218.0217531964
 31
0.0
  0
LINE
  5
1BE
330
1F
100
AcDbEntity
  8
1
  6
Continuous
 62
     7
370
     9
100
AcDbLine
 10
-11.1536698671
 20
178.7717531964
 30
0.0
 11
-11.1536698671
 21
170.7717531964
 31
0.0
  0
LINE
  5
1BF
330
1F
100
AcDbEntity
  8
1
  6
Continuous
 62
     7
370
     9
100
AcDbLine
 10
-11.1536698671
 20
195.2717531964
 30
0.0
 11
-11.0370038671
 21
195.0217531964
 31
0.0
  0
ARC
  5
1C0
330
1F
100
AcDbEntity
  8
1
  6
Continuous
 62
     7
370
     9
100
AcDbCircle
 10
54.4463301329
 20
217.2717531964
 30
0.0
 40
0.9
100
AcDbArc
 50
270.0
 51
90.0
  0
LINE
  5
1C1
330
1F
100
AcDbEntity
  8
1
  6
Continuous
 62
     7
370
     9
100
AcDbLine
 10
23.9629961329
 20
134.5217531964
 30
0.0
 11
23.9629961329
 21
135.5217531964
 31
0.0
  0
LINE
  5
1C2
330
1F
100
AcDbEntity
  8
1
  6
Continuous
 62
     7
370
     9
100
AcDbLine
 10
23.9629961329
 20
135.5217531964
 30
0.0
 11
23.8463301329
 21
135.6717531964
 31
0.0
  0
LINE
  5
1C3
330
1F
100
AcDbEntity
  8
1
  6
Continuous
 62
     7
370
     9
100
AcDbLine
 10
-13.0703378671
 20
146.7717531964
 30
0.0
 11
-13.0703378671
 21
147.7717531964
 31
0.0
  0
LINE
  5
1C4
330
1F
100
AcDbEntity
  8
1
  6
Continuous
 62
     7
370
     9
100
AcDbLine
 10
23.8463301329
 20
146.5217531964
 30
0.0
 11
23.8463301329
 21
135.6717531964
 31
0.0
  0
LINE
  5
1C5
330
1F
100
AcDbEntity
  8
1
  6
Continuous
 62
     7
370
     9
100
AcDbLine
 10
-11.0370038671
 20
160.0217531964
 30
0.0
 11
-11.1536698671
 21
160.2717531964
 31
0.0
  0
LINE
  5
1C6
330
1F
100
AcDbEntity
  8
1
  6
Continuous
 62
     7
370
     9
100
AcDbLine
 10
46.1963301329
 20
218.2884211964
 30
0.0
 11
46.4463301329
 21
218.1717531964
 31
0.0
  0
LINE
  5
1C7
330
1F
100
AcDbEntity
  8
1
  6
Continuous
 62
     7
370
     9
100
AcDbLine
 10
44.9463301329
 20
146.3717531964
 30
0.0
 11
45.1963301329
 21
146.2550871964
 31
0.0
  0
LINE
  5
1C8
330
1F
100
AcDbEntity
  8
1
  6
Continuous
 62
     7
370
     9
100
AcDbLine
 10
-11.1536698671
 20
230.1717531964
 30
0.0
 11
-11.0370038671
 21
230.0217531964
 31
0.0
  0
LINE
  5
1C9
330
1F
100
AcDbEntity
  8
1
  6
Continuous
 62
     7
370
     9
100
AcDbLine
 10
-11.0370038671
 20
204.5217531964
 30
0.0
 11
-11.1536698671
 21
204.2717531964
 31
0.0
  0
LINE
  5
1CA
330
1F
100
AcDbEntity
  8
1
  6
Continuous
 62
     7
370
     9
100
AcDbLine
 10
45.1963301329
 20
218.2884211964
 30
0.0
 11
46.1963301329
 21
218.2884211964
 31
0.0
  0
LINE
  5
1CB
330
1F
100
AcDbEntity
  8
1
  6
Continuous
 62
     7
370
     9
100
AcDbLine
 10
-11.1536698671
 20
134.3717531964
 30
0.0
 11
-11.1536698671
 21
126.2717531964
 31
0.0
  0
LINE
  5
1CC
330
1F
100
AcDbEntity
  8
1
  6
Continuous
 62
     7
370
     9
100
AcDbLine
 10
-11.1536698671
 20
158.7717531964
 30
0.0
 11
-11.1536698671
 21
148.0217531964
 31
0.0
  0
ARC
  5
1CD
330
1F
100
AcDbEntity
  8
1
  6
Continuous
 62
     7
370
     9
100
AcDbCircle
 10
-12.0536698671
 20
126.2717531964
 30
0.0
 40
0.9
100
AcDbArc
 50
180.0
 51
0.0
  0
LINE
  5
1CE
330
1F
100
AcDbEntity
  8
1
  6
Continuous
 62
     7
370
     9
100
AcDbLine
 10
35.6963301329
 20
218.2884211964
 30
0.0
 11
35.9463301329
 21
218.1717531964
 31
0.0
  0
LINE
  5
1CF
330
1F
100
AcDbEntity
  8
1
  6
Continuous
 62
     7
370
     9
100
AcDbLine
 10
44.9463301329
 20
218.1717531964
 30
0.0
 11
35.9463301329
 21
218.1717531964
 31
0.0
  0
LINE
  5
1D0
330
1F
100
AcDbEntity
  8
1
  6
Continuous
 62
     7
370
     9
100
AcDbLine
 10
34.6963301329
 20
218.2884211964
 30
0.0
 11
35.6963301329
 21
218.2884211964
 31
0.0
  0
LINE
  5
1D1
330
1F
100
AcDbEntity
  8
1
  6
Continuous
 62
     7
370
     9
100
AcDbLine
 10
-11.0370038671
 20
147.7717531964
 30
0.0
 11
-11.0370038671
 21
146.7717531964
 31
0.0
  0
LINE
  5
1D2
330
1F
100
AcDbEntity
  8
1
  6
Continuous
 62
     7
370
     9
100
AcDbLine
 10
54.4463301329
 20
218.1717531964
 30
0.0
 11
46.4463301329
 21
218.1717531964
 31
0.0
  0
LINE
  5
1D3
330
1F
100
AcDbEntity
  8
1
  6
Continuous
 62
     7
370
     9
100
AcDbLine
 10
44.9463301329
 20
218.1717531964
 30
0.0
 11
45.1963301329
 21
218.2884211964
 31
0.0
  0
LINE
  5
1D4
330
1F
100
AcDbEntity
  8
1
  6
Continuous
 62
     7
370
     9
100
AcDbLine
 10
-11.1536698671
 20
148.0217531964
 30
0.0
 11
-11.0370038671
 21
147.7717531964
 31
0.0
  0
LINE
  5
1D5
330
1F
100
AcDbEntity
  8
1
  6
Continuous
 62
     7
370
     9
100
AcDbLine
 10
22.0463301329
 20
148.0217531964
 30
0.0
 11
22.0463301329
 21
158.7717531964
 31
0.0
  0
LINE
  5
1D6
330
1F
100
AcDbEntity
  8
1
  6
Continuous
 62
     7
370
     9
100
AcDbLine
 10
58.8463301329
 20
205.7717531964
 30
0.0
 11
58.8463301329
 21
216.5217531964
 31
0.0
  0
LINE
  5
1D7
330
1F
100
AcDbEntity
  8
1
  6
Continuous
 62
     7
370
     9
100
AcDbLine
 10
58.9629961329
 20
195.0217531964
 30
0.0
 11
58.9629961329
 21
194.0217531964
 31
0.0
  0
LINE
  5
1D8
330
1F
100
AcDbEntity
  8
1
  6
Continuous
 62
     7
370
     9
100
AcDbLine
 10
23.8463301329
 20
169.2717531964
 30
0.0
 11
23.9629961329
 21
169.5217531964
 31
0.0
  0
LINE
  5
1D9
330
1F
100
AcDbEntity
  8
1
  6
Continuous
 62
     7
370
     9
100
AcDbLine
 10
23.9629961329
 20
195.0217531964
 30
0.0
 11
23.9629961329
 21
194.0217531964
 31
0.0
  0
LINE
  5
1DA
330
1F
100
AcDbEntity
  8
1
  6
Continuous
 62
     7
370
     9
100
AcDbLine
 10
58.8463301329
 20
218.0217531964
 30
0.0
 11
58.8463301329
 21
228.8717531964
 31
0.0
  0
LINE
  5
1DB
330
1F
100
AcDbEntity
  8
1
  6
Continuous
 62
     7
370
     9
100
AcDbLine
 10
11.1963301329
 20
146.2550871964
 30
0.0
 11
10.1963301329
 21
146.2550871964
 31
0.0
  0
LINE
  5
1DC
330
1F
100
AcDbEntity
  8
1
  6
Continuous
 62
     7
370
     9
100
AcDbLine
 10
11.4463301329
 20
146.3717531964
 30
0.0
 11
19.4463301329
 21
146.3717531964
 31
0.0
  0
LINE
  5
1DD
330
1F
100
AcDbEntity
  8
1
  6
Continuous
 62
     7
370
     9
100
AcDbLine
 10
-8.5536698671
 20
146.3717531964
 30
0.0
 11
-0.5536698671000009
 21
146.3717531964
 31
0.0
  0
LINE
  5
1DE
330
1F
100
AcDbEntity
  8
1
  6
Continuous
 62
     7
370
     9
100
AcDbLine
 10
58.8463301329
 20
218.0217531964
 30
0.0
 11
58.9629961329
 21
217.7717531964
 31
0.0
  0
LINE
  5
1DF
330
1F
100
AcDbEntity
  8
1
  6
Continuous
 62
     7
370
     9
100
AcDbLine
 10
0.6963301329
 20
146.2550871964
 30
0.0
 11
-0.3036698671
 21
146.2550871964
 31
0.0
  0
LINE
  5
1E0
330
1F
100
AcDbEntity
  8
1
  6
Continuous
 62
     7
370
     9
100
AcDbLine
 10
58.9629961329
 20
205.5217531964
 30
0.0
 11
58.9629961329
 21
204.5217531964
 31
0.0
  0
LINE
  5
1E1
330
1F
100
AcDbEntity
  8
1
  6
Continuous
 62
     7
370
     9
100
AcDbLine
 10
58.9629961329
 20
230.0217531964
 30
0.0
 11
58.9629961329
 21
229.0217531964
 31
0.0
  0
LINE
  5
1E2
330
1F
100
AcDbEntity
  8
1
  6
Continuous
 62
     7
370
     9
100
AcDbLine
 10
23.8463301329
 20
230.1717531964
 30
0.0
 11
23.8463301329
 21
238.2717531964
 31
0.0
  0
LINE
  5
1E3
330
1F
100
AcDbEntity
  8
1
  6
Continuous
 62
     7
370
     9
100
AcDbLine
 10
58.8463301329
 20
230.1717531964
 30
0.0
 11
58.8463301329
 21
238.2717531964
 31
0.0
  0
LINE
  5
1E4
330
1F
100
AcDbEntity
  8
1
  6
Continuous
 62
     7
370
     9
100
AcDbLine
 10
23.9629961329
 20
170.5217531964
 30
0.0
 11
23.8463301329
 21
170.7717531964
 31
0.0
  0
LINE
  5
1E5
330
1F
100
AcDbEntity
  8
1
  6
Continuous
 62
     7
370
     9
100
AcDbLine
 10
23.9629961329
 20
146.7717531964
 30
0.0
 11
23.9629961329
 21
147.7717531964
 31
0.0
  0
LINE
  5
1E6
330
1F
100
AcDbEntity
  8
1
  6
Continuous
 62
     7
370
     9
100
AcDbLine
 10
23.8463301329
 20
158.7717531964
 30
0.0
 11
23.8463301329
 21
148.0217531964
 31
0.0
  0
LINE
  5
1E7
330
1F
100
AcDbEntity
  8
1
  6
Continuous
 62
     7
370
     9
100
AcDbLine
 10
23.9629961329
 20
204.5217531964
 30
0.0
 11
23.8463301329
 21
204.2717531964
 31
0.0
  0
LINE
  5
1E8
330
1F
100
AcDbEntity
  8
1
  6
Continuous
 62
     7
370
     9
100
AcDbLine
 10
58.8463301329
 20
230.1717531964
 30
0.0
 11
58.9629961329
 21
230.0217531964
 31
0.0
  0
LINE
  5
1E9
330
1F
100
AcDbEntity
  8
1
  6
Continuous
 62
     7
370
     9
100
AcDbLine
 10
23.8463301329
 20
205.7717531964
 30
0.0
 11
23.9629961329
 21
205.5217531964
 31
0.0
  0
LINE
  5
1EA
330
1F
100
AcDbEntity
  8
1
  6
Continuous
 62
     7
370
     9
100
AcDbLine
 10
23.8463301329
 20
169.2717531964
 30
0.0
 11
23.8463301329
 21
160.2717531964
 31
0.0
  0
LINE
  5
1EB
330
1F
100
AcDbEntity
  8
1
  6
Continuous
 62
     7
370
     9
100
AcDbLine
 10
23.8463301329
 20
158.7717531964
 30
0.0
 11
23.9629961329
 21
159.0217531964
 31
0.0
  0
LINE
  5
1EC
330
1F
100
AcDbEntity
  8
1
  6
Continuous
 62
     7
370
     9
100
AcDbLine
 10
23.9629961329
 20
160.0217531964
 30
0.0
 11
23.8463301329
 21
160.2717531964
 31
0.0
  0
LINE
  5
1ED
330
1F
100
AcDbEntity
  8
1
  6
Continuous
 62
     7
370
     9
100
AcDbLine
 10
23.9629961329
 20
194.0217531964
 30
0.0
 11
23.8463301329
 21
193.7717531964
 31
0.0
  0
LINE
  5
1EE
330
1F
100
AcDbEntity
  8
1
  6
Continuous
 62
     7
370
     9
100
AcDbLine
 10
58.9629961329
 20
204.5217531964
 30
0.0
 11
58.8463301329
 21
204.2717531964
 31
0.0
  0
LINE
  5
1EF
330
1F
100
AcDbEntity
  8
1
  6
Continuous
 62
     7
370
     9
100
AcDbLine
 10
23.8463301329
 20
218.0217531964
 30
0.0
 11
23.9629961329
 21
217.7717531964
 31
0.0
  0
LINE
  5
1F0
330
1F
100
AcDbEntity
  8
1
  6
Continuous
 62
     7
370
     9
100
AcDbLine
 10
22.0463301329
 20
170.7717531964
 30
0.0
 11
21.9296621329
 21
170.5217531964
 31
0.0
  0
LINE
  5
1F1
330
1F
100
AcDbEntity
  8
1
  6
Continuous
 62
     7
370
     9
100
AcDbLine
 10
-0.3036698671
 20
146.2550871964
 30
0.0
 11
-0.5536698671
 21
146.3717531964
 31
0.0
  0
LINE
  5
1F2
330
1F
100
AcDbEntity
  8
1
  6
Continuous
 62
     7
370
     9
100
AcDbLine
 10
23.9629961329
 20
147.7717531964
 30
0.0
 11
23.8463301329
 21
148.0217531964
 31
0.0
  0
LINE
  5
1F3
330
1F
100
AcDbEntity
  8
1
  6
Continuous
 62
     7
370
     9
100
AcDbLine
 10
23.9629961329
 20
159.0217531964
 30
0.0
 11
23.9629961329
 21
160.0217531964
 31
0.0
  0
LINE
  5
1F4
330
1F
100
AcDbEntity
  8
1
  6
Continuous
 62
     7
370
     9
100
AcDbLine
 10
21.9296621329
 20
169.5217531964
 30
0.0
 11
22.0463301329
 21
169.2717531964
 31
0.0
  0
LINE
  5
1F5
330
1F
100
AcDbEntity
  8
1
  6
Continuous
 62
     7
370
     9
100
AcDbLine
 10
23.8463301329
 20
178.7717531964
 30
0.0
 11
23.8463301329
 21
170.7717531964
 31
0.0
  0
LINE
  5
1F6
330
1F
100
AcDbEntity
  8
1
  6
Continuous
 62
     7
370
     9
100
AcDbLine
 10
23.8463301329
 20
205.7717531964
 30
0.0
 11
23.8463301329
 21
216.5217531964
 31
0.0
  0
LINE
  5
1F7
330
1F
100
AcDbEntity
  8
1
  6
Continuous
 62
     7
370
     9
100
AcDbLine
 10
22.0463301329
 20
160.2717531964
 30
0.0
 11
22.0463301329
 21
169.2717531964
 31
0.0
  0
LINE
  5
1F8
330
1F
100
AcDbEntity
  8
1
  6
Continuous
 62
     7
370
     9
100
AcDbLine
 10
58.9629961329
 20
217.7717531964
 30
0.0
 11
58.9629961329
 21
216.7717531964
 31
0.0
  0
LINE
  5
1F9
330
1F
100
AcDbEntity
  8
1
  6
Continuous
 62
     7
370
     9
100
AcDbLine
 10
0.9463301329
 20
146.3717531964
 30
0.0
 11
9.9463301329
 21
146.3717531964
 31
0.0
  0
LINE
  5
1FA
330
1F
100
AcDbEntity
  8
1
  6
Continuous
 62
     7
370
     9
100
AcDbLine
 10
23.8463301329
 20
195.2717531964
 30
0.0
 11
23.8463301329
 21
204.2717531964
 31
0.0
  0
LINE
  5
1FB
330
1F
100
AcDbEntity
  8
1
  6
Continuous
 62
     7
370
     9
100
AcDbLine
 10
58.8463301329
 20
195.2717531964
 30
0.0
 11
58.9629961329
 21
195.0217531964
 31
0.0
  0
LINE
  5
1FC
330
1F
100
AcDbEntity
  8
1
  6
Continuous
 62
     7
370
     9
100
AcDbLine
 10
23.9629961329
 20
205.5217531964
 30
0.0
 11
23.9629961329
 21
204.5217531964
 31
0.0
  0
LINE
  5
1FD
330
1F
100
AcDbEntity
  8
1
  6
Continuous
 62
     7
370
     9
100
AcDbLine
 10
10.1963301329
 20
146.2550871964
 30
0.0
 11
9.9463301329
 21
146.3717531964
 31
0.0
  0
LINE
  5
1FE
330
1F
100
AcDbEntity
  8
1
  6
Continuous
 62
     7
370
     9
100
AcDbLine
 10
23.8463301329
 20
230.1717531964
 30
0.0
 11
23.9629961329
 21
230.0217531964
 31
0.0
  0
LINE
  5
1FF
330
1F
100
AcDbEntity
  8
1
  6
Continuous
 62
     7
370
     9
100
AcDbLine
 10
21.9296621329
 20
170.5217531964
 30
0.0
 11
21.9296621329
 21
169.5217531964
 31
0.0
  0
LINE
  5
200
330
1F
100
AcDbEntity
  8
1
  6
Continuous
 62
     7
370
     9
100
AcDbLine
 10
23.8463301329
 20
195.2717531964
 30
0.0
 11
23.9629961329
 21
195.0217531964
 31
0.0
  0
LINE
  5
201
330
1F
100
AcDbEntity
  8
1
  6
Continuous
 62
     7
370
     9
100
AcDbLine
 10
22.0463301329
 20
160.2717531964
 30
0.0
 11
21.9296621329
 21
160.0217531964
 31
0.0
  0
LINE
  5
202
330
1F
100
AcDbEntity
  8
1
  6
Continuous
 62
     7
370
     9
100
AcDbLine
 10
58.9629961329
 20
216.7717531964
 30
0.0
 11
58.8463301329
 21
216.5217531964
 31
0.0
  0
LINE
  5
203
330
1F
100
AcDbEntity
  8
1
  6
Continuous
 62
     7
370
     9
100
AcDbLine
 10
21.9296621329
 20
160.0217531964
 30
0.0
 11
21.9296621329
 21
159.0217531964
 31
0.0
  0
LINE
  5
204
330
1F
100
AcDbEntity
  8
1
  6
Continuous
 62
     7
370
     9
100
AcDbLine
 10
23.9629961329
 20
169.5217531964
 30
0.0
 11
23.9629961329
 21
170.5217531964
 31
0.0
  0
LINE
  5
205
330
1F
100
AcDbEntity
  8
1
  6
Continuous
 62
     7
370
     9
100
AcDbLine
 10
0.9463301329
 20
146.3717531964
 30
0.0
 11
0.6963301329
 21
146.2550871964
 31
0.0
  0
LINE
  5
206
330
1F
100
AcDbEntity
  8
1
  6
Continuous
 62
     7
370
     9
100
AcDbLine
 10
23.9629961329
 20
230.0217531964
 30
0.0
 11
23.9629961329
 21
229.0217531964
 31
0.0
  0
LINE
  5
207
330
1F
100
AcDbEntity
  8
1
  6
Continuous
 62
     7
370
     9
100
AcDbLine
 10
58.9629961329
 20
194.0217531964
 30
0.0
 11
58.8463301329
 21
193.7717531964
 31
0.0
  0
LINE
  5
208
330
1F
100
AcDbEntity
  8
1
  6
Continuous
 62
     7
370
     9
100
AcDbLine
 10
23.9629961329
 20
217.7717531964
 30
0.0
 11
23.9629961329
 21
216.7717531964
 31
0.0
  0
LINE
  5
209
330
1F
100
AcDbEntity
  8
1
  6
Continuous
 62
     7
370
     9
100
AcDbLine
 10
11.4463301329
 20
146.3717531964
 30
0.0
 11
11.1963301329
 21
146.2550871964
 31
0.0
  0
LINE
  5
20A
330
1F
100
AcDbEntity
  8
1
  6
Continuous
 62
     7
370
     9
100
AcDbLine
 10
58.9629961329
 20
229.0217531964
 30
0.0
 11
58.8463301329
 21
228.8717531964
 31
0.0
  0
LINE
  5
20B
330
1F
100
AcDbEntity
  8
1
  6
Continuous
 62
     7
370
     9
100
AcDbLine
 10
23.9629961329
 20
216.7717531964
 30
0.0
 11
23.8463301329
 21
216.5217531964
 31
0.0
  0
LINE
  5
20C
330
1F
100
AcDbEntity
  8
1
  6
Continuous
 62
     7
370
     9
100
AcDbLine
 10
58.8463301329
 20
205.7717531964
 30
0.0
 11
58.9629961329
 21
205.5217531964
 31
0.0
  0
LINE
  5
20D
330
1F
100
AcDbEntity
  8
1
  6
Continuous
 62
     7
370
     9
100
AcDbLine
 10
23.8463301329
 20
185.7717531964
 30
0.0
 11
23.8463301329
 21
193.7717531964
 31
0.0
  0
LINE
  5
20E
330
1F
100
AcDbEntity
  8
1
  6
Continuous
 62
     7
370
     9
100
AcDbLine
 10
58.8463301329
 20
185.7717531964
 30
0.0
 11
58.8463301329
 21
193.7717531964
 31
0.0
  0
LINE
  5
20F
330
1F
100
AcDbEntity
  8
1
  6
Continuous
 62
     7
370
     9
100
AcDbLine
 10
23.8463301329
 20
218.0217531964
 30
0.0
 11
23.8463301329
 21
228.8717531964
 31
0.0
  0
LINE
  5
210
330
1F
100
AcDbEntity
  8
1
  6
Continuous
 62
     7
370
     9
100
AcDbLine
 10
58.8463301329
 20
195.2717531964
 30
0.0
 11
58.8463301329
 21
204.2717531964
 31
0.0
  0
LINE
  5
211
330
1F
100
AcDbEntity
  8
1
  6
Continuous
 62
     7
370
     9
100
AcDbLine
 10
23.9629961329
 20
229.0217531964
 30
0.0
 11
23.8463301329
 21
228.8717531964
 31
0.0
  0
ARC
  5
212
330
1F
100
AcDbEntity
  8
1
  6
Continuous
 62
     7
370
     9
100
AcDbCircle
 10
22.9463301329
 20
185.7717531964
 30
0.0
 40
0.9
100
AcDbArc
 50
180.0
 51
0.0
  0
LINE
  5
213
330
1F
100
AcDbEntity
  8
1
  6
Continuous
 62
     7
370
     9
100
AcDbLine
 10
22.0463301329
 20
170.7717531964
 30
0.0
 11
22.0463301329
 21
178.7717531964
 31
0.0
  0
LINE
  5
214
330
1F
100
AcDbEntity
  8
1
  6
Continuous
 62
     7
370
     9
100
AcDbLine
 10
21.9296621329
 20
159.0217531964
 30
0.0
 11
22.0463301329
 21
158.7717531964
 31
0.0
  0
LINE
  5
215
330
1F
100
AcDbEntity
  8
1
  6
Continuous
 62
     7
370
     9
100
AcDbLine
 10
69.6963301329
 20
146.2552251964
 30
0.0
 11
70.6963301329
 21
146.2552251964
 31
0.0
  0
ARC
  5
216
330
1F
100
AcDbEntity
  8
1
  6
Continuous
 62
     7
370
     9
100
AcDbCircle
 10
-33.0536698671
 20
147.2717531964
 30
0.0
 40
0.899794
100
AcDbArc
 50
90.0
 51
270.0
  0
LINE
  5
217
330
1F
100
AcDbEntity
  8
1
  6
Continuous
 62
     7
370
     9
100
AcDbLine
 10
-23.5536698671
 20
218.1715471964
 30
0.0
 11
-23.8036698671
 21
218.2882831964
 31
0.0
  0
LINE
  5
218
330
1F
100
AcDbEntity
  8
1
  6
Continuous
 62
     7
370
     9
100
AcDbLine
 10
69.4463301329
 20
218.1715471964
 30
0.0
 11
61.4463301329
 21
218.1715471964
 31
0.0
  0
LINE
  5
219
330
1F
100
AcDbEntity
  8
1
  6
Continuous
 62
     7
370
     9
100
AcDbLine
 10
0.6963301329
 20
183.2882831964
 30
0.0
 11
-0.3036698671
 21
183.2882831964
 31
0.0
  0
LINE
  5
21A
330
1F
100
AcDbEntity
  8
1
  6
Continuous
 62
     7
370
     9
100
AcDbLine
 10
-11.3036698671
 20
183.1715471964
 30
0.0
 11
-0.5536698671000009
 21
183.1715471964
 31
0.0
  0
LINE
  5
21B
330
1F
100
AcDbEntity
  8
1
  6
Continuous
 62
     7
370
     9
100
AcDbLine
 10
22.0463301329
 20
135.6717531964
 30
0.0
 11
22.0463301329
 21
146.5217531964
 31
0.0
  0
LINE
  5
21C
330
1F
100
AcDbEntity
  8
1
  6
Continuous
 62
     7
370
     9
100
AcDbLine
 10
21.9296621329
 20
194.0217531964
 30
0.0
 11
21.9296621329
 21
195.0217531964
 31
0.0
  0
LINE
  5
21D
330
1F
100
AcDbEntity
  8
1
  6
Continuous
 62
     7
370
     9
100
AcDbLine
 10
69.4463301329
 20
146.3719611964
 30
0.0
 11
61.4463301329
 21
146.3719611964
 31
0.0
  0
LINE
  5
21E
330
1F
100
AcDbEntity
  8
1
  6
Continuous
 62
     7
370
     9
100
AcDbLine
 10
-33.0536698671
 20
146.3719611964
 30
0.0
 11
-25.0536698671
 21
146.3719611964
 31
0.0
  0
LINE
  5
21F
330
1F
100
AcDbEntity
  8
1
  6
Continuous
 62
     7
370
     9
100
AcDbLine
 10
-24.8036698671
 20
146.2552251964
 30
0.0
 11
-25.0536698671
 21
146.3719611964
 31
0.0
  0
LINE
  5
220
330
1F
100
AcDbEntity
  8
1
  6
Continuous
 62
     7
370
     9
100
AcDbLine
 10
78.9463301329
 20
218.1715471964
 30
0.0
 11
70.9463301329
 21
218.1715471964
 31
0.0
  0
LINE
  5
221
330
1F
100
AcDbEntity
  8
1
  6
Continuous
 62
     7
370
     9
100
AcDbLine
 10
69.6963301329
 20
218.2882831964
 30
0.0
 11
70.6963301329
 21
218.2882831964
 31
0.0
  0
LINE
  5
222
330
1F
100
AcDbEntity
  8
1
  6
Continuous
 62
     7
370
     9
100
AcDbLine
 10
-23.5536698671
 20
218.1715471964
 30
0.0
 11
-15.5536698671
 21
218.1715471964
 31
0.0
  0
ARC
  5
223
330
1F
100
AcDbEntity
  8
1
  6
Continuous
 62
     7
370
     9
100
AcDbCircle
 10
78.9463301329
 20
217.2717531964
 30
0.0
 40
0.899794
100
AcDbArc
 50
270.0
 51
90.0
  0
ARC
  5
224
330
1F
100
AcDbEntity
  8
1
  6
Continuous
 62
     7
370
     9
100
AcDbCircle
 10
78.9463301329
 20
147.2717531964
 30
0.0
 40
0.899794
100
AcDbArc
 50
270.0
 51
90.0
  0
LINE
  5
225
330
1F
100
AcDbEntity
  8
1
  6
Continuous
 62
     7
370
     9
100
AcDbLine
 10
22.0463301329
 20
135.6717531964
 30
0.0
 11
21.9296621329
 21
135.5217531964
 31
0.0
  0
LINE
  5
226
330
1F
100
AcDbEntity
  8
1
  6
Continuous
 62
     7
370
     9
100
AcDbLine
 10
21.9296621329
 20
134.5217531964
 30
0.0
 11
22.0463301329
 21
134.3717531964
 31
0.0
  0
LINE
  5
227
330
1F
100
AcDbEntity
  8
1
  6
Continuous
 62
     7
370
     9
100
AcDbLine
 10
22.0463301329
 20
193.7717531964
 30
0.0
 11
21.9296621329
 21
194.0217531964
 31
0.0
  0
LINE
  5
228
330
1F
100
AcDbEntity
  8
1
  6
Continuous
 62
     7
370
     9
100
AcDbLine
 10
21.9296621329
 20
217.7717531964
 30
0.0
 11
22.0463301329
 21
218.0217531964
 31
0.0
  0
ARC
  5
229
330
1F
100
AcDbEntity
  8
1
  6
Continuous
 62
     7
370
     9
100
AcDbCircle
 10
-33.0536698671
 20
217.2717531964
 30
0.0
 40
0.899794
100
AcDbArc
 50
90.0
 51
270.0
  0
LINE
  5
22A
330
1F
100
AcDbEntity
  8
1
  6
Continuous
 62
     7
370
     9
100
AcDbLine
 10
21.9296621329
 20
229.0217531964
 30
0.0
 11
21.9296621329
 21
230.0217531964
 31
0.0
  0
LINE
  5
22B
330
1F
100
AcDbEntity
  8
1
  6
Continuous
 62
     7
370
     9
100
AcDbLine
 10
22.0463301329
 20
126.2717531964
 30
0.0
 11
22.0463301329
 21
134.3717531964
 31
0.0
  0
LINE
  5
22C
330
1F
100
AcDbEntity
  8
1
  6
Continuous
 62
     7
370
     9
100
AcDbLine
 10
21.9296621329
 20
230.0217531964
 30
0.0
 11
22.0463301329
 21
230.1717531964
 31
0.0
  0
LINE
  5
22D
330
1F
100
AcDbEntity
  8
1
  6
Continuous
 62
     7
370
     9
100
AcDbLine
 10
22.0463301329
 20
204.2717531964
 30
0.0
 11
22.0463301329
 21
195.2717531964
 31
0.0
  0
LINE
  5
22E
330
1F
100
AcDbEntity
  8
1
  6
Continuous
 62
     7
370
     9
100
AcDbLine
 10
22.0463301329
 20
228.8717531964
 30
0.0
 11
22.0463301329
 21
218.0217531964
 31
0.0
  0
LINE
  5
22F
330
1F
100
AcDbEntity
  8
1
  6
Continuous
 62
     7
370
     9
100
AcDbLine
 10
-23.8036698671
 20
146.2552251964
 30
0.0
 11
-24.8036698671
 21
146.2552251964
 31
0.0
  0
ARC
  5
230
330
1F
100
AcDbEntity
  8
1
  6
Continuous
 62
     7
370
     9
100
AcDbCircle
 10
61.4463301329
 20
217.2717531964
 30
0.0
 40
0.899794
100
AcDbArc
 50
90.0
 51
270.0
  0
LINE
  5
231
330
1F
100
AcDbEntity
  8
1
  6
Continuous
 62
     7
370
     9
100
AcDbLine
 10
-11.3036698671
 20
183.1715471964
 30
0.0
 11
-11.5536698671
 21
183.2882831964
 31
0.0
  0
LINE
  5
232
330
1F
100
AcDbEntity
  8
1
  6
Continuous
 62
     7
370
     9
100
AcDbLine
 10
21.9296621329
 20
135.5217531964
 30
0.0
 11
21.9296621329
 21
134.5217531964
 31
0.0
  0
LINE
  5
233
330
1F
100
AcDbEntity
  8
1
  6
Continuous
 62
     7
370
     9
100
AcDbLine
 10
22.0463301329
 20
238.2717531964
 30
0.0
 11
22.0463301329
 21
230.1717531964
 31
0.0
  0
LINE
  5
234
330
1F
100
AcDbEntity
  8
1
  6
Continuous
 62
     7
370
     9
100
AcDbLine
 10
22.0463301329
 20
193.7717531964
 30
0.0
 11
22.0463301329
 21
185.7717531964
 31
0.0
  0
LINE
  5
235
330
1F
100
AcDbEntity
  8
1
  6
Continuous
 62
     7
370
     9
100
AcDbLine
 10
69.4463301329
 20
218.1715471964
 30
0.0
 11
69.6963301329
 21
218.2882831964
 31
0.0
  0
LINE
  5
236
330
1F
100
AcDbEntity
  8
1
  6
Continuous
 62
     7
370
     9
100
AcDbLine
 10
-24.8036698671
 20
218.2882831964
 30
0.0
 11
-25.0536698671
 21
218.1715471964
 31
0.0
  0
LINE
  5
237
330
1F
100
AcDbEntity
  8
1
  6
Continuous
 62
     7
370
     9
100
AcDbLine
 10
-11.5536698671
 20
183.2882831964
 30
0.0
 11
-12.5536698671
 21
183.2882831964
 31
0.0
  0
LINE
  5
238
330
1F
100
AcDbEntity
  8
1
  6
Continuous
 62
     7
370
     9
100
AcDbLine
 10
-12.5536698671
 20
183.2882831964
 30
0.0
 11
-12.8036698671
 21
183.1715471964
 31
0.0
  0
LINE
  5
239
330
1F
100
AcDbEntity
  8
1
  6
Continuous
 62
     7
370
     9
100
AcDbLine
 10
-23.5536698671
 20
183.1715471964
 30
0.0
 11
-12.8036698671
 21
183.1715471964
 31
0.0
  0
LINE
  5
23A
330
1F
100
AcDbEntity
  8
1
  6
Continuous
 62
     7
370
     9
100
AcDbLine
 10
21.9296621329
 20
195.0217531964
 30
0.0
 11
22.0463301329
 21
195.2717531964
 31
0.0
  0
LINE
  5
23B
330
1F
100
AcDbEntity
  8
1
  6
Continuous
 62
     7
370
     9
100
AcDbLine
 10
-23.5536698671
 20
183.1715471964
 30
0.0
 11
-23.8036698671
 21
183.2882831964
 31
0.0
  0
LINE
  5
23C
330
1F
100
AcDbEntity
  8
1
  6
Continuous
 62
     7
370
     9
100
AcDbLine
 10
-23.8036698671
 20
183.2882831964
 30
0.0
 11
-24.8036698671
 21
183.2882831964
 31
0.0
  0
LINE
  5
23D
330
1F
100
AcDbEntity
  8
1
  6
Continuous
 62
     7
370
     9
100
AcDbLine
 10
78.9463301329
 20
146.3719611964
 30
0.0
 11
70.9463301329
 21
146.3719611964
 31
0.0
  0
LINE
  5
23E
330
1F
100
AcDbEntity
  8
1
  6
Continuous
 62
     7
370
     9
100
AcDbLine
 10
-24.8036698671
 20
183.2882831964
 30
0.0
 11
-25.0536698671
 21
183.1715471964
 31
0.0
  0
LINE
  5
23F
330
1F
100
AcDbEntity
  8
1
  6
Continuous
 62
     7
370
     9
100
AcDbLine
 10
-23.5536698671
 20
146.3719611964
 30
0.0
 11
-15.5536698671
 21
146.3719611964
 31
0.0
  0
LINE
  5
240
330
1F
100
AcDbEntity
  8
1
  6
Continuous
 62
     7
370
     9
100
AcDbLine
 10
21.9296621329
 20
146.7717531964
 30
0.0
 11
22.0463301329
 21
146.5217531964
 31
0.0
  0
LINE
  5
241
330
1F
100
AcDbEntity
  8
1
  6
Continuous
 62
     7
370
     9
100
AcDbLine
 10
-33.0536698671
 20
183.1715471964
 30
0.0
 11
-25.0536698671
 21
183.1715471964
 31
0.0
  0
LINE
  5
242
330
1F
100
AcDbEntity
  8
1
  6
Continuous
 62
     7
370
     9
100
AcDbLine
 10
11.4463301329
 20
183.1715471964
 30
0.0
 11
19.4463301329
 21
183.1715471964
 31
0.0
  0
LINE
  5
243
330
1F
100
AcDbEntity
  8
1
  6
Continuous
 62
     7
370
     9
100
AcDbLine
 10
11.4463301329
 20
183.1715471964
 30
0.0
 11
11.1963301329
 21
183.2882831964
 31
0.0
  0
LINE
  5
244
330
1F
100
AcDbEntity
  8
1
  6
Continuous
 62
     7
370
     9
100
AcDbLine
 10
11.1963301329
 20
183.2882831964
 30
0.0
 11
10.1963301329
 21
183.2882831964
 31
0.0
  0
LINE
  5
245
330
1F
100
AcDbEntity
  8
1
  6
Continuous
 62
     7
370
     9
100
AcDbLine
 10
22.0463301329
 20
216.5217531964
 30
0.0
 11
21.9296621329
 21
216.7717531964
 31
0.0
  0
LINE
  5
246
330
1F
100
AcDbEntity
  8
1
  6
Continuous
 62
     7
370
     9
100
AcDbLine
 10
70.6963301329
 20
146.2552251964
 30
0.0
 11
70.9463301329
 21
146.3719611964
 31
0.0
  0
LINE
  5
247
330
1F
100
AcDbEntity
  8
1
  6
Continuous
 62
     7
370
     9
100
AcDbLine
 10
-33.0536698671
 20
218.1715471964
 30
0.0
 11
-25.0536698671
 21
218.1715471964
 31
0.0
  0
LINE
  5
248
330
1F
100
AcDbEntity
  8
1
  6
Continuous
 62
     7
370
     9
100
AcDbLine
 10
70.6963301329
 20
218.2882831964
 30
0.0
 11
70.9463301329
 21
218.1715471964
 31
0.0
  0
LINE
  5
249
330
1F
100
AcDbEntity
  8
1
  6
Continuous
 62
     7
370
     9
100
AcDbLine
 10
69.4463301329
 20
146.3719611964
 30
0.0
 11
69.6963301329
 21
146.2552251964
 31
0.0
  0
LINE
  5
24A
330
1F
100
AcDbEntity
  8
1
  6
Continuous
 62
     7
370
     9
100
AcDbLine
 10
22.0463301329
 20
216.5217531964
 30
0.0
 11
22.0463301329
 21
205.7717531964
 31
0.0
  0
LINE
  5
24B
330
1F
100
AcDbEntity
  8
1
  6
Continuous
 62
     7
370
     9
100
AcDbLine
 10
21.9296621329
 20
147.7717531964
 30
0.0
 11
21.9296621329
 21
146.7717531964
 31
0.0
  0
LINE
  5
24C
330
1F
100
AcDbEntity
  8
1
  6
Continuous
 62
     7
370
     9
100
AcDbLine
 10
21.9296621329
 20
204.5217531964
 30
0.0
 11
21.9296621329
 21
205.5217531964
 31
0.0
  0
LINE
  5
24D
330
1F
100
AcDbEntity
  8
1
  6
Continuous
 62
     7
370
     9
100
AcDbLine
 10
-23.5536698671
 20
146.3719611964
 30
0.0
 11
-23.8036698671
 21
146.2552251964
 31
0.0
  0
LINE
  5
24E
330
1F
100
AcDbEntity
  8
1
  6
Continuous
 62
     7
370
     9
100
AcDbLine
 10
-23.8036698671
 20
218.2882831964
 30
0.0
 11
-24.8036698671
 21
218.2882831964
 31
0.0
  0
LINE
  5
24F
330
1F
100
AcDbEntity
  8
1
  6
Continuous
 62
     7
370
     9
100
AcDbLine
 10
-0.3036698671
 20
183.2882831964
 30
0.0
 11
-0.5536698671
 21
183.1715471964
 31
0.0
  0
LINE
  5
250
330
1F
100
AcDbEntity
  8
1
  6
Continuous
 62
     7
370
     9
100
AcDbLine
 10
22.0463301329
 20
228.8717531964
 30
0.0
 11
21.9296621329
 21
229.0217531964
 31
0.0
  0
LINE
  5
251
330
1F
100
AcDbEntity
  8
1
  6
Continuous
 62
     7
370
     9
100
AcDbLine
 10
21.9296621329
 20
216.7717531964
 30
0.0
 11
21.9296621329
 21
217.7717531964
 31
0.0
  0
LINE
  5
252
330
1F
100
AcDbEntity
  8
1
  6
Continuous
 62
     7
370
     9
100
AcDbLine
 10
21.9296621329
 20
205.5217531964
 30
0.0
 11
22.0463301329
 21
205.7717531964
 31
0.0
  0
LINE
  5
253
330
1F
100
AcDbEntity
  8
1
  6
Continuous
 62
     7
370
     9
100
AcDbLine
 10
22.0463301329
 20
204.2717531964
 30
0.0
 11
21.9296621329
 21
204.5217531964
 31
0.0
  0
LINE
  5
254
330
1F
100
AcDbEntity
  8
1
  6
Continuous
 62
     7
370
     9
100
AcDbLine
 10
22.0463301329
 20
148.0217531964
 30
0.0
 11
21.9296621329
 21
147.7717531964
 31
0.0
  0
LINE
  5
255
330
1F
100
AcDbEntity
  8
1
  6
Continuous
 62
     7
370
     9
100
AcDbLine
 10
-25.0536698671
 20
216.3719611964
 30
0.0
 11
-33.0536698671
 21
216.3719611964
 31
0.0
  0
LINE
  5
256
330
1F
100
AcDbEntity
  8
1
  6
Continuous
 62
     7
370
     9
100
AcDbLine
 10
70.6963301329
 20
181.2552251964
 30
0.0
 11
69.6963301329
 21
181.2552251964
 31
0.0
  0
LINE
  5
257
330
1F
100
AcDbEntity
  8
1
  6
Continuous
 62
     7
370
     9
100
AcDbLine
 10
10.1963301329
 20
183.2882831964
 30
0.0
 11
9.9463301329
 21
183.1715471964
 31
0.0
  0
LINE
  5
258
330
1F
100
AcDbEntity
  8
1
  6
Continuous
 62
     7
370
     9
100
AcDbLine
 10
61.4463301329
 20
216.3719611964
 30
0.0
 11
69.4463301329
 21
216.3719611964
 31
0.0
  0
LINE
  5
259
330
1F
100
AcDbEntity
  8
1
  6
Continuous
 62
     7
370
     9
100
AcDbLine
 10
58.6963301329
 20
181.3719611964
 30
0.0
 11
69.4463301329
 21
181.3719611964
 31
0.0
  0
LINE
  5
25A
330
1F
100
AcDbEntity
  8
1
  6
Continuous
 62
     7
370
     9
100
AcDbLine
 10
70.9463301329
 20
148.1715471964
 30
0.0
 11
70.6963301329
 21
148.2882831964
 31
0.0
  0
LINE
  5
25B
330
1F
100
AcDbEntity
  8
1
  6
Continuous
 62
     7
370
     9
100
AcDbLine
 10
70.9463301329
 20
216.3719611964
 30
0.0
 11
70.6963301329
 21
216.2552251964
 31
0.0
  0
LINE
  5
25C
330
1F
100
AcDbEntity
  8
1
  6
Continuous
 62
     7
370
     9
100
AcDbLine
 10
34.6963301329
 20
181.2552251964
 30
0.0
 11
34.4463301329
 21
181.3719611964
 31
0.0
  0
LINE
  5
25D
330
1F
100
AcDbEntity
  8
1
  6
Continuous
 62
     7
370
     9
100
AcDbLine
 10
35.9463301329
 20
181.3719611964
 30
0.0
 11
44.9463301329
 21
181.3719611964
 31
0.0
  0
ARC
  5
25E
330
1F
100
AcDbEntity
  8
1
  6
Continuous
 62
     7
370
     9
100
AcDbCircle
 10
26.4463301329
 20
182.2717531964
 30
0.0
 40
0.899794
100
AcDbArc
 50
90.0
 51
270.0
  0
LINE
  5
25F
330
1F
100
AcDbEntity
  8
1
  6
Continuous
 62
     7
370
     9
100
AcDbLine
 10
-25.0536698671
 20
216.3719611964
 30
0.0
 11
-24.8036698671
 21
216.2552251964
 31
0.0
  0
LINE
  5
260
330
1F
100
AcDbEntity
  8
1
  6
Continuous
 62
     7
370
     9
100
AcDbLine
 10
46.4463301329
 20
181.3719611964
 30
0.0
 11
46.1963301329
 21
181.2552251964
 31
0.0
  0
LINE
  5
261
330
1F
100
AcDbEntity
  8
1
  6
Continuous
 62
     7
370
     9
100
AcDbLine
 10
46.4463301329
 20
181.3719611964
 30
0.0
 11
57.1963301329
 21
181.3719611964
 31
0.0
  0
LINE
  5
262
330
1F
100
AcDbEntity
  8
1
  6
Continuous
 62
     7
370
     9
100
AcDbLine
 10
70.6963301329
 20
148.2882831964
 30
0.0
 11
69.6963301329
 21
148.2882831964
 31
0.0
  0
ARC
  5
263
330
1F
100
AcDbEntity
  8
1
  6
Continuous
 62
     7
370
     9
100
AcDbCircle
 10
78.9463301329
 20
182.2717531964
 30
0.0
 40
0.899794
100
AcDbArc
 50
270.0
 51
90.0
  0
LINE
  5
264
330
1F
100
AcDbEntity
  8
1
  6
Continuous
 62
     7
370
     9
100
AcDbLine
 10
70.9463301329
 20
181.3719611964
 30
0.0
 11
70.6963301329
 21
181.2552251964
 31
0.0
  0
LINE
  5
265
330
1F
100
AcDbEntity
  8
1
  6
Continuous
 62
     7
370
     9
100
AcDbLine
 10
35.9463301329
 20
181.3719611964
 30
0.0
 11
35.6963301329
 21
181.2552251964
 31
0.0
  0
LINE
  5
266
330
1F
100
AcDbEntity
  8
1
  6
Continuous
 62
     7
370
     9
100
AcDbLine
 10
45.1963301329
 20
181.2552251964
 30
0.0
 11
44.9463301329
 21
181.3719611964
 31
0.0
  0
LINE
  5
267
330
1F
100
AcDbEntity
  8
1
  6
Continuous
 62
     7
370
     9
100
AcDbLine
 10
46.1963301329
 20
181.2552251964
 30
0.0
 11
45.1963301329
 21
181.2552251964
 31
0.0
  0
LINE
  5
268
330
1F
100
AcDbEntity
  8
1
  6
Continuous
 62
     7
370
     9
100
AcDbLine
 10
-25.0536698671
 20
148.1715471964
 30
0.0
 11
-24.8036698671
 21
148.2882831964
 31
0.0
  0
LINE
  5
269
330
1F
100
AcDbEntity
  8
1
  6
Continuous
 62
     7
370
     9
100
AcDbLine
 10
-25.0536698671
 20
148.1715471964
 30
0.0
 11
-33.0536698671
 21
148.1715471964
 31
0.0
  0
LINE
  5
26A
330
1F
100
AcDbEntity
  8
1
  6
Continuous
 62
     7
370
     9
100
AcDbLine
 10
-15.5536698671
 20
148.1715471964
 30
0.0
 11
-23.5536698671
 21
148.1715471964
 31
0.0
  0
LINE
  5
26B
330
1F
100
AcDbEntity
  8
1
  6
Continuous
 62
     7
370
     9
100
AcDbLine
 10
69.6963301329
 20
181.2552251964
 30
0.0
 11
69.4463301329
 21
181.3719611964
 31
0.0
  0
LINE
  5
26C
330
1F
100
AcDbEntity
  8
1
  6
Continuous
 62
     7
370
     9
100
AcDbLine
 10
-23.8036698671
 20
148.2882831964
 30
0.0
 11
-23.5536698671
 21
148.1715471964
 31
0.0
  0
LINE
  5
26D
330
1F
100
AcDbEntity
  8
1
  6
Continuous
 62
     7
370
     9
100
AcDbLine
 10
-24.8036698671
 20
148.2882831964
 30
0.0
 11
-23.8036698671
 21
148.2882831964
 31
0.0
  0
LINE
  5
26E
330
1F
100
AcDbEntity
  8
1
  6
Continuous
 62
     7
370
     9
100
AcDbLine
 10
69.6963301329
 20
148.2882831964
 30
0.0
 11
69.4463301329
 21
148.1715471964
 31
0.0
  0
LINE
  5
26F
330
1F
100
AcDbEntity
  8
1
  6
Continuous
 62
     7
370
     9
100
AcDbLine
 10
0.9463301329
 20
183.1715471964
 30
0.0
 11
9.9463301329
 21
183.1715471964
 31
0.0
  0
LINE
  5
270
330
1F
100
AcDbEntity
  8
1
  6
Continuous
 62
     7
370
     9
100
AcDbLine
 10
-23.8036698671
 20
216.2552251964
 30
0.0
 11
-23.5536698671
 21
216.3719611964
 31
0.0
  0
LINE
  5
271
330
1F
100
AcDbEntity
  8
1
  6
Continuous
 62
     7
370
     9
100
AcDbLine
 10
58.4463301329
 20
181.2552251964
 30
0.0
 11
57.4463301329
 21
181.2552251964
 31
0.0
  0
LINE
  5
272
330
1F
100
AcDbEntity
  8
1
  6
Continuous
 62
     7
370
     9
100
AcDbLine
 10
0.9463301329
 20
183.1715471964
 30
0.0
 11
0.6963301329
 21
183.2882831964
 31
0.0
  0
LINE
  5
273
330
1F
100
AcDbEntity
  8
1
  6
Continuous
 62
     7
370
     9
100
AcDbLine
 10
70.9463301329
 20
181.3719611964
 30
0.0
 11
78.9463301329
 21
181.3719611964
 31
0.0
  0
LINE
  5
274
330
1F
100
AcDbEntity
  8
1
  6
Continuous
 62
     7
370
     9
100
AcDbLine
 10
35.6963301329
 20
183.2882831964
 30
0.0
 11
35.9463301329
 21
183.1715471964
 31
0.0
  0
LINE
  5
275
330
1F
100
AcDbEntity
  8
1
  6
Continuous
 62
     7
370
     9
100
AcDbLine
 10
34.6963301329
 20
183.2882831964
 30
0.0
 11
35.6963301329
 21
183.2882831964
 31
0.0
  0
LINE
  5
276
330
1F
100
AcDbEntity
  8
1
  6
Continuous
 62
     7
370
     9
100
AcDbLine
 10
34.4463301329
 20
183.1715471964
 30
0.0
 11
34.6963301329
 21
183.2882831964
 31
0.0
  0
LINE
  5
277
330
1F
100
AcDbEntity
  8
1
  6
Continuous
 62
     7
370
     9
100
AcDbLine
 10
34.4463301329
 20
183.1715471964
 30
0.0
 11
26.4463301329
 21
183.1715471964
 31
0.0
  0
LINE
  5
278
330
1F
100
AcDbEntity
  8
1
  6
Continuous
 62
     7
370
     9
100
AcDbLine
 10
70.9463301329
 20
148.1715471964
 30
0.0
 11
78.9463301329
 21
148.1715471964
 31
0.0
  0
LINE
  5
279
330
1F
100
AcDbEntity
  8
1
  6
Continuous
 62
     7
370
     9
100
AcDbLine
 10
78.9463301329
 20
183.1715471964
 30
0.0
 11
70.9463301329
 21
183.1715471964
 31
0.0
  0
LINE
  5
27A
330
1F
100
AcDbEntity
  8
1
  6
Continuous
 62
     7
370
     9
100
AcDbLine
 10
70.6963301329
 20
183.2882831964
 30
0.0
 11
70.9463301329
 21
183.1715471964
 31
0.0
  0
LINE
  5
27B
330
1F
100
AcDbEntity
  8
1
  6
Continuous
 62
     7
370
     9
100
AcDbLine
 10
-15.5536698671
 20
216.3719611964
 30
0.0
 11
-23.5536698671
 21
216.3719611964
 31
0.0
  0
LINE
  5
27C
330
1F
100
AcDbEntity
  8
1
  6
Continuous
 62
     7
370
     9
100
AcDbLine
 10
69.6963301329
 20
216.2552251964
 30
0.0
 11
69.4463301329
 21
216.3719611964
 31
0.0
  0
LINE
  5
27D
330
1F
100
AcDbEntity
  8
1
  6
Continuous
 62
     7
370
     9
100
AcDbLine
 10
69.6963301329
 20
183.2882831964
 30
0.0
 11
70.6963301329
 21
183.2882831964
 31
0.0
  0
LINE
  5
27E
330
1F
100
AcDbEntity
  8
1
  6
Continuous
 62
     7
370
     9
100
AcDbLine
 10
69.4463301329
 20
183.1715471964
 30
0.0
 11
69.6963301329
 21
183.2882831964
 31
0.0
  0
LINE
  5
27F
330
1F
100
AcDbEntity
  8
1
  6
Continuous
 62
     7
370
     9
100
AcDbLine
 10
69.4463301329
 20
183.1715471964
 30
0.0
 11
58.6963301329
 21
183.1715471964
 31
0.0
  0
LINE
  5
280
330
1F
100
AcDbEntity
  8
1
  6
Continuous
 62
     7
370
     9
100
AcDbLine
 10
61.4463301329
 20
148.1715471964
 30
0.0
 11
69.4463301329
 21
148.1715471964
 31
0.0
  0
LINE
  5
281
330
1F
100
AcDbEntity
  8
1
  6
Continuous
 62
     7
370
     9
100
AcDbLine
 10
58.6963301329
 20
181.3719611964
 30
0.0
 11
58.4463301329
 21
181.2552251964
 31
0.0
  0
LINE
  5
282
330
1F
100
AcDbEntity
  8
1
  6
Continuous
 62
     7
370
     9
100
AcDbLine
 10
70.6963301329
 20
216.2552251964
 30
0.0
 11
69.6963301329
 21
216.2552251964
 31
0.0
  0
ARC
  5
283
330
1F
100
AcDbEntity
  8
1
  6
Continuous
 62
     7
370
     9
100
AcDbCircle
 10
-15.5536698671
 20
217.2717531964
 30
0.0
 40
0.899794
100
AcDbArc
 50
270.0
 51
90.0
  0
LINE
  5
284
330
1F
100
AcDbEntity
  8
1
  6
Continuous
 62
     7
370
     9
100
AcDbLine
 10
35.6963301329
 20
181.2552251964
 30
0.0
 11
34.6963301329
 21
181.2552251964
 31
0.0
  0
LINE
  5
285
330
1F
100
AcDbEntity
  8
1
  6
Continuous
 62
     7
370
     9
100
AcDbLine
 10
57.4463301329
 20
181.2552251964
 30
0.0
 11
57.1963301329
 21
181.3719611964
 31
0.0
  0
ARC
  5
286
330
1F
100
AcDbEntity
  8
1
  6
Continuous
 62
     7
370
     9
100
AcDbCircle
 10
-15.5536698671
 20
147.2717531964
 30
0.0
 40
0.899794
100
AcDbArc
 50
270.0
 51
90.0
  0
LINE
  5
287
330
1F
100
AcDbEntity
  8
1
  6
Continuous
 62
     7
370
     9
100
AcDbLine
 10
70.9463301329
 20
216.3719611964
 30
0.0
 11
78.9463301329
 21
216.3719611964
 31
0.0
  0
LINE
  5
288
330
1F
100
AcDbEntity
  8
1
  6
Continuous
 62
     7
370
     9
100
AcDbLine
 10
26.4463301329
 20
181.3719611964
 30
0.0
 11
34.4463301329
 21
181.3719611964
 31
0.0
  0
LINE
  5
289
330
1F
100
AcDbEntity
  8
1
  6
Continuous
 62
     7
370
     9
100
AcDbLine
 10
-24.8036698671
 20
216.2552251964
 30
0.0
 11
-23.8036698671
 21
216.2552251964
 31
0.0
  0
LINE
  5
28A
330
1F
100
AcDbEntity
  8
1
  6
Continuous
 62
     7
370
     9
100
AcDbLine
 10
-37.0536698671
 20
128.7717531964
 30
0.0
 11
-37.0536698671
 21
235.7717531964
 31
0.0
  0
ARC
  5
28B
330
1F
100
AcDbEntity
  8
1
  6
Continuous
 62
     7
370
     9
100
AcDbCircle
 10
61.4463301329
 20
147.2717531964
 30
0.0
 40
0.899794
100
AcDbArc
 50
90.0
 51
270.0
  0
ARC
  5
28C
330
1F
100
AcDbEntity
  8
1
  6
Continuous
 62
     7
370
     9
100
AcDbCircle
 10
5.4463301329
 20
238.2717531964
 30
0.0
 40
0.75
100
AcDbArc
 50
0.0
 51
180.0
  0
ARC
  5
28D
330
1F
100
AcDbEntity
  8
1
  6
Continuous
 62
     7
370
     9
100
AcDbCircle
 10
5.4463301329
 20
136.7717531964
 30
0.0
 40
0.75
100
AcDbArc
 50
0.0
 51
180.0
  0
LINE
  5
28E
330
1F
100
AcDbEntity
  8
1
  6
Continuous
 62
     7
370
     9
100
AcDbLine
 10
39.6963301329
 20
136.7717531964
 30
0.0
 11
39.6963301329
 21
126.2717531964
 31
0.0
  0
LINE
  5
28F
330
1F
100
AcDbEntity
  8
1
  6
Continuous
 62
     7
370
     9
100
AcDbLine
 10
44.9463301329
 20
183.1715471964
 30
0.0
 11
45.1963301329
 21
183.2882831964
 31
0.0
  0
LINE
  5
290
330
1F
100
AcDbEntity
  8
1
  6
Continuous
 62
     7
370
     9
100
AcDbLine
 10
6.1963301329
 20
227.7717531964
 30
0.0
 11
6.1963301329
 21
238.2717531964
 31
0.0
  0
LINE
  5
291
330
1F
100
AcDbEntity
  8
1
  6
Continuous
 62
     7
370
     9
100
AcDbLine
 10
70.6963301329
 20
148.2882831964
 30
0.0
 11
70.6963301329
 21
146.2552251964
 31
0.0
  0
LINE
  5
292
330
1F
100
AcDbEntity
  8
1
  6
Continuous
 62
     7
370
     9
100
AcDbLine
 10
70.9463301329
 20
146.3719611964
 30
0.0
 11
70.9463301329
 21
148.1715471964
 31
0.0
  0
LINE
  5
293
330
1F
100
AcDbEntity
  8
1
  6
Continuous
 62
     7
370
     9
100
AcDbLine
 10
-0.5536698671
 20
181.3719611964
 30
0.0
 11
-11.3036698671
 21
181.3719611964
 31
0.0
  0
LINE
  5
294
330
1F
100
AcDbEntity
  8
1
  6
Continuous
 62
     7
370
     9
100
AcDbLine
 10
12.4463301329
 20
138.1939751964
 30
0.0
 11
12.4463301329
 21
124.8495311964
 31
0.0
  0
LINE
  5
295
330
1F
100
AcDbEntity
  8
1
  6
Continuous
 62
     7
370
     9
100
AcDbLine
 10
76.4463301329
 20
122.2717531964
 30
0.0
 11
-30.55366986709999
 21
122.2717531964
 31
0.0
  0
LINE
  5
296
330
1F
100
AcDbEntity
  8
1
  6
Continuous
 62
     7
370
     9
100
AcDbLine
 10
-12.5536698671
 20
181.2552251964
 30
0.0
 11
-11.5536698671
 21
181.2552251964
 31
0.0
  0
LINE
  5
297
330
1F
100
AcDbEntity
  8
1
  6
Continuous
 62
     7
370
     9
100
AcDbLine
 10
0.6963301329
 20
181.2552251964
 30
0.0
 11
0.9463301329
 21
181.3719611964
 31
0.0
  0
ARC
  5
298
330
1F
100
AcDbEntity
  8
1
  6
Continuous
 62
     7
370
     9
100
AcDbCircle
 10
40.4463301329
 20
227.7717531964
 30
0.0
 40
0.75
100
AcDbArc
 50
180.0
 51
0.0
  0
LINE
  5
299
330
1F
100
AcDbEntity
  8
1
  6
Continuous
 62
     7
370
     9
100
AcDbLine
 10
45.1963301329
 20
183.2882831964
 30
0.0
 11
46.1963301329
 21
183.2882831964
 31
0.0
  0
LINE
  5
29A
330
1F
100
AcDbEntity
  8
1
  6
Continuous
 62
     7
370
     9
100
AcDbLine
 10
82.9463301329
 20
235.7717531964
 30
0.0
 11
82.9463301329
 21
128.7717531964
 31
0.0
  0
LINE
  5
29B
330
1F
100
AcDbEntity
  8
1
  6
Continuous
 62
     7
370
     9
100
AcDbLine
 10
69.6963301329
 20
146.2552251964
 30
0.0
 11
69.6963301329
 21
148.2882831964
 31
0.0
  0
LINE
  5
29C
330
1F
100
AcDbEntity
  8
1
  6
Continuous
 62
     7
370
     9
100
AcDbLine
 10
57.4463301329
 20
183.2882831964
 30
0.0
 11
58.4463301329
 21
183.2882831964
 31
0.0
  0
LINE
  5
29D
330
1F
100
AcDbEntity
  8
1
  6
Continuous
 62
     7
370
     9
100
AcDbLine
 10
57.1963301329
 20
183.1715471964
 30
0.0
 11
46.4463301329
 21
183.1715471964
 31
0.0
  0
LINE
  5
29E
330
1F
100
AcDbEntity
  8
1
  6
Continuous
 62
     7
370
     9
100
AcDbLine
 10
-11.5536698671
 20
181.2552251964
 30
0.0
 11
-11.3036698671
 21
181.3719611964
 31
0.0
  0
LINE
  5
29F
330
1F
100
AcDbEntity
  8
1
  6
Continuous
 62
     7
370
     9
100
AcDbLine
 10
-25.0536698671
 20
146.3719611964
 30
0.0
 11
-25.0536698671
 21
148.1715471964
 31
0.0
  0
LINE
  5
2A0
330
1F
100
AcDbEntity
  8
1
  6
Continuous
 62
     7
370
     9
100
AcDbLine
 10
57.1963301329
 20
183.1715471964
 30
0.0
 11
57.4463301329
 21
183.2882831964
 31
0.0
  0
ARC
  5
2A1
330
1F
100
AcDbEntity
  8
1
  6
Continuous
 62
     7
370
     9
100
AcDbCircle
 10
19.4463301329
 20
182.2717531964
 30
0.0
 40
0.899794
100
AcDbArc
 50
270.0
 51
90.0
  0
LINE
  5
2A2
330
1F
100
AcDbEntity
  8
1
  6
Continuous
 62
     7
370
     9
100
AcDbLine
 10
46.1963301329
 20
183.2882831964
 30
0.0
 11
46.4463301329
 21
183.1715471964
 31
0.0
  0
LINE
  5
2A3
330
1F
100
AcDbEntity
  8
1
  6
Continuous
 62
     7
370
     9
100
AcDbLine
 10
19.4463301329
 20
181.3719611964
 30
0.0
 11
11.4463301329
 21
181.3719611964
 31
0.0
  0
LINE
  5
2A4
330
1F
100
AcDbEntity
  8
1
  6
Continuous
 62
     7
370
     9
100
AcDbLine
 10
12.4463301329
 20
226.3495311964
 30
0.0
 11
12.4463301329
 21
239.6939751964
 31
0.0
  0
LINE
  5
2A5
330
1F
100
AcDbEntity
  8
1
  6
Continuous
 62
     7
370
     9
100
AcDbLine
 10
-30.5536698671
 20
242.2717531964
 30
0.0
 11
76.4463301329
 21
242.2717531964
 31
0.0
  0
LINE
  5
2A6
330
1F
100
AcDbEntity
  8
1
  6
Continuous
 62
     7
370
     9
100
AcDbLine
 10
6.1963301329
 20
136.7717531964
 30
0.0
 11
6.1963301329
 21
126.2717531964
 31
0.0
  0
LINE
  5
2A7
330
1F
100
AcDbEntity
  8
1
  6
Continuous
 62
     7
370
     9
100
AcDbLine
 10
-24.8036698671
 20
148.2882831964
 30
0.0
 11
-24.8036698671
 21
146.2552251964
 31
0.0
  0
LINE
  5
2A8
330
1F
100
AcDbEntity
  8
1
  6
Continuous
 62
     7
370
     9
100
AcDbLine
 10
-23.8036698671
 20
146.2552251964
 30
0.0
 11
-23.8036698671
 21
148.2882831964
 31
0.0
  0
LINE
  5
2A9
330
1F
100
AcDbEntity
  8
1
  6
Continuous
 62
     7
370
     9
100
AcDbLine
 10
-23.5536698671
 20
216.3719611964
 30
0.0
 11
-23.5536698671
 21
218.1715471964
 31
0.0
  0
ARC
  5
2AA
330
1F
100
AcDbEntity
  8
1
  6
Continuous
 62
     7
370
     9
100
AcDbCircle
 10
-30.5536698671
 20
235.7717531964
 30
0.0
 40
6.5
100
AcDbArc
 50
90.0
 51
180.0
  0
LINE
  5
2AB
330
1F
100
AcDbEntity
  8
1
  6
Continuous
 62
     7
370
     9
100
AcDbLine
 10
-24.8036698671
 20
216.2552251964
 30
0.0
 11
-24.8036698671
 21
218.2882831964
 31
0.0
  0
LINE
  5
2AC
330
1F
100
AcDbEntity
  8
1
  6
Continuous
 62
     7
370
     9
100
AcDbLine
 10
-23.5536698671
 20
148.1715471964
 30
0.0
 11
-23.5536698671
 21
146.3719611964
 31
0.0
  0
LINE
  5
2AD
330
1F
100
AcDbEntity
  8
1
  6
Continuous
 62
     7
370
     9
100
AcDbLine
 10
-0.5536698671
 20
181.3719611964
 30
0.0
 11
-0.3036698671
 21
181.2552251964
 31
0.0
  0
LINE
  5
2AE
330
1F
100
AcDbEntity
  8
1
  6
Continuous
 62
     7
370
     9
100
AcDbLine
 10
-23.8036698671
 20
218.2882831964
 30
0.0
 11
-23.8036698671
 21
216.2552251964
 31
0.0
  0
ARC
  5
2AF
330
1F
100
AcDbEntity
  8
1
  6
Continuous
 62
     7
370
     9
100
AcDbCircle
 10
22.9463301329
 20
238.2717531964
 30
0.0
 40
0.9
100
AcDbArc
 50
0.0
 51
180.0
  0
LINE
  5
2B0
330
1F
100
AcDbEntity
  8
1
  6
Continuous
 62
     7
370
     9
100
AcDbLine
 10
9.9463301329
 20
181.3719611964
 30
0.0
 11
10.1963301329
 21
181.2552251964
 31
0.0
  0
LINE
  5
2B1
330
1F
100
AcDbEntity
  8
1
  6
Continuous
 62
     7
370
     9
100
AcDbLine
 10
-23.8036698671
 20
181.2552251964
 30
0.0
 11
-23.5536698671
 21
181.3719611964
 31
0.0
  0
ARC
  5
2B2
330
1F
100
AcDbEntity
  8
1
  6
Continuous
 62
     7
370
     9
100
AcDbCircle
 10
-33.0536698671
 20
182.2717531964
 30
0.0
 40
0.899794
100
AcDbArc
 50
90.0
 51
270.0
  0
LINE
  5
2B3
330
1F
100
AcDbEntity
  8
1
  6
Continuous
 62
     7
370
     9
100
AcDbLine
 10
10.1963301329
 20
181.2552251964
 30
0.0
 11
11.1963301329
 21
181.2552251964
 31
0.0
  0
LINE
  5
2B4
330
1F
100
AcDbEntity
  8
1
  6
Continuous
 62
     7
370
     9
100
AcDbLine
 10
-12.8036698671
 20
181.3719611964
 30
0.0
 11
-23.5536698671
 21
181.3719611964
 31
0.0
  0
LINE
  5
2B5
330
1F
100
AcDbEntity
  8
1
  6
Continuous
 62
     7
370
     9
100
AcDbLine
 10
9.9463301329
 20
181.3719611964
 30
0.0
 11
0.9463301329000005
 21
181.3719611964
 31
0.0
  0
LINE
  5
2B6
330
1F
100
AcDbEntity
  8
1
  6
Continuous
 62
     7
370
     9
100
AcDbLine
 10
-0.3036698671
 20
181.2552251964
 30
0.0
 11
0.6963301329
 21
181.2552251964
 31
0.0
  0
LINE
  5
2B7
330
1F
100
AcDbEntity
  8
1
  6
Continuous
 62
     7
370
     9
100
AcDbLine
 10
33.4463301329
 20
232.8378971964
 30
0.0
 11
33.4463301329
 21
232.8386271964
 31
0.0
  0
LINE
  5
2B8
330
1F
100
AcDbEntity
  8
1
  6
Continuous
 62
     7
370
     9
100
AcDbLine
 10
33.4463301329
 20
233.2048811964
 30
0.0
 11
33.4463301329
 21
233.2056091964
 31
0.0
  0
ARC
  5
2B9
330
1F
100
AcDbEntity
  8
1
  6
Continuous
 62
     7
370
     9
100
AcDbCircle
 10
5.4463301329
 20
227.7717531964
 30
0.0
 40
0.75
100
AcDbArc
 50
180.0
 51
0.0
  0
LINE
  5
2BA
330
1F
100
AcDbEntity
  8
1
  6
Continuous
 62
     7
370
     9
100
AcDbLine
 10
-24.8036698671
 20
181.2552251964
 30
0.0
 11
-23.8036698671
 21
181.2552251964
 31
0.0
  0
ARC
  5
2BB
330
1F
100
AcDbEntity
  8
1
  6
Continuous
 62
     7
370
     9
100
AcDbCircle
 10
76.4463301329
 20
235.7717531964
 30
0.0
 40
6.5
100
AcDbArc
 50
0.0
 51
90.0
  0
ARC
  5
2BC
330
1F
100
AcDbEntity
  8
1
  6
Continuous
 62
     7
370
     9
100
AcDbCircle
 10
22.9463301329
 20
126.2717531964
 30
0.0
 40
0.9
100
AcDbArc
 50
180.0
 51
0.0
  0
LINE
  5
2BD
330
1F
100
AcDbEntity
  8
1
  6
Continuous
 62
     7
370
     9
100
AcDbLine
 10
11.1963301329
 20
181.2552251964
 30
0.0
 11
11.4463301329
 21
181.3719611964
 31
0.0
  0
LINE
  5
2BE
330
1F
100
AcDbEntity
  8
1
  6
Continuous
 62
     7
370
     9
100
AcDbLine
 10
-12.8036698671
 20
181.3719611964
 30
0.0
 11
-12.5536698671
 21
181.2552251964
 31
0.0
  0
ARC
  5
2BF
330
1F
100
AcDbEntity
  8
1
  6
Continuous
 62
     7
370
     9
100
AcDbCircle
 10
40.4463301329
 20
136.7717531964
 30
0.0
 40
0.75
100
AcDbArc
 50
0.0
 51
180.0
  0
ARC
  5
2C0
330
1F
100
AcDbEntity
  8
1
  6
Continuous
 62
     7
370
     9
100
AcDbCircle
 10
40.4463301329
 20
238.2717531964
 30
0.0
 40
0.75
100
AcDbArc
 50
0.0
 51
180.0
  0
LINE
  5
2C1
330
1F
100
AcDbEntity
  8
1
  6
Continuous
 62
     7
370
     9
100
AcDbLine
 10
44.9463301329
 20
183.1715471964
 30
0.0
 11
35.9463301329
 21
183.1715471964
 31
0.0
  0
LINE
  5
2C2
330
1F
100
AcDbEntity
  8
1
  6
Continuous
 62
     7
370
     9
100
AcDbLine
 10
58.4463301329
 20
183.2882831964
 30
0.0
 11
58.6963301329
 21
183.1715471964
 31
0.0
  0
LINE
  5
2C3
330
1F
100
AcDbEntity
  8
1
  6
Continuous
 62
     7
370
     9
100
AcDbLine
 10
-25.0536698671
 20
181.3719611964
 30
0.0
 11
-33.0536698671
 21
181.3719611964
 31
0.0
  0
ARC
  5
2C4
330
1F
100
AcDbEntity
  8
1
  6
Continuous
 62
     7
370
     9
100
AcDbCircle
 10
76.4463301329
 20
128.7717531964
 30
0.0
 40
6.5
100
AcDbArc
 50
270.0
 51
0.0
  0
ARC
  5
2C5
330
1F
100
AcDbEntity
  8
1
  6
Continuous
 62
     7
370
     9
100
AcDbCircle
 10
-30.5536698671
 20
128.7717531964
 30
0.0
 40
6.5
100
AcDbArc
 50
180.0
 51
270.0
  0
LINE
  5
2C6
330
1F
100
AcDbEntity
  8
1
  6
Continuous
 62
     7
370
     9
100
AcDbLine
 10
-25.0536698671
 20
181.3719611964
 30
0.0
 11
-24.8036698671
 21
181.2552251964
 31
0.0
  0
ARC
  5
2C7
330
1F
100
AcDbEntity
  8
1
  6
Continuous
 62
     7
370
     9
100
AcDbCircle
 10
5.4463301329
 20
126.2717531964
 30
0.0
 40
0.75
100
AcDbArc
 50
180.0
 51
0.0
  0
ARC
  5
2C8
330
1F
100
AcDbEntity
  8
1
  6
Continuous
 62
     7
370
     9
100
AcDbCircle
 10
40.4463301329
 20
126.2717531964
 30
0.0
 40
0.75
100
AcDbArc
 50
180.0
 51
0.0
  0
LINE
  5
2C9
330
1F
100
AcDbEntity
  8
1
  6
Continuous
 62
     7
370
     9
100
AcDbLine
 10
39.6963301329
 20
227.7717531964
 30
0.0
 11
39.6963301329
 21
238.2717531964
 31
0.0
  0
LINE
  5
2CA
330
1F
100
AcDbEntity
  8
1
  6
Continuous
 62
     7
370
     9
100
AcDbLine
 10
70.9463301329
 20
183.1715471964
 30
0.0
 11
70.9463301329
 21
181.3719611964
 31
0.0
  0
LINE
  5
2CB
330
1F
100
AcDbEntity
  8
1
  6
Continuous
 62
     7
370
     9
100
AcDbLine
 10
70.6963301329
 20
181.2552251964
 30
0.0
 11
70.6963301329
 21
183.2882831964
 31
0.0
  0
LINE
  5
2CC
330
1F
100
AcDbEntity
  8
1
  6
Continuous
 62
     7
370
     9
100
AcDbLine
 10
-13.0703378671
 20
217.7717531964
 30
0.0
 11
-11.0370038671
 21
217.7717531964
 31
0.0
  0
LINE
  5
2CD
330
1F
100
AcDbEntity
  8
1
  6
Continuous
 62
     7
370
     9
100
AcDbLine
 10
58.9629961329
 20
205.5217531964
 30
0.0
 11
56.9296621329
 21
205.5217531964
 31
0.0
  0
LINE
  5
2CE
330
1F
100
AcDbEntity
  8
1
  6
Continuous
 62
     7
370
     9
100
AcDbLine
 10
57.0463301329
 20
205.7717531964
 30
0.0
 11
58.8463301329
 21
205.7717531964
 31
0.0
  0
LINE
  5
2CF
330
1F
100
AcDbEntity
  8
1
  6
Continuous
 62
     7
370
     9
100
AcDbLine
 10
-11.5536698671
 20
183.2882831964
 30
0.0
 11
-11.5536698671
 21
181.2552251964
 31
0.0
  0
LINE
  5
2D0
330
1F
100
AcDbEntity
  8
1
  6
Continuous
 62
     7
370
     9
100
AcDbLine
 10
46.1963301329
 20
148.2884211964
 30
0.0
 11
46.1963301329
 21
146.2550871964
 31
0.0
  0
LINE
  5
2D1
330
1F
100
AcDbEntity
  8
1
  6
Continuous
 62
     7
370
     9
100
AcDbLine
 10
-12.5536698671
 20
181.2552251964
 30
0.0
 11
-12.5536698671
 21
183.2882831964
 31
0.0
  0
LINE
  5
2D2
330
1F
100
AcDbEntity
  8
1
  6
Continuous
 62
     7
370
     9
100
AcDbLine
 10
10.1963301329
 20
181.2552251964
 30
0.0
 11
10.1963301329
 21
183.2882831964
 31
0.0
  0
LINE
  5
2D3
330
1F
100
AcDbEntity
  8
1
  6
Continuous
 62
     7
370
     9
100
AcDbLine
 10
69.6963301329
 20
218.2882831964
 30
0.0
 11
69.6963301329
 21
216.2552251964
 31
0.0
  0
LINE
  5
2D4
330
1F
100
AcDbEntity
  8
1
  6
Continuous
 62
     7
370
     9
100
AcDbLine
 10
9.9463301329
 20
183.1715471964
 30
0.0
 11
9.9463301329
 21
181.3719611964
 31
0.0
  0
LINE
  5
2D5
330
1F
100
AcDbEntity
  8
1
  6
Continuous
 62
     7
370
     9
100
AcDbLine
 10
22.0463301329
 20
195.2717531964
 30
0.0
 11
23.8463301329
 21
195.2717531964
 31
0.0
  0
LINE
  5
2D6
330
1F
100
AcDbEntity
  8
1
  6
Continuous
 62
     7
370
     9
100
AcDbLine
 10
-13.0703378671
 20
229.0217531964
 30
0.0
 11
-11.0370038671
 21
229.0217531964
 31
0.0
  0
LINE
  5
2D7
330
1F
100
AcDbEntity
  8
1
  6
Continuous
 62
     7
370
     9
100
AcDbLine
 10
58.9629961329
 20
217.7717531964
 30
0.0
 11
56.9296621329
 21
217.7717531964
 31
0.0
  0
LINE
  5
2D8
330
1F
100
AcDbEntity
  8
1
  6
Continuous
 62
     7
370
     9
100
AcDbLine
 10
21.9296621329
 20
135.5217531964
 30
0.0
 11
23.9629961329
 21
135.5217531964
 31
0.0
  0
LINE
  5
2D9
330
1F
100
AcDbEntity
  8
1
  6
Continuous
 62
     7
370
     9
100
AcDbLine
 10
23.8463301329
 20
135.6717531964
 30
0.0
 11
22.0463301329
 21
135.6717531964
 31
0.0
  0
LINE
  5
2DA
330
1F
100
AcDbEntity
  8
1
  6
Continuous
 62
     7
370
     9
100
AcDbLine
 10
23.9629961329
 20
169.5217531964
 30
0.0
 11
21.9296621329
 21
169.5217531964
 31
0.0
  0
LINE
  5
2DB
330
1F
100
AcDbEntity
  8
1
  6
Continuous
 62
     7
370
     9
100
AcDbLine
 10
45.1963301329
 20
183.2882831964
 30
0.0
 11
45.1963301329
 21
181.2552251964
 31
0.0
  0
LINE
  5
2DC
330
1F
100
AcDbEntity
  8
1
  6
Continuous
 62
     7
370
     9
100
AcDbLine
 10
69.4463301329
 20
216.3719611964
 30
0.0
 11
69.4463301329
 21
218.1715471964
 31
0.0
  0
LINE
  5
2DD
330
1F
100
AcDbEntity
  8
1
  6
Continuous
 62
     7
370
     9
100
AcDbLine
 10
23.9629961329
 20
195.0217531964
 30
0.0
 11
21.9296621329
 21
195.0217531964
 31
0.0
  0
LINE
  5
2DE
330
1F
100
AcDbEntity
  8
1
  6
Continuous
 62
     7
370
     9
100
AcDbLine
 10
58.9629961329
 20
159.0217531964
 30
0.0
 11
56.9296621329
 21
159.0217531964
 31
0.0
  0
LINE
  5
2DF
330
1F
100
AcDbEntity
  8
1
  6
Continuous
 62
     7
370
     9
100
AcDbLine
 10
58.8463301329
 20
204.2717531964
 30
0.0
 11
57.0463301329
 21
204.2717531964
 31
0.0
  0
LINE
  5
2E0
330
1F
100
AcDbEntity
  8
1
  6
Continuous
 62
     7
370
     9
100
AcDbLine
 10
22.0463301329
 20
169.2717531964
 30
0.0
 11
23.8463301329
 21
169.2717531964
 31
0.0
  0
LINE
  5
2E1
330
1F
100
AcDbEntity
  8
1
  6
Continuous
 62
     7
370
     9
100
AcDbLine
 10
58.8463301329
 20
228.8717531964
 30
0.0
 11
57.0463301329
 21
228.8717531964
 31
0.0
  0
LINE
  5
2E2
330
1F
100
AcDbEntity
  8
1
  6
Continuous
 62
     7
370
     9
100
AcDbLine
 10
44.9463301329
 20
181.3719611964
 30
0.0
 11
44.9463301329
 21
183.1715471964
 31
0.0
  0
LINE
  5
2E3
330
1F
100
AcDbEntity
  8
1
  6
Continuous
 62
     7
370
     9
100
AcDbLine
 10
58.6963301329
 20
183.1715471964
 30
0.0
 11
58.6963301329
 21
181.3719611964
 31
0.0
  0
LINE
  5
2E4
330
1F
100
AcDbEntity
  8
1
  6
Continuous
 62
     7
370
     9
100
AcDbLine
 10
23.8463301329
 20
216.5217531964
 30
0.0
 11
22.0463301329
 21
216.5217531964
 31
0.0
  0
LINE
  5
2E5
330
1F
100
AcDbEntity
  8
1
  6
Continuous
 62
     7
370
     9
100
AcDbLine
 10
-12.8036698671
 20
183.1715471964
 30
0.0
 11
-12.8036698671
 21
181.3719611964
 31
0.0
  0
LINE
  5
2E6
330
1F
100
AcDbEntity
  8
1
  6
Continuous
 62
     7
370
     9
100
AcDbLine
 10
58.9629961329
 20
230.0217531964
 30
0.0
 11
56.9296621329
 21
230.0217531964
 31
0.0
  0
LINE
  5
2E7
330
1F
100
AcDbEntity
  8
1
  6
Continuous
 62
     7
370
     9
100
AcDbLine
 10
-11.3036698671
 20
181.3719611964
 30
0.0
 11
-11.3036698671
 21
183.1715471964
 31
0.0
  0
LINE
  5
2E8
330
1F
100
AcDbEntity
  8
1
  6
Continuous
 62
     7
370
     9
100
AcDbLine
 10
-13.0703378671
 20
160.0217531964
 30
0.0
 11
-11.0370038671
 21
160.0217531964
 31
0.0
  0
LINE
  5
2E9
330
1F
100
AcDbEntity
  8
1
  6
Continuous
 62
     7
370
     9
100
AcDbLine
 10
-12.9536698671
 20
216.5217531964
 30
0.0
 11
-11.1536698671
 21
216.5217531964
 31
0.0
  0
LINE
  5
2EA
330
1F
100
AcDbEntity
  8
1
  6
Continuous
 62
     7
370
     9
100
AcDbLine
 10
-11.0370038671
 20
216.7717531964
 30
0.0
 11
-13.0703378671
 21
216.7717531964
 31
0.0
  0
LINE
  5
2EB
330
1F
100
AcDbEntity
  8
1
  6
Continuous
 62
     7
370
     9
100
AcDbLine
 10
45.1963301329
 20
218.2884211964
 30
0.0
 11
45.1963301329
 21
216.2550871964
 31
0.0
  0
LINE
  5
2EC
330
1F
100
AcDbEntity
  8
1
  6
Continuous
 62
     7
370
     9
100
AcDbLine
 10
56.9296621329
 20
204.5217531964
 30
0.0
 11
58.9629961329
 21
204.5217531964
 31
0.0
  0
LINE
  5
2ED
330
1F
100
AcDbEntity
  8
1
  6
Continuous
 62
     7
370
     9
100
AcDbLine
 10
69.4463301329
 20
148.1715471964
 30
0.0
 11
69.4463301329
 21
146.3719611964
 31
0.0
  0
LINE
  5
2EE
330
1F
100
AcDbEntity
  8
1
  6
Continuous
 62
     7
370
     9
100
AcDbLine
 10
-11.1536698671
 20
228.8717531964
 30
0.0
 11
-12.9536698671
 21
228.8717531964
 31
0.0
  0
LINE
  5
2EF
330
1F
100
AcDbEntity
  8
1
  6
Continuous
 62
     7
370
     9
100
AcDbLine
 10
69.4463301329
 20
181.3719611964
 30
0.0
 11
69.4463301329
 21
183.1715471964
 31
0.0
  0
LINE
  5
2F0
330
1F
100
AcDbEntity
  8
1
  6
Continuous
 62
     7
370
     9
100
AcDbLine
 10
35.6963301329
 20
216.2550871964
 30
0.0
 11
35.6963301329
 21
218.2884211964
 31
0.0
  0
LINE
  5
2F1
330
1F
100
AcDbEntity
  8
1
  6
Continuous
 62
     7
370
     9
100
AcDbLine
 10
21.9296621329
 20
147.7717531964
 30
0.0
 11
23.9629961329
 21
147.7717531964
 31
0.0
  0
LINE
  5
2F2
330
1F
100
AcDbEntity
  8
1
  6
Continuous
 62
     7
370
     9
100
AcDbLine
 10
57.0463301329
 20
158.7717531964
 30
0.0
 11
58.8463301329
 21
158.7717531964
 31
0.0
  0
LINE
  5
2F3
330
1F
100
AcDbEntity
  8
1
  6
Continuous
 62
     7
370
     9
100
AcDbLine
 10
23.9629961329
 20
159.0217531964
 30
0.0
 11
21.9296621329
 21
159.0217531964
 31
0.0
  0
LINE
  5
2F4
330
1F
100
AcDbEntity
  8
1
  6
Continuous
 62
     7
370
     9
100
AcDbLine
 10
-25.0536698671
 20
218.1715471964
 30
0.0
 11
-25.0536698671
 21
216.3719611964
 31
0.0
  0
LINE
  5
2F5
330
1F
100
AcDbEntity
  8
1
  6
Continuous
 62
     7
370
     9
100
AcDbLine
 10
-11.0370038671
 20
134.5217531964
 30
0.0
 11
-13.0703378671
 21
134.5217531964
 31
0.0
  0
LINE
  5
2F6
330
1F
100
AcDbEntity
  8
1
  6
Continuous
 62
     7
370
     9
100
AcDbLine
 10
21.9296621329
 20
216.7717531964
 30
0.0
 11
23.9629961329
 21
216.7717531964
 31
0.0
  0
LINE
  5
2F7
330
1F
100
AcDbEntity
  8
1
  6
Continuous
 62
     7
370
     9
100
AcDbLine
 10
23.9629961329
 20
217.7717531964
 30
0.0
 11
21.9296621329
 21
217.7717531964
 31
0.0
  0
LINE
  5
2F8
330
1F
100
AcDbEntity
  8
1
  6
Continuous
 62
     7
370
     9
100
AcDbLine
 10
70.9463301329
 20
218.1715471964
 30
0.0
 11
70.9463301329
 21
216.3719611964
 31
0.0
  0
LINE
  5
2F9
330
1F
100
AcDbEntity
  8
1
  6
Continuous
 62
     7
370
     9
100
AcDbLine
 10
23.9629961329
 20
146.7717531964
 30
0.0
 11
21.9296621329
 21
146.7717531964
 31
0.0
  0
LINE
  5
2FA
330
1F
100
AcDbEntity
  8
1
  6
Continuous
 62
     7
370
     9
100
AcDbLine
 10
34.6963301329
 20
218.2884211964
 30
0.0
 11
34.6963301329
 21
216.2550871964
 31
0.0
  0
LINE
  5
2FB
330
1F
100
AcDbEntity
  8
1
  6
Continuous
 62
     7
370
     9
100
AcDbLine
 10
56.9296621329
 20
170.5217531964
 30
0.0
 11
58.9629961329
 21
170.5217531964
 31
0.0
  0
LINE
  5
2FC
330
1F
100
AcDbEntity
  8
1
  6
Continuous
 62
     7
370
     9
100
AcDbLine
 10
69.6963301329
 20
183.2882831964
 30
0.0
 11
69.6963301329
 21
181.2552251964
 31
0.0
  0
LINE
  5
2FD
330
1F
100
AcDbEntity
  8
1
  6
Continuous
 62
     7
370
     9
100
AcDbLine
 10
22.0463301329
 20
146.5217531964
 30
0.0
 11
23.8463301329
 21
146.5217531964
 31
0.0
  0
LINE
  5
2FE
330
1F
100
AcDbEntity
  8
1
  6
Continuous
 62
     7
370
     9
100
AcDbLine
 10
46.1963301329
 20
216.2550871964
 30
0.0
 11
46.1963301329
 21
218.2884211964
 31
0.0
  0
LINE
  5
2FF
330
1F
100
AcDbEntity
  8
1
  6
Continuous
 62
     7
370
     9
100
AcDbLine
 10
57.4463301329
 20
183.2882831964
 30
0.0
 11
57.4463301329
 21
181.2552251964
 31
0.0
  0
LINE
  5
300
330
1F
100
AcDbEntity
  8
1
  6
Continuous
 62
     7
370
     9
100
AcDbLine
 10
70.6963301329
 20
216.2552251964
 30
0.0
 11
70.6963301329
 21
218.2882831964
 31
0.0
  0
LINE
  5
301
330
1F
100
AcDbEntity
  8
1
  6
Continuous
 62
     7
370
     9
100
AcDbLine
 10
58.4463301329
 20
181.2552251964
 30
0.0
 11
58.4463301329
 21
183.2882831964
 31
0.0
  0
LINE
  5
302
330
1F
100
AcDbEntity
  8
1
  6
Continuous
 62
     7
370
     9
100
AcDbLine
 10
45.1963301329
 20
146.2550871964
 30
0.0
 11
45.1963301329
 21
148.2884211964
 31
0.0
  0
LINE
  5
303
330
1F
100
AcDbEntity
  8
1
  6
Continuous
 62
     7
370
     9
100
AcDbLine
 10
-12.9536698671
 20
134.3717531964
 30
0.0
 11
-11.1536698671
 21
134.3717531964
 31
0.0
  0
LINE
  5
304
330
1F
100
AcDbEntity
  8
1
  6
Continuous
 62
     7
370
     9
100
AcDbLine
 10
46.4463301329
 20
218.1717531964
 30
0.0
 11
46.4463301329
 21
216.3717531964
 31
0.0
  0
LINE
  5
305
330
1F
100
AcDbEntity
  8
1
  6
Continuous
 62
     7
370
     9
100
AcDbLine
 10
56.9296621329
 20
229.0217531964
 30
0.0
 11
58.9629961329
 21
229.0217531964
 31
0.0
  0
LINE
  5
306
330
1F
100
AcDbEntity
  8
1
  6
Continuous
 62
     7
370
     9
100
AcDbLine
 10
58.9629961329
 20
169.5217531964
 30
0.0
 11
56.9296621329
 21
169.5217531964
 31
0.0
  0
LINE
  5
307
330
1F
100
AcDbEntity
  8
1
  6
Continuous
 62
     7
370
     9
100
AcDbLine
 10
21.9296621329
 20
160.0217531964
 30
0.0
 11
23.9629961329
 21
160.0217531964
 31
0.0
  0
LINE
  5
308
330
1F
100
AcDbEntity
  8
1
  6
Continuous
 62
     7
370
     9
100
AcDbLine
 10
44.9463301329
 20
148.1717531964
 30
0.0
 11
44.9463301329
 21
146.3717531964
 31
0.0
  0
LINE
  5
309
330
1F
100
AcDbEntity
  8
1
  6
Continuous
 62
     7
370
     9
100
AcDbLine
 10
57.0463301329
 20
218.0217531964
 30
0.0
 11
58.8463301329
 21
218.0217531964
 31
0.0
  0
LINE
  5
30A
330
1F
100
AcDbEntity
  8
1
  6
Continuous
 62
     7
370
     9
100
AcDbLine
 10
23.8463301329
 20
204.2717531964
 30
0.0
 11
22.0463301329
 21
204.2717531964
 31
0.0
  0
LINE
  5
30B
330
1F
100
AcDbEntity
  8
1
  6
Continuous
 62
     7
370
     9
100
AcDbLine
 10
21.9296621329
 20
204.5217531964
 30
0.0
 11
23.9629961329
 21
204.5217531964
 31
0.0
  0
LINE
  5
30C
330
1F
100
AcDbEntity
  8
1
  6
Continuous
 62
     7
370
     9
100
AcDbLine
 10
34.6963301329
 20
146.2550871964
 30
0.0
 11
34.6963301329
 21
148.2884211964
 31
0.0
  0
LINE
  5
30D
330
1F
100
AcDbEntity
  8
1
  6
Continuous
 62
     7
370
     9
100
AcDbLine
 10
58.8463301329
 20
193.7717531964
 30
0.0
 11
57.0463301329
 21
193.7717531964
 31
0.0
  0
LINE
  5
30E
330
1F
100
AcDbEntity
  8
1
  6
Continuous
 62
     7
370
     9
100
AcDbLine
 10
0.6963301329
 20
218.2884211964
 30
0.0
 11
0.6963301329
 21
216.2550871964
 31
0.0
  0
LINE
  5
30F
330
1F
100
AcDbEntity
  8
1
  6
Continuous
 62
     7
370
     9
100
AcDbLine
 10
0.9463301329
 20
148.1717531964
 30
0.0
 11
0.9463301329
 21
146.3717531964
 31
0.0
  0
LINE
  5
310
330
1F
100
AcDbEntity
  8
1
  6
Continuous
 62
     7
370
     9
100
AcDbLine
 10
22.0463301329
 20
218.0217531964
 30
0.0
 11
23.8463301329
 21
218.0217531964
 31
0.0
  0
LINE
  5
311
330
1F
100
AcDbEntity
  8
1
  6
Continuous
 62
     7
370
     9
100
AcDbLine
 10
10.1963301329
 20
216.2550871964
 30
0.0
 11
10.1963301329
 21
218.2884211964
 31
0.0
  0
LINE
  5
312
330
1F
100
AcDbEntity
  8
1
  6
Continuous
 62
     7
370
     9
100
AcDbLine
 10
-12.9536698671
 20
230.1717531964
 30
0.0
 11
-11.1536698671
 21
230.1717531964
 31
0.0
  0
LINE
  5
313
330
1F
100
AcDbEntity
  8
1
  6
Continuous
 62
     7
370
     9
100
AcDbLine
 10
23.8463301329
 20
148.0217531964
 30
0.0
 11
22.0463301329
 21
148.0217531964
 31
0.0
  0
LINE
  5
314
330
1F
100
AcDbEntity
  8
1
  6
Continuous
 62
     7
370
     9
100
AcDbLine
 10
-13.0703378671
 20
146.7717531964
 30
0.0
 11
-11.0370038671
 21
146.7717531964
 31
0.0
  0
LINE
  5
315
330
1F
100
AcDbEntity
  8
1
  6
Continuous
 62
     7
370
     9
100
AcDbLine
 10
23.9629961329
 20
230.0217531964
 30
0.0
 11
21.9296621329
 21
230.0217531964
 31
0.0
  0
LINE
  5
316
330
1F
100
AcDbEntity
  8
1
  6
Continuous
 62
     7
370
     9
100
AcDbLine
 10
46.1963301329
 20
181.2552251964
 30
0.0
 11
46.1963301329
 21
183.2882831964
 31
0.0
  0
LINE
  5
317
330
1F
100
AcDbEntity
  8
1
  6
Continuous
 62
     7
370
     9
100
AcDbLine
 10
21.9296621329
 20
194.0217531964
 30
0.0
 11
23.9629961329
 21
194.0217531964
 31
0.0
  0
LINE
  5
318
330
1F
100
AcDbEntity
  8
1
  6
Continuous
 62
     7
370
     9
100
AcDbLine
 10
11.1963301329
 20
183.2882831964
 30
0.0
 11
11.1963301329
 21
181.2552251964
 31
0.0
  0
LINE
  5
319
330
1F
100
AcDbEntity
  8
1
  6
Continuous
 62
     7
370
     9
100
AcDbLine
 10
10.1963301329
 20
148.2884211964
 30
0.0
 11
10.1963301329
 21
146.2550871964
 31
0.0
  0
LINE
  5
31A
330
1F
100
AcDbEntity
  8
1
  6
Continuous
 62
     7
370
     9
100
AcDbLine
 10
0.6963301329
 20
146.2550871964
 30
0.0
 11
0.6963301329
 21
148.2884211964
 31
0.0
  0
LINE
  5
31B
330
1F
100
AcDbEntity
  8
1
  6
Continuous
 62
     7
370
     9
100
AcDbLine
 10
-23.8036698671
 20
183.2882831964
 30
0.0
 11
-23.8036698671
 21
181.2552251964
 31
0.0
  0
LINE
  5
31C
330
1F
100
AcDbEntity
  8
1
  6
Continuous
 62
     7
370
     9
100
AcDbLine
 10
46.4463301329
 20
183.1715471964
 30
0.0
 11
46.4463301329
 21
181.3719611964
 31
0.0
  0
LINE
  5
31D
330
1F
100
AcDbEntity
  8
1
  6
Continuous
 62
     7
370
     9
100
AcDbLine
 10
11.4463301329
 20
181.3719611964
 30
0.0
 11
11.4463301329
 21
183.1715471964
 31
0.0
  0
LINE
  5
31E
330
1F
100
AcDbEntity
  8
1
  6
Continuous
 62
     7
370
     9
100
AcDbLine
 10
46.4463301329
 20
146.3717531964
 30
0.0
 11
46.4463301329
 21
148.1717531964
 31
0.0
  0
LINE
  5
31F
330
1F
100
AcDbEntity
  8
1
  6
Continuous
 62
     7
370
     9
100
AcDbLine
 10
57.0463301329
 20
230.1717531964
 30
0.0
 11
58.8463301329
 21
230.1717531964
 31
0.0
  0
LINE
  5
320
330
1F
100
AcDbEntity
  8
1
  6
Continuous
 62
     7
370
     9
100
AcDbLine
 10
9.9463301329
 20
146.3717531964
 30
0.0
 11
9.9463301329
 21
148.1717531964
 31
0.0
  0
LINE
  5
321
330
1F
100
AcDbEntity
  8
1
  6
Continuous
 62
     7
370
     9
100
AcDbLine
 10
-0.5536698671
 20
183.1715471964
 30
0.0
 11
-0.5536698671
 21
181.3719611964
 31
0.0
  0
LINE
  5
322
330
1F
100
AcDbEntity
  8
1
  6
Continuous
 62
     7
370
     9
100
AcDbLine
 10
56.9296621329
 20
147.7717531964
 30
0.0
 11
58.9629961329
 21
147.7717531964
 31
0.0
  0
LINE
  5
323
330
1F
100
AcDbEntity
  8
1
  6
Continuous
 62
     7
370
     9
100
AcDbLine
 10
57.0463301329
 20
146.5217531964
 30
0.0
 11
58.8463301329
 21
146.5217531964
 31
0.0
  0
LINE
  5
324
330
1F
100
AcDbEntity
  8
1
  6
Continuous
 62
     7
370
     9
100
AcDbLine
 10
9.9463301329
 20
218.1717531964
 30
0.0
 11
9.9463301329
 21
216.3717531964
 31
0.0
  0
LINE
  5
325
330
1F
100
AcDbEntity
  8
1
  6
Continuous
 62
     7
370
     9
100
AcDbLine
 10
58.8463301329
 20
148.0217531964
 30
0.0
 11
57.0463301329
 21
148.0217531964
 31
0.0
  0
LINE
  5
326
330
1F
100
AcDbEntity
  8
1
  6
Continuous
 62
     7
370
     9
100
AcDbLine
 10
23.9629961329
 20
134.5217531964
 30
0.0
 11
21.9296621329
 21
134.5217531964
 31
0.0
  0
LINE
  5
327
330
1F
100
AcDbEntity
  8
1
  6
Continuous
 62
     7
370
     9
100
AcDbLine
 10
-11.1536698671
 20
146.5217531964
 30
0.0
 11
-12.9536698671
 21
146.5217531964
 31
0.0
  0
LINE
  5
328
330
1F
100
AcDbEntity
  8
1
  6
Continuous
 62
     7
370
     9
100
AcDbLine
 10
11.4463301329
 20
216.3717531964
 30
0.0
 11
11.4463301329
 21
218.1717531964
 31
0.0
  0
LINE
  5
329
330
1F
100
AcDbEntity
  8
1
  6
Continuous
 62
     7
370
     9
100
AcDbLine
 10
-11.1536698671
 20
193.7717531964
 30
0.0
 11
-12.9536698671
 21
193.7717531964
 31
0.0
  0
LINE
  5
32A
330
1F
100
AcDbEntity
  8
1
  6
Continuous
 62
     7
370
     9
100
AcDbLine
 10
56.9296621329
 20
194.0217531964
 30
0.0
 11
58.9629961329
 21
194.0217531964
 31
0.0
  0
LINE
  5
32B
330
1F
100
AcDbEntity
  8
1
  6
Continuous
 62
     7
370
     9
100
AcDbLine
 10
11.1963301329
 20
218.2884211964
 30
0.0
 11
11.1963301329
 21
216.2550871964
 31
0.0
  0
LINE
  5
32C
330
1F
100
AcDbEntity
  8
1
  6
Continuous
 62
     7
370
     9
100
AcDbLine
 10
35.9463301329
 20
146.3717531964
 30
0.0
 11
35.9463301329
 21
148.1717531964
 31
0.0
  0
LINE
  5
32D
330
1F
100
AcDbEntity
  8
1
  6
Continuous
 62
     7
370
     9
100
AcDbLine
 10
23.9629961329
 20
205.5217531964
 30
0.0
 11
21.9296621329
 21
205.5217531964
 31
0.0
  0
LINE
  5
32E
330
1F
100
AcDbEntity
  8
1
  6
Continuous
 62
     7
370
     9
100
AcDbLine
 10
-23.5536698671
 20
181.3719611964
 30
0.0
 11
-23.5536698671
 21
183.1715471964
 31
0.0
  0
LINE
  5
32F
330
1F
100
AcDbEntity
  8
1
  6
Continuous
 62
     7
370
     9
100
AcDbLine
 10
-0.5536698671
 20
146.3717531964
 30
0.0
 11
-0.5536698671
 21
148.1717531964
 31
0.0
  0
LINE
  5
330
330
1F
100
AcDbEntity
  8
1
  6
Continuous
 62
     7
370
     9
100
AcDbLine
 10
35.6963301329
 20
148.2884211964
 30
0.0
 11
35.6963301329
 21
146.2550871964
 31
0.0
  0
LINE
  5
331
330
1F
100
AcDbEntity
  8
1
  6
Continuous
 62
     7
370
     9
100
AcDbLine
 10
-0.3036698671
 20
216.2550871964
 30
0.0
 11
-0.3036698671
 21
218.2884211964
 31
0.0
  0
LINE
  5
332
330
1F
100
AcDbEntity
  8
1
  6
Continuous
 62
     7
370
     9
100
AcDbLine
 10
58.8463301329
 20
216.5217531964
 30
0.0
 11
57.0463301329
 21
216.5217531964
 31
0.0
  0
LINE
  5
333
330
1F
100
AcDbEntity
  8
1
  6
Continuous
 62
     7
370
     9
100
AcDbLine
 10
21.9296621329
 20
229.0217531964
 30
0.0
 11
23.9629961329
 21
229.0217531964
 31
0.0
  0
LINE
  5
334
330
1F
100
AcDbEntity
  8
1
  6
Continuous
 62
     7
370
     9
100
AcDbLine
 10
56.9296621329
 20
216.7717531964
 30
0.0
 11
58.9629961329
 21
216.7717531964
 31
0.0
  0
LINE
  5
335
330
1F
100
AcDbEntity
  8
1
  6
Continuous
 62
     7
370
     9
100
AcDbLine
 10
56.9296621329
 20
135.5217531964
 30
0.0
 11
58.9629961329
 21
135.5217531964
 31
0.0
  0
LINE
  5
336
330
1F
100
AcDbEntity
  8
1
  6
Continuous
 62
     7
370
     9
100
AcDbLine
 10
56.9296621329
 20
160.0217531964
 30
0.0
 11
58.9629961329
 21
160.0217531964
 31
0.0
  0
LINE
  5
337
330
1F
100
AcDbEntity
  8
1
  6
Continuous
 62
     7
370
     9
100
AcDbLine
 10
58.8463301329
 20
160.2717531964
 30
0.0
 11
57.0463301329
 21
160.2717531964
 31
0.0
  0
LINE
  5
338
330
1F
100
AcDbEntity
  8
1
  6
Continuous
 62
     7
370
     9
100
AcDbLine
 10
0.6963301329
 20
183.2882831964
 30
0.0
 11
0.6963301329
 21
181.2552251964
 31
0.0
  0
LINE
  5
339
330
1F
100
AcDbEntity
  8
1
  6
Continuous
 62
     7
370
     9
100
AcDbLine
 10
-0.3036698671
 20
148.2884211964
 30
0.0
 11
-0.3036698671
 21
146.2550871964
 31
0.0
  0
LINE
  5
33A
330
1F
100
AcDbEntity
  8
1
  6
Continuous
 62
     7
370
     9
100
AcDbLine
 10
-0.5536698671
 20
218.1717531964
 30
0.0
 11
-0.5536698671
 21
216.3717531964
 31
0.0
  0
LINE
  5
33B
330
1F
100
AcDbEntity
  8
1
  6
Continuous
 62
     7
370
     9
100
AcDbLine
 10
0.9463301329
 20
216.3717531964
 30
0.0
 11
0.9463301329
 21
218.1717531964
 31
0.0
  0
LINE
  5
33C
330
1F
100
AcDbEntity
  8
1
  6
Continuous
 62
     7
370
     9
100
AcDbLine
 10
-12.9536698671
 20
205.7717531964
 30
0.0
 11
-11.1536698671
 21
205.7717531964
 31
0.0
  0
LINE
  5
33D
330
1F
100
AcDbEntity
  8
1
  6
Continuous
 62
     7
370
     9
100
AcDbLine
 10
58.9629961329
 20
146.7717531964
 30
0.0
 11
56.9296621329
 21
146.7717531964
 31
0.0
  0
LINE
  5
33E
330
1F
100
AcDbEntity
  8
1
  6
Continuous
 62
     7
370
     9
100
AcDbLine
 10
-11.0370038671
 20
230.0217531964
 30
0.0
 11
-13.0703378671
 21
230.0217531964
 31
0.0
  0
LINE
  5
33F
330
1F
100
AcDbEntity
  8
1
  6
Continuous
 62
     7
370
     9
100
AcDbLine
 10
-0.3036698671
 20
181.2552251964
 30
0.0
 11
-0.3036698671
 21
183.2882831964
 31
0.0
  0
LINE
  5
340
330
1F
100
AcDbEntity
  8
1
  6
Continuous
 62
     7
370
     9
100
AcDbLine
 10
58.9629961329
 20
134.5217531964
 30
0.0
 11
56.9296621329
 21
134.5217531964
 31
0.0
  0
LINE
  5
341
330
1F
100
AcDbEntity
  8
1
  6
Continuous
 62
     7
370
     9
100
AcDbLine
 10
-13.0703378671
 20
194.0217531964
 30
0.0
 11
-11.0370038671
 21
194.0217531964
 31
0.0
  0
LINE
  5
342
330
1F
100
AcDbEntity
  8
1
  6
Continuous
 62
     7
370
     9
100
AcDbLine
 10
11.1963301329
 20
146.2550871964
 30
0.0
 11
11.1963301329
 21
148.2884211964
 31
0.0
  0
LINE
  5
343
330
1F
100
AcDbEntity
  8
1
  6
Continuous
 62
     7
370
     9
100
AcDbLine
 10
-11.0370038671
 20
205.5217531964
 30
0.0
 11
-13.0703378671
 21
205.5217531964
 31
0.0
  0
LINE
  5
344
330
1F
100
AcDbEntity
  8
1
  6
Continuous
 62
     7
370
     9
100
AcDbLine
 10
22.0463301329
 20
230.1717531964
 30
0.0
 11
23.8463301329
 21
230.1717531964
 31
0.0
  0
LINE
  5
345
330
1F
100
AcDbEntity
  8
1
  6
Continuous
 62
     7
370
     9
100
AcDbLine
 10
57.1963301329
 20
181.3719611964
 30
0.0
 11
57.1963301329
 21
183.1715471964
 31
0.0
  0
LINE
  5
346
330
1F
100
AcDbEntity
  8
1
  6
Continuous
 62
     7
370
     9
100
AcDbLine
 10
-12.9536698671
 20
148.0217531964
 30
0.0
 11
-11.1536698671
 21
148.0217531964
 31
0.0
  0
LINE
  5
347
330
1F
100
AcDbEntity
  8
1
  6
Continuous
 62
     7
370
     9
100
AcDbLine
 10
-11.0370038671
 20
147.7717531964
 30
0.0
 11
-13.0703378671
 21
147.7717531964
 31
0.0
  0
LINE
  5
348
330
1F
100
AcDbEntity
  8
1
  6
Continuous
 62
     7
370
     9
100
AcDbLine
 10
-11.1536698671
 20
218.0217531964
 30
0.0
 11
-12.9536698671
 21
218.0217531964
 31
0.0
  0
LINE
  5
349
330
1F
100
AcDbEntity
  8
1
  6
Continuous
 62
     7
370
     9
100
AcDbLine
 10
-11.1536698671
 20
160.2717531964
 30
0.0
 11
-12.9536698671
 21
160.2717531964
 31
0.0
  0
LINE
  5
34A
330
1F
100
AcDbEntity
  8
1
  6
Continuous
 62
     7
370
     9
100
AcDbLine
 10
-28.0835058671
 20
235.3866711964
 30
0.0
 11
-28.8536698671
 21
235.7717531964
 31
0.0
  0
LINE
  5
34B
330
1F
100
AcDbEntity
  8
1
  6
Continuous
 62
     7
370
     9
100
AcDbLine
 10
57.0463301329
 20
134.3717531964
 30
0.0
 11
58.8463301329
 21
134.3717531964
 31
0.0
  0
LINE
  5
34C
330
1F
100
AcDbEntity
  8
1
  6
Continuous
 62
     7
370
     9
100
AcDbLine
 10
58.8463301329
 20
135.6717531964
 30
0.0
 11
57.0463301329
 21
135.6717531964
 31
0.0
  0
ARC
  5
34D
330
1F
100
AcDbEntity
  8
1
  6
Continuous
 62
     7
370
     9
100
AcDbCircle
 10
-30.5536698671
 20
235.7717531964
 30
0.0
 40
2.5
100
AcDbArc
 50
188.86071
 51
261.13929
  0
LINE
  5
34E
330
1F
100
AcDbEntity
  8
1
  6
Continuous
 62
     7
370
     9
100
AcDbLine
 10
58.9629961329
 20
195.0217531964
 30
0.0
 11
56.9296621329
 21
195.0217531964
 31
0.0
  0
LINE
  5
34F
330
1F
100
AcDbEntity
  8
1
  6
Continuous
 62
     7
370
     9
100
AcDbLine
 10
21.9296621329
 20
170.5217531964
 30
0.0
 11
23.9629961329
 21
170.5217531964
 31
0.0
  0
LINE
  5
350
330
1F
100
AcDbEntity
  8
1
  6
Continuous
 62
     7
370
     9
100
AcDbLine
 10
44.9463301329
 20
216.3717531964
 30
0.0
 11
44.9463301329
 21
218.1717531964
 31
0.0
  0
LINE
  5
351
330
1F
100
AcDbEntity
  8
1
  6
Continuous
 62
     7
370
     9
100
AcDbLine
 10
23.8463301329
 20
160.2717531964
 30
0.0
 11
22.0463301329
 21
160.2717531964
 31
0.0
  0
LINE
  5
352
330
1F
100
AcDbEntity
  8
1
  6
Continuous
 62
     7
370
     9
100
AcDbLine
 10
22.0463301329
 20
134.3717531964
 30
0.0
 11
23.8463301329
 21
134.3717531964
 31
0.0
  0
LINE
  5
353
330
1F
100
AcDbEntity
  8
1
  6
Continuous
 62
     7
370
     9
100
AcDbLine
 10
-11.1536698671
 20
204.2717531964
 30
0.0
 11
-12.9536698671
 21
204.2717531964
 31
0.0
  0
LINE
  5
354
330
1F
100
AcDbEntity
  8
1
  6
Continuous
 62
     7
370
     9
100
AcDbLine
 10
35.6963301329
 20
181.2552251964
 30
0.0
 11
35.6963301329
 21
183.2882831964
 31
0.0
  0
LINE
  5
355
330
1F
100
AcDbEntity
  8
1
  6
Continuous
 62
     7
370
     9
100
AcDbLine
 10
11.4463301329
 20
148.1717531964
 30
0.0
 11
11.4463301329
 21
146.3717531964
 31
0.0
  0
LINE
  5
356
330
1F
100
AcDbEntity
  8
1
  6
Continuous
 62
     7
370
     9
100
AcDbLine
 10
-24.8036698671
 20
181.2552251964
 30
0.0
 11
-24.8036698671
 21
183.2882831964
 31
0.0
  0
LINE
  5
357
330
1F
100
AcDbEntity
  8
1
  6
Continuous
 62
     7
370
     9
100
AcDbLine
 10
-25.0536698671
 20
183.1715471964
 30
0.0
 11
-25.0536698671
 21
181.3719611964
 31
0.0
  0
LINE
  5
358
330
1F
100
AcDbEntity
  8
1
  6
Continuous
 62
     7
370
     9
100
AcDbLine
 10
34.4463301329
 20
216.3717531964
 30
0.0
 11
34.4463301329
 21
218.1717531964
 31
0.0
  0
LINE
  5
359
330
1F
100
AcDbEntity
  8
1
  6
Continuous
 62
     7
370
     9
100
AcDbLine
 10
35.9463301329
 20
183.1715471964
 30
0.0
 11
35.9463301329
 21
181.3719611964
 31
0.0
  0
LINE
  5
35A
330
1F
100
AcDbEntity
  8
1
  6
Continuous
 62
     7
370
     9
100
AcDbLine
 10
23.8463301329
 20
193.7717531964
 30
0.0
 11
22.0463301329
 21
193.7717531964
 31
0.0
  0
ARC
  5
35B
330
1F
100
AcDbEntity
  8
1
  6
Continuous
 62
     7
370
     9
100
AcDbCircle
 10
-30.5536698671
 20
235.7717531964
 30
0.0
 40
2.5
100
AcDbArc
 50
278.86071
 51
351.13929
  0
LINE
  5
35C
330
1F
100
AcDbEntity
  8
1
  6
Continuous
 62
     7
370
     9
100
AcDbLine
 10
-28.8536698671
 20
235.7717531964
 30
0.0
 11
-28.0835058671
 21
236.1568351964
 31
0.0
  0
LINE
  5
35D
330
1F
100
AcDbEntity
  8
1
  6
Continuous
 62
     7
370
     9
100
AcDbLine
 10
58.8463301329
 20
170.7717531964
 30
0.0
 11
57.0463301329
 21
170.7717531964
 31
0.0
  0
ARC
  5
35E
330
1F
100
AcDbEntity
  8
1
  6
Continuous
 62
     7
370
     9
100
AcDbCircle
 10
-30.5536698671
 20
235.7717531964
 30
0.0
 40
2.5
100
AcDbArc
 50
8.860710000000001
 51
81.13929
  0
LINE
  5
35F
330
1F
100
AcDbEntity
  8
1
  6
Continuous
 62
     7
370
     9
100
AcDbLine
 10
-30.5536698671
 20
237.4717531964
 30
0.0
 11
-30.9387518671
 21
238.2419171964
 31
0.0
  0
ARC
  5
360
330
1F
100
AcDbEntity
  8
1
  6
Continuous
 62
     7
370
     9
100
AcDbCircle
 10
-30.5536698671
 20
235.7717531964
 30
0.0
 40
2.5
100
AcDbArc
 50
98.86070999999998
 51
171.13929
  0
ARC
  5
361
330
1F
100
AcDbEntity
  8
1
  6
Continuous
 62
     7
370
     9
100
AcDbCircle
 10
76.4463301329
 20
128.7717531964
 30
0.0
 40
2.5
100
AcDbArc
 50
8.860710000000001
 51
81.13929
  0
LINE
  5
362
330
1F
100
AcDbEntity
  8
1
  6
Continuous
 62
     7
370
     9
100
AcDbLine
 10
-13.0703378671
 20
204.5217531964
 30
0.0
 11
-11.0370038671
 21
204.5217531964
 31
0.0
  0
LINE
  5
363
330
1F
100
AcDbEntity
  8
1
  6
Continuous
 62
     7
370
     9
100
AcDbLine
 10
41.1963301329
 20
227.7717531964
 30
0.0
 11
41.1963301329
 21
238.2717531964
 31
0.0
  0
LINE
  5
364
330
1F
100
AcDbEntity
  8
1
  6
Continuous
 62
     7
370
     9
100
AcDbLine
 10
76.8314121329
 20
131.2419171964
 30
0.0
 11
76.4463301329
 21
130.4717531964
 31
0.0
  0
LINE
  5
365
330
1F
100
AcDbEntity
  8
1
  6
Continuous
 62
     7
370
     9
100
AcDbLine
 10
76.4463301329
 20
130.4717531964
 30
0.0
 11
76.0612481329
 21
131.2419171964
 31
0.0
  0
LINE
  5
366
330
1F
100
AcDbEntity
  8
1
  6
Continuous
 62
     7
370
     9
100
AcDbLine
 10
57.0463301329
 20
169.2717531964
 30
0.0
 11
58.8463301329
 21
169.2717531964
 31
0.0
  0
LINE
  5
367
330
1F
100
AcDbEntity
  8
1
  6
Continuous
 62
     7
370
     9
100
AcDbLine
 10
-30.1685878671
 20
238.2419171964
 30
0.0
 11
-30.5536698671
 21
237.4717531964
 31
0.0
  0
LINE
  5
368
330
1F
100
AcDbEntity
  8
1
  6
Continuous
 62
     7
370
     9
100
AcDbLine
 10
-33.0238338671
 20
236.1568351964
 30
0.0
 11
-32.2536698671
 21
235.7717531964
 31
0.0
  0
LINE
  5
369
330
1F
100
AcDbEntity
  8
1
  6
Continuous
 62
     7
370
     9
100
AcDbLine
 10
34.6963301329
 20
183.2882831964
 30
0.0
 11
34.6963301329
 21
181.2552251964
 31
0.0
  0
LINE
  5
36A
330
1F
100
AcDbEntity
  8
1
  6
Continuous
 62
     7
370
     9
100
AcDbLine
 10
22.0463301329
 20
205.7717531964
 30
0.0
 11
23.8463301329
 21
205.7717531964
 31
0.0
  0
LINE
  5
36B
330
1F
100
AcDbEntity
  8
1
  6
Continuous
 62
     7
370
     9
100
AcDbLine
 10
-30.5536698671
 20
234.0717531964
 30
0.0
 11
-30.1685878671
 21
233.3015891964
 31
0.0
  0
LINE
  5
36C
330
1F
100
AcDbEntity
  8
1
  6
Continuous
 62
     7
370
     9
100
AcDbLine
 10
-30.9387518671
 20
233.3015891964
 30
0.0
 11
-30.5536698671
 21
234.0717531964
 31
0.0
  0
LINE
  5
36D
330
1F
100
AcDbEntity
  8
1
  6
Continuous
 62
     7
370
     9
100
AcDbLine
 10
-32.2536698671
 20
235.7717531964
 30
0.0
 11
-33.0238338671
 21
235.3866711964
 31
0.0
  0
LINE
  5
36E
330
1F
100
AcDbEntity
  8
1
  6
Continuous
 62
     7
370
     9
100
AcDbLine
 10
-13.0703378671
 20
135.5217531964
 30
0.0
 11
-11.0370038671
 21
135.5217531964
 31
0.0
  0
LINE
  5
36F
330
1F
100
AcDbEntity
  8
1
  6
Continuous
 62
     7
370
     9
100
AcDbLine
 10
-11.1536698671
 20
135.6717531964
 30
0.0
 11
-12.9536698671
 21
135.6717531964
 31
0.0
  0
ARC
  5
370
330
1F
100
AcDbEntity
  8
1
  6
Continuous
 62
     7
370
     9
100
AcDbCircle
 10
76.4463301329
 20
128.7717531964
 30
0.0
 40
2.5
100
AcDbArc
 50
98.86070999999998
 51
171.13929
  0
LINE
  5
371
330
1F
100
AcDbEntity
  8
1
  6
Continuous
 62
     7
370
     9
100
AcDbLine
 10
57.0463301329
 20
195.2717531964
 30
0.0
 11
58.8463301329
 21
195.2717531964
 31
0.0
  0
LINE
  5
372
330
1F
100
AcDbEntity
  8
1
  6
Continuous
 62
     7
370
     9
100
AcDbLine
 10
73.9761661329
 20
129.1568351964
 30
0.0
 11
74.7463301329
 21
128.7717531964
 31
0.0
  0
LINE
  5
373
330
1F
100
AcDbEntity
  8
1
  6
Continuous
 62
     7
370
     9
100
AcDbLine
 10
-11.0370038671
 20
169.5217531964
 30
0.0
 11
-13.0703378671
 21
169.5217531964
 31
0.0
  0
LINE
  5
374
330
1F
100
AcDbEntity
  8
1
  6
Continuous
 62
     7
370
     9
100
AcDbLine
 10
74.7463301329
 20
128.7717531964
 30
0.0
 11
73.9761661329
 21
128.3866711964
 31
0.0
  0
LINE
  5
375
330
1F
100
AcDbEntity
  8
1
  6
Continuous
 62
     7
370
     9
100
AcDbLine
 10
4.6963301329
 20
136.7717531964
 30
0.0
 11
4.6963301329
 21
126.2717531964
 31
0.0
  0
LINE
  5
376
330
1F
100
AcDbEntity
  8
1
  6
Continuous
 62
     7
370
     9
100
AcDbLine
 10
-13.0703378671
 20
170.5217531964
 30
0.0
 11
-11.0370038671
 21
170.5217531964
 31
0.0
  0
LINE
  5
377
330
1F
100
AcDbEntity
  8
1
  6
Continuous
 62
     7
370
     9
100
AcDbLine
 10
-11.0370038671
 20
159.0217531964
 30
0.0
 11
-13.0703378671
 21
159.0217531964
 31
0.0
  0
LINE
  5
378
330
1F
100
AcDbEntity
  8
1
  6
Continuous
 62
     7
370
     9
100
AcDbLine
 10
34.4463301329
 20
148.1717531964
 30
0.0
 11
34.4463301329
 21
146.3717531964
 31
0.0
  0
LINE
  5
379
330
1F
100
AcDbEntity
  8
1
  6
Continuous
 62
     7
370
     9
100
AcDbLine
 10
0.9463301329
 20
181.3719611964
 30
0.0
 11
0.9463301329
 21
183.1715471964
 31
0.0
  0
LINE
  5
37A
330
1F
100
AcDbEntity
  8
1
  6
Continuous
 62
     7
370
     9
100
AcDbLine
 10
23.8463301329
 20
228.8717531964
 30
0.0
 11
22.0463301329
 21
228.8717531964
 31
0.0
  0
LINE
  5
37B
330
1F
100
AcDbEntity
  8
1
  6
Continuous
 62
     7
370
     9
100
AcDbLine
 10
-11.1536698671
 20
170.7717531964
 30
0.0
 11
-12.9536698671
 21
170.7717531964
 31
0.0
  0
LINE
  5
37C
330
1F
100
AcDbEntity
  8
1
  6
Continuous
 62
     7
370
     9
100
AcDbLine
 10
-12.9536698671
 20
195.2717531964
 30
0.0
 11
-11.1536698671
 21
195.2717531964
 31
0.0
  0
LINE
  5
37D
330
1F
100
AcDbEntity
  8
1
  6
Continuous
 62
     7
370
     9
100
AcDbLine
 10
23.8463301329
 20
170.7717531964
 30
0.0
 11
22.0463301329
 21
170.7717531964
 31
0.0
  0
LINE
  5
37E
330
1F
100
AcDbEntity
  8
1
  6
Continuous
 62
     7
370
     9
100
AcDbLine
 10
34.4463301329
 20
181.3719611964
 30
0.0
 11
34.4463301329
 21
183.1715471964
 31
0.0
  0
LINE
  5
37F
330
1F
100
AcDbEntity
  8
1
  6
Continuous
 62
     7
370
     9
100
AcDbLine
 10
35.9463301329
 20
218.1717531964
 30
0.0
 11
35.9463301329
 21
216.3717531964
 31
0.0
  0
LINE
  5
380
330
1F
100
AcDbEntity
  8
1
  6
Continuous
 62
     7
370
     9
100
AcDbLine
 10
22.0463301329
 20
158.7717531964
 30
0.0
 11
23.8463301329
 21
158.7717531964
 31
0.0
  0
LINE
  5
381
330
1F
100
AcDbEntity
  8
1
  6
Continuous
 62
     7
370
     9
100
AcDbLine
 10
-12.9536698671
 20
169.2717531964
 30
0.0
 11
-11.1536698671
 21
169.2717531964
 31
0.0
  0
LINE
  5
382
330
1F
100
AcDbEntity
  8
1
  6
Continuous
 62
     7
370
     9
100
AcDbLine
 10
-11.0370038671
 20
195.0217531964
 30
0.0
 11
-13.0703378671
 21
195.0217531964
 31
0.0
  0
LINE
  5
383
330
1F
100
AcDbEntity
  8
1
  6
Continuous
 62
     7
370
     9
100
AcDbLine
 10
-12.9536698671
 20
158.7717531964
 30
0.0
 11
-11.1536698671
 21
158.7717531964
 31
0.0
  0
LINE
  5
384
330
1F
100
AcDbEntity
  8
1
  6
Continuous
 62
     7
370
     9
100
AcDbLine
 10
41.1963301329
 20
136.7717531964
 30
0.0
 11
41.1963301329
 21
126.2717531964
 31
0.0
  0
LINE
  5
385
330
1F
100
AcDbEntity
  8
1
  6
Continuous
 62
     7
370
     9
100
AcDbLine
 10
4.6963301329
 20
227.7717531964
 30
0.0
 11
4.6963301329
 21
238.2717531964
 31
0.0
  0
LINE
  5
386
330
1F
100
AcDbEntity
  8
1
  6
Continuous
 62
     7
370
     9
100
AcDbLine
 10
-30.9387518671
 20
131.2419171964
 30
0.0
 11
-30.5536698671
 21
130.4717531964
 31
0.0
  0
ARC
  5
387
330
1F
100
AcDbEntity
  8
1
  6
Continuous
 62
     7
370
     9
100
AcDbCircle
 10
-30.5536698671
 20
128.7717531964
 30
0.0
 40
2.5
100
AcDbArc
 50
278.86071
 51
351.13929
  0
ARC
  5
388
330
1F
100
AcDbEntity
  8
1
  6
Continuous
 62
     7
370
     9
100
AcDbCircle
 10
76.4463301329
 20
128.7717531964
 30
0.0
 40
2.5
100
AcDbArc
 50
278.86071
 51
351.13929
  0
LINE
  5
389
330
1F
100
AcDbEntity
  8
1
  6
Continuous
 62
     7
370
     9
100
AcDbLine
 10
-30.5536698671
 20
130.4717531964
 30
0.0
 11
-30.1685878671
 21
131.2419171964
 31
0.0
  0
LINE
  5
38A
330
1F
100
AcDbEntity
  8
1
  6
Continuous
 62
     7
370
     9
100
AcDbLine
 10
78.1463301329
 20
235.7717531964
 30
0.0
 11
78.9164941329
 21
235.3866711964
 31
0.0
  0
ARC
  5
38B
330
1F
100
AcDbEntity
  8
1
  6
Continuous
 62
     7
370
     9
100
AcDbCircle
 10
76.4463301329
 20
128.7717531964
 30
0.0
 40
2.5
100
AcDbArc
 50
188.86071
 51
261.13929
  0
LINE
  5
38C
330
1F
100
AcDbEntity
  8
1
  6
Continuous
 62
     7
370
     9
100
AcDbLine
 10
-28.8536698671
 20
128.7717531964
 30
0.0
 11
-28.0835058671
 21
128.3866711964
 31
0.0
  0
LINE
  5
38D
330
1F
100
AcDbEntity
  8
1
  6
Continuous
 62
     7
370
     9
100
AcDbLine
 10
78.9164941329
 20
236.1568351964
 30
0.0
 11
78.1463301329
 21
235.7717531964
 31
0.0
  0
LINE
  5
38E
330
1F
100
AcDbEntity
  8
1
  6
Continuous
 62
     7
370
     9
100
AcDbLine
 10
76.8314121329
 20
233.3015891964
 30
0.0
 11
76.4463301329
 21
234.0717531964
 31
0.0
  0
LINE
  5
38F
330
1F
100
AcDbEntity
  8
1
  6
Continuous
 62
     7
370
     9
100
AcDbLine
 10
76.4463301329
 20
127.0717531964
 30
0.0
 11
76.8314121329
 21
126.3015891964
 31
0.0
  0
LINE
  5
390
330
1F
100
AcDbEntity
  8
1
  6
Continuous
 62
     7
370
     9
100
AcDbLine
 10
76.4463301329
 20
237.4717531964
 30
0.0
 11
76.8314121329
 21
238.2419171964
 31
0.0
  0
ARC
  5
391
330
1F
100
AcDbEntity
  8
1
  6
Continuous
 62
     7
370
     9
100
AcDbCircle
 10
76.4463301329
 20
235.7717531964
 30
0.0
 40
2.5
100
AcDbArc
 50
8.860710000000001
 51
81.13929
  0
LINE
  5
392
330
1F
100
AcDbEntity
  8
1
  6
Continuous
 62
     7
370
     9
100
AcDbLine
 10
76.0612481329
 20
238.2419171964
 30
0.0
 11
76.4463301329
 21
237.4717531964
 31
0.0
  0
LINE
  5
393
330
1F
100
AcDbEntity
  8
1
  6
Continuous
 62
     7
370
     9
100
AcDbLine
 10
76.4463301329
 20
234.0717531964
 30
0.0
 11
76.0612481329
 21
233.3015891964
 31
0.0
  0
ARC
  5
394
330
1F
100
AcDbEntity
  8
1
  6
Continuous
 62
     7
370
     9
100
AcDbCircle
 10
76.4463301329
 20
235.7717531964
 30
0.0
 40
2.5
100
AcDbArc
 50
278.86071
 51
351.13929
  0
ARC
  5
395
330
1F
100
AcDbEntity
  8
1
  6
Continuous
 62
     7
370
     9
100
AcDbCircle
 10
-30.5536698671
 20
128.7717531964
 30
0.0
 40
2.5
100
AcDbArc
 50
188.86071
 51
261.13929
  0
LINE
  5
396
330
1F
100
AcDbEntity
  8
1
  6
Continuous
 62
     7
370
     9
100
AcDbLine
 10
-30.1685878671
 20
126.3015891964
 30
0.0
 11
-30.5536698671
 21
127.0717531964
 31
0.0
  0
ARC
  5
397
330
1F
100
AcDbEntity
  8
1
  6
Continuous
 62
     7
370
     9
100
AcDbCircle
 10
76.4463301329
 20
235.7717531964
 30
0.0
 40
2.5
100
AcDbArc
 50
188.86071
 51
261.13929
  0
LINE
  5
398
330
1F
100
AcDbEntity
  8
1
  6
Continuous
 62
     7
370
     9
100
AcDbLine
 10
76.0612481329
 20
126.3015891964
 30
0.0
 11
76.4463301329
 21
127.0717531964
 31
0.0
  0
LINE
  5
399
330
1F
100
AcDbEntity
  8
1
  6
Continuous
 62
     7
370
     9
100
AcDbLine
 10
-33.0238338671
 20
128.3866711964
 30
0.0
 11
-32.2536698671
 21
128.7717531964
 31
0.0
  0
LINE
  5
39A
330
1F
100
AcDbEntity
  8
1
  6
Continuous
 62
     7
370
     9
100
AcDbLine
 10
-30.5536698671
 20
127.0717531964
 30
0.0
 11
-30.9387518671
 21
126.3015891964
 31
0.0
  0
LINE
  5
39B
330
1F
100
AcDbEntity
  8
1
  6
Continuous
 62
     7
370
     9
100
AcDbLine
 10
78.1463301329
 20
128.7717531964
 30
0.0
 11
78.9164941329
 21
129.1568351964
 31
0.0
  0
ARC
  5
39C
330
1F
100
AcDbEntity
  8
1
  6
Continuous
 62
     7
370
     9
100
AcDbCircle
 10
-30.5536698671
 20
128.7717531964
 30
0.0
 40
2.5
100
AcDbArc
 50
98.86070999999998
 51
171.13929
  0
LINE
  5
39D
330
1F
100
AcDbEntity
  8
1
  6
Continuous
 62
     7
370
     9
100
AcDbLine
 10
78.9164941329
 20
128.3866711964
 30
0.0
 11
78.1463301329
 21
128.7717531964
 31
0.0
  0
LINE
  5
39E
330
1F
100
AcDbEntity
  8
1
  6
Continuous
 62
     7
370
     9
100
AcDbLine
 10
-28.0835058671
 20
129.1568351964
 30
0.0
 11
-28.8536698671
 21
128.7717531964
 31
0.0
  0
LINE
  5
39F
330
1F
100
AcDbEntity
  8
1
  6
Continuous
 62
     7
370
     9
100
AcDbLine
 10
-32.2536698671
 20
128.7717531964
 30
0.0
 11
-33.0238338671
 21
129.1568351964
 31
0.0
  0
ARC
  5
3A0
330
1F
100
AcDbEntity
  8
1
  6
Continuous
 62
     7
370
     9
100
AcDbCircle
 10
-30.5536698671
 20
128.7717531964
 30
0.0
 40
2.5
100
AcDbArc
 50
8.860710000000001
 51
81.13929
  0
ENDSEC
  0
SECTION
  2
OBJECTS
  0
DICTIONARY
  5
C
330
0
100
AcDbDictionary
281
     1
  3
ACAD_DETAILVIEWSTYLE
350
3A8
  3
ACAD_GROUP
350
D
  3
ACAD_LAYOUT
350
1A
  3
ACAD_MATERIAL
350
43
  3
ACAD_MLEADERSTYLE
350
6B
  3
ACAD_MLINESTYLE
350
17
  3
ACAD_PLOTSETTINGS
350
19
  3
ACAD_PLOTSTYLENAME
350
E
  3
ACAD_SCALELIST
350
47
  3
ACAD_SECTIONVIEWSTYLE
350
3A9
  3
ACAD_TABLESTYLE
350
69
  3
ACAD_VISUALSTYLE
350
2A
  3
ACDB_RECOMPOSE_DATA
350
3A5
  3
AcDbVariableDictionary
350
3A1
  0
SUN
  5
6D
330
29
100
AcDbSun
 90
        1
290
     0
 63
     7
421
 16777215
 40
1.0
291
     1
 91
  2455826
 92
 54000000
292
     0
 70
     2
 71
   256
280
     1
  0
DICTIONARY
  5
3A8
102
{ACAD_REACTORS
330
C
102
}
330
C
100
AcDbDictionary
281
     1
  0
DICTIONARY
  5
D
102
{ACAD_REACTORS
330
C
102
}
330
C
100
AcDbDictionary
281
     1
  0
DICTIONARY
  5
1A
102
{ACAD_REACTORS
330
C
102
}
330
C
100
AcDbDictionary
281
     1
  3
Layout1
350
1E
  3
Layout2
350
26
  3
Model
350
22
  0
DICTIONARY
  5
43
102
{ACAD_REACTORS
330
C
102
}
330
C
100
AcDbDictionary
281
     1
  3
ByBlock
350
45
  3
ByLayer
350
44
  3
Global
350
46
  0
DICTIONARY
  5
6B
102
{ACAD_REACTORS
330
C
102
}
330
C
100
AcDbDictionary
281
     1
  3
Standard
350
6C
  0
DICTIONARY
  5
17
102
{ACAD_REACTORS
330
C
102
}
330
C
100
AcDbDictionary
281
     1
  3
Standard
350
18
  0
DICTIONARY
  5
19
102
{ACAD_REACTORS
330
C
102
}
330
C
100
AcDbDictionary
281
     1
  0
ACDBDICTIONARYWDFLT
  5
E
102
{ACAD_REACTORS
330
C
102
}
330
C
100
AcDbDictionary
281
     1
  3
Normal
350
F
100
AcDbDictionaryWithDefault
340
F
  0
DICTIONARY
  5
47
102
{ACAD_REACTORS
330
C
102
}
330
C
100
AcDbDictionary
281
     1
  3
A0
350
48
  3
A1
350
49
  3
A2
350
4A
  3
A3
350
4B
  3
A4
350
4C
  3
A5
350
4D
  3
A6
350
4E
  3
A7
350
4F
  3
A8
350
50
  3
A9
350
51
  3
B0
350
52
  3
B1
350
53
  3
B2
350
54
  3
B3
350
55
  3
B4
350
56
  3
B5
350
57
  3
B6
350
58
  3
B7
350
59
  3
B8
350
5A
  3
B9
350
5B
  3
C0
350
5C
  3
C1
350
5D
  3
C2
350
5E
  3
C3
350
5F
  3
C4
350
60
  3
C5
350
61
  3
C6
350
62
  3
C7
350
63
  3
C8
350
64
  3
C9
350
65
  3
D0
350
66
  3
D1
350
67
  3
D2
350
68
  0
DICTIONARY
  5
3A9
102
{ACAD_REACTORS
330
C
102
}
330
C
100
AcDbDictionary
281
     1
  0
DICTIONARY
  5
69
102
{ACAD_REACTORS
330
C
102
}
330
C
100
AcDbDictionary
281
     1
  3
Standard
350
6A
  0
DICTIONARY
  5
2A
102
{ACAD_REACTORS
330
C
102
}
330
C
100
AcDbDictionary
281
     1
  3
2dWireframe
350
2F
  3
Basic
350
32
  3
Brighten
350
36
  3
ColorChange
350
3A
  3
Conceptual
350
34
  3
Dim
350
35
  3
EdgeColorOff
350
3D
  3
Facepattern
350
39
  3
Flat
350
2B
  3
FlatWithEdges
350
2C
  3
Gouraud
350
2D
  3
GouraudWithEdges
350
2E
  3
Hidden
350
31
  3
JitterOff
350
3B
  3
Linepattern
350
38
  3
OverhangOff
350
3C
  3
Realistic
350
33
  3
Shaded
350
42
  3
Shaded with edges
350
41
  3
Shades of Gray
350
3E
  3
Sketchy
350
3F
  3
Thicken
350
37
  3
Wireframe
350
30
  3
X-Ray
350
40
  0
XRECORD
  5
3A5
102
{ACAD_REACTORS
330
C
102
}
330
C
100
AcDbXrecord
280
     1
 90
        1
330
6A
  0
DICTIONARY
  5
3A1
102
{ACAD_REACTORS
330
C
102
}
330
C
100
AcDbDictionary
281
     1
  3
CANNOSCALE
350
3A2
  3
CMLEADERSTYLE
350
3A7
  3
CTABLESTYLE
350
3A6
  0
LAYOUT
  5
1E
102
{ACAD_REACTORS
330
1A
102
}
330
1A
100
AcDbPlotSettings
  1

  2
none_device
  4

  6

 40
0.0
 41
0.0
 42
0.0
 43
0.0
 44
0.0
 45
0.0
 46
0.0
 47
0.0
 48
0.0
 49
0.0
140
0.0
141
0.0
142
1.0
143
1.0
 70
   688
 72
     0
 73
     0
 74
     5
  7

 75
    16
 76
     0
 77
     2
 78
   300
147
1.0
148
0.0
149
0.0
100
AcDbLayout
  1
Layout1
 70
     1
 71
     1
 10
0.0
 20
0.0
 11
12.0
 21
9.0
 12
0.0
 22
0.0
 32
0.0
 14
1.000000000000000E+20
 24
1.000000000000000E+20
 34
1.000000000000000E+20
 15
-1.000000000000000E+20
 25
-1.000000000000000E+20
 35
-1.000000000000000E+20
146
0.0
 13
0.0
 23
0.0
 33
0.0
 16
1.0
 26
0.0
 36
0.0
 17
0.0
 27
1.0
 37
0.0
 76
     0
330
1B
  0
LAYOUT
  5
26
102
{ACAD_REACTORS
330
1A
102
}
330
1A
100
AcDbPlotSettings
  1

  2
none_device
  4

  6

 40
0.0
 41
0.0
 42
0.0
 43
0.0
 44
0.0
 45
0.0
 46
0.0
 47
0.0
 48
0.0
 49
0.0
140
0.0
141
0.0
142
1.0
143
1.0
 70
   688
 72
     0
 73
     0
 74
     5
  7

 75
    16
 76
     0
 77
     2
 78
   300
147
1.0
148
0.0
149
0.0
100
AcDbLayout
  1
Layout2
 70
     1
 71
     2
 10
0.0
 20
0.0
 11
0.0
 21
0.0
 12
0.0
 22
0.0
 32
0.0
 14
0.0
 24
0.0
 34
0.0
 15
0.0
 25
0.0
 35
0.0
146
0.0
 13
0.0
 23
0.0
 33
0.0
 16
1.0
 26
0.0
 36
0.0
 17
0.0
 27
1.0
 37
0.0
 76
     0
330
23
  0
LAYOUT
  5
22
102
{ACAD_REACTORS
330
1A
102
}
330
1A
100
AcDbPlotSettings
  1

  2
none_device
  4
Letter_(8.50_x_11.00_Inches)
  6

 40
6.35
 41
6.35
 42
6.35000508
 43
6.35000508
 44
215.9
 45
279.4
 46
0.0
 47
0.0
 48
0.0
 49
0.0
140
0.0
141
0.0
142
1.0
143
1.0
 70
  1712
 72
     0
 73
     0
 74
     0
  7

 75
     0
 76
     0
 77
     2
 78
   300
147
1.0
148
0.0
149
0.0
100
AcDbLayout
  1
Model
 70
     1
 71
     0
 10
0.0
 20
0.0
 11
12.0
 21
9.0
 12
0.0
 22
0.0
 32
0.0
 14
-43.0536698671
 24
59.7717531964
 34
0.0
 15
150.4463301329
 25
248.2717531964
 35
0.0
146
0.0
 13
0.0
 23
0.0
 33
0.0
 16
1.0
 26
0.0
 36
0.0
 17
0.0
 27
1.0
 37
0.0
 76
     0
330
1F
331
29
  0
MATERIAL
  5
45
102
{ACAD_REACTORS
330
43
102
}
330
43
100
AcDbMaterial
  1
ByBlock
 72
     1
 94
      127
  0
MATERIAL
  5
44
102
{ACAD_REACTORS
330
43
102
}
330
43
100
AcDbMaterial
  1
ByLayer
 72
     1
 94
      127
  0
MATERIAL
  5
46
102
{ACAD_REACTORS
330
43
102
}
330
43
100
AcDbMaterial
  1
Global
 72
     1
 94
      127
  0
MLEADERSTYLE
  5
6C
102
{ACAD_REACTORS
330
6B
102
}
330
6B
100
AcDbMLeaderStyle
179
     2
170
     2
171
     1
172
     0
 90
        2
 40
0.0
 41
0.0
173
     1
 91
-1056964608
340
14
 92
       -2
290
     1
 42
0.09
291
     1
 43
0.36
  3
Standard
341
0
 44
0.18
300

342
11
174
     1
178
     6
175
     1
176
     0
 93
-1056964608
 45
0.18
292
     0
297
     0
 46
0.18
343
0
 94
-1056964608
 47
1.0
 49
1.0
140
1.0
293
     1
141
0.0
294
     1
177
     0
142
1.0
295
     0
296
     0
143
0.125
271
     0
272
     9
273
     9
298
     0
  0
MLINESTYLE
  5
18
102
{ACAD_REACTORS
330
17
102
}
330
17
100
AcDbMlineStyle
  2
Standard
 70
     0
  3

 62
   256
 51
90.0
 52
90.0
 71
     2
 49
0.5
 62
   256
  6
BYLAYER
 49
-0.5
 62
   256
  6
BYLAYER
  0
ACDBPLACEHOLDER
  5
F
102
{ACAD_REACTORS
330
E
102
}
330
E
  0
SCALE
  5
48
102
{ACAD_REACTORS
330
47
102
}
330
47
100
AcDbScale
 70
     0
300
1:1
140
1.0
141
1.0
290
     1
  0
SCALE
  5
49
102
{ACAD_REACTORS
330
47
102
}
330
47
100
AcDbScale
 70
     0
300
1:2
140
1.0
141
2.0
290
     0
  0
SCALE
  5
4A
102
{ACAD_REACTORS
330
47
102
}
330
47
100
AcDbScale
 70
     0
300
1:4
140
1.0
141
4.0
290
     0
  0
SCALE
  5
4B
102
{ACAD_REACTORS
330
47
102
}
330
47
100
AcDbScale
 70
     0
300
1:5
140
1.0
141
5.0
290
     0
  0
SCALE
  5
4C
102
{ACAD_REACTORS
330
47
102
}
330
47
100
AcDbScale
 70
     0
300
1:8
140
1.0
141
8.0
290
     0
  0
SCALE
  5
4D
102
{ACAD_REACTORS
330
47
102
}
330
47
100
AcDbScale
 70
     0
300
1:10
140
1.0
141
10.0
290
     0
  0
SCALE
  5
4E
102
{ACAD_REACTORS
330
47
102
}
330
47
100
AcDbScale
 70
     0
300
1:16
140
1.0
141
16.0
290
     0
  0
SCALE
  5
4F
102
{ACAD_REACTORS
330
47
102
}
330
47
100
AcDbScale
 70
     0
300
1:20
140
1.0
141
20.0
290
     0
  0
SCALE
  5
50
102
{ACAD_REACTORS
330
47
102
}
330
47
100
AcDbScale
 70
     0
300
1:30
140
1.0
141
30.0
290
     0
  0
SCALE
  5
51
102
{ACAD_REACTORS
330
47
102
}
330
47
100
AcDbScale
 70
     0
300
1:40
140
1.0
141
40.0
290
     0
  0
SCALE
  5
52
102
{ACAD_REACTORS
330
47
102
}
330
47
100
AcDbScale
 70
     0
300
1:50
140
1.0
141
50.0
290
     0
  0
SCALE
  5
53
102
{ACAD_REACTORS
330
47
102
}
330
47
100
AcDbScale
 70
     0
300
1:100
140
1.0
141
100.0
290
     0
  0
SCALE
  5
54
102
{ACAD_REACTORS
330
47
102
}
330
47
100
AcDbScale
 70
     0
300
2:1
140
2.0
141
1.0
290
     0
  0
SCALE
  5
55
102
{ACAD_REACTORS
330
47
102
}
330
47
100
AcDbScale
 70
     0
300
4:1
140
4.0
141
1.0
290
     0
  0
SCALE
  5
56
102
{ACAD_REACTORS
330
47
102
}
330
47
100
AcDbScale
 70
     0
300
8:1
140
8.0
141
1.0
290
     0
  0
SCALE
  5
57
102
{ACAD_REACTORS
330
47
102
}
330
47
100
AcDbScale
 70
     0
300
10:1
140
10.0
141
1.0
290
     0
  0
SCALE
  5
58
102
{ACAD_REACTORS
330
47
102
}
330
47
100
AcDbScale
 70
     0
300
100:1
140
100.0
141
1.0
290
     0
  0
SCALE
  5
59
102
{ACAD_REACTORS
330
47
102
}
330
47
100
AcDbScale
 70
     0
300
1/128" = 1'-0"
140
0.0078125
141
12.0
290
     0
  0
SCALE
  5
5A
102
{ACAD_REACTORS
330
47
102
}
330
47
100
AcDbScale
 70
     0
300
1/64" = 1'-0"
140
0.015625
141
12.0
290
     0
  0
SCALE
  5
5B
102
{ACAD_REACTORS
330
47
102
}
330
47
100
AcDbScale
 70
     0
300
1/32" = 1'-0"
140
0.03125
141
12.0
290
     0
  0
SCALE
  5
5C
102
{ACAD_REACTORS
330
47
102
}
330
47
100
AcDbScale
 70
     0
300
1/16" = 1'-0"
140
0.0625
141
12.0
290
     0
  0
SCALE
  5
5D
102
{ACAD_REACTORS
330
47
102
}
330
47
100
AcDbScale
 70
     0
300
3/32" = 1'-0"
140
0.09375
141
12.0
290
     0
  0
SCALE
  5
5E
102
{ACAD_REACTORS
330
47
102
}
330
47
100
AcDbScale
 70
     0
300
1/8" = 1'-0"
140
0.125
141
12.0
290
     0
  0
SCALE
  5
5F
102
{ACAD_REACTORS
330
47
102
}
330
47
100
AcDbScale
 70
     0
300
3/16" = 1'-0"
140
0.1875
141
12.0
290
     0
  0
SCALE
  5
60
102
{ACAD_REACTORS
330
47
102
}
330
47
100
AcDbScale
 70
     0
300
1/4" = 1'-0"
140
0.25
141
12.0
290
     0
  0
SCALE
  5
61
102
{ACAD_REACTORS
330
47
102
}
330
47
100
AcDbScale
 70
     0
300
3/8" = 1'-0"
140
0.375
141
12.0
290
     0
  0
SCALE
  5
62
102
{ACAD_REACTORS
330
47
102
}
330
47
100
AcDbScale
 70
     0
300
1/2" = 1'-0"
140
0.5
141
12.0
290
     0
  0
SCALE
  5
63
102
{ACAD_REACTORS
330
47
102
}
330
47
100
AcDbScale
 70
     0
300
3/4" = 1'-0"
140
0.75
141
12.0
290
     0
  0
SCALE
  5
64
102
{ACAD_REACTORS
330
47
102
}
330
47
100
AcDbScale
 70
     0
300
1" = 1'-0"
140
1.0
141
12.0
290
     0
  0
SCALE
  5
65
102
{ACAD_REACTORS
330
47
102
}
330
47
100
AcDbScale
 70
     0
300
1-1/2" = 1'-0"
140
1.5
141
12.0
290
     0
  0
SCALE
  5
66
102
{ACAD_REACTORS
330
47
102
}
330
47
100
AcDbScale
 70
     0
300
3" = 1'-0"
140
3.0
141
12.0
290
     0
  0
SCALE
  5
67
102
{ACAD_REACTORS
330
47
102
}
330
47
100
AcDbScale
 70
     0
300
6" = 1'-0"
140
6.0
141
12.0
290
     0
  0
SCALE
  5
68
102
{ACAD_REACTORS
330
47
102
}
330
47
100
AcDbScale
 70
     0
300
1'-0" = 1'-0"
140
12.0
141
12.0
290
     0
  0
TABLESTYLE
  5
6A
102
{ACAD_REACTORS
330
69
102
}
102
{ACAD_XDICTIONARY
360
3A3
102
}
330
69
100
AcDbTableStyle
  3
Standard
 70
     0
 71
     0
 40
0.06
 41
0.06
280
     0
281
     0
  7
Standard
140
0.18
170
     2
 62
     0
 63
   257
283
     0
 90
        4
 91
        0
  1

274
    -2
284
     1
 64
     0
275
    -2
285
     1
 65
     0
276
    -2
286
     1
 66
     0
277
    -2
287
     1
 67
     0
278
    -2
288
     1
 68
     0
279
    -2
289
     1
 69
     0
  7
Standard
140
0.25
170
     5
 62
     0
 63
   257
283
     0
 90
        4
 91
        0
  1

274
    -2
284
     1
 64
     0
275
    -2
285
     1
 65
     0
276
    -2
286
     1
 66
     0
277
    -2
287
     1
 67
     0
278
    -2
288
     1
 68
     0
279
    -2
289
     1
 69
     0
  7
Standard
140
0.18
170
     5
 62
     0
 63
   257
283
     0
 90
        4
 91
        0
  1

274
    -2
284
     1
 64
     0
275
    -2
285
     1
 65
     0
276
    -2
286
     1
 66
     0
277
    -2
287
     1
 67
     0
278
    -2
288
     1
 68
     0
279
    -2
289
     1
 69
     0
  0
VISUALSTYLE
  5
2F
102
{ACAD_REACTORS
330
2A
102
}
330
2A
100
AcDbVisualStyle
  2
2dWireframe
 70
     4
177
     3
291
     0
 70
    58
 90
        0
176
     1
 90
        2
176
     1
 90
        0
176
     1
 90
        0
176
     1
 40
0.6
176
     1
 40
30.0
176
     1
 62
     7
420
 16777215
176
     1
 90
        1
176
     1
 90
        4
176
     1
 62
     7
176
     1
 62
   257
176
     1
 90
        1
176
     1
 90
        1
176
     1
 40
1.0
176
     1
 90
        0
176
     1
 62
   257
176
     1
 40
1.0
176
     1
 90
        1
176
     1
 90
        6
176
     1
 90
        2
176
     1
 62
     7
176
     1
 90
        5
176
     1
 90
        0
176
     1
 90
        0
176
     1
290
     0
176
     1
 90
        1
176
     1
 40
0.0
176
     1
 90
        0
176
     1
290
     1
176
     1
290
     1
176
     1
290
     0
176
     1
290
     0
176
     1
290
     0
176
     1
290
     0
176
     1
290
     0
176
     1
290
     0
176
     1
290
     0
176
     1
 90
       50
176
     1
 40
0.0
176
     1
 40
1.0
176
     1
 90
        0
176
     1
 62
    18
420
        0
176
     1
 90
       50
176
     1
 90
        3
176
     1
 62
     5
420
      255
176
     1
290
     0
176
     1
 90
       50
176
     1
 90
       50
176
     1
 90
       50
176
     1
290
     0
176
     1
 90
       50
176
     1
 62
   256
176
     0
 40
1.0
176
     0
 90
        2
176
     1
  1
strokes_ogs.tif
176
     1
290
     0
176
     1
 40
1.0
176
     1
 40
1.0
176
     1
  0
VISUALSTYLE
  5
32
102
{ACAD_REACTORS
330
2A
102
}
330
2A
100
AcDbVisualStyle
  2
Basic
 70
     7
177
     3
291
     1
 70
    58
 90
        1
176
     1
 90
        0
176
     1
 90
        1
176
     1
 90
        0
176
     1
 40
0.6
176
     1
 40
30.0
176
     1
 62
     7
420
 16777215
176
     1
 90
        0
176
     1
 90
        4
176
     1
 62
     7
176
     1
 62
   257
176
     1
 90
        1
176
     1
 90
        1
176
     1
 40
1.0
176
     1
 90
        8
176
     1
 62
     7
176
     1
 40
1.0
176
     1
 90
        1
176
     1
 90
        6
176
     1
 90
        2
176
     1
 62
     7
176
     1
 90
        5
176
     1
 90
        0
176
     1
 90
        0
176
     1
290
     0
176
     1
 90
        1
176
     1
 40
0.0
176
     1
 90
        0
176
     1
290
     0
176
     1
290
     1
176
     1
290
     1
176
     1
290
     0
176
     1
290
     0
176
     1
290
     0
176
     1
290
     0
176
     1
290
     0
176
     1
290
     0
176
     1
 90
       50
176
     1
 40
0.0
176
     1
 40
1.0
176
     1
 90
        0
176
     1
 62
    18
420
        0
176
     1
 90
       50
176
     1
 90
        3
176
     1
 62
     5
420
      255
176
     1
290
     0
176
     1
 90
       50
176
     1
 90
       50
176
     1
 90
       50
176
     1
290
     0
176
     1
 90
       50
176
     1
 62
   256
176
     0
 40
1.0
176
     0
 90
        2
176
     1
  1
strokes_ogs.tif
176
     1
290
     0
176
     1
 40
1.0
176
     1
 40
1.0
176
     1
  0
VISUALSTYLE
  5
36
102
{ACAD_REACTORS
330
2A
102
}
330
2A
100
AcDbVisualStyle
  2
Brighten
 70
    12
177
     3
291
     1
 70
    58
 90
        2
176
     1
 90
        2
176
     1
 90
        0
176
     1
 90
        0
176
     1
 40
0.6
176
     1
 40
30.0
176
     1
 62
     7
420
 16777215
176
     1
 90
        1
176
     1
 90
        4
176
     1
 62
     7
176
     1
 62
   257
176
     1
 90
        1
176
     1
 90
        1
176
     1
 40
1.0
176
     1
 90
        8
176
     1
 62
     7
176
     1
 40
1.0
176
     1
 90
        1
176
     1
 90
        6
176
     1
 90
        2
176
     1
 62
     7
176
     1
 90
        5
176
     1
 90
        0
176
     1
 90
        0
176
     1
290
     0
176
     1
 90
        1
176
     1
 40
50.0
176
     1
 90
        0
176
     1
290
     0
176
     1
290
     1
176
     1
290
     1
176
     1
290
     0
176
     1
290
     0
176
     1
290
     0
176
     1
290
     0
176
     1
290
     0
176
     1
290
     0
176
     1
 90
       50
176
     1
 40
0.0
176
     1
 40
1.0
176
     1
 90
        0
176
     1
 62
    18
420
        0
176
     1
 90
       50
176
     1
 90
        3
176
     1
 62
     5
420
      255
176
     1
290
     0
176
     1
 90
       50
176
     1
 90
       50
176
     1
 90
       50
176
     1
290
     0
176
     1
 90
       50
176
     1
 62
   256
176
     0
 40
1.0
176
     0
 90
        2
176
     1
  1
strokes_ogs.tif
176
     1
290
     0
176
     1
 40
1.0
176
     1
 40
1.0
176
     1
  0
VISUALSTYLE
  5
3A
102
{ACAD_REACTORS
330
2A
102
}
330
2A
100
AcDbVisualStyle
  2
ColorChange
 70
    16
177
     3
291
     1
 70
    58
 90
        2
176
     1
 90
        2
176
     1
 90
        3
176
     1
 90
        0
176
     1
 40
0.6
176
     1
 40
30.0
176
     1
 62
     8
420
  8421504
176
     1
 90
        1
176
     1
 90
        4
176
     1
 62
     7
176
     1
 62
   257
176
     1
 90
        1
176
     1
 90
        1
176
     1
 40
1.0
176
     1
 90
        8
176
     1
 62
     8
420
  8421504
176
     1
 40
1.0
176
     1
 90
        1
176
     1
 90
        6
176
     1
 90
        2
176
     1
 62
     7
176
     1
 90
        5
176
     1
 90
        0
176
     1
 90
        0
176
     1
290
     0
176
     1
 90
        1
176
     1
 40
0.0
176
     1
 90
        0
176
     1
290
     0
176
     1
290
     1
176
     1
290
     1
176
     1
290
     0
176
     1
290
     0
176
     1
290
     0
176
     1
290
     0
176
     1
290
     0
176
     1
290
     0
176
     1
 90
       50
176
     1
 40
0.0
176
     1
 40
1.0
176
     1
 90
        0
176
     1
 62
    18
420
        0
176
     1
 90
       50
176
     1
 90
        3
176
     1
 62
     5
420
      255
176
     1
290
     0
176
     1
 90
       50
176
     1
 90
       50
176
     1
 90
       50
176
     1
290
     0
176
     1
 90
       50
176
     1
 62
   256
176
     0
 40
1.0
176
     0
 90
        2
176
     1
  1
strokes_ogs.tif
176
     1
290
     0
176
     1
 40
1.0
176
     1
 40
1.0
176
     1
  0
VISUALSTYLE
  5
34
102
{ACAD_REACTORS
330
2A
102
}
330
2A
100
AcDbVisualStyle
  2
Conceptual
 70
     9
177
     3
291
     0
 70
    58
 90
        3
176
     1
 90
        2
176
     1
 90
        0
176
     1
 90
        0
176
     1
 40
0.6
176
     1
 40
30.0
176
     1
 62
     7
420
 16777215
176
     1
 90
        2
176
     1
 90
        2
176
     1
 62
     7
176
     1
 62
   257
176
     1
 90
        1
176
     1
 90
        1
176
     1
 40
179.0
176
     1
 90
        8
176
     1
 62
     7
176
     1
 40
1.0
176
     1
 90
        1
176
     1
 90
        6
176
     1
 90
        2
176
     1
 62
     7
176
     1
 90
        3
176
     1
 90
        0
176
     1
 90
        0
176
     1
290
     0
176
     1
 90
        1
176
     1
 40
0.0
176
     1
 90
        0
176
     1
290
     0
176
     1
290
     1
176
     1
290
     1
176
     1
290
     0
176
     1
290
     0
176
     1
290
     0
176
     1
290
     0
176
     1
290
     0
176
     1
290
     0
176
     1
 90
       50
176
     1
 40
0.0
176
     1
 40
1.0
176
     1
 90
        0
176
     1
 62
    18
420
        0
176
     1
 90
       50
176
     1
 90
        3
176
     1
 62
     5
420
      255
176
     1
290
     0
176
     1
 90
       50
176
     1
 90
       50
176
     1
 90
       50
176
     1
290
     0
176
     1
 90
       50
176
     1
 62
   256
176
     0
 40
1.0
176
     0
 90
        2
176
     1
  1
strokes_ogs.tif
176
     1
290
     0
176
     1
 40
1.0
176
     1
 40
1.0
176
     1
  0
VISUALSTYLE
  5
35
102
{ACAD_REACTORS
330
2A
102
}
330
2A
100
AcDbVisualStyle
  2
Dim
 70
    11
177
     3
291
     1
 70
    58
 90
        2
176
     1
 90
        2
176
     1
 90
        0
176
     1
 90
        0
176
     1
 40
0.6
176
     1
 40
30.0
176
     1
 62
     7
420
 16777215
176
     1
 90
        1
176
     1
 90
        4
176
     1
 62
     7
176
     1
 62
   257
176
     1
 90
        1
176
     1
 90
        1
176
     1
 40
1.0
176
     1
 90
        8
176
     1
 62
     7
176
     1
 40
1.0
176
     1
 90
        1
176
     1
 90
        6
176
     1
 90
        2
176
     1
 62
     7
176
     1
 90
        5
176
     1
 90
        0
176
     1
 90
        0
176
     1
290
     0
176
     1
 90
        1
176
     1
 40
-50.0
176
     1
 90
        0
176
     1
290
     0
176
     1
290
     1
176
     1
290
     1
176
     1
290
     0
176
     1
290
     0
176
     1
290
     0
176
     1
290
     0
176
     1
290
     0
176
     1
290
     0
176
     1
 90
       50
176
     1
 40
0.0
176
     1
 40
1.0
176
     1
 90
        0
176
     1
 62
    18
420
        0
176
     1
 90
       50
176
     1
 90
        3
176
     1
 62
     5
420
      255
176
     1
290
     0
176
     1
 90
       50
176
     1
 90
       50
176
     1
 90
       50
176
     1
290
     0
176
     1
 90
       50
176
     1
 62
   256
176
     0
 40
1.0
176
     0
 90
        2
176
     1
  1
strokes_ogs.tif
176
     1
290
     0
176
     1
 40
1.0
176
     1
 40
1.0
176
     1
  0
VISUALSTYLE
  5
3D
102
{ACAD_REACTORS
330
2A
102
}
330
2A
100
AcDbVisualStyle
  2
EdgeColorOff
 70
    22
177
     3
291
     1
 70
    58
 90
        2
176
     0
 90
        2
176
     0
 90
        0
176
     0
 90
        0
176
     0
 40
0.6
176
     0
 40
30.0
176
     0
 62
     7
420
 16777215
176
     0
 90
        1
176
     0
 90
        4
176
     0
 62
     7
176
     0
 62
   257
176
     0
 90
        1
176
     0
 90
        1
176
     0
 40
1.0
176
     0
 90
        8
176
     2
 62
     7
176
     0
 40
1.0
176
     0
 90
        1
176
     0
 90
        6
176
     0
 90
        2
176
     0
 62
     7
176
     0
 90
        5
176
     0
 90
        0
176
     0
 90
        0
176
     0
290
     0
176
     0
 90
        1
176
     0
 40
0.0
176
     0
 90
        0
176
     0
290
     0
176
     0
290
     1
176
     0
290
     1
176
     0
290
     0
176
     0
290
     0
176
     0
290
     0
176
     0
290
     0
176
     0
290
     0
176
     0
290
     0
176
     0
 90
       50
176
     0
 40
0.0
176
     0
 40
1.0
176
     0
 90
        0
176
     0
 62
    18
420
        0
176
     0
 90
       50
176
     0
 90
        3
176
     0
 62
     5
420
      255
176
     0
290
     0
176
     0
 90
       50
176
     0
 90
       50
176
     0
 90
       50
176
     0
290
     0
176
     0
 90
       50
176
     0
 62
   256
176
     0
 40
1.0
176
     0
 90
        2
176
     0
  1
strokes_ogs.tif
176
     0
290
     0
176
     0
 40
1.0
176
     0
 40
1.0
176
     0
  0
VISUALSTYLE
  5
39
102
{ACAD_REACTORS
330
2A
102
}
330
2A
100
AcDbVisualStyle
  2
Facepattern
 70
    15
177
     3
291
     1
 70
    58
 90
        2
176
     1
 90
        2
176
     1
 90
        0
176
     1
 90
        0
176
     1
 40
0.6
176
     1
 40
30.0
176
     1
 62
     7
420
 16777215
176
     1
 90
        1
176
     1
 90
        4
176
     1
 62
     7
176
     1
 62
   257
176
     1
 90
        1
176
     1
 90
        1
176
     1
 40
1.0
176
     1
 90
        8
176
     1
 62
     7
176
     1
 40
1.0
176
     1
 90
        1
176
     1
 90
        6
176
     1
 90
        2
176
     1
 62
     7
176
     1
 90
        5
176
     1
 90
        0
176
     1
 90
        0
176
     1
290
     0
176
     1
 90
        1
176
     1
 40
0.0
176
     1
 90
        0
176
     1
290
     0
176
     1
290
     1
176
     1
290
     1
176
     1
290
     0
176
     1
290
     0
176
     1
290
     0
176
     1
290
     0
176
     1
290
     0
176
     1
290
     0
176
     1
 90
       50
176
     1
 40
0.0
176
     1
 40
1.0
176
     1
 90
        0
176
     1
 62
    18
420
        0
176
     1
 90
       50
176
     1
 90
        3
176
     1
 62
     5
420
      255
176
     1
290
     0
176
     1
 90
       50
176
     1
 90
       50
176
     1
 90
       50
176
     1
290
     0
176
     1
 90
       50
176
     1
 62
   256
176
     0
 40
1.0
176
     0
 90
        2
176
     1
  1
strokes_ogs.tif
176
     1
290
     0
176
     1
 40
1.0
176
     1
 40
1.0
176
     1
  0
VISUALSTYLE
  5
2B
102
{ACAD_REACTORS
330
2A
102
}
330
2A
100
AcDbVisualStyle
  2
Flat
 70
     0
177
     3
291
     1
 70
    58
 90
        2
176
     1
 90
        1
176
     1
 90
        1
176
     1
 90
        2
176
     1
 40
0.6
176
     1
 40
30.0
176
     1
 62
     7
420
 16777215
176
     1
 90
        0
176
     1
 90
        0
176
     1
 62
     7
176
     1
 62
   257
176
     1
 90
        1
176
     1
 90
        1
176
     1
 40
1.0
176
     1
 90
        8
176
     1
 62
     7
176
     1
 40
1.0
176
     1
 90
        1
176
     1
 90
        6
176
     1
 90
        2
176
     1
 62
     7
176
     1
 90
        5
176
     1
 90
        0
176
     1
 90
        0
176
     1
290
     0
176
     1
 90
       13
176
     1
 40
0.0
176
     1
 90
        0
176
     1
290
     0
176
     1
290
     1
176
     1
290
     1
176
     1
290
     0
176
     1
290
     0
176
     1
290
     0
176
     1
290
     0
176
     1
290
     0
176
     1
290
     0
176
     1
 90
       50
176
     1
 40
0.0
176
     1
 40
1.0
176
     1
 90
        0
176
     1
 62
    18
420
        0
176
     1
 90
       50
176
     1
 90
        3
176
     1
 62
     5
420
      255
176
     1
290
     0
176
     1
 90
       50
176
     1
 90
       50
176
     1
 90
       50
176
     1
290
     0
176
     1
 90
       50
176
     1
 62
   256
176
     0
 40
1.0
176
     0
 90
        2
176
     1
  1
strokes_ogs.tif
176
     1
290
     0
176
     1
 40
1.0
176
     1
 40
1.0
176
     1
  0
VISUALSTYLE
  5
2C
102
{ACAD_REACTORS
330
2A
102
}
330
2A
100
AcDbVisualStyle
  2
FlatWithEdges
 70
     1
177
     3
291
     1
 70
    58
 90
        2
176
     1
 90
        1
176
     1
 90
        1
176
     1
 90
        2
176
     1
 40
0.6
176
     1
 40
30.0
176
     1
 62
     7
420
 16777215
176
     1
 90
        1
176
     1
 90
        0
176
     1
 62
     7
176
     1
 62
   257
176
     1
 90
        1
176
     1
 90
        1
176
     1
 40
1.0
176
     1
 90
        0
176
     1
 62
   257
176
     1
 40
1.0
176
     1
 90
        1
176
     1
 90
        6
176
     1
 90
        2
176
     1
 62
     7
176
     1
 90
        5
176
     1
 90
        0
176
     1
 90
        0
176
     1
290
     0
176
     1
 90
       13
176
     1
 40
0.0
176
     1
 90
        0
176
     1
290
     0
176
     1
290
     1
176
     1
290
     1
176
     1
290
     0
176
     1
290
     0
176
     1
290
     0
176
     1
290
     0
176
     1
290
     0
176
     1
290
     0
176
     1
 90
       50
176
     1
 40
0.0
176
     1
 40
1.0
176
     1
 90
        0
176
     1
 62
    18
420
        0
176
     1
 90
       50
176
     1
 90
        3
176
     1
 62
     5
420
      255
176
     1
290
     0
176
     1
 90
       50
176
     1
 90
       50
176
     1
 90
       50
176
     1
290
     0
176
     1
 90
       50
176
     1
 62
   256
176
     0
 40
1.0
176
     0
 90
        2
176
     1
  1
strokes_ogs.tif
176
     1
290
     0
176
     1
 40
1.0
176
     1
 40
1.0
176
     1
  0
VISUALSTYLE
  5
2D
102
{ACAD_REACTORS
330
2A
102
}
330
2A
100
AcDbVisualStyle
  2
Gouraud
 70
     2
177
     3
291
     1
 70
    58
 90
        2
176
     1
 90
        2
176
     1
 90
        1
176
     1
 90
        2
176
     1
 40
0.6
176
     1
 40
30.0
176
     1
 62
     7
420
 16777215
176
     1
 90
        0
176
     1
 90
        0
176
     1
 62
     7
176
     1
 62
   257
176
     1
 90
        1
176
     1
 90
        1
176
     1
 40
1.0
176
     1
 90
        0
176
     1
 62
     7
176
     1
 40
1.0
176
     1
 90
        1
176
     1
 90
        6
176
     1
 90
        2
176
     1
 62
     7
176
     1
 90
        5
176
     1
 90
        0
176
     1
 90
        0
176
     1
290
     0
176
     1
 90
       13
176
     1
 40
0.0
176
     1
 90
        0
176
     1
290
     0
176
     1
290
     1
176
     1
290
     1
176
     1
290
     0
176
     1
290
     0
176
     1
290
     0
176
     1
290
     0
176
     1
290
     0
176
     1
290
     0
176
     1
 90
       50
176
     1
 40
0.0
176
     1
 40
1.0
176
     1
 90
        0
176
     1
 62
    18
420
        0
176
     1
 90
       50
176
     1
 90
        3
176
     1
 62
     5
420
      255
176
     1
290
     0
176
     1
 90
       50
176
     1
 90
       50
176
     1
 90
       50
176
     1
290
     0
176
     1
 90
       50
176
     1
 62
   256
176
     0
 40
1.0
176
     0
 90
        2
176
     1
  1
strokes_ogs.tif
176
     1
290
     0
176
     1
 40
1.0
176
     1
 40
1.0
176
     1
  0
VISUALSTYLE
  5
2E
102
{ACAD_REACTORS
330
2A
102
}
330
2A
100
AcDbVisualStyle
  2
GouraudWithEdges
 70
     3
177
     3
291
     1
 70
    58
 90
        2
176
     1
 90
        2
176
     1
 90
        1
176
     1
 90
        2
176
     1
 40
0.6
176
     1
 40
30.0
176
     1
 62
     7
420
 16777215
176
     1
 90
        1
176
     1
 90
        0
176
     1
 62
     7
176
     1
 62
   257
176
     1
 90
        1
176
     1
 90
        1
176
     1
 40
1.0
176
     1
 90
        0
176
     1
 62
   257
176
     1
 40
1.0
176
     1
 90
        1
176
     1
 90
        6
176
     1
 90
        2
176
     1
 62
     7
176
     1
 90
        5
176
     1
 90
        0
176
     1
 90
        0
176
     1
290
     0
176
     1
 90
       13
176
     1
 40
0.0
176
     1
 90
        0
176
     1
290
     0
176
     1
290
     1
176
     1
290
     1
176
     1
290
     0
176
     1
290
     0
176
     1
290
     0
176
     1
290
     0
176
     1
290
     0
176
     1
290
     0
176
     1
 90
       50
176
     1
 40
0.0
176
     1
 40
1.0
176
     1
 90
        0
176
     1
 62
    18
420
        0
176
     1
 90
       50
176
     1
 90
        3
176
     1
 62
     5
420
      255
176
     1
290
     0
176
     1
 90
       50
176
     1
 90
       50
176
     1
 90
       50
176
     1
290
     0
176
     1
 90
       50
176
     1
 62
   256
176
     0
 40
1.0
176
     0
 90
        2
176
     1
  1
strokes_ogs.tif
176
     1
290
     0
176
     1
 40
1.0
176
     1
 40
1.0
176
     1
  0
VISUALSTYLE
  5
31
102
{ACAD_REACTORS
330
2A
102
}
330
2A
100
AcDbVisualStyle
  2
Hidden
 70
     6
177
     3
291
     0
 70
    58
 90
        1
176
     1
 90
        2
176
     1
 90
        2
176
     1
 90
        0
176
     1
 40
0.6
176
     1
 40
30.0
176
     1
 62
     7
420
 16777215
176
     1
 90
        2
176
     1
 90
        2
176
     1
 62
     7
176
     1
 62
   257
176
     1
 90
        2
176
     1
 90
        1
176
     1
 40
40.0
176
     1
 90
        0
176
     1
 62
   257
176
     1
 40
1.0
176
     1
 90
        1
176
     1
 90
        6
176
     1
 90
        2
176
     1
 62
     7
176
     1
 90
        3
176
     1
 90
        0
176
     1
 90
        0
176
     1
290
     0
176
     1
 90
        1
176
     1
 40
0.0
176
     1
 90
        0
176
     1
290
     0
176
     1
290
     1
176
     1
290
     1
176
     1
290
     0
176
     1
290
     0
176
     1
290
     0
176
     1
290
     0
176
     1
290
     0
176
     1
290
     0
176
     1
 90
       50
176
     1
 40
0.0
176
     1
 40
1.0
176
     1
 90
        0
176
     1
 62
    18
420
        0
176
     1
 90
       50
176
     1
 90
        3
176
     1
 62
     5
420
      255
176
     1
290
     0
176
     1
 90
       50
176
     1
 90
       50
176
     1
 90
       50
176
     1
290
     0
176
     1
 90
       50
176
     1
 62
   256
176
     0
 40
1.0
176
     0
 90
        2
176
     1
  1
strokes_ogs.tif
176
     1
290
     0
176
     1
 40
1.0
176
     1
 40
1.0
176
     1
  0
VISUALSTYLE
  5
3B
102
{ACAD_REACTORS
330
2A
102
}
330
2A
100
AcDbVisualStyle
  2
JitterOff
 70
    20
177
     3
291
     1
 70
    58
 90
        2
176
     0
 90
        2
176
     0
 90
        0
176
     0
 90
        0
176
     0
 40
0.6
176
     0
 40
30.0
176
     0
 62
     7
420
 16777215
176
     0
 90
        1
176
     0
 90
        4
176
     0
 62
     7
176
     0
 62
   257
176
     0
 90
        1
176
     0
 90
        1
176
     0
 40
1.0
176
     0
 90
       10
176
     2
 62
     7
176
     0
 40
1.0
176
     0
 90
        1
176
     0
 90
        6
176
     0
 90
        2
176
     0
 62
     7
176
     0
 90
        5
176
     0
 90
        0
176
     0
 90
        0
176
     0
290
     0
176
     0
 90
        1
176
     0
 40
0.0
176
     0
 90
        0
176
     0
290
     0
176
     0
290
     1
176
     0
290
     1
176
     0
290
     0
176
     0
290
     0
176
     0
290
     0
176
     0
290
     0
176
     0
290
     0
176
     0
290
     0
176
     0
 90
       50
176
     0
 40
0.0
176
     0
 40
1.0
176
     0
 90
        0
176
     0
 62
    18
420
        0
176
     0
 90
       50
176
     0
 90
        3
176
     0
 62
     5
420
      255
176
     0
290
     0
176
     0
 90
       50
176
     0
 90
       50
176
     0
 90
       50
176
     0
290
     0
176
     0
 90
       50
176
     0
 62
   256
176
     0
 40
1.0
176
     0
 90
        2
176
     0
  1
strokes_ogs.tif
176
     0
290
     0
176
     0
 40
1.0
176
     0
 40
1.0
176
     0
  0
VISUALSTYLE
  5
38
102
{ACAD_REACTORS
330
2A
102
}
330
2A
100
AcDbVisualStyle
  2
Linepattern
 70
    14
177
     3
291
     1
 70
    58
 90
        2
176
     1
 90
        2
176
     1
 90
        0
176
     1
 90
        0
176
     1
 40
0.6
176
     1
 40
30.0
176
     1
 62
     7
420
 16777215
176
     1
 90
        1
176
     1
 90
        4
176
     1
 62
     7
176
     1
 62
   257
176
     1
 90
        7
176
     1
 90
        7
176
     1
 40
1.0
176
     1
 90
        8
176
     1
 62
     7
176
     1
 40
1.0
176
     1
 90
        1
176
     1
 90
        6
176
     1
 90
        2
176
     1
 62
     7
176
     1
 90
        5
176
     1
 90
        0
176
     1
 90
        0
176
     1
290
     0
176
     1
 90
        1
176
     1
 40
0.0
176
     1
 90
        0
176
     1
290
     0
176
     1
290
     1
176
     1
290
     1
176
     1
290
     0
176
     1
290
     0
176
     1
290
     0
176
     1
290
     0
176
     1
290
     0
176
     1
290
     0
176
     1
 90
       50
176
     1
 40
0.0
176
     1
 40
1.0
176
     1
 90
        0
176
     1
 62
    18
420
        0
176
     1
 90
       50
176
     1
 90
        3
176
     1
 62
     5
420
      255
176
     1
290
     0
176
     1
 90
       50
176
     1
 90
       50
176
     1
 90
       50
176
     1
290
     0
176
     1
 90
       50
176
     1
 62
   256
176
     0
 40
1.0
176
     0
 90
        2
176
     1
  1
strokes_ogs.tif
176
     1
290
     0
176
     1
 40
1.0
176
     1
 40
1.0
176
     1
  0
VISUALSTYLE
  5
3C
102
{ACAD_REACTORS
330
2A
102
}
330
2A
100
AcDbVisualStyle
  2
OverhangOff
 70
    21
177
     3
291
     1
 70
    58
 90
        2
176
     0
 90
        2
176
     0
 90
        0
176
     0
 90
        0
176
     0
 40
0.6
176
     0
 40
30.0
176
     0
 62
     7
420
 16777215
176
     0
 90
        1
176
     0
 90
        4
176
     0
 62
     7
176
     0
 62
   257
176
     0
 90
        1
176
     0
 90
        1
176
     0
 40
1.0
176
     0
 90
        9
176
     2
 62
     7
176
     0
 40
1.0
176
     0
 90
        1
176
     0
 90
        6
176
     0
 90
        2
176
     0
 62
     7
176
     0
 90
        5
176
     0
 90
        0
176
     0
 90
        0
176
     0
290
     0
176
     0
 90
        1
176
     0
 40
0.0
176
     0
 90
        0
176
     0
290
     0
176
     0
290
     1
176
     0
290
     1
176
     0
290
     0
176
     0
290
     0
176
     0
290
     0
176
     0
290
     0
176
     0
290
     0
176
     0
290
     0
176
     0
 90
       50
176
     0
 40
0.0
176
     0
 40
1.0
176
     0
 90
        0
176
     0
 62
    18
420
        0
176
     0
 90
       50
176
     0
 90
        3
176
     0
 62
     5
420
      255
176
     0
290
     0
176
     0
 90
       50
176
     0
 90
       50
176
     0
 90
       50
176
     0
290
     0
176
     0
 90
       50
176
     0
 62
   256
176
     0
 40
1.0
176
     0
 90
        2
176
     0
  1
strokes_ogs.tif
176
     0
290
     0
176
     0
 40
1.0
176
     0
 40
1.0
176
     0
  0
VISUALSTYLE
  5
33
102
{ACAD_REACTORS
330
2A
102
}
330
2A
100
AcDbVisualStyle
  2
Realistic
 70
     8
177
     3
291
     0
 70
    58
 90
        2
176
     1
 90
        3
176
     1
 90
        0
176
     1
 90
        2
176
     1
 40
0.6
176
     1
 40
30.0
176
     1
 62
     7
420
 16777215
176
     1
 90
        0
176
     1
 90
        0
176
     1
 62
     7
176
     1
 62
   257
176
     1
 90
        1
176
     1
 90
        1
176
     1
 40
1.0
176
     1
 90
        8
176
     1
 62
   257
176
     1
 40
1.0
176
     1
 90
        1
176
     1
 90
        6
176
     1
 90
        2
176
     1
 62
     7
176
     1
 90
        3
176
     1
 90
        0
176
     1
 90
        0
176
     1
290
     0
176
     1
 90
       13
176
     1
 40
0.0
176
     1
 90
        0
176
     1
290
     0
176
     1
290
     1
176
     1
290
     1
176
     1
290
     0
176
     1
290
     0
176
     1
290
     0
176
     1
290
     0
176
     1
290
     0
176
     1
290
     0
176
     1
 90
       50
176
     1
 40
0.0
176
     1
 40
1.0
176
     1
 90
        0
176
     1
 62
    18
420
        0
176
     1
 90
       50
176
     1
 90
        3
176
     1
 62
     5
420
      255
176
     1
290
     0
176
     1
 90
       50
176
     1
 90
       50
176
     1
 90
       50
176
     1
290
     0
176
     1
 90
       50
176
     1
 62
   256
176
     0
 40
1.0
176
     0
 90
        2
176
     1
  1
strokes_ogs.tif
176
     1
290
     0
176
     1
 40
1.0
176
     1
 40
1.0
176
     1
  0
VISUALSTYLE
  5
42
102
{ACAD_REACTORS
330
2A
102
}
330
2A
100
AcDbVisualStyle
  2
Shaded
 70
    27
177
     3
291
     0
 70
    58
 90
        2
176
     1
 90
        2
176
     1
 90
        1
176
     1
 90
        2
176
     1
 40
0.6
176
     1
 40
30.0
176
     1
 62
     7
420
 16777215
176
     1
 90
        0
176
     1
 90
        4
176
     1
 62
     7
176
     1
 62
   257
176
     1
 90
        1
176
     1
 90
        1
176
     1
 40
1.0
176
     1
 90
        8
176
     1
 62
   257
176
     1
 40
1.0
176
     1
 90
        1
176
     1
 90
        6
176
     1
 90
        2
176
     1
 62
     8
420
  7895160
176
     1
 90
        3
176
     1
 90
        0
176
     1
 90
        0
176
     1
290
     0
176
     1
 90
        5
176
     1
 40
0.0
176
     1
 90
        0
176
     1
290
     0
176
     1
290
     1
176
     1
290
     1
176
     1
290
     0
176
     1
290
     0
176
     1
290
     0
176
     1
290
     0
176
     1
290
     0
176
     1
290
     0
176
     1
 90
       50
176
     1
 40
0.0
176
     1
 40
1.0
176
     1
 90
        0
176
     1
 62
    18
420
        0
176
     1
 90
       50
176
     1
 90
        3
176
     1
 62
     5
420
      255
176
     1
290
     0
176
     1
 90
       50
176
     1
 90
       50
176
     1
 90
       50
176
     1
290
     0
176
     1
 90
       50
176
     1
 62
   256
176
     0
 40
1.0
176
     0
 90
        2
176
     1
  1
strokes_ogs.tif
176
     1
290
     0
176
     1
 40
1.0
176
     1
 40
1.0
176
     1
  0
VISUALSTYLE
  5
41
102
{ACAD_REACTORS
330
2A
102
}
330
2A
100
AcDbVisualStyle
  2
Shaded with edges
 70
    26
177
     3
291
     0
 70
    58
 90
        2
176
     1
 90
        2
176
     1
 90
        1
176
     1
 90
        2
176
     1
 40
0.6
176
     1
 40
30.0
176
     1
 62
     7
420
 16777215
176
     1
 90
        1
176
     1
 90
       10
176
     1
 62
     7
176
     1
 62
   257
176
     1
 90
        2
176
     1
 90
        1
176
     1
 40
1.0
176
     1
 90
        8
176
     1
 62
   257
176
     1
 40
1.0
176
     1
 90
        1
176
     1
 90
        6
176
     1
 90
        2
176
     1
 62
     7
176
     1
 90
        3
176
     1
 90
        0
176
     1
 90
        0
176
     1
290
     0
176
     1
 90
        5
176
     1
 40
0.0
176
     1
 90
        0
176
     1
290
     0
176
     1
290
     1
176
     1
290
     1
176
     1
290
     0
176
     1
290
     0
176
     1
290
     0
176
     1
290
     0
176
     1
290
     0
176
     1
290
     0
176
     1
 90
       50
176
     1
 40
0.0
176
     1
 40
1.0
176
     1
 90
        0
176
     1
 62
    18
420
        0
176
     1
 90
       50
176
     1
 90
        3
176
     1
 62
     5
420
      255
176
     1
290
     0
176
     1
 90
       50
176
     1
 90
       50
176
     1
 90
       50
176
     1
290
     0
176
     1
 90
       50
176
     1
 62
   256
176
     0
 40
1.0
176
     0
 90
        2
176
     1
  1
strokes_ogs.tif
176
     1
290
     0
176
     1
 40
1.0
176
     1
 40
1.0
176
     1
  0
VISUALSTYLE
  5
3E
102
{ACAD_REACTORS
330
2A
102
}
330
2A
100
AcDbVisualStyle
  2
Shades of Gray
 70
    23
177
     3
291
     0
 70
    58
 90
        2
176
     1
 90
        2
176
     1
 90
        3
176
     1
 90
        0
176
     1
 40
0.6
176
     1
 40
30.0
176
     1
 62
     7
420
 16777215
176
     1
 90
        2
176
     1
 90
        2
176
     1
 62
     7
176
     1
 62
     7
176
     1
 90
        1
176
     1
 90
        1
176
     1
 40
40.0
176
     1
 90
        8
176
     1
 62
     7
176
     1
 40
1.0
176
     1
 90
        1
176
     1
 90
        6
176
     1
 90
        2
176
     1
 62
     7
176
     1
 90
        3
176
     1
 90
        0
176
     1
 90
        0
176
     1
290
     0
176
     1
 90
        1
176
     1
 40
0.0
176
     1
 90
        0
176
     1
290
     0
176
     1
290
     1
176
     1
290
     1
176
     1
290
     0
176
     1
290
     0
176
     1
290
     0
176
     1
290
     0
176
     1
290
     0
176
     1
290
     0
176
     1
 90
       50
176
     1
 40
0.0
176
     1
 40
1.0
176
     1
 90
        0
176
     1
 62
    18
420
        0
176
     1
 90
       50
176
     1
 90
        3
176
     1
 62
     5
420
      255
176
     1
290
     0
176
     1
 90
       50
176
     1
 90
       50
176
     1
 90
       50
176
     1
290
     0
176
     1
 90
       50
176
     1
 62
   256
176
     0
 40
1.0
176
     0
 90
        2
176
     1
  1
strokes_ogs.tif
176
     1
290
     0
176
     1
 40
1.0
176
     1
 40
1.0
176
     1
  0
VISUALSTYLE
  5
3F
102
{ACAD_REACTORS
330
2A
102
}
330
2A
100
AcDbVisualStyle
  2
Sketchy
 70
    24
177
     3
291
     0
 70
    58
 90
        1
176
     1
 90
        2
176
     1
 90
        2
176
     1
 90
        0
176
     1
 40
0.6
176
     1
 40
30.0
176
     1
 62
     7
420
 16777215
176
     1
 90
        2
176
     1
 90
        2
176
     1
 62
     7
176
     1
 62
     7
176
     1
 90
        1
176
     1
 90
        1
176
     1
 40
40.0
176
     1
 90
       11
176
     1
 62
     7
176
     1
 40
1.0
176
     1
 90
        1
176
     1
 90
        6
176
     1
 90
        2
176
     1
 62
     7
176
     1
 90
        6
176
     1
 90
        0
176
     1
 90
        0
176
     1
290
     0
176
     1
 90
        1
176
     1
 40
0.0
176
     1
 90
        0
176
     1
290
     0
176
     1
290
     1
176
     1
290
     1
176
     1
290
     0
176
     1
290
     0
176
     1
290
     0
176
     1
290
     0
176
     1
290
     0
176
     1
290
     0
176
     1
 90
       50
176
     1
 40
0.0
176
     1
 40
1.0
176
     1
 90
        0
176
     1
 62
    18
420
        0
176
     1
 90
       50
176
     1
 90
        3
176
     1
 62
     5
420
      255
176
     1
290
     0
176
     1
 90
       50
176
     1
 90
       50
176
     1
 90
       50
176
     1
290
     0
176
     1
 90
       50
176
     1
 62
   256
176
     0
 40
1.0
176
     0
 90
        2
176
     1
  1
strokes_ogs.tif
176
     1
290
     0
176
     1
 40
1.0
176
     1
 40
1.0
176
     1
  0
VISUALSTYLE
  5
37
102
{ACAD_REACTORS
330
2A
102
}
330
2A
100
AcDbVisualStyle
  2
Thicken
 70
    13
177
     3
291
     1
 70
    58
 90
        2
176
     1
 90
        2
176
     1
 90
        0
176
     1
 90
        0
176
     1
 40
0.6
176
     1
 40
30.0
176
     1
 62
     7
420
 16777215
176
     1
 90
        1
176
     1
 90
        4
176
     1
 62
     7
176
     1
 62
   257
176
     1
 90
        1
176
     1
 90
        1
176
     1
 40
1.0
176
     1
 90
       12
176
     1
 62
     7
176
     1
 40
1.0
176
     1
 90
        1
176
     1
 90
        6
176
     1
 90
        2
176
     1
 62
     7
176
     1
 90
        5
176
     1
 90
        0
176
     1
 90
        0
176
     1
290
     0
176
     1
 90
        1
176
     1
 40
0.0
176
     1
 90
        0
176
     1
290
     0
176
     1
290
     1
176
     1
290
     1
176
     1
290
     0
176
     1
290
     0
176
     1
290
     0
176
     1
290
     0
176
     1
290
     0
176
     1
290
     0
176
     1
 90
       50
176
     1
 40
0.0
176
     1
 40
1.0
176
     1
 90
        0
176
     1
 62
    18
420
        0
176
     1
 90
       50
176
     1
 90
        3
176
     1
 62
     5
420
      255
176
     1
290
     0
176
     1
 90
       50
176
     1
 90
       50
176
     1
 90
       50
176
     1
290
     0
176
     1
 90
       50
176
     1
 62
   256
176
     0
 40
1.0
176
     0
 90
        2
176
     1
  1
strokes_ogs.tif
176
     1
290
     0
176
     1
 40
1.0
176
     1
 40
1.0
176
     1
  0
VISUALSTYLE
  5
30
102
{ACAD_REACTORS
330
2A
102
}
330
2A
100
AcDbVisualStyle
  2
Wireframe
 70
     5
177
     3
291
     0
 70
    58
 90
        0
176
     1
 90
        2
176
     1
 90
        0
176
     1
 90
        0
176
     1
 40
0.6
176
     1
 40
30.0
176
     1
 62
     7
420
 16777215
176
     1
 90
        1
176
     1
 90
        4
176
     1
 62
     7
176
     1
 62
   257
176
     1
 90
        1
176
     1
 90
        1
176
     1
 40
1.0
176
     1
 90
        0
176
     1
 62
   257
176
     1
 40
1.0
176
     1
 90
        1
176
     1
 90
        6
176
     1
 90
        2
176
     1
 62
     7
176
     1
 90
        3
176
     1
 90
        0
176
     1
 90
        0
176
     1
290
     0
176
     1
 90
        1
176
     1
 40
0.0
176
     1
 90
        0
176
     1
290
     0
176
     1
290
     1
176
     1
290
     1
176
     1
290
     0
176
     1
290
     0
176
     1
290
     0
176
     1
290
     0
176
     1
290
     0
176
     1
290
     0
176
     1
 90
       50
176
     1
 40
0.0
176
     1
 40
1.0
176
     1
 90
        0
176
     1
 62
    18
420
        0
176
     1
 90
       50
176
     1
 90
        3
176
     1
 62
     5
420
      255
176
     1
290
     0
176
     1
 90
       50
176
     1
 90
       50
176
     1
 90
       50
176
     1
290
     0
176
     1
 90
       50
176
     1
 62
   256
176
     0
 40
1.0
176
     0
 90
        2
176
     1
  1
strokes_ogs.tif
176
     1
290
     0
176
     1
 40
1.0
176
     1
 40
1.0
176
     1
  0
VISUALSTYLE
  5
40
102
{ACAD_REACTORS
330
2A
102
}
330
2A
100
AcDbVisualStyle
  2
X-Ray
 70
    25
177
     3
291
     0
 70
    58
 90
        2
176
     1
 90
        2
176
     1
 90
        1
176
     1
 90
        1
176
     1
 40
0.5
176
     1
 40
30.0
176
     1
 62
     7
420
 16777215
176
     1
 90
        1
176
     1
 90
        0
176
     1
 62
     7
176
     1
 62
   257
176
     1
 90
        1
176
     1
 90
        1
176
     1
 40
1.0
176
     1
 90
        8
176
     1
 62
     7
176
     1
 40
1.0
176
     1
 90
        1
176
     1
 90
        6
176
     1
 90
        2
176
     1
 62
     7
176
     1
 90
        3
176
     1
 90
        0
176
     1
 90
        0
176
     1
290
     0
176
     1
 90
       13
176
     1
 40
0.0
176
     1
 90
        0
176
     1
290
     0
176
     1
290
     1
176
     1
290
     1
176
     1
290
     0
176
     1
290
     0
176
     1
290
     0
176
     1
290
     0
176
     1
290
     0
176
     1
290
     0
176
     1
 90
       50
176
     1
 40
0.0
176
     1
 40
1.0
176
     1
 90
        0
176
     1
 62
    18
420
        0
176
     1
 90
       50
176
     1
 90
        3
176
     1
 62
     5
420
      255
176
     1
290
     0
176
     1
 90
       50
176
     1
 90
       50
176
     1
 90
       50
176
     1
290
     0
176
     1
 90
       50
176
     1
 62
   256
176
     0
 40
1.0
176
     0
 90
        2
176
     1
  1
strokes_ogs.tif
176
     1
290
     0
176
     1
 40
1.0
176
     1
 40
1.0
176
     1
  0
DICTIONARYVAR
  5
3A2
102
{ACAD_REACTORS
330
3A1
102
}
330
3A1
100
DictionaryVariables
280
     0
  1
1:1
  0
DICTIONARYVAR
  5
3A7
102
{ACAD_REACTORS
330
3A1
102
}
330
3A1
100
DictionaryVariables
280
     0
  1
Standard
  0
DICTIONARYVAR
  5
3A6
102
{ACAD_REACTORS
330
3A1
102
}
330
3A1
100
DictionaryVariables
280
     0
  1
Standard
  0
DICTIONARY
  5
3A3
330
6A
100
AcDbDictionary
280
     1
281
     1
  3
ACAD_ROUNDTRIP_2008_TABLESTYLE_CELLSTYLEMAP
360
3A4
  0
CELLSTYLEMAP
  5
3A4
102
{ACAD_REACTORS
330
3A3
102
}
330
3A3
100
AcDbCellStyleMap
 90
        3
300
CELLSTYLE
  1
TABLEFORMAT_BEGIN
 90
        5
170
     1
 91
        0
 92
    32768
 62
   257
 93
        1
300
CONTENTFORMAT
  1
CONTENTFORMAT_BEGIN
 90
        0
 91
        0
 92
        4
 93
        0
300

 40
0.0
140
1.0
 94
        5
 62
     0
340
11
144
0.25
309
CONTENTFORMAT_END
171
     1
301
MARGIN
  1
CELLMARGIN_BEGIN
 40
0.06
 40
0.06
 40
0.06
 40
0.06
 40
0.06
 40
0.06
309
CELLMARGIN_END
 94
        6
 95
        1
302
GRIDFORMAT
  1
GRIDFORMAT_BEGIN
 90
        0
 91
        1
 62
     0
 92
       -2
340
14
 93
        0
 40
0.045
309
GRIDFORMAT_END
 95
        2
302
GRIDFORMAT
  1
GRIDFORMAT_BEGIN
 90
        0
 91
        1
 62
     0
 92
       -2
340
14
 93
        0
 40
0.045
309
GRIDFORMAT_END
 95
        4
302
GRIDFORMAT
  1
GRIDFORMAT_BEGIN
 90
        0
 91
        1
 62
     0
 92
       -2
340
14
 93
        0
 40
0.045
309
GRIDFORMAT_END
 95
        8
302
GRIDFORMAT
  1
GRIDFORMAT_BEGIN
 90
        0
 91
        1
 62
     0
 92
       -2
340
14
 93
        0
 40
0.045
309
GRIDFORMAT_END
 95
       16
302
GRIDFORMAT
  1
GRIDFORMAT_BEGIN
 90
        0
 91
        1
 62
     0
 92
       -2
340
14
 93
        0
 40
0.045
309
GRIDFORMAT_END
 95
       32
302
GRIDFORMAT
  1
GRIDFORMAT_BEGIN
 90
        0
 91
        1
 62
     0
 92
       -2
340
14
 93
        0
 40
0.045
309
GRIDFORMAT_END
309
TABLEFORMAT_END
  1
CELLSTYLE_BEGIN
 90
        1
 91
        1
300
_TITLE
309
CELLSTYLE_END
300
CELLSTYLE
  1
TABLEFORMAT_BEGIN
 90
        5
170
     1
 91
        0
 92
        0
 62
   257
 93
        1
300
CONTENTFORMAT
  1
CONTENTFORMAT_BEGIN
 90
        0
 91
        0
 92
        4
 93
        0
300

 40
0.0
140
1.0
 94
        5
 62
     0
340
11
144
0.18
309
CONTENTFORMAT_END
171
     1
301
MARGIN
  1
CELLMARGIN_BEGIN
 40
0.06
 40
0.06
 40
0.06
 40
0.06
 40
0.06
 40
0.06
309
CELLMARGIN_END
 94
        6
 95
        1
302
GRIDFORMAT
  1
GRIDFORMAT_BEGIN
 90
        0
 91
        1
 62
     0
 92
       -2
340
14
 93
        0
 40
0.045
309
GRIDFORMAT_END
 95
        2
302
GRIDFORMAT
  1
GRIDFORMAT_BEGIN
 90
        0
 91
        1
 62
     0
 92
       -2
340
14
 93
        0
 40
0.045
309
GRIDFORMAT_END
 95
        4
302
GRIDFORMAT
  1
GRIDFORMAT_BEGIN
 90
        0
 91
        1
 62
     0
 92
       -2
340
14
 93
        0
 40
0.045
309
GRIDFORMAT_END
 95
        8
302
GRIDFORMAT
  1
GRIDFORMAT_BEGIN
 90
        0
 91
        1
 62
     0
 92
       -2
340
14
 93
        0
 40
0.045
309
GRIDFORMAT_END
 95
       16
302
GRIDFORMAT
  1
GRIDFORMAT_BEGIN
 90
        0
 91
        1
 62
     0
 92
       -2
340
14
 93
        0
 40
0.045
309
GRIDFORMAT_END
 95
       32
302
GRIDFORMAT
  1
GRIDFORMAT_BEGIN
 90
        0
 91
        1
 62
     0
 92
       -2
340
14
 93
        0
 40
0.045
309
GRIDFORMAT_END
309
TABLEFORMAT_END
  1
CELLSTYLE_BEGIN
 90
        2
 91
        1
300
_HEADER
309
CELLSTYLE_END
300
CELLSTYLE
  1
TABLEFORMAT_BEGIN
 90
        5
170
     1
 91
        0
 92
        0
 62
   257
 93
        1
300
CONTENTFORMAT
  1
CONTENTFORMAT_BEGIN
 90
        0
 91
        0
 92
        4
 93
        0
300

 40
0.0
140
1.0
 94
        2
 62
     0
340
11
144
0.18
309
CONTENTFORMAT_END
171
     1
301
MARGIN
  1
CELLMARGIN_BEGIN
 40
0.06
 40
0.06
 40
0.06
 40
0.06
 40
0.06
 40
0.06
309
CELLMARGIN_END
 94
        6
 95
        1
302
GRIDFORMAT
  1
GRIDFORMAT_BEGIN
 90
        0
 91
        1
 62
     0
 92
       -2
340
14
 93
        0
 40
0.045
309
GRIDFORMAT_END
 95
        2
302
GRIDFORMAT
  1
GRIDFORMAT_BEGIN
 90
        0
 91
        1
 62
     0
 92
       -2
340
14
 93
        0
 40
0.045
309
GRIDFORMAT_END
 95
        4
302
GRIDFORMAT
  1
GRIDFORMAT_BEGIN
 90
        0
 91
        1
 62
     0
 92
       -2
340
14
 93
        0
 40
0.045
309
GRIDFORMAT_END
 95
        8
302
GRIDFORMAT
  1
GRIDFORMAT_BEGIN
 90
        0
 91
        1
 62
     0
 92
       -2
340
14
 93
        0
 40
0.045
309
GRIDFORMAT_END
 95
       16
302
GRIDFORMAT
  1
GRIDFORMAT_BEGIN
 90
        0
 91
        1
 62
     0
 92
       -2
340
14
 93
        0
 40
0.045
309
GRIDFORMAT_END
 95
       32
302
GRIDFORMAT
  1
GRIDFORMAT_BEGIN
 90
        0
 91
        1
 62
     0
 92
       -2
340
14
 93
        0
 40
0.045
309
GRIDFORMAT_END
309
TABLEFORMAT_END
  1
CELLSTYLE_BEGIN
 90
        3
 91
        2
300
_DATA
309
CELLSTYLE_END
  0
ENDSEC
  0
EOF
