  0
SECTION
  2
HEADER
  9
$ACADVER
  1
AC1006
  9
$DWGCODEPAGE
  3
ansi_932
  9
$INSBASE
 10
0.0
 20
0.0
 30
0.0
  9
$EXTMIN
 10
33.99999999999999
 20
-320.4999992727272
  9
$EXTMAX
 10
321.7513235280106
 20
-51.49999999999991
  9
$LIMMIN
 10
0.0
 20
0.0
  9
$LIMMAX
 10
12.0
 20
9.0
  9
$ORTHOMODE
 70
     0
  9
$REGENMODE
 70
     1
  9
$FILLMODE
 70
     1
  9
$QTEXTMODE
 70
     0
  9
$MIRRTEXT
 70
     1
  9
$DRAGMODE
 70
     2
  9
$LTSCALE
 40
1.0
  9
$OSMODE
 70
    37
  9
$ATTMODE
 70
     1
  9
$TEXTSIZE
 40
0.2
  9
$TRACEWID
 40
0.05
  9
$TEXTSTYLE
  7
STANDARD
  9
$CLAYER
  8
0
  9
$CELTYPE
  6
BYLAYER
  9
$CECOLOR
 62
   256
  9
$DIMSCALE
 40
1.0
  9
$DIMASZ
 40
0.9
  9
$DIMEXO
 40
0.0625
  9
$DIMDLI
 40
0.38
  9
$DIMRND
 40
0.0
  9
$DIMDLE
 40
0.0
  9
$DIMEXE
 40
0.45
  9
$DIMTP
 40
0.0
  9
$DIMTM
 40
0.0
  9
$DIMTXT
 40
3.0
  9
$DIMCEN
 40
0.09
  9
$DIMTSZ
 40
0.0
  9
$DIMTOL
 70
     0
  9
$DIMLIM
 70
     0
  9
$DIMTIH
 70
     1
  9
$DIMTOH
 70
     1
  9
$DIMSE1
 70
     0
  9
$DIMSE2
 70
     0
  9
$DIMTAD
 70
     1
  9
$DIMZIN
 70
     0
  9
$DIMBLK
  1

  9
$DIMASO
 70
     1
  9
$DIMSHO
 70
     1
  9
$DIMPOST
  1

  9
$DIMAPOST
  1

  9
$DIMALT
 70
     0
  9
$DIMALTD
 70
     2
  9
$DIMALTF
 40
25.4
  9
$DIMLFAC
 40
1.0
  9
$DIMTOFL
 70
     0
  9
$DIMTVP
 40
0.0
  9
$DIMTIX
 70
     0
  9
$DIMSOXD
 70
     0
  9
$DIMSAH
 70
     0
  9
$DIMBLK1
  1

  9
$DIMBLK2
  1

  9
$LUNITS
 70
     2
  9
$LUPREC
 70
     4
  9
$SKETCHINC
 40
0.1
  9
$FILLETRAD
 40
0.5
  9
$AUNITS
 70
     0
  9
$AUPREC
 70
     0
  9
$MENU
  1
.
  9
$ELEVATION
 40
0.0
  9
$THICKNESS
 40
0.0
  9
$LIMCHECK
 70
     0
  9
$CHAMFERA
 40
0.0
  9
$CHAMFERB
 40
0.0
  9
$SKPOLY
 70
     0
  9
$TDCREATE
 40
2460482.601586424
  9
$TDUPDATE
 40
2460482.601586771
  9
$TDINDWG
 40
0.0000000116
  9
$TDUSRTIMER
 40
0.0000000116
  9
$USRTIMER
 70
     1
  9
$ANGBASE
 50
0.0
  9
$ANGDIR
 70
     0
  9
$PDMODE
 70
     0
  9
$PDSIZE
 40
0.0
  9
$PLINEWID
 40
0.0
  9
$COORDS
 70
     1
  9
$SPLFRAME
 70
     0
  9
$SPLINETYPE
 70
     6
  9
$SPLINESEGS
 70
     8
  9
$ATTDIA
 70
     0
  9
$ATTREQ
 70
     1
  9
$HANDLING
 70
     1
  9
$HANDSEED
  5
54E
  9
$SURFTAB1
 70
     6
  9
$SURFTAB2
 70
     6
  9
$SURFTYPE
 70
     6
  9
$SURFU
 70
     6
  9
$SURFV
 70
     6
  9
$UCSNAME
  2

  9
$UCSORG
 10
0.0
 20
0.0
 30
0.0
  9
$UCSXDIR
 10
1.0
 20
0.0
 30
0.0
  9
$UCSYDIR
 10
0.0
 20
1.0
 30
0.0
  9
$USERI1
 70
     0
  9
$USERI2
 70
     0
  9
$USERI3
 70
     0
  9
$USERI4
 70
     0
  9
$USERI5
 70
     0
  9
$USERR1
 40
0.0
  9
$USERR2
 40
0.0
  9
$USERR3
 40
0.0
  9
$USERR4
 40
0.0
  9
$USERR5
 40
0.0
  9
$WORLDVIEW
 70
     1
  0
ENDSEC
  0
SECTION
  2
TABLES
  0
TABLE
  2
VPORT
 70
     1
  0
VPORT
  2
*ACTIVE
 70
     0
 10
0.0
 20
0.0
 11
1.0
 21
1.0
 12
177.8756617640053
 22
-185.9999996363636
 13
0.0
 23
0.0
 14
0.5
 24
0.5
 15
0.5
 25
0.5
 16
0.0
 26
0.0
 36
1.0
 17
0.0
 27
0.0
 37
0.0
 40
268.9999992727273
 41
1.6
 42
50.0
 43
0.0
 44
0.0
 50
0.0
 51
0.0
 71
     0
 72
   100
 73
     1
 74
     3
 75
     0
 76
     0
 77
     0
 78
     0
  0
ENDTAB
  0
TABLE
  2
LTYPE
 70
     2
  0
LTYPE
  2
CONTINUOUS
 70
     0
  3
Solid line
 72
    65
 73
     0
 40
0.0
  0
LTYPE
  2
CENTER
 70
     0
  3

 72
    65
 73
     0
 40
0.0
  0
ENDTAB
  0
TABLE
  2
LAYER
 70
     2
  0
LAYER
  2
0
 70
     0
 62
     7
  6
CONTINUOUS
  0
LAYER
  2
1
 70
     0
 62
     7
  6
CONTINUOUS
  0
ENDTAB
  0
TABLE
  2
STYLE
 70
     2
  0
STYLE
  2
STANDARD
 70
     0
 40
0.0
 41
1.0
 50
0.0
 71
     0
 42
0.2
  3
txt
  4

  0
STYLE
  2
ＭＳ_ゴシック
 70
     0
 40
0.0
 41
1.0
 50
0.0
 71
     0
 42
0.2
  3
ＭＳ ゴシック.shx
  4

  0
ENDTAB
  0
TABLE
  2
VIEW
 70
     0
  0
ENDTAB
  0
TABLE
  2
UCS
 70
     0
  0
ENDTAB
  0
ENDSEC
  0
SECTION
  2
BLOCKS
  0
ENDSEC
  0
SECTION
  2
ENTITIES
  0
POINT
  5
70
  8
1
 62
     1
 10
125.0
 20
-142.4999999999999
 30
0.0
  0
POINT
  5
71
  8
1
 62
     1
 10
125.0
 20
-177.5
 30
0.0
  0
POINT
  5
72
  8
1
 62
     1
 10
125.0
 20
-142.4999999999999
 30
0.0
  0
POINT
  5
73
  8
1
 62
     7
 10
125.0
 20
-142.4999999999999
 30
0.0
  0
LINE
  5
74
  8
1
  6
CONTINUOUS
 62
     7
 10
56.016666
 20
-119.25
 30
0.0
 11
56.016666
 21
-120.25
 31
0.0
  0
LINE
  5
75
  8
1
  6
CONTINUOUS
 62
     7
 10
56.016666
 20
-85.24999999999993
 30
0.0
 11
55.90000000000001
 21
-85.49999999999996
 31
0.0
  0
LINE
  5
76
  8
1
  6
CONTINUOUS
 62
     7
 10
173.0
 20
-108.3999999999999
 30
0.0
 11
182.0
 21
-108.3999999999999
 31
0.0
  0
ARC
  5
77
  8
1
  6
CONTINUOUS
 62
     7
 10
128.5
 20
-107.5
 30
0.0
 40
0.9000000000000119
 50
90.0
 51
270.0
  0
LINE
  5
78
  8
1
  6
CONTINUOUS
 62
     7
 10
158.983334
 20
-72.99999999999996
 30
0.0
 11
158.983334
 21
-71.99999999999996
 31
0.0
  0
LINE
  5
79
  8
1
  6
CONTINUOUS
 62
     7
 10
55.90000000000001
 20
-94.49999999999997
 30
0.0
 11
56.016666
 21
-94.74999999999994
 31
0.0
  0
LINE
  5
7A
  8
1
  6
CONTINUOUS
 62
     7
 10
67.75000000000001
 20
-176.483334
 30
0.0
 11
68.0
 21
-176.5999999999999
 31
0.0
  0
LINE
  5
7B
  8
1
  6
CONTINUOUS
 62
     7
 10
77.0
 20
-176.5999999999999
 30
0.0
 11
77.25
 21
-176.483334
 31
0.0
  0
LINE
  5
7C
  8
1
  6
CONTINUOUS
 62
     7
 10
56.016666
 20
-71.99999999999996
 30
0.0
 11
55.90000000000001
 21
-71.74999999999999
 31
0.0
  0
LINE
  5
7D
  8
1
  6
CONTINUOUS
 62
     7
 10
55.90000000000001
 20
-120.4999999999999
 30
0.0
 11
55.90000000000001
 21
-129.4999999999999
 31
0.0
  0
LINE
  5
7E
  8
1
  6
CONTINUOUS
 62
     7
 10
56.016666
 20
-120.25
 30
0.0
 11
55.90000000000001
 21
-120.4999999999999
 31
0.0
  0
LINE
  5
7F
  8
1
  6
CONTINUOUS
 62
     7
 10
55.90000000000001
 20
-85.49999999999996
 30
0.0
 11
55.90000000000001
 21
-94.49999999999997
 31
0.0
  0
LINE
  5
80
  8
1
  6
CONTINUOUS
 62
     7
 10
159.1
 20
-120.4999999999999
 30
0.0
 11
158.983334
 21
-120.25
 31
0.0
  0
LINE
  5
81
  8
1
  6
CONTINUOUS
 62
     7
 10
55.90000000000001
 20
-73.24999999999999
 30
0.0
 11
55.90000000000001
 21
-83.99999999999996
 31
0.0
  0
LINE
  5
82
  8
1
  6
CONTINUOUS
 62
     7
 10
158.983334
 20
-108.0
 30
0.0
 11
158.983334
 21
-107.0
 31
0.0
  0
LINE
  5
83
  8
1
  6
CONTINUOUS
 62
     7
 10
159.1
 20
-120.4999999999999
 30
0.0
 11
159.1
 21
-129.4999999999999
 31
0.0
  0
LINE
  5
84
  8
1
  6
CONTINUOUS
 62
     7
 10
159.1
 20
-108.25
 30
0.0
 11
159.1
 21
-118.9999999999999
 31
0.0
  0
LINE
  5
85
  8
1
  6
CONTINUOUS
 62
     7
 10
159.1
 20
-73.24999999999999
 30
0.0
 11
159.1
 21
-83.99999999999996
 31
0.0
  0
LINE
  5
86
  8
1
  6
CONTINUOUS
 62
     7
 10
86.5
 20
-176.5999999999999
 30
0.0
 11
78.50000000000001
 21
-176.5999999999999
 31
0.0
  0
LINE
  5
87
  8
1
  6
CONTINUOUS
 62
     7
 10
66.75000000000001
 20
-176.483334
 30
0.0
 11
67.75000000000001
 21
-176.483334
 31
0.0
  0
LINE
  5
88
  8
1
  6
CONTINUOUS
 62
     7
 10
55.90000000000001
 20
-108.25
 30
0.0
 11
55.90000000000001
 21
-118.9999999999999
 31
0.0
  0
TEXT
  5
89
  8
1
  6
CONTINUOUS
 62
     7
 10
265.8217270560211
 20
-321.1818174545454
 30
0.0
 40
6.0
  1
ＢＦＯ－１７１７
 41
1.013123
  0
LINE
  5
8A
  8
1
  6
CONTINUOUS
 62
     7
 10
123.983334
 20
-85.24999999999993
 30
0.0
 11
123.983334
 21
-84.24999999999993
 31
0.0
  0
LINE
  5
8B
  8
1
  6
CONTINUOUS
 62
     7
 10
124.1
 20
-120.4999999999999
 30
0.0
 11
124.1
 21
-129.4999999999999
 31
0.0
  0
LINE
  5
8C
  8
1
  6
CONTINUOUS
 62
     7
 10
163.5
 20
-176.5999999999999
 30
0.0
 11
171.5
 21
-176.5999999999999
 31
0.0
  0
LINE
  5
8D
  8
1
  6
CONTINUOUS
 62
     7
 10
125.9
 20
-165.9999999999999
 30
0.0
 11
126.016666
 21
-165.7499999999999
 31
0.0
  0
LINE
  5
8E
  8
1
  6
CONTINUOUS
 62
     7
 10
123.983334
 20
-71.99999999999996
 30
0.0
 11
124.1
 21
-71.74999999999999
 31
0.0
  0
LINE
  5
8F
  8
1
  6
CONTINUOUS
 62
     7
 10
124.1
 20
-61.99999999999994
 30
0.0
 11
124.1
 21
-71.74999999999999
 31
0.0
  0
LINE
  5
90
  8
1
  6
CONTINUOUS
 62
     7
 10
173.0
 20
-141.6
 30
0.0
 11
172.75
 21
-141.483334
 31
0.0
  0
LINE
  5
91
  8
1
  6
CONTINUOUS
 62
     7
 10
126.016666
 20
-154.25
 30
0.0
 11
125.9
 21
-154.0
 31
0.0
  0
LINE
  5
92
  8
1
  6
CONTINUOUS
 62
     7
 10
183.5
 20
-141.6
 30
0.0
 11
183.25
 21
-141.483334
 31
0.0
  0
LINE
  5
93
  8
1
  6
CONTINUOUS
 62
     7
 10
126.016666
 20
-165.7499999999999
 30
0.0
 11
126.016666
 21
-164.7499999999999
 31
0.0
  0
LINE
  5
94
  8
1
  6
CONTINUOUS
 62
     7
 10
147.0
 20
-176.5999999999999
 30
0.0
 11
147.25
 21
-176.483334
 31
0.0
  0
LINE
  5
95
  8
1
  6
CONTINUOUS
 62
     7
 10
101.75
 20
-108.5166659999999
 30
0.0
 11
101.5
 21
-108.3999999999999
 31
0.0
  0
LINE
  5
96
  8
1
  6
CONTINUOUS
 62
     7
 10
124.1
 20
-130.9999999999999
 30
0.0
 11
123.983334
 21
-130.75
 31
0.0
  0
LINE
  5
97
  8
1
  6
CONTINUOUS
 62
     7
 10
126.016666
 20
-155.25
 30
0.0
 11
126.016666
 21
-154.25
 31
0.0
  0
ARC
  5
98
  8
1
  6
CONTINUOUS
 62
     7
 10
163.5
 20
-177.5
 30
0.0
 40
0.9000000000000119
 50
90.0
 51
270.0
  0
LINE
  5
99
  8
1
  6
CONTINUOUS
 62
     7
 10
124.1
 20
-85.49999999999996
 30
0.0
 11
123.983334
 21
-85.24999999999993
 31
0.0
  0
LINE
  5
9A
  8
1
  6
CONTINUOUS
 62
     7
 10
125.9
 20
-213.2499999999999
 30
0.0
 11
126.016666
 21
-212.9999999999999
 31
0.0
  0
LINE
  5
9B
  8
1
  6
CONTINUOUS
 62
     7
 10
124.1
 20
-108.25
 30
0.0
 11
123.983334
 21
-108.0
 31
0.0
  0
LINE
  5
9C
  8
1
  6
CONTINUOUS
 62
     7
 10
113.25
 20
-108.5166659999999
 30
0.0
 11
113.5
 21
-108.3999999999999
 31
0.0
  0
LINE
  5
9D
  8
1
  6
CONTINUOUS
 62
     7
 10
103.0
 20
-108.3999999999999
 30
0.0
 11
102.75
 21
-108.5166659999999
 31
0.0
  0
LINE
  5
9E
  8
1
  6
CONTINUOUS
 62
     7
 10
77.25
 20
-108.5166659999999
 30
0.0
 11
77.0
 21
-108.3999999999999
 31
0.0
  0
LINE
  5
9F
  8
1
  6
CONTINUOUS
 62
     7
 10
78.5
 20
-108.3999999999999
 30
0.0
 11
78.25
 21
-108.5166659999999
 31
0.0
  0
LINE
  5
A0
  8
1
  6
CONTINUOUS
 62
     7
 10
147.25
 20
-141.483334
 30
0.0
 11
147.0
 21
-141.6
 31
0.0
  0
LINE
  5
A1
  8
1
  6
CONTINUOUS
 62
     7
 10
124.1
 20
-108.25
 30
0.0
 11
124.1
 21
-118.9999999999999
 31
0.0
  0
LINE
  5
A2
  8
1
  6
CONTINUOUS
 62
     7
 10
126.016666
 20
-199.75
 30
0.0
 11
125.9
 21
-199.5
 31
0.0
  0
LINE
  5
A3
  8
1
  6
CONTINUOUS
 62
     7
 10
124.1
 20
-85.49999999999996
 30
0.0
 11
124.1
 21
-94.49999999999997
 31
0.0
  0
LINE
  5
A4
  8
1
  6
CONTINUOUS
 62
     7
 10
125.9
 20
-155.5
 30
0.0
 11
125.9
 21
-164.4999999999999
 31
0.0
  0
LINE
  5
A5
  8
1
  6
CONTINUOUS
 62
     7
 10
67.75000000000001
 20
-108.5166659999999
 30
0.0
 11
66.75000000000001
 21
-108.5166659999999
 31
0.0
  0
LINE
  5
A6
  8
1
  6
CONTINUOUS
 62
     7
 10
148.5
 20
-141.6
 30
0.0
 11
148.25
 21
-141.483334
 31
0.0
  0
LINE
  5
A7
  8
1
  6
CONTINUOUS
 62
     7
 10
195.5
 20
-141.483334
 30
0.0
 11
194.5
 21
-141.483334
 31
0.0
  0
LINE
  5
A8
  8
1
  6
CONTINUOUS
 62
     7
 10
125.9
 20
-213.2499999999999
 30
0.0
 11
125.9
 21
-222.9999999999999
 31
0.0
  0
LINE
  5
A9
  8
1
  6
CONTINUOUS
 62
     7
 10
123.983334
 20
-94.74999999999994
 30
0.0
 11
124.1
 21
-94.49999999999997
 31
0.0
  0
LINE
  5
AA
  8
1
  6
CONTINUOUS
 62
     7
 10
123.983334
 20
-129.75
 30
0.0
 11
124.1
 21
-129.4999999999999
 31
0.0
  0
ARC
  5
AB
  8
1
  6
CONTINUOUS
 62
     7
 10
121.5
 20
-107.5
 30
0.0
 40
0.9000000000000119
 50
270.0
 51
90.0
  0
LINE
  5
AC
  8
1
  6
CONTINUOUS
 62
     7
 10
123.983334
 20
-107.0
 30
0.0
 11
124.1
 21
-106.75
 31
0.0
  0
LINE
  5
AD
  8
1
  6
CONTINUOUS
 62
     7
 10
172.75
 20
-141.483334
 30
0.0
 11
171.75
 21
-141.483334
 31
0.0
  0
LINE
  5
AE
  8
1
  6
CONTINUOUS
 62
     7
 10
123.983334
 20
-154.25
 30
0.0
 11
123.983334
 21
-155.25
 31
0.0
  0
LINE
  5
AF
  8
1
  6
CONTINUOUS
 62
     7
 10
66.50000000000001
 20
-108.3999999999999
 30
0.0
 11
58.50000000000001
 21
-108.3999999999999
 31
0.0
  0
LINE
  5
B0
  8
1
  6
CONTINUOUS
 62
     7
 10
195.75
 20
-141.6
 30
0.0
 11
195.5
 21
-141.483334
 31
0.0
  0
LINE
  5
B1
  8
1
  6
CONTINUOUS
 62
     7
 10
112.0
 20
-108.3999999999999
 30
0.0
 11
112.25
 21
-108.5166659999999
 31
0.0
  0
LINE
  5
B2
  8
1
  6
CONTINUOUS
 62
     7
 10
125.9
 20
-178.25
 30
0.0
 11
125.9
 21
-189.0
 31
0.0
  0
LINE
  5
B3
  8
1
  6
CONTINUOUS
 62
     7
 10
173.0
 20
-176.5999999999999
 30
0.0
 11
182.0
 21
-176.5999999999999
 31
0.0
  0
LINE
  5
B4
  8
1
  6
CONTINUOUS
 62
     7
 10
138.0
 20
-141.6
 30
0.0
 11
137.75
 21
-141.483334
 31
0.0
  0
LINE
  5
B5
  8
1
  6
CONTINUOUS
 62
     7
 10
123.983334
 20
-72.99999999999996
 30
0.0
 11
123.983334
 21
-71.99999999999996
 31
0.0
  0
LINE
  5
B6
  8
1
  6
CONTINUOUS
 62
     7
 10
123.983334
 20
-120.25
 30
0.0
 11
123.983334
 21
-119.25
 31
0.0
  0
ARC
  5
B7
  8
1
  6
CONTINUOUS
 62
     7
 10
128.5
 20
-177.5
 30
0.0
 40
0.9000000000000119
 50
90.0
 51
270.0
  0
LINE
  5
B8
  8
1
  6
CONTINUOUS
 62
     7
 10
124.1
 20
-130.9999999999999
 30
0.0
 11
124.1
 21
-138.9999999999999
 31
0.0
  0
LINE
  5
B9
  8
1
  6
CONTINUOUS
 62
     7
 10
124.1
 20
-73.24999999999999
 30
0.0
 11
124.1
 21
-83.99999999999996
 31
0.0
  0
LINE
  5
BA
  8
1
  6
CONTINUOUS
 62
     7
 10
123.983334
 20
-108.0
 30
0.0
 11
123.983334
 21
-107.0
 31
0.0
  0
LINE
  5
BB
  8
1
  6
CONTINUOUS
 62
     7
 10
126.016666
 20
-177.0
 30
0.0
 11
125.9
 21
-176.75
 31
0.0
  0
LINE
  5
BC
  8
1
  6
CONTINUOUS
 62
     7
 10
124.1
 20
-95.99999999999997
 30
0.0
 11
123.983334
 21
-95.74999999999994
 31
0.0
  0
LINE
  5
BD
  8
1
  6
CONTINUOUS
 62
     7
 10
123.983334
 20
-119.25
 30
0.0
 11
124.1
 21
-118.9999999999999
 31
0.0
  0
LINE
  5
BE
  8
1
  6
CONTINUOUS
 62
     7
 10
125.9
 20
-190.5
 30
0.0
 11
125.9
 21
-199.4999999999999
 31
0.0
  0
LINE
  5
BF
  8
1
  6
CONTINUOUS
 62
     7
 10
125.9
 20
-190.5
 30
0.0
 11
126.016666
 21
-190.25
 31
0.0
  0
LINE
  5
C0
  8
1
  6
CONTINUOUS
 62
     7
 10
123.983334
 20
-84.24999999999993
 30
0.0
 11
124.1
 21
-83.99999999999996
 31
0.0
  0
LINE
  5
C1
  8
1
  6
CONTINUOUS
 62
     7
 10
124.1
 20
-154.0
 30
0.0
 11
123.983334
 21
-154.25
 31
0.0
  0
LINE
  5
C2
  8
1
  6
CONTINUOUS
 62
     7
 10
137.75
 20
-141.483334
 30
0.0
 11
136.75
 21
-141.483334
 31
0.0
  0
LINE
  5
C3
  8
1
  6
CONTINUOUS
 62
     7
 10
125.9
 20
-200.9999999999999
 30
0.0
 11
125.9
 21
-211.75
 31
0.0
  0
LINE
  5
C4
  8
1
  6
CONTINUOUS
 62
     7
 10
136.75
 20
-141.483334
 30
0.0
 11
136.5
 21
-141.6
 31
0.0
  0
LINE
  5
C5
  8
1
  6
CONTINUOUS
 62
     7
 10
124.1
 20
-95.99999999999997
 30
0.0
 11
124.1
 21
-106.75
 31
0.0
  0
LINE
  5
C6
  8
1
  6
CONTINUOUS
 62
     7
 10
126.016666
 20
-178.0
 30
0.0
 11
126.016666
 21
-177.0
 31
0.0
  0
LINE
  5
C7
  8
1
  6
CONTINUOUS
 62
     7
 10
124.1
 20
-120.4999999999999
 30
0.0
 11
123.983334
 21
-120.25
 31
0.0
  0
LINE
  5
C8
  8
1
  6
CONTINUOUS
 62
     7
 10
86.5
 20
-108.3999999999999
 30
0.0
 11
78.50000000000001
 21
-108.3999999999999
 31
0.0
  0
ARC
  5
C9
  8
1
  6
CONTINUOUS
 62
     7
 10
128.5
 20
-142.4999999999999
 30
0.0
 40
0.9000000000000119
 50
90.0
 51
270.0
  0
LINE
  5
CA
  8
1
  6
CONTINUOUS
 62
     7
 10
123.983334
 20
-177.0
 30
0.0
 11
123.983334
 21
-178.0
 31
0.0
  0
LINE
  5
CB
  8
1
  6
CONTINUOUS
 62
     7
 10
125.9
 20
-94.49999999999997
 30
0.0
 11
126.016666
 21
-94.74999999999994
 31
0.0
  0
LINE
  5
CC
  8
1
  6
CONTINUOUS
 62
     7
 10
123.983334
 20
-190.25
 30
0.0
 11
124.1
 21
-190.5
 31
0.0
  0
LINE
  5
CD
  8
1
  6
CONTINUOUS
 62
     7
 10
125.9
 20
-118.9999999999999
 30
0.0
 11
126.016666
 21
-119.25
 31
0.0
  0
LINE
  5
CE
  8
1
  6
CONTINUOUS
 62
     7
 10
125.9
 20
-178.25
 30
0.0
 11
126.016666
 21
-178.0
 31
0.0
  0
LINE
  5
CF
  8
1
  6
CONTINUOUS
 62
     7
 10
148.25
 20
-141.483334
 30
0.0
 11
147.25
 21
-141.483334
 31
0.0
  0
LINE
  5
D0
  8
1
  6
CONTINUOUS
 62
     7
 10
124.1
 20
-176.75
 30
0.0
 11
124.1
 21
-165.9999999999999
 31
0.0
  0
LINE
  5
D1
  8
1
  6
CONTINUOUS
 62
     7
 10
112.25
 20
-106.483334
 30
0.0
 11
112.0
 21
-106.6
 31
0.0
  0
LINE
  5
D2
  8
1
  6
CONTINUOUS
 62
     7
 10
126.016666
 20
-164.7499999999999
 30
0.0
 11
125.9
 21
-164.4999999999999
 31
0.0
  0
LINE
  5
D3
  8
1
  6
CONTINUOUS
 62
     7
 10
138.0
 20
-141.6
 30
0.0
 11
147.0
 21
-141.6
 31
0.0
  0
LINE
  5
D4
  8
1
  6
CONTINUOUS
 62
     7
 10
123.983334
 20
-130.75
 30
0.0
 11
123.983334
 21
-129.75
 31
0.0
  0
LINE
  5
D5
  8
1
  6
CONTINUOUS
 62
     7
 10
125.9
 20
-155.5
 30
0.0
 11
126.016666
 21
-155.25
 31
0.0
  0
LINE
  5
D6
  8
1
  6
CONTINUOUS
 62
     7
 10
126.016666
 20
-119.25
 30
0.0
 11
126.016666
 21
-120.25
 31
0.0
  0
LINE
  5
D7
  8
1
  6
CONTINUOUS
 62
     7
 10
124.1
 20
-164.4999999999999
 30
0.0
 11
124.1
 21
-155.5
 31
0.0
  0
LINE
  5
D8
  8
1
  6
CONTINUOUS
 62
     7
 10
125.9
 20
-200.9999999999999
 30
0.0
 11
126.016666
 21
-200.7499999999999
 31
0.0
  0
LINE
  5
D9
  8
1
  6
CONTINUOUS
 62
     7
 10
123.983334
 20
-164.7499999999999
 30
0.0
 11
123.983334
 21
-165.7499999999999
 31
0.0
  0
LINE
  5
DA
  8
1
  6
CONTINUOUS
 62
     7
 10
123.983334
 20
-199.75
 30
0.0
 11
123.983334
 21
-200.75
 31
0.0
  0
LINE
  5
DB
  8
1
  6
CONTINUOUS
 62
     7
 10
123.983334
 20
-95.74999999999994
 30
0.0
 11
123.983334
 21
-94.74999999999994
 31
0.0
  0
LINE
  5
DC
  8
1
  6
CONTINUOUS
 62
     7
 10
124.1
 20
-199.4999999999999
 30
0.0
 11
124.1
 21
-190.5
 31
0.0
  0
LINE
  5
DD
  8
1
  6
CONTINUOUS
 62
     7
 10
126.016666
 20
-190.25
 30
0.0
 11
126.016666
 21
-189.25
 31
0.0
  0
ARC
  5
DE
  8
1
  6
CONTINUOUS
 62
     7
 10
191.5
 20
-107.5
 30
0.0
 40
0.9000000000000119
 50
270.0
 51
90.0
  0
LINE
  5
DF
  8
1
  6
CONTINUOUS
 62
     7
 10
125.9
 20
-94.49999999999997
 30
0.0
 11
125.9
 21
-85.49999999999996
 31
0.0
  0
LINE
  5
E0
  8
1
  6
CONTINUOUS
 62
     7
 10
126.016666
 20
-189.25
 30
0.0
 11
125.9
 21
-189.0
 31
0.0
  0
LINE
  5
E1
  8
1
  6
CONTINUOUS
 62
     7
 10
123.983334
 20
-155.25
 30
0.0
 11
124.1
 21
-155.5
 31
0.0
  0
LINE
  5
E2
  8
1
  6
CONTINUOUS
 62
     7
 10
125.9
 20
-165.9999999999999
 30
0.0
 11
125.9
 21
-176.75
 31
0.0
  0
LINE
  5
E3
  8
1
  6
CONTINUOUS
 62
     7
 10
148.5
 20
-141.6
 30
0.0
 11
159.25
 21
-141.6
 31
0.0
  0
LINE
  5
E4
  8
1
  6
CONTINUOUS
 62
     7
 10
126.016666
 20
-213.0
 30
0.0
 11
126.016666
 21
-212.0
 31
0.0
  0
LINE
  5
E5
  8
1
  6
CONTINUOUS
 62
     7
 10
101.5
 20
-106.6
 30
0.0
 11
101.75
 21
-106.483334
 31
0.0
  0
LINE
  5
E6
  8
1
  6
CONTINUOUS
 62
     7
 10
124.1
 20
-199.4999999999999
 30
0.0
 11
123.983334
 21
-199.7499999999999
 31
0.0
  0
LINE
  5
E7
  8
1
  6
CONTINUOUS
 62
     7
 10
126.016666
 20
-120.25
 30
0.0
 11
125.9
 21
-120.4999999999999
 31
0.0
  0
LINE
  5
E8
  8
1
  6
CONTINUOUS
 62
     7
 10
124.1
 20
-164.4999999999999
 30
0.0
 11
123.983334
 21
-164.7499999999999
 31
0.0
  0
LINE
  5
E9
  8
1
  6
CONTINUOUS
 62
     7
 10
125.9
 20
-83.99999999999996
 30
0.0
 11
125.9
 21
-73.24999999999999
 31
0.0
  0
LINE
  5
EA
  8
1
  6
CONTINUOUS
 62
     7
 10
125.9
 20
-146.0
 30
0.0
 11
125.9
 21
-154.0
 31
0.0
  0
LINE
  5
EB
  8
1
  6
CONTINUOUS
 62
     7
 10
126.016666
 20
-212.0
 30
0.0
 11
125.9
 21
-211.75
 31
0.0
  0
LINE
  5
EC
  8
1
  6
CONTINUOUS
 62
     7
 10
123.983334
 20
-165.7499999999999
 30
0.0
 11
124.1
 21
-165.9999999999999
 31
0.0
  0
LINE
  5
ED
  8
1
  6
CONTINUOUS
 62
     7
 10
126.016666
 20
-108.0
 30
0.0
 11
125.9
 21
-108.25
 31
0.0
  0
LINE
  5
EE
  8
1
  6
CONTINUOUS
 62
     7
 10
125.9
 20
-138.9999999999999
 30
0.0
 11
125.9
 21
-130.9999999999999
 31
0.0
  0
LINE
  5
EF
  8
1
  6
CONTINUOUS
 62
     7
 10
124.1
 20
-211.75
 30
0.0
 11
123.983334
 21
-212.0
 31
0.0
  0
LINE
  5
F0
  8
1
  6
CONTINUOUS
 62
     7
 10
125.9
 20
-106.75
 30
0.0
 11
126.016666
 21
-107.0
 31
0.0
  0
LINE
  5
F1
  8
1
  6
CONTINUOUS
 62
     7
 10
125.9
 20
-71.74999999999999
 30
0.0
 11
125.9
 21
-61.99999999999994
 31
0.0
  0
LINE
  5
F2
  8
1
  6
CONTINUOUS
 62
     7
 10
124.1
 20
-73.24999999999999
 30
0.0
 11
123.983334
 21
-72.99999999999996
 31
0.0
  0
LINE
  5
F3
  8
1
  6
CONTINUOUS
 62
     7
 10
126.016666
 20
-200.75
 30
0.0
 11
126.016666
 21
-199.75
 31
0.0
  0
LINE
  5
F4
  8
1
  6
CONTINUOUS
 62
     7
 10
126.016666
 20
-129.75
 30
0.0
 11
126.016666
 21
-130.75
 31
0.0
  0
LINE
  5
F5
  8
1
  6
CONTINUOUS
 62
     7
 10
101.75
 20
-106.483334
 30
0.0
 11
102.75
 21
-106.483334
 31
0.0
  0
LINE
  5
F6
  8
1
  6
CONTINUOUS
 62
     7
 10
113.5
 20
-106.6
 30
0.0
 11
121.5
 21
-106.6
 31
0.0
  0
LINE
  5
F7
  8
1
  6
CONTINUOUS
 62
     7
 10
125.9
 20
-106.75
 30
0.0
 11
125.9
 21
-95.99999999999997
 31
0.0
  0
LINE
  5
F8
  8
1
  6
CONTINUOUS
 62
     7
 10
125.9
 20
-118.9999999999999
 30
0.0
 11
125.9
 21
-108.25
 31
0.0
  0
LINE
  5
F9
  8
1
  6
CONTINUOUS
 62
     7
 10
124.1
 20
-154.0
 30
0.0
 11
124.1
 21
-146.0
 31
0.0
  0
LINE
  5
FA
  8
1
  6
CONTINUOUS
 62
     7
 10
93.50000000000001
 20
-106.6
 30
0.0
 11
101.5
 21
-106.6
 31
0.0
  0
LINE
  5
FB
  8
1
  6
CONTINUOUS
 62
     7
 10
78.25
 20
-178.516666
 30
0.0
 11
77.25
 21
-178.516666
 31
0.0
  0
LINE
  5
FC
  8
1
  6
CONTINUOUS
 62
     7
 10
88.98333400000001
 20
-95.74999999999994
 30
0.0
 11
88.98333400000001
 21
-94.74999999999994
 31
0.0
  0
LINE
  5
FD
  8
1
  6
CONTINUOUS
 62
     7
 10
147.25
 20
-178.516666
 30
0.0
 11
147.0
 21
-178.4
 31
0.0
  0
LINE
  5
FE
  8
1
  6
CONTINUOUS
 62
     7
 10
88.98333400000001
 20
-120.25
 30
0.0
 11
88.98333400000001
 21
-119.25
 31
0.0
  0
LINE
  5
FF
  8
1
  6
CONTINUOUS
 62
     7
 10
195.9
 20
-219.5
 30
0.0
 11
195.9
 21
-213.25
 31
0.0
  0
LINE
  5
100
  8
1
  6
CONTINUOUS
 62
     7
 10
88.98333400000001
 20
-85.24999999999993
 30
0.0
 11
88.98333400000001
 21
-84.24999999999993
 31
0.0
  0
LINE
  5
101
  8
1
  6
CONTINUOUS
 62
     7
 10
161.016666
 20
-200.75
 30
0.0
 11
161.016666
 21
-199.75
 31
0.0
  0
LINE
  5
102
  8
1
  6
CONTINUOUS
 62
     7
 10
196.016666
 20
-199.75
 30
0.0
 11
195.9
 21
-199.5
 31
0.0
  0
ARC
  5
103
  8
1
  6
CONTINUOUS
 62
     7
 10
55.0
 20
-146.0
 30
0.0
 40
0.8999999999999841
 50
0.0
 51
180.0
  0
ARC
  5
104
  8
1
  6
CONTINUOUS
 62
     7
 10
58.5
 20
-212.5
 30
0.0
 40
0.8999999999999841
 50
90.0
 51
270.0
  0
LINE
  5
105
  8
1
  6
CONTINUOUS
 62
     7
 10
191.5
 20
-106.6
 30
0.0
 11
183.5
 21
-106.6
 31
0.0
  0
LINE
  5
106
  8
1
  6
CONTINUOUS
 62
     7
 10
195.9
 20
-154.0
 30
0.0
 11
195.9
 21
-146.0
 31
0.0
  0
LINE
  5
107
  8
1
  6
CONTINUOUS
 62
     7
 10
89.1
 20
-118.9999999999999
 30
0.0
 11
89.1
 21
-108.25
 31
0.0
  0
LINE
  5
108
  8
1
  6
CONTINUOUS
 62
     7
 10
183.25
 20
-178.516666
 30
0.0
 11
182.25
 21
-178.516666
 31
0.0
  0
LINE
  5
109
  8
1
  6
CONTINUOUS
 62
     7
 10
195.9
 20
-164.4999999999999
 30
0.0
 11
195.9
 21
-155.5
 31
0.0
  0
LINE
  5
10A
  8
1
  6
CONTINUOUS
 62
     7
 10
195.9
 20
-178.25
 30
0.0
 11
196.016666
 21
-178.0
 31
0.0
  0
LINE
  5
10B
  8
1
  6
CONTINUOUS
 62
     7
 10
196.016666
 20
-200.75
 30
0.0
 11
196.016666
 21
-199.75
 31
0.0
  0
LINE
  5
10C
  8
1
  6
CONTINUOUS
 62
     7
 10
89.1
 20
-120.4999999999999
 30
0.0
 11
88.983334
 21
-120.25
 31
0.0
  0
LINE
  5
10D
  8
1
  6
CONTINUOUS
 62
     7
 10
88.98333400000001
 20
-108.0
 30
0.0
 11
89.10000000000001
 21
-108.25
 31
0.0
  0
ARC
  5
10E
  8
1
  6
CONTINUOUS
 62
     7
 10
93.50000000000001
 20
-107.5
 30
0.0
 40
0.8999999999999841
 50
90.0
 51
270.0
  0
LINE
  5
10F
  8
1
  6
CONTINUOUS
 62
     7
 10
195.9
 20
-165.9999999999999
 30
0.0
 11
196.016666
 21
-165.7499999999999
 31
0.0
  0
LINE
  5
110
  8
1
  6
CONTINUOUS
 62
     7
 10
196.016666
 20
-178.0
 30
0.0
 11
196.016666
 21
-177.0
 31
0.0
  0
LINE
  5
111
  8
1
  6
CONTINUOUS
 62
     7
 10
160.9
 20
-199.4999999999999
 30
0.0
 11
160.9
 21
-190.5
 31
0.0
  0
LINE
  5
112
  8
1
  6
CONTINUOUS
 62
     7
 10
88.98333400000001
 20
-107.0
 30
0.0
 11
88.98333400000001
 21
-108.0
 31
0.0
  0
LINE
  5
113
  8
1
  6
CONTINUOUS
 62
     7
 10
196.016666
 20
-155.25
 30
0.0
 11
196.016666
 21
-154.25
 31
0.0
  0
LINE
  5
114
  8
1
  6
CONTINUOUS
 62
     7
 10
89.1
 20
-83.99999999999996
 30
0.0
 11
89.1
 21
-73.24999999999999
 31
0.0
  0
ARC
  5
115
  8
1
  6
CONTINUOUS
 62
     7
 10
205.5
 20
-107.5
 30
0.0
 40
0.9000000000000119
 50
270.0
 51
90.0
  0
LINE
  5
116
  8
1
  6
CONTINUOUS
 62
     7
 10
160.9
 20
-211.75
 30
0.0
 11
160.9
 21
-201.0
 31
0.0
  0
LINE
  5
117
  8
1
  6
CONTINUOUS
 62
     7
 10
88.98333400000001
 20
-71.99999999999996
 30
0.0
 11
88.98333400000001
 21
-72.99999999999996
 31
0.0
  0
LINE
  5
118
  8
1
  6
CONTINUOUS
 62
     7
 10
88.98333400000001
 20
-119.25
 30
0.0
 11
89.10000000000001
 21
-118.9999999999999
 31
0.0
  0
LINE
  5
119
  8
1
  6
CONTINUOUS
 62
     7
 10
195.9
 20
-190.5
 30
0.0
 11
196.016666
 21
-190.25
 31
0.0
  0
LINE
  5
11A
  8
1
  6
CONTINUOUS
 62
     7
 10
191.5
 20
-178.4
 30
0.0
 11
183.5
 21
-178.4
 31
0.0
  0
LINE
  5
11B
  8
1
  6
CONTINUOUS
 62
     7
 10
89.1
 20
-130.9999999999999
 30
0.0
 11
88.983334
 21
-130.75
 31
0.0
  0
ARC
  5
11C
  8
1
  6
CONTINUOUS
 62
     7
 10
205.5
 20
-72.49999999999996
 30
0.0
 40
0.9000000000000119
 50
270.0
 51
90.0
  0
LINE
  5
11D
  8
1
  6
CONTINUOUS
 62
     7
 10
89.1
 20
-95.99999999999997
 30
0.0
 11
88.983334
 21
-95.74999999999994
 31
0.0
  0
LINE
  5
11E
  8
1
  6
CONTINUOUS
 62
     7
 10
89.1
 20
-71.74999999999999
 30
0.0
 11
88.983334
 21
-71.99999999999996
 31
0.0
  0
LINE
  5
11F
  8
1
  6
CONTINUOUS
 62
     7
 10
88.98333400000001
 20
-94.74999999999994
 30
0.0
 11
89.10000000000001
 21
-94.49999999999997
 31
0.0
  0
LINE
  5
120
  8
1
  6
CONTINUOUS
 62
     7
 10
196.016666
 20
-165.7499999999999
 30
0.0
 11
196.016666
 21
-164.7499999999999
 31
0.0
  0
LINE
  5
121
  8
1
  6
CONTINUOUS
 62
     7
 10
182.25
 20
-178.516666
 30
0.0
 11
182.0
 21
-178.4
 31
0.0
  0
LINE
  5
122
  8
1
  6
CONTINUOUS
 62
     7
 10
89.1
 20
-71.74999999999999
 30
0.0
 11
89.1
 21
-61.99999999999994
 31
0.0
  0
LINE
  5
123
  8
1
  6
CONTINUOUS
 62
     7
 10
58.5
 20
-178.4
 30
0.0
 11
66.5
 21
-178.4
 31
0.0
  0
LINE
  5
124
  8
1
  6
CONTINUOUS
 62
     7
 10
196.016666
 20
-164.7499999999999
 30
0.0
 11
195.9
 21
-164.4999999999999
 31
0.0
  0
LINE
  5
125
  8
1
  6
CONTINUOUS
 62
     7
 10
160.9
 20
-190.5
 30
0.0
 11
161.016666
 21
-190.25
 31
0.0
  0
LINE
  5
126
  8
1
  6
CONTINUOUS
 62
     7
 10
196.016666
 20
-212.0
 30
0.0
 11
195.9
 21
-211.75
 31
0.0
  0
LINE
  5
127
  8
1
  6
CONTINUOUS
 62
     7
 10
161.016666
 20
-165.7499999999999
 30
0.0
 11
161.016666
 21
-164.7499999999999
 31
0.0
  0
LINE
  5
128
  8
1
  6
CONTINUOUS
 62
     7
 10
161.016666
 20
-177.0
 30
0.0
 11
160.9
 21
-176.75
 31
0.0
  0
ARC
  5
129
  8
1
  6
CONTINUOUS
 62
     7
 10
93.50000000000001
 20
-177.5
 30
0.0
 40
0.8999999999999841
 50
90.0
 51
270.0
  0
LINE
  5
12A
  8
1
  6
CONTINUOUS
 62
     7
 10
183.25
 20
-106.483334
 30
0.0
 11
183.5
 21
-106.6
 31
0.0
  0
LINE
  5
12B
  8
1
  6
CONTINUOUS
 62
     7
 10
161.016666
 20
-164.7499999999999
 30
0.0
 11
160.9
 21
-164.4999999999999
 31
0.0
  0
LINE
  5
12C
  8
1
  6
CONTINUOUS
 62
     7
 10
160.9
 20
-200.9999999999999
 30
0.0
 11
161.016666
 21
-200.7499999999999
 31
0.0
  0
LINE
  5
12D
  8
1
  6
CONTINUOUS
 62
     7
 10
195.9
 20
-155.5
 30
0.0
 11
196.016666
 21
-155.25
 31
0.0
  0
LINE
  5
12E
  8
1
  6
CONTINUOUS
 62
     7
 10
160.9
 20
-189.0
 30
0.0
 11
160.9
 21
-178.25
 31
0.0
  0
LINE
  5
12F
  8
1
  6
CONTINUOUS
 62
     7
 10
172.75
 20
-106.483334
 30
0.0
 11
173.0
 21
-106.6
 31
0.0
  0
LINE
  5
130
  8
1
  6
CONTINUOUS
 62
     7
 10
195.9
 20
-200.9999999999999
 30
0.0
 11
196.016666
 21
-200.7499999999999
 31
0.0
  0
LINE
  5
131
  8
1
  6
CONTINUOUS
 62
     7
 10
196.016666
 20
-154.25
 30
0.0
 11
195.9
 21
-154.0
 31
0.0
  0
LINE
  5
132
  8
1
  6
CONTINUOUS
 62
     7
 10
161.016666
 20
-199.75
 30
0.0
 11
160.9
 21
-199.5
 31
0.0
  0
LINE
  5
133
  8
1
  6
CONTINUOUS
 62
     7
 10
195.9
 20
-213.2499999999999
 30
0.0
 11
196.016666
 21
-212.9999999999999
 31
0.0
  0
LINE
  5
134
  8
1
  6
CONTINUOUS
 62
     7
 10
89.1
 20
-106.75
 30
0.0
 11
89.1
 21
-95.99999999999997
 31
0.0
  0
LINE
  5
135
  8
1
  6
CONTINUOUS
 62
     7
 10
183.5
 20
-178.4
 30
0.0
 11
183.25
 21
-178.516666
 31
0.0
  0
LINE
  5
136
  8
1
  6
CONTINUOUS
 62
     7
 10
89.1
 20
-138.9999999999999
 30
0.0
 11
89.1
 21
-130.9999999999999
 31
0.0
  0
LINE
  5
137
  8
1
  6
CONTINUOUS
 62
     7
 10
88.98333400000001
 20
-84.24999999999993
 30
0.0
 11
89.10000000000001
 21
-83.99999999999996
 31
0.0
  0
LINE
  5
138
  8
1
  6
CONTINUOUS
 62
     7
 10
196.016666
 20
-213.0
 30
0.0
 11
196.016666
 21
-212.0
 31
0.0
  0
LINE
  5
139
  8
1
  6
CONTINUOUS
 62
     7
 10
160.9
 20
-164.4999999999999
 30
0.0
 11
160.9
 21
-155.5
 31
0.0
  0
LINE
  5
13A
  8
1
  6
CONTINUOUS
 62
     7
 10
195.9
 20
-176.75
 30
0.0
 11
195.9
 21
-165.9999999999999
 31
0.0
  0
ARC
  5
13B
  8
1
  6
CONTINUOUS
 62
     7
 10
191.5
 20
-212.5
 30
0.0
 40
0.9000000000000119
 50
270.0
 51
90.0
  0
ARC
  5
13C
  8
1
  6
CONTINUOUS
 62
     7
 10
195.0
 20
-219.5
 30
0.0
 40
0.9000000000000119
 50
180.0
 51
0.0
  0
LINE
  5
13D
  8
1
  6
CONTINUOUS
 62
     7
 10
195.9
 20
-199.4999999999999
 30
0.0
 11
195.9
 21
-190.5
 31
0.0
  0
LINE
  5
13E
  8
1
  6
CONTINUOUS
 62
     7
 10
126.016666
 20
-84.24999999999993
 30
0.0
 11
126.016666
 21
-85.24999999999993
 31
0.0
  0
LINE
  5
13F
  8
1
  6
CONTINUOUS
 62
     7
 10
125.9
 20
-129.4999999999999
 30
0.0
 11
126.016666
 21
-129.75
 31
0.0
  0
LINE
  5
140
  8
1
  6
CONTINUOUS
 62
     7
 10
124.1
 20
-189.0
 30
0.0
 11
123.983334
 21
-189.25
 31
0.0
  0
LINE
  5
141
  8
1
  6
CONTINUOUS
 62
     7
 10
126.016666
 20
-72.99999999999996
 30
0.0
 11
125.9
 21
-73.24999999999999
 31
0.0
  0
LINE
  5
142
  8
1
  6
CONTINUOUS
 62
     7
 10
126.016666
 20
-107.0
 30
0.0
 11
126.016666
 21
-108.0
 31
0.0
  0
LINE
  5
143
  8
1
  6
CONTINUOUS
 62
     7
 10
89.1
 20
-85.49999999999996
 30
0.0
 11
88.983334
 21
-85.24999999999993
 31
0.0
  0
LINE
  5
144
  8
1
  6
CONTINUOUS
 62
     7
 10
88.98333400000001
 20
-129.75
 30
0.0
 11
89.10000000000001
 21
-129.4999999999999
 31
0.0
  0
LINE
  5
145
  8
1
  6
CONTINUOUS
 62
     7
 10
171.5
 20
-178.4
 30
0.0
 11
163.5
 21
-178.4
 31
0.0
  0
LINE
  5
146
  8
1
  6
CONTINUOUS
 62
     7
 10
102.75
 20
-106.483334
 30
0.0
 11
103.0
 21
-106.6
 31
0.0
  0
LINE
  5
147
  8
1
  6
CONTINUOUS
 62
     7
 10
88.98333400000001
 20
-130.75
 30
0.0
 11
88.98333400000001
 21
-129.75
 31
0.0
  0
LINE
  5
148
  8
1
  6
CONTINUOUS
 62
     7
 10
124.1
 20
-223.0
 30
0.0
 11
124.1
 21
-213.25
 31
0.0
  0
LINE
  5
149
  8
1
  6
CONTINUOUS
 62
     7
 10
126.016666
 20
-94.74999999999994
 30
0.0
 11
126.016666
 21
-95.74999999999994
 31
0.0
  0
LINE
  5
14A
  8
1
  6
CONTINUOUS
 62
     7
 10
126.016666
 20
-85.24999999999993
 30
0.0
 11
125.9
 21
-85.49999999999996
 31
0.0
  0
LINE
  5
14B
  8
1
  6
CONTINUOUS
 62
     7
 10
123.983334
 20
-212.0
 30
0.0
 11
123.983334
 21
-213.0
 31
0.0
  0
LINE
  5
14C
  8
1
  6
CONTINUOUS
 62
     7
 10
123.983334
 20
-213.0
 30
0.0
 11
124.1
 21
-213.25
 31
0.0
  0
ARC
  5
14D
  8
1
  6
CONTINUOUS
 62
     7
 10
191.5
 20
-72.49999999999996
 30
0.0
 40
0.9000000000000119
 50
270.0
 51
90.0
  0
LINE
  5
14E
  8
1
  6
CONTINUOUS
 62
     7
 10
173.0
 20
-178.4
 30
0.0
 11
172.75
 21
-178.516666
 31
0.0
  0
LINE
  5
14F
  8
1
  6
CONTINUOUS
 62
     7
 10
113.25
 20
-106.483334
 30
0.0
 11
112.25
 21
-106.483334
 31
0.0
  0
LINE
  5
150
  8
1
  6
CONTINUOUS
 62
     7
 10
123.983334
 20
-178.0
 30
0.0
 11
124.1
 21
-178.25
 31
0.0
  0
LINE
  5
151
  8
1
  6
CONTINUOUS
 62
     7
 10
89.1
 20
-106.75
 30
0.0
 11
88.983334
 21
-107.0
 31
0.0
  0
LINE
  5
152
  8
1
  6
CONTINUOUS
 62
     7
 10
126.016666
 20
-130.75
 30
0.0
 11
125.9
 21
-130.9999999999999
 31
0.0
  0
ARC
  5
153
  8
1
  6
CONTINUOUS
 62
     7
 10
205.5
 20
-212.5
 30
0.0
 40
0.9000000000000119
 50
270.0
 51
90.0
  0
LINE
  5
154
  8
1
  6
CONTINUOUS
 62
     7
 10
195.9
 20
-189.0
 30
0.0
 11
195.9
 21
-178.25
 31
0.0
  0
LINE
  5
155
  8
1
  6
CONTINUOUS
 62
     7
 10
196.016666
 20
-190.25
 30
0.0
 11
196.016666
 21
-189.25
 31
0.0
  0
LINE
  5
156
  8
1
  6
CONTINUOUS
 62
     7
 10
196.016666
 20
-189.25
 30
0.0
 11
195.9
 21
-189.0
 31
0.0
  0
LINE
  5
157
  8
1
  6
CONTINUOUS
 62
     7
 10
196.016666
 20
-177.0
 30
0.0
 11
195.9
 21
-176.75
 31
0.0
  0
LINE
  5
158
  8
1
  6
CONTINUOUS
 62
     7
 10
171.75
 20
-178.516666
 30
0.0
 11
171.5
 21
-178.4
 31
0.0
  0
LINE
  5
159
  8
1
  6
CONTINUOUS
 62
     7
 10
89.1
 20
-94.49999999999997
 30
0.0
 11
89.1
 21
-85.49999999999996
 31
0.0
  0
LINE
  5
15A
  8
1
  6
CONTINUOUS
 62
     7
 10
125.9
 20
-129.4999999999999
 30
0.0
 11
125.9
 21
-120.4999999999999
 31
0.0
  0
LINE
  5
15B
  8
1
  6
CONTINUOUS
 62
     7
 10
103.0
 20
-106.6
 30
0.0
 11
112.0
 21
-106.6
 31
0.0
  0
LINE
  5
15C
  8
1
  6
CONTINUOUS
 62
     7
 10
126.016666
 20
-95.74999999999994
 30
0.0
 11
125.9
 21
-95.99999999999997
 31
0.0
  0
LINE
  5
15D
  8
1
  6
CONTINUOUS
 62
     7
 10
123.983334
 20
-200.75
 30
0.0
 11
124.1
 21
-201.0
 31
0.0
  0
LINE
  5
15E
  8
1
  6
CONTINUOUS
 62
     7
 10
113.5
 20
-106.6
 30
0.0
 11
113.25
 21
-106.483334
 31
0.0
  0
LINE
  5
15F
  8
1
  6
CONTINUOUS
 62
     7
 10
123.983334
 20
-189.25
 30
0.0
 11
123.983334
 21
-190.25
 31
0.0
  0
LINE
  5
160
  8
1
  6
CONTINUOUS
 62
     7
 10
124.1
 20
-211.75
 30
0.0
 11
124.1
 21
-201.0
 31
0.0
  0
LINE
  5
161
  8
1
  6
CONTINUOUS
 62
     7
 10
125.9
 20
-83.99999999999996
 30
0.0
 11
126.016666
 21
-84.24999999999993
 31
0.0
  0
LINE
  5
162
  8
1
  6
CONTINUOUS
 62
     7
 10
124.1
 20
-189.0
 30
0.0
 11
124.1
 21
-178.25
 31
0.0
  0
LINE
  5
163
  8
1
  6
CONTINUOUS
 62
     7
 10
124.1
 20
-176.75
 30
0.0
 11
123.983334
 21
-177.0
 31
0.0
  0
LINE
  5
164
  8
1
  6
CONTINUOUS
 62
     7
 10
89.1
 20
-129.4999999999999
 30
0.0
 11
89.1
 21
-120.4999999999999
 31
0.0
  0
ARC
  5
165
  8
1
  6
CONTINUOUS
 62
     7
 10
156.5
 20
-107.5
 30
0.0
 40
0.9000000000000119
 50
270.0
 51
90.0
  0
LINE
  5
166
  8
1
  6
CONTINUOUS
 62
     7
 10
172.75
 20
-178.516666
 30
0.0
 11
171.75
 21
-178.516666
 31
0.0
  0
LINE
  5
167
  8
1
  6
CONTINUOUS
 62
     7
 10
125.9
 20
-71.74999999999999
 30
0.0
 11
126.016666
 21
-71.99999999999996
 31
0.0
  0
LINE
  5
168
  8
1
  6
CONTINUOUS
 62
     7
 10
88.98333400000001
 20
-72.99999999999996
 30
0.0
 11
89.10000000000001
 21
-73.24999999999999
 31
0.0
  0
LINE
  5
169
  8
1
  6
CONTINUOUS
 62
     7
 10
195.9
 20
-211.75
 30
0.0
 11
195.9
 21
-201.0
 31
0.0
  0
LINE
  5
16A
  8
1
  6
CONTINUOUS
 62
     7
 10
182.0
 20
-178.4
 30
0.0
 11
173.0
 21
-178.4
 31
0.0
  0
LINE
  5
16B
  8
1
  6
CONTINUOUS
 62
     7
 10
126.016666
 20
-71.99999999999996
 30
0.0
 11
126.016666
 21
-72.99999999999996
 31
0.0
  0
LINE
  5
16C
  8
1
  6
CONTINUOUS
 62
     7
 10
193.983334
 20
-189.25
 30
0.0
 11
193.983334
 21
-190.25
 31
0.0
  0
LINE
  5
16D
  8
1
  6
CONTINUOUS
 62
     7
 10
193.983334
 20
-130.75
 30
0.0
 11
193.983334
 21
-129.75
 31
0.0
  0
LINE
  5
16E
  8
1
  6
CONTINUOUS
 62
     7
 10
194.1
 20
-85.49999999999996
 30
0.0
 11
193.983334
 21
-85.24999999999993
 31
0.0
  0
LINE
  5
16F
  8
1
  6
CONTINUOUS
 62
     7
 10
67.75000000000001
 20
-213.516666
 30
0.0
 11
68.0
 21
-213.4
 31
0.0
  0
LINE
  5
170
  8
1
  6
CONTINUOUS
 62
     7
 10
193.983334
 20
-154.25
 30
0.0
 11
193.983334
 21
-155.25
 31
0.0
  0
LINE
  5
171
  8
1
  6
CONTINUOUS
 62
     7
 10
193.983334
 20
-200.75
 30
0.0
 11
194.1
 21
-201.0
 31
0.0
  0
LINE
  5
172
  8
1
  6
CONTINUOUS
 62
     7
 10
159.1
 20
-85.49999999999996
 30
0.0
 11
158.983334
 21
-85.24999999999993
 31
0.0
  0
LINE
  5
173
  8
1
  6
CONTINUOUS
 62
     7
 10
194.1
 20
-176.75
 30
0.0
 11
193.983334
 21
-177.0
 31
0.0
  0
LINE
  5
174
  8
1
  6
CONTINUOUS
 62
     7
 10
193.983334
 20
-108.0
 30
0.0
 11
193.983334
 21
-107.0
 31
0.0
  0
LINE
  5
175
  8
1
  6
CONTINUOUS
 62
     7
 10
193.983334
 20
-72.99999999999996
 30
0.0
 11
193.983334
 21
-71.99999999999996
 31
0.0
  0
LINE
  5
176
  8
1
  6
CONTINUOUS
 62
     7
 10
194.1
 20
-130.9999999999999
 30
0.0
 11
193.983334
 21
-130.75
 31
0.0
  0
LINE
  5
177
  8
1
  6
CONTINUOUS
 62
     7
 10
193.983334
 20
-107.0
 30
0.0
 11
194.1
 21
-106.75
 31
0.0
  0
LINE
  5
178
  8
1
  6
CONTINUOUS
 62
     7
 10
193.983334
 20
-84.24999999999993
 30
0.0
 11
194.1
 21
-83.99999999999996
 31
0.0
  0
LINE
  5
179
  8
1
  6
CONTINUOUS
 62
     7
 10
193.983334
 20
-129.75
 30
0.0
 11
194.1
 21
-129.4999999999999
 31
0.0
  0
LINE
  5
17A
  8
1
  6
CONTINUOUS
 62
     7
 10
194.1
 20
-95.99999999999997
 30
0.0
 11
193.983334
 21
-95.74999999999994
 31
0.0
  0
LINE
  5
17B
  8
1
  6
CONTINUOUS
 62
     7
 10
194.1
 20
-120.4999999999999
 30
0.0
 11
194.1
 21
-129.4999999999999
 31
0.0
  0
LINE
  5
17C
  8
1
  6
CONTINUOUS
 62
     7
 10
194.1
 20
-199.4999999999999
 30
0.0
 11
193.983334
 21
-199.7499999999999
 31
0.0
  0
LINE
  5
17D
  8
1
  6
CONTINUOUS
 62
     7
 10
194.1
 20
-164.4999999999999
 30
0.0
 11
193.983334
 21
-164.7499999999999
 31
0.0
  0
LINE
  5
17E
  8
1
  6
CONTINUOUS
 62
     7
 10
194.1
 20
-155.5
 30
0.0
 11
194.1
 21
-164.4999999999999
 31
0.0
  0
LINE
  5
17F
  8
1
  6
CONTINUOUS
 62
     7
 10
194.1
 20
-95.99999999999997
 30
0.0
 11
194.1
 21
-106.75
 31
0.0
  0
LINE
  5
180
  8
1
  6
CONTINUOUS
 62
     7
 10
193.983334
 20
-119.25
 30
0.0
 11
194.1
 21
-118.9999999999999
 31
0.0
  0
LINE
  5
181
  8
1
  6
CONTINUOUS
 62
     7
 10
193.983334
 20
-71.99999999999996
 30
0.0
 11
194.1
 21
-71.74999999999999
 31
0.0
  0
LINE
  5
182
  8
1
  6
CONTINUOUS
 62
     7
 10
194.1
 20
-130.9999999999999
 30
0.0
 11
194.1
 21
-138.9999999999999
 31
0.0
  0
LINE
  5
183
  8
1
  6
CONTINUOUS
 62
     7
 10
193.983334
 20
-164.7499999999999
 30
0.0
 11
193.983334
 21
-165.7499999999999
 31
0.0
  0
LINE
  5
184
  8
1
  6
CONTINUOUS
 62
     7
 10
193.983334
 20
-94.74999999999994
 30
0.0
 11
194.1
 21
-94.49999999999997
 31
0.0
  0
LINE
  5
185
  8
1
  6
CONTINUOUS
 62
     7
 10
194.1
 20
-190.5
 30
0.0
 11
194.1
 21
-199.4999999999999
 31
0.0
  0
LINE
  5
186
  8
1
  6
CONTINUOUS
 62
     7
 10
193.983334
 20
-190.25
 30
0.0
 11
194.1
 21
-190.5
 31
0.0
  0
LINE
  5
187
  8
1
  6
CONTINUOUS
 62
     7
 10
193.983334
 20
-85.24999999999993
 30
0.0
 11
193.983334
 21
-84.24999999999993
 31
0.0
  0
LINE
  5
188
  8
1
  6
CONTINUOUS
 62
     7
 10
183.5
 20
-211.5999999999999
 30
0.0
 11
183.25
 21
-211.483334
 31
0.0
  0
LINE
  5
189
  8
1
  6
CONTINUOUS
 62
     7
 10
193.983334
 20
-178.0
 30
0.0
 11
194.1
 21
-178.25
 31
0.0
  0
ARC
  5
18A
  8
1
  6
CONTINUOUS
 62
     7
 10
198.5
 20
-177.5
 30
0.0
 40
0.9000000000000119
 50
90.0
 51
270.0
  0
LINE
  5
18B
  8
1
  6
CONTINUOUS
 62
     7
 10
194.1
 20
-154.0
 30
0.0
 11
193.983334
 21
-154.25
 31
0.0
  0
LINE
  5
18C
  8
1
  6
CONTINUOUS
 62
     7
 10
194.1
 20
-61.99999999999994
 30
0.0
 11
194.1
 21
-71.74999999999999
 31
0.0
  0
LINE
  5
18D
  8
1
  6
CONTINUOUS
 62
     7
 10
193.983334
 20
-213.0
 30
0.0
 11
194.1
 21
-213.25
 31
0.0
  0
LINE
  5
18E
  8
1
  6
CONTINUOUS
 62
     7
 10
194.1
 20
-120.4999999999999
 30
0.0
 11
193.983334
 21
-120.25
 31
0.0
  0
LINE
  5
18F
  8
1
  6
CONTINUOUS
 62
     7
 10
194.1
 20
-108.25
 30
0.0
 11
194.1
 21
-118.9999999999999
 31
0.0
  0
LINE
  5
190
  8
1
  6
CONTINUOUS
 62
     7
 10
158.983334
 20
-85.24999999999993
 30
0.0
 11
158.983334
 21
-84.24999999999993
 31
0.0
  0
LINE
  5
191
  8
1
  6
CONTINUOUS
 62
     7
 10
194.1
 20
-200.9999999999999
 30
0.0
 11
194.1
 21
-211.75
 31
0.0
  0
LINE
  5
192
  8
1
  6
CONTINUOUS
 62
     7
 10
163.5
 20
-71.6
 30
0.0
 11
171.5
 21
-71.6
 31
0.0
  0
LINE
  5
193
  8
1
  6
CONTINUOUS
 62
     7
 10
194.1
 20
-189.0
 30
0.0
 11
193.983334
 21
-189.25
 31
0.0
  0
LINE
  5
194
  8
1
  6
CONTINUOUS
 62
     7
 10
193.983334
 20
-212.0
 30
0.0
 11
193.983334
 21
-213.0
 31
0.0
  0
LINE
  5
195
  8
1
  6
CONTINUOUS
 62
     7
 10
194.1
 20
-85.49999999999996
 30
0.0
 11
194.1
 21
-94.49999999999997
 31
0.0
  0
LINE
  5
196
  8
1
  6
CONTINUOUS
 62
     7
 10
191.5
 20
-211.5999999999999
 30
0.0
 11
183.5
 21
-211.5999999999999
 31
0.0
  0
LINE
  5
197
  8
1
  6
CONTINUOUS
 62
     7
 10
194.1
 20
-146.0
 30
0.0
 11
194.1
 21
-154.0
 31
0.0
  0
LINE
  5
198
  8
1
  6
CONTINUOUS
 62
     7
 10
194.1
 20
-73.24999999999999
 30
0.0
 11
194.1
 21
-83.99999999999996
 31
0.0
  0
LINE
  5
199
  8
1
  6
CONTINUOUS
 62
     7
 10
193.983334
 20
-199.75
 30
0.0
 11
193.983334
 21
-200.75
 31
0.0
  0
LINE
  5
19A
  8
1
  6
CONTINUOUS
 62
     7
 10
158.983334
 20
-84.24999999999993
 30
0.0
 11
159.1
 21
-83.99999999999996
 31
0.0
  0
LINE
  5
19B
  8
1
  6
CONTINUOUS
 62
     7
 10
193.983334
 20
-155.25
 30
0.0
 11
194.1
 21
-155.5
 31
0.0
  0
LINE
  5
19C
  8
1
  6
CONTINUOUS
 62
     7
 10
194.1
 20
-213.2499999999999
 30
0.0
 11
194.1
 21
-219.4999999999999
 31
0.0
  0
LINE
  5
19D
  8
1
  6
CONTINUOUS
 62
     7
 10
171.5
 20
-211.5999999999999
 30
0.0
 11
163.5
 21
-211.5999999999999
 31
0.0
  0
LINE
  5
19E
  8
1
  6
CONTINUOUS
 62
     7
 10
193.983334
 20
-95.74999999999994
 30
0.0
 11
193.983334
 21
-94.74999999999994
 31
0.0
  0
LINE
  5
19F
  8
1
  6
CONTINUOUS
 62
     7
 10
193.983334
 20
-120.25
 30
0.0
 11
193.983334
 21
-119.25
 31
0.0
  0
LINE
  5
1A0
  8
1
  6
CONTINUOUS
 62
     7
 10
193.983334
 20
-165.7499999999999
 30
0.0
 11
194.1
 21
-165.9999999999999
 31
0.0
  0
ARC
  5
1A1
  8
1
  6
CONTINUOUS
 62
     7
 10
195.0
 20
-146.0
 30
0.0
 40
0.9000000000000119
 50
0.0
 51
180.0
  0
LINE
  5
1A2
  8
1
  6
CONTINUOUS
 62
     7
 10
158.983334
 20
-119.25
 30
0.0
 11
159.1
 21
-118.9999999999999
 31
0.0
  0
LINE
  5
1A3
  8
1
  6
CONTINUOUS
 62
     7
 10
158.983334
 20
-95.74999999999994
 30
0.0
 11
158.983334
 21
-94.74999999999994
 31
0.0
  0
LINE
  5
1A4
  8
1
  6
CONTINUOUS
 62
     7
 10
159.1
 20
-61.99999999999994
 30
0.0
 11
159.1
 21
-71.74999999999999
 31
0.0
  0
LINE
  5
1A5
  8
1
  6
CONTINUOUS
 62
     7
 10
158.983334
 20
-129.75
 30
0.0
 11
159.1
 21
-129.4999999999999
 31
0.0
  0
LINE
  5
1A6
  8
1
  6
CONTINUOUS
 62
     7
 10
55.90000000000001
 20
-129.4999999999999
 30
0.0
 11
56.016666
 21
-129.75
 31
0.0
  0
LINE
  5
1A7
  8
1
  6
CONTINUOUS
 62
     7
 10
158.983334
 20
-130.75
 30
0.0
 11
158.983334
 21
-129.75
 31
0.0
  0
LINE
  5
1A8
  8
1
  6
CONTINUOUS
 62
     7
 10
55.90000000000001
 20
-130.9999999999999
 30
0.0
 11
55.90000000000001
 21
-138.9999999999999
 31
0.0
  0
LINE
  5
1A9
  8
1
  6
CONTINUOUS
 62
     7
 10
158.983334
 20
-71.99999999999996
 30
0.0
 11
159.1
 21
-71.74999999999999
 31
0.0
  0
LINE
  5
1AA
  8
1
  6
CONTINUOUS
 62
     7
 10
159.1
 20
-130.9999999999999
 30
0.0
 11
159.1
 21
-138.9999999999999
 31
0.0
  0
LINE
  5
1AB
  8
1
  6
CONTINUOUS
 62
     7
 10
159.1
 20
-130.9999999999999
 30
0.0
 11
158.983334
 21
-130.75
 31
0.0
  0
LINE
  5
1AC
  8
1
  6
CONTINUOUS
 62
     7
 10
77.25
 20
-176.483334
 30
0.0
 11
78.25
 21
-176.483334
 31
0.0
  0
LINE
  5
1AD
  8
1
  6
CONTINUOUS
 62
     7
 10
194.1
 20
-165.9999999999999
 30
0.0
 11
194.1
 21
-176.75
 31
0.0
  0
LINE
  5
1AE
  8
1
  6
CONTINUOUS
 62
     7
 10
158.983334
 20
-107.0
 30
0.0
 11
159.1
 21
-106.75
 31
0.0
  0
LINE
  5
1AF
  8
1
  6
CONTINUOUS
 62
     7
 10
55.90000000000001
 20
-61.99999999999994
 30
0.0
 11
55.90000000000001
 21
-71.74999999999999
 31
0.0
  0
LINE
  5
1B0
  8
1
  6
CONTINUOUS
 62
     7
 10
78.25
 20
-176.483334
 30
0.0
 11
78.5
 21
-176.5999999999999
 31
0.0
  0
LINE
  5
1B1
  8
1
  6
CONTINUOUS
 62
     7
 10
163.5
 20
-108.3999999999999
 30
0.0
 11
171.5
 21
-108.3999999999999
 31
0.0
  0
LINE
  5
1B2
  8
1
  6
CONTINUOUS
 62
     7
 10
159.1
 20
-108.25
 30
0.0
 11
158.983334
 21
-108.0
 31
0.0
  0
LINE
  5
1B3
  8
1
  6
CONTINUOUS
 62
     7
 10
159.1
 20
-95.99999999999997
 30
0.0
 11
159.1
 21
-106.75
 31
0.0
  0
LINE
  5
1B4
  8
1
  6
CONTINUOUS
 62
     7
 10
56.016666
 20
-107.0
 30
0.0
 11
55.90000000000001
 21
-106.75
 31
0.0
  0
LINE
  5
1B5
  8
1
  6
CONTINUOUS
 62
     7
 10
194.1
 20
-178.25
 30
0.0
 11
194.1
 21
-189.0
 31
0.0
  0
LINE
  5
1B6
  8
1
  6
CONTINUOUS
 62
     7
 10
56.016666
 20
-129.75
 30
0.0
 11
56.016666
 21
-130.75
 31
0.0
  0
LINE
  5
1B7
  8
1
  6
CONTINUOUS
 62
     7
 10
55.90000000000001
 20
-118.9999999999999
 30
0.0
 11
56.016666
 21
-119.25
 31
0.0
  0
LINE
  5
1B8
  8
1
  6
CONTINUOUS
 62
     7
 10
193.983334
 20
-177.0
 30
0.0
 11
193.983334
 21
-178.0
 31
0.0
  0
LINE
  5
1B9
  8
1
  6
CONTINUOUS
 62
     7
 10
55.90000000000001
 20
-73.24999999999999
 30
0.0
 11
56.016666
 21
-72.99999999999996
 31
0.0
  0
LINE
  5
1BA
  8
1
  6
CONTINUOUS
 62
     7
 10
56.016666
 20
-94.74999999999994
 30
0.0
 11
56.016666
 21
-95.74999999999994
 31
0.0
  0
LINE
  5
1BB
  8
1
  6
CONTINUOUS
 62
     7
 10
55.90000000000001
 20
-95.99999999999997
 30
0.0
 11
55.90000000000001
 21
-106.75
 31
0.0
  0
LINE
  5
1BC
  8
1
  6
CONTINUOUS
 62
     7
 10
56.016666
 20
-72.99999999999996
 30
0.0
 11
56.016666
 21
-71.99999999999996
 31
0.0
  0
ARC
  5
1BD
  8
1
  6
CONTINUOUS
 62
     7
 10
86.5
 20
-177.5
 30
0.0
 40
0.8999999999999841
 50
270.0
 51
90.0
  0
LINE
  5
1BE
  8
1
  6
CONTINUOUS
 62
     7
 10
182.25
 20
-108.5166659999999
 30
0.0
 11
182.0
 21
-108.3999999999999
 31
0.0
  0
LINE
  5
1BF
  8
1
  6
CONTINUOUS
 62
     7
 10
159.1
 20
-95.99999999999997
 30
0.0
 11
158.983334
 21
-95.74999999999994
 31
0.0
  0
LINE
  5
1C0
  8
1
  6
CONTINUOUS
 62
     7
 10
194.1
 20
-73.24999999999999
 30
0.0
 11
193.983334
 21
-72.99999999999996
 31
0.0
  0
LINE
  5
1C1
  8
1
  6
CONTINUOUS
 62
     7
 10
172.75
 20
-108.5166659999999
 30
0.0
 11
171.75
 21
-108.5166659999999
 31
0.0
  0
LINE
  5
1C2
  8
1
  6
CONTINUOUS
 62
     7
 10
194.1
 20
-211.75
 30
0.0
 11
193.983334
 21
-212.0
 31
0.0
  0
LINE
  5
1C3
  8
1
  6
CONTINUOUS
 62
     7
 10
173.0
 20
-108.3999999999999
 30
0.0
 11
172.75
 21
-108.5166659999999
 31
0.0
  0
LINE
  5
1C4
  8
1
  6
CONTINUOUS
 62
     7
 10
183.5
 20
-108.3999999999999
 30
0.0
 11
183.25
 21
-108.5166659999999
 31
0.0
  0
ARC
  5
1C5
  8
1
  6
CONTINUOUS
 62
     7
 10
195.0
 20
-61.99999999999994
 30
0.0
 40
0.9000000000000119
 50
0.0
 51
180.0
  0
LINE
  5
1C6
  8
1
  6
CONTINUOUS
 62
     7
 10
56.016666
 20
-130.75
 30
0.0
 11
55.90000000000001
 21
-130.9999999999999
 31
0.0
  0
LINE
  5
1C7
  8
1
  6
CONTINUOUS
 62
     7
 10
171.75
 20
-108.5166659999999
 30
0.0
 11
171.5
 21
-108.3999999999999
 31
0.0
  0
ARC
  5
1C8
  8
1
  6
CONTINUOUS
 62
     7
 10
90.00000000000001
 20
-61.99999999999994
 30
0.0
 40
0.8999999999999841
 50
0.0
 51
180.0
  0
LINE
  5
1C9
  8
1
  6
CONTINUOUS
 62
     7
 10
77.0
 20
-176.5999999999999
 30
0.0
 11
67.99999999999999
 21
-176.5999999999999
 31
0.0
  0
LINE
  5
1CA
  8
1
  6
CONTINUOUS
 62
     7
 10
159.1
 20
-85.49999999999996
 30
0.0
 11
159.1
 21
-94.49999999999997
 31
0.0
  0
LINE
  5
1CB
  8
1
  6
CONTINUOUS
 62
     7
 10
158.983334
 20
-120.25
 30
0.0
 11
158.983334
 21
-119.25
 31
0.0
  0
LINE
  5
1CC
  8
1
  6
CONTINUOUS
 62
     7
 10
55.90000000000001
 20
-83.99999999999996
 30
0.0
 11
56.016666
 21
-84.24999999999993
 31
0.0
  0
LINE
  5
1CD
  8
1
  6
CONTINUOUS
 62
     7
 10
159.1
 20
-73.24999999999999
 30
0.0
 11
158.983334
 21
-72.99999999999996
 31
0.0
  0
LINE
  5
1CE
  8
1
  6
CONTINUOUS
 62
     7
 10
158.983334
 20
-94.74999999999994
 30
0.0
 11
159.1
 21
-94.49999999999997
 31
0.0
  0
LINE
  5
1CF
  8
1
  6
CONTINUOUS
 62
     7
 10
194.1
 20
-108.25
 30
0.0
 11
193.983334
 21
-108.0
 31
0.0
  0
LINE
  5
1D0
  8
1
  6
CONTINUOUS
 62
     7
 10
56.016666
 20
-95.74999999999994
 30
0.0
 11
55.90000000000001
 21
-95.99999999999997
 31
0.0
  0
LINE
  5
1D1
  8
1
  6
CONTINUOUS
 62
     7
 10
56.016666
 20
-84.24999999999993
 30
0.0
 11
56.016666
 21
-85.24999999999993
 31
0.0
  0
LINE
  5
1D2
  8
1
  6
CONTINUOUS
 62
     7
 10
183.5
 20
-108.3999999999999
 30
0.0
 11
191.5
 21
-108.3999999999999
 31
0.0
  0
LINE
  5
1D3
  8
1
  6
CONTINUOUS
 62
     7
 10
67.75000000000001
 20
-178.516666
 30
0.0
 11
66.75000000000001
 21
-178.516666
 31
0.0
  0
LINE
  5
1D4
  8
1
  6
CONTINUOUS
 62
     7
 10
161.016666
 20
-189.25
 30
0.0
 11
160.9
 21
-189.0
 31
0.0
  0
LINE
  5
1D5
  8
1
  6
CONTINUOUS
 62
     7
 10
182.25
 20
-106.483334
 30
0.0
 11
183.25
 21
-106.483334
 31
0.0
  0
LINE
  5
1D6
  8
1
  6
CONTINUOUS
 62
     7
 10
160.9
 20
-155.5
 30
0.0
 11
161.016666
 21
-155.25
 31
0.0
  0
LINE
  5
1D7
  8
1
  6
CONTINUOUS
 62
     7
 10
161.016666
 20
-212.0
 30
0.0
 11
160.9
 21
-211.75
 31
0.0
  0
LINE
  5
1D8
  8
1
  6
CONTINUOUS
 62
     7
 10
53.983334
 20
-85.24999999999993
 30
0.0
 11
53.983334
 21
-84.24999999999993
 31
0.0
  0
ARC
  5
1D9
  8
1
  6
CONTINUOUS
 62
     7
 10
58.5
 20
-72.49999999999996
 30
0.0
 40
0.8999999999999841
 50
90.0
 51
270.0
  0
LINE
  5
1DA
  8
1
  6
CONTINUOUS
 62
     7
 10
54.09999999999999
 20
-213.2499999999999
 30
0.0
 11
53.98333399999999
 21
-212.9999999999999
 31
0.0
  0
LINE
  5
1DB
  8
1
  6
CONTINUOUS
 62
     7
 10
54.09999999999999
 20
-94.49999999999997
 30
0.0
 11
54.09999999999999
 21
-85.49999999999996
 31
0.0
  0
LINE
  5
1DC
  8
1
  6
CONTINUOUS
 62
     7
 10
53.983334
 20
-120.25
 30
0.0
 11
53.983334
 21
-119.25
 31
0.0
  0
LINE
  5
1DD
  8
1
  6
CONTINUOUS
 62
     7
 10
171.5
 20
-106.6
 30
0.0
 11
171.75
 21
-106.483334
 31
0.0
  0
LINE
  5
1DE
  8
1
  6
CONTINUOUS
 62
     7
 10
54.09999999999999
 20
-164.4999999999999
 30
0.0
 11
54.09999999999999
 21
-155.5
 31
0.0
  0
LINE
  5
1DF
  8
1
  6
CONTINUOUS
 62
     7
 10
161.016666
 20
-213.0
 30
0.0
 11
161.016666
 21
-212.0
 31
0.0
  0
LINE
  5
1E0
  8
1
  6
CONTINUOUS
 62
     7
 10
53.983334
 20
-95.74999999999994
 30
0.0
 11
53.983334
 21
-94.74999999999994
 31
0.0
  0
LINE
  5
1E1
  8
1
  6
CONTINUOUS
 62
     7
 10
53.983334
 20
-130.75
 30
0.0
 11
53.983334
 21
-129.75
 31
0.0
  0
LINE
  5
1E2
  8
1
  6
CONTINUOUS
 62
     7
 10
160.9
 20
-223.0
 30
0.0
 11
160.9
 21
-213.25
 31
0.0
  0
LINE
  5
1E3
  8
1
  6
CONTINUOUS
 62
     7
 10
182.0
 20
-106.6
 30
0.0
 11
173.0
 21
-106.6
 31
0.0
  0
LINE
  5
1E4
  8
1
  6
CONTINUOUS
 62
     7
 10
67.99999999999999
 20
-178.4
 30
0.0
 11
77.0
 21
-178.4
 31
0.0
  0
LINE
  5
1E5
  8
1
  6
CONTINUOUS
 62
     7
 10
54.09999999999999
 20
-154.0
 30
0.0
 11
54.09999999999999
 21
-146.0
 31
0.0
  0
LINE
  5
1E6
  8
1
  6
CONTINUOUS
 62
     7
 10
54.09999999999999
 20
-223.0
 30
0.0
 11
54.09999999999999
 21
-213.25
 31
0.0
  0
LINE
  5
1E7
  8
1
  6
CONTINUOUS
 62
     7
 10
77.25
 20
-178.516666
 30
0.0
 11
77.0
 21
-178.4
 31
0.0
  0
LINE
  5
1E8
  8
1
  6
CONTINUOUS
 62
     7
 10
160.9
 20
-213.2499999999999
 30
0.0
 11
161.016666
 21
-212.9999999999999
 31
0.0
  0
LINE
  5
1E9
  8
1
  6
CONTINUOUS
 62
     7
 10
53.983334
 20
-164.7499999999999
 30
0.0
 11
53.983334
 21
-165.7499999999999
 31
0.0
  0
LINE
  5
1EA
  8
1
  6
CONTINUOUS
 62
     7
 10
53.983334
 20
-94.74999999999994
 30
0.0
 11
54.1
 21
-94.49999999999997
 31
0.0
  0
LINE
  5
1EB
  8
1
  6
CONTINUOUS
 62
     7
 10
53.983334
 20
-155.25
 30
0.0
 11
54.1
 21
-155.5
 31
0.0
  0
LINE
  5
1EC
  8
1
  6
CONTINUOUS
 62
     7
 10
53.983334
 20
-129.75
 30
0.0
 11
54.1
 21
-129.4999999999999
 31
0.0
  0
LINE
  5
1ED
  8
1
  6
CONTINUOUS
 62
     7
 10
182.0
 20
-106.6
 30
0.0
 11
182.25
 21
-106.483334
 31
0.0
  0
LINE
  5
1EE
  8
1
  6
CONTINUOUS
 62
     7
 10
78.5
 20
-178.4
 30
0.0
 11
78.25
 21
-178.516666
 31
0.0
  0
LINE
  5
1EF
  8
1
  6
CONTINUOUS
 62
     7
 10
147.0
 20
-178.4
 30
0.0
 11
138.0
 21
-178.4
 31
0.0
  0
LINE
  5
1F0
  8
1
  6
CONTINUOUS
 62
     7
 10
54.09999999999999
 20
-189.0
 30
0.0
 11
54.09999999999999
 21
-178.25
 31
0.0
  0
LINE
  5
1F1
  8
1
  6
CONTINUOUS
 62
     7
 10
54.09999999999999
 20
-211.75
 30
0.0
 11
54.09999999999999
 21
-201.0
 31
0.0
  0
LINE
  5
1F2
  8
1
  6
CONTINUOUS
 62
     7
 10
78.5
 20
-178.4
 30
0.0
 11
86.49999999999999
 21
-178.4
 31
0.0
  0
LINE
  5
1F3
  8
1
  6
CONTINUOUS
 62
     7
 10
148.25
 20
-178.516666
 30
0.0
 11
147.25
 21
-178.516666
 31
0.0
  0
ARC
  5
1F4
  8
1
  6
CONTINUOUS
 62
     7
 10
195.0
 20
-138.9999999999999
 30
0.0
 40
0.9000000000000119
 50
180.0
 51
0.0
  0
LINE
  5
1F5
  8
1
  6
CONTINUOUS
 62
     7
 10
54.09999999999999
 20
-199.4999999999999
 30
0.0
 11
53.98333399999999
 21
-199.7499999999999
 31
0.0
  0
LINE
  5
1F6
  8
1
  6
CONTINUOUS
 62
     7
 10
137.75
 20
-178.516666
 30
0.0
 11
136.75
 21
-178.516666
 31
0.0
  0
LINE
  5
1F7
  8
1
  6
CONTINUOUS
 62
     7
 10
54.09999999999999
 20
-95.99999999999997
 30
0.0
 11
53.98333399999999
 21
-95.74999999999994
 31
0.0
  0
LINE
  5
1F8
  8
1
  6
CONTINUOUS
 62
     7
 10
54.09999999999999
 20
-138.9999999999999
 30
0.0
 11
54.09999999999999
 21
-130.9999999999999
 31
0.0
  0
ARC
  5
1F9
  8
1
  6
CONTINUOUS
 62
     7
 10
44.5
 20
-72.49999999999996
 30
0.0
 40
0.899999999999998
 50
90.0
 51
270.0
  0
ARC
  5
1FA
  8
1
  6
CONTINUOUS
 62
     7
 10
90.00000000000001
 20
-223.0
 30
0.0
 40
0.8999999999999841
 50
180.0
 51
0.0
  0
LINE
  5
1FB
  8
1
  6
CONTINUOUS
 62
     7
 10
160.9
 20
-176.75
 30
0.0
 11
160.9
 21
-165.9999999999999
 31
0.0
  0
LINE
  5
1FC
  8
1
  6
CONTINUOUS
 62
     7
 10
171.5
 20
-106.6
 30
0.0
 11
163.5
 21
-106.6
 31
0.0
  0
LINE
  5
1FD
  8
1
  6
CONTINUOUS
 62
     7
 10
148.5
 20
-178.4
 30
0.0
 11
148.25
 21
-178.516666
 31
0.0
  0
ARC
  5
1FE
  8
1
  6
CONTINUOUS
 62
     7
 10
55.0
 20
-138.9999999999999
 30
0.0
 40
0.8999999999999841
 50
180.0
 51
0.0
  0
LINE
  5
1FF
  8
1
  6
CONTINUOUS
 62
     7
 10
161.016666
 20
-155.25
 30
0.0
 11
161.016666
 21
-154.25
 31
0.0
  0
LINE
  5
200
  8
1
  6
CONTINUOUS
 62
     7
 10
161.016666
 20
-190.25
 30
0.0
 11
161.016666
 21
-189.25
 31
0.0
  0
ARC
  5
201
  8
1
  6
CONTINUOUS
 62
     7
 10
205.5
 20
-177.5
 30
0.0
 40
0.9000000000000119
 50
270.0
 51
90.0
  0
LINE
  5
202
  8
1
  6
CONTINUOUS
 62
     7
 10
67.99999999999999
 20
-178.4
 30
0.0
 11
67.75
 21
-178.516666
 31
0.0
  0
LINE
  5
203
  8
1
  6
CONTINUOUS
 62
     7
 10
53.983334
 20
-212.0
 30
0.0
 11
54.1
 21
-211.75
 31
0.0
  0
LINE
  5
204
  8
1
  6
CONTINUOUS
 62
     7
 10
53.983334
 20
-189.25
 30
0.0
 11
53.983334
 21
-190.25
 31
0.0
  0
LINE
  5
205
  8
1
  6
CONTINUOUS
 62
     7
 10
66.75000000000001
 20
-178.516666
 30
0.0
 11
66.50000000000001
 21
-178.4
 31
0.0
  0
LINE
  5
206
  8
1
  6
CONTINUOUS
 62
     7
 10
171.75
 20
-106.483334
 30
0.0
 11
172.75
 21
-106.483334
 31
0.0
  0
LINE
  5
207
  8
1
  6
CONTINUOUS
 62
     7
 10
54.09999999999999
 20
-106.75
 30
0.0
 11
53.98333399999999
 21
-107.0
 31
0.0
  0
LINE
  5
208
  8
1
  6
CONTINUOUS
 62
     7
 10
161.016666
 20
-154.25
 30
0.0
 11
160.9
 21
-154.0
 31
0.0
  0
ARC
  5
209
  8
1
  6
CONTINUOUS
 62
     7
 10
90.00000000000001
 20
-146.0
 30
0.0
 40
0.8999999999999841
 50
0.0
 51
180.0
  0
ARC
  5
20A
  8
1
  6
CONTINUOUS
 62
     7
 10
44.5
 20
-212.5
 30
0.0
 40
0.899999999999998
 50
90.0
 51
270.0
  0
LINE
  5
20B
  8
1
  6
CONTINUOUS
 62
     7
 10
161.016666
 20
-178.0
 30
0.0
 11
161.016666
 21
-177.0
 31
0.0
  0
LINE
  5
20C
  8
1
  6
CONTINUOUS
 62
     7
 10
160.9
 20
-165.9999999999999
 30
0.0
 11
161.016666
 21
-165.7499999999999
 31
0.0
  0
LINE
  5
20D
  8
1
  6
CONTINUOUS
 62
     7
 10
53.983334
 20
-154.25
 30
0.0
 11
53.983334
 21
-155.25
 31
0.0
  0
LINE
  5
20E
  8
1
  6
CONTINUOUS
 62
     7
 10
160.9
 20
-178.25
 30
0.0
 11
161.016666
 21
-178.0
 31
0.0
  0
LINE
  5
20F
  8
1
  6
CONTINUOUS
 62
     7
 10
160.9
 20
-154.0
 30
0.0
 11
160.9
 21
-146.0
 31
0.0
  0
LINE
  5
210
  8
1
  6
CONTINUOUS
 62
     7
 10
54.09999999999999
 20
-85.49999999999996
 30
0.0
 11
53.98333399999999
 21
-85.24999999999993
 31
0.0
  0
LINE
  5
211
  8
1
  6
CONTINUOUS
 62
     7
 10
156.5
 20
-178.4
 30
0.0
 11
148.5
 21
-178.4
 31
0.0
  0
ARC
  5
212
  8
1
  6
CONTINUOUS
 62
     7
 10
156.5
 20
-177.5
 30
0.0
 40
0.9000000000000119
 50
270.0
 51
90.0
  0
LINE
  5
213
  8
1
  6
CONTINUOUS
 62
     7
 10
103.0
 20
-178.4
 30
0.0
 11
112.0
 21
-178.4
 31
0.0
  0
LINE
  5
214
  8
1
  6
CONTINUOUS
 62
     7
 10
54.09999999999999
 20
-118.9999999999999
 30
0.0
 11
54.09999999999999
 21
-108.25
 31
0.0
  0
LINE
  5
215
  8
1
  6
CONTINUOUS
 62
     7
 10
53.983334
 20
-72.99999999999996
 30
0.0
 11
54.1
 21
-73.24999999999999
 31
0.0
  0
LINE
  5
216
  8
1
  6
CONTINUOUS
 62
     7
 10
88.98333400000001
 20
-154.25
 30
0.0
 11
88.98333400000001
 21
-155.25
 31
0.0
  0
LINE
  5
217
  8
1
  6
CONTINUOUS
 62
     7
 10
53.983334
 20
-71.99999999999996
 30
0.0
 11
53.983334
 21
-72.99999999999996
 31
0.0
  0
LINE
  5
218
  8
1
  6
CONTINUOUS
 62
     7
 10
112.25
 20
-178.516666
 30
0.0
 11
113.25
 21
-178.516666
 31
0.0
  0
LINE
  5
219
  8
1
  6
CONTINUOUS
 62
     7
 10
54.09999999999999
 20
-176.75
 30
0.0
 11
54.09999999999999
 21
-165.9999999999999
 31
0.0
  0
LINE
  5
21A
  8
1
  6
CONTINUOUS
 62
     7
 10
54.09999999999999
 20
-129.4999999999999
 30
0.0
 11
54.09999999999999
 21
-120.4999999999999
 31
0.0
  0
LINE
  5
21B
  8
1
  6
CONTINUOUS
 62
     7
 10
89.1
 20
-154.0
 30
0.0
 11
89.1
 21
-146.0
 31
0.0
  0
LINE
  5
21C
  8
1
  6
CONTINUOUS
 62
     7
 10
53.983334
 20
-200.75
 30
0.0
 11
54.1
 21
-201.0
 31
0.0
  0
LINE
  5
21D
  8
1
  6
CONTINUOUS
 62
     7
 10
136.75
 20
-178.516666
 30
0.0
 11
136.5
 21
-178.4
 31
0.0
  0
LINE
  5
21E
  8
1
  6
CONTINUOUS
 62
     7
 10
89.1
 20
-199.4999999999999
 30
0.0
 11
89.1
 21
-190.5
 31
0.0
  0
LINE
  5
21F
  8
1
  6
CONTINUOUS
 62
     7
 10
53.983334
 20
-213.0
 30
0.0
 11
53.983334
 21
-212.0
 31
0.0
  0
LINE
  5
220
  8
1
  6
CONTINUOUS
 62
     7
 10
148.25
 20
-106.483334
 30
0.0
 11
148.5
 21
-106.6
 31
0.0
  0
LINE
  5
221
  8
1
  6
CONTINUOUS
 62
     7
 10
54.09999999999999
 20
-154.0
 30
0.0
 11
53.98333399999999
 21
-154.25
 31
0.0
  0
LINE
  5
222
  8
1
  6
CONTINUOUS
 62
     7
 10
93.50000000000001
 20
-178.4
 30
0.0
 11
101.5
 21
-178.4
 31
0.0
  0
LINE
  5
223
  8
1
  6
CONTINUOUS
 62
     7
 10
101.75
 20
-178.516666
 30
0.0
 11
101.5
 21
-178.4
 31
0.0
  0
ARC
  5
224
  8
1
  6
CONTINUOUS
 62
     7
 10
160.0
 20
-138.9999999999999
 30
0.0
 40
0.9000000000000119
 50
180.0
 51
0.0
  0
LINE
  5
225
  8
1
  6
CONTINUOUS
 62
     7
 10
160.9
 20
-83.99999999999996
 30
0.0
 11
160.9
 21
-73.24999999999999
 31
0.0
  0
LINE
  5
226
  8
1
  6
CONTINUOUS
 62
     7
 10
53.983334
 20
-199.75
 30
0.0
 11
53.983334
 21
-200.75
 31
0.0
  0
LINE
  5
227
  8
1
  6
CONTINUOUS
 62
     7
 10
53.983334
 20
-107.0
 30
0.0
 11
53.983334
 21
-108.0
 31
0.0
  0
LINE
  5
228
  8
1
  6
CONTINUOUS
 62
     7
 10
89.1
 20
-164.4999999999999
 30
0.0
 11
88.983334
 21
-164.7499999999999
 31
0.0
  0
LINE
  5
229
  8
1
  6
CONTINUOUS
 62
     7
 10
54.09999999999999
 20
-130.9999999999999
 30
0.0
 11
53.98333399999999
 21
-130.75
 31
0.0
  0
LINE
  5
22A
  8
1
  6
CONTINUOUS
 62
     7
 10
88.98333400000001
 20
-165.7499999999999
 30
0.0
 11
89.10000000000001
 21
-165.9999999999999
 31
0.0
  0
LINE
  5
22B
  8
1
  6
CONTINUOUS
 62
     7
 10
156.5
 20
-106.6
 30
0.0
 11
148.5
 21
-106.6
 31
0.0
  0
LINE
  5
22C
  8
1
  6
CONTINUOUS
 62
     7
 10
161.016666
 20
-71.99999999999996
 30
0.0
 11
161.016666
 21
-72.99999999999996
 31
0.0
  0
LINE
  5
22D
  8
1
  6
CONTINUOUS
 62
     7
 10
161.016666
 20
-107.0
 30
0.0
 11
161.016666
 21
-108.0
 31
0.0
  0
LINE
  5
22E
  8
1
  6
CONTINUOUS
 62
     7
 10
89.1
 20
-178.25
 30
0.0
 11
88.983334
 21
-178.0
 31
0.0
  0
LINE
  5
22F
  8
1
  6
CONTINUOUS
 62
     7
 10
160.9
 20
-118.9999999999999
 30
0.0
 11
161.016666
 21
-119.25
 31
0.0
  0
LINE
  5
230
  8
1
  6
CONTINUOUS
 62
     7
 10
89.1
 20
-211.75
 30
0.0
 11
89.1
 21
-201.0
 31
0.0
  0
LINE
  5
231
  8
1
  6
CONTINUOUS
 62
     7
 10
53.983334
 20
-108.0
 30
0.0
 11
54.1
 21
-108.25
 31
0.0
  0
LINE
  5
232
  8
1
  6
CONTINUOUS
 62
     7
 10
54.09999999999999
 20
-120.4999999999999
 30
0.0
 11
53.98333399999999
 21
-120.25
 31
0.0
  0
LINE
  5
233
  8
1
  6
CONTINUOUS
 62
     7
 10
138.0
 20
-178.4
 30
0.0
 11
137.75
 21
-178.516666
 31
0.0
  0
LINE
  5
234
  8
1
  6
CONTINUOUS
 62
     7
 10
136.5
 20
-178.4
 30
0.0
 11
128.5
 21
-178.4
 31
0.0
  0
LINE
  5
235
  8
1
  6
CONTINUOUS
 62
     7
 10
54.09999999999999
 20
-83.99999999999996
 30
0.0
 11
54.09999999999999
 21
-73.24999999999999
 31
0.0
  0
LINE
  5
236
  8
1
  6
CONTINUOUS
 62
     7
 10
54.09999999999999
 20
-106.75
 30
0.0
 11
54.09999999999999
 21
-95.99999999999997
 31
0.0
  0
LINE
  5
237
  8
1
  6
CONTINUOUS
 62
     7
 10
54.09999999999999
 20
-199.4999999999999
 30
0.0
 11
54.09999999999999
 21
-190.5
 31
0.0
  0
ARC
  5
238
  8
1
  6
CONTINUOUS
 62
     7
 10
55.0
 20
-223.0
 30
0.0
 40
0.8999999999999841
 50
180.0
 51
0.0
  0
LINE
  5
239
  8
1
  6
CONTINUOUS
 62
     7
 10
54.09999999999999
 20
-71.74999999999999
 30
0.0
 11
53.98333399999999
 21
-71.99999999999996
 31
0.0
  0
LINE
  5
23A
  8
1
  6
CONTINUOUS
 62
     7
 10
88.98333400000001
 20
-155.25
 30
0.0
 11
89.10000000000001
 21
-155.5
 31
0.0
  0
LINE
  5
23B
  8
1
  6
CONTINUOUS
 62
     7
 10
53.983334
 20
-178.0
 30
0.0
 11
53.983334
 21
-177.0
 31
0.0
  0
LINE
  5
23C
  8
1
  6
CONTINUOUS
 62
     7
 10
89.1
 20
-164.4999999999999
 30
0.0
 11
89.1
 21
-155.5
 31
0.0
  0
LINE
  5
23D
  8
1
  6
CONTINUOUS
 62
     7
 10
54.09999999999999
 20
-178.25
 30
0.0
 11
53.98333399999999
 21
-178.0
 31
0.0
  0
LINE
  5
23E
  8
1
  6
CONTINUOUS
 62
     7
 10
54.09999999999999
 20
-71.74999999999999
 30
0.0
 11
54.09999999999999
 21
-61.99999999999994
 31
0.0
  0
LINE
  5
23F
  8
1
  6
CONTINUOUS
 62
     7
 10
160.9
 20
-129.4999999999999
 30
0.0
 11
161.016666
 21
-129.75
 31
0.0
  0
LINE
  5
240
  8
1
  6
CONTINUOUS
 62
     7
 10
89.1
 20
-199.4999999999999
 30
0.0
 11
88.983334
 21
-199.7499999999999
 31
0.0
  0
LINE
  5
241
  8
1
  6
CONTINUOUS
 62
     7
 10
53.983334
 20
-119.25
 30
0.0
 11
54.1
 21
-118.9999999999999
 31
0.0
  0
LINE
  5
242
  8
1
  6
CONTINUOUS
 62
     7
 10
89.1
 20
-213.2499999999999
 30
0.0
 11
88.983334
 21
-212.9999999999999
 31
0.0
  0
LINE
  5
243
  8
1
  6
CONTINUOUS
 62
     7
 10
53.983334
 20
-84.24999999999993
 30
0.0
 11
54.1
 21
-83.99999999999996
 31
0.0
  0
LINE
  5
244
  8
1
  6
CONTINUOUS
 62
     7
 10
54.09999999999999
 20
-189.0
 30
0.0
 11
53.98333399999999
 21
-189.25
 31
0.0
  0
LINE
  5
245
  8
1
  6
CONTINUOUS
 62
     7
 10
89.1
 20
-154.0
 30
0.0
 11
88.983334
 21
-154.25
 31
0.0
  0
ARC
  5
246
  8
1
  6
CONTINUOUS
 62
     7
 10
191.5
 20
-177.5
 30
0.0
 40
0.9000000000000119
 50
270.0
 51
90.0
  0
LINE
  5
247
  8
1
  6
CONTINUOUS
 62
     7
 10
160.9
 20
-138.9999999999999
 30
0.0
 11
160.9
 21
-130.9999999999999
 31
0.0
  0
LINE
  5
248
  8
1
  6
CONTINUOUS
 62
     7
 10
53.983334
 20
-190.25
 30
0.0
 11
54.1
 21
-190.5
 31
0.0
  0
LINE
  5
249
  8
1
  6
CONTINUOUS
 62
     7
 10
53.983334
 20
-177.0
 30
0.0
 11
54.1
 21
-176.75
 31
0.0
  0
LINE
  5
24A
  8
1
  6
CONTINUOUS
 62
     7
 10
54.09999999999999
 20
-164.4999999999999
 30
0.0
 11
53.98333399999999
 21
-164.7499999999999
 31
0.0
  0
LINE
  5
24B
  8
1
  6
CONTINUOUS
 62
     7
 10
113.25
 20
-178.516666
 30
0.0
 11
113.5
 21
-178.4
 31
0.0
  0
LINE
  5
24C
  8
1
  6
CONTINUOUS
 62
     7
 10
89.1
 20
-223.0
 30
0.0
 11
89.1
 21
-213.25
 31
0.0
  0
LINE
  5
24D
  8
1
  6
CONTINUOUS
 62
     7
 10
113.5
 20
-178.4
 30
0.0
 11
121.5
 21
-178.4
 31
0.0
  0
LINE
  5
24E
  8
1
  6
CONTINUOUS
 62
     7
 10
161.016666
 20
-72.99999999999996
 30
0.0
 11
160.9
 21
-73.24999999999999
 31
0.0
  0
LINE
  5
24F
  8
1
  6
CONTINUOUS
 62
     7
 10
161.016666
 20
-130.75
 30
0.0
 11
160.9
 21
-130.9999999999999
 31
0.0
  0
LINE
  5
250
  8
1
  6
CONTINUOUS
 62
     7
 10
53.983334
 20
-165.7499999999999
 30
0.0
 11
54.1
 21
-165.9999999999999
 31
0.0
  0
LINE
  5
251
  8
1
  6
CONTINUOUS
 62
     7
 10
102.75
 20
-178.516666
 30
0.0
 11
101.75
 21
-178.516666
 31
0.0
  0
LINE
  5
252
  8
1
  6
CONTINUOUS
 62
     7
 10
103.0
 20
-178.4
 30
0.0
 11
102.75
 21
-178.516666
 31
0.0
  0
LINE
  5
253
  8
1
  6
CONTINUOUS
 62
     7
 10
196.016666
 20
-85.24999999999993
 30
0.0
 11
195.9
 21
-85.49999999999996
 31
0.0
  0
LINE
  5
254
  8
1
  6
CONTINUOUS
 62
     7
 10
161.016666
 20
-108.0
 30
0.0
 11
160.9
 21
-108.25
 31
0.0
  0
LINE
  5
255
  8
1
  6
CONTINUOUS
 62
     7
 10
88.98333400000001
 20
-177.0
 30
0.0
 11
89.10000000000001
 21
-176.75
 31
0.0
  0
LINE
  5
256
  8
1
  6
CONTINUOUS
 62
     7
 10
88.98333400000001
 20
-199.75
 30
0.0
 11
88.98333400000001
 21
-200.75
 31
0.0
  0
LINE
  5
257
  8
1
  6
CONTINUOUS
 62
     7
 10
161.016666
 20
-94.74999999999994
 30
0.0
 11
161.016666
 21
-95.74999999999994
 31
0.0
  0
LINE
  5
258
  8
1
  6
CONTINUOUS
 62
     7
 10
161.016666
 20
-119.25
 30
0.0
 11
161.016666
 21
-120.25
 31
0.0
  0
LINE
  5
259
  8
1
  6
CONTINUOUS
 62
     7
 10
161.016666
 20
-85.24999999999993
 30
0.0
 11
160.9
 21
-85.49999999999996
 31
0.0
  0
LINE
  5
25A
  8
1
  6
CONTINUOUS
 62
     7
 10
56.016666
 20
-178.0
 30
0.0
 11
55.90000000000001
 21
-178.25
 31
0.0
  0
LINE
  5
25B
  8
1
  6
CONTINUOUS
 62
     7
 10
147.25
 20
-106.483334
 30
0.0
 11
148.25
 21
-106.483334
 31
0.0
  0
LINE
  5
25C
  8
1
  6
CONTINUOUS
 62
     7
 10
112.0
 20
-178.4
 30
0.0
 11
112.25
 21
-178.516666
 31
0.0
  0
LINE
  5
25D
  8
1
  6
CONTINUOUS
 62
     7
 10
196.016666
 20
-94.74999999999994
 30
0.0
 11
196.016666
 21
-95.74999999999994
 31
0.0
  0
LINE
  5
25E
  8
1
  6
CONTINUOUS
 62
     7
 10
66.50000000000001
 20
-106.6
 30
0.0
 11
66.75000000000001
 21
-106.483334
 31
0.0
  0
LINE
  5
25F
  8
1
  6
CONTINUOUS
 62
     7
 10
66.75000000000001
 20
-106.483334
 30
0.0
 11
67.75000000000001
 21
-106.483334
 31
0.0
  0
LINE
  5
260
  8
1
  6
CONTINUOUS
 62
     7
 10
161.016666
 20
-129.75
 30
0.0
 11
161.016666
 21
-130.75
 31
0.0
  0
LINE
  5
261
  8
1
  6
CONTINUOUS
 62
     7
 10
196.016666
 20
-129.75
 30
0.0
 11
196.016666
 21
-130.75
 31
0.0
  0
ARC
  5
262
  8
1
  6
CONTINUOUS
 62
     7
 10
58.5
 20
-177.5
 30
0.0
 40
0.8999999999999841
 50
90.0
 51
270.0
  0
LINE
  5
263
  8
1
  6
CONTINUOUS
 62
     7
 10
55.90000000000001
 20
-178.25
 30
0.0
 11
55.90000000000001
 21
-189.0
 31
0.0
  0
LINE
  5
264
  8
1
  6
CONTINUOUS
 62
     7
 10
67.75000000000001
 20
-106.483334
 30
0.0
 11
68.0
 21
-106.6
 31
0.0
  0
LINE
  5
265
  8
1
  6
CONTINUOUS
 62
     7
 10
88.98333400000001
 20
-200.75
 30
0.0
 11
89.10000000000001
 21
-201.0
 31
0.0
  0
LINE
  5
266
  8
1
  6
CONTINUOUS
 62
     7
 10
88.98333400000001
 20
-164.7499999999999
 30
0.0
 11
88.98333400000001
 21
-165.7499999999999
 31
0.0
  0
LINE
  5
267
  8
1
  6
CONTINUOUS
 62
     7
 10
160.9
 20
-71.74999999999999
 30
0.0
 11
161.016666
 21
-71.99999999999996
 31
0.0
  0
LINE
  5
268
  8
1
  6
CONTINUOUS
 62
     7
 10
56.016666
 20
-165.7499999999999
 30
0.0
 11
56.016666
 21
-164.7499999999999
 31
0.0
  0
LINE
  5
269
  8
1
  6
CONTINUOUS
 62
     7
 10
136.5
 20
-106.6
 30
0.0
 11
136.75
 21
-106.483334
 31
0.0
  0
LINE
  5
26A
  8
1
  6
CONTINUOUS
 62
     7
 10
160.9
 20
-129.4999999999999
 30
0.0
 11
160.9
 21
-120.4999999999999
 31
0.0
  0
LINE
  5
26B
  8
1
  6
CONTINUOUS
 62
     7
 10
89.1
 20
-176.75
 30
0.0
 11
89.1
 21
-165.9999999999999
 31
0.0
  0
LINE
  5
26C
  8
1
  6
CONTINUOUS
 62
     7
 10
160.9
 20
-94.49999999999997
 30
0.0
 11
161.016666
 21
-94.74999999999994
 31
0.0
  0
LINE
  5
26D
  8
1
  6
CONTINUOUS
 62
     7
 10
195.9
 20
-138.9999999999999
 30
0.0
 11
195.9
 21
-130.9999999999999
 31
0.0
  0
ARC
  5
26E
  8
1
  6
CONTINUOUS
 62
     7
 10
44.5
 20
-177.5
 30
0.0
 40
0.899999999999998
 50
90.0
 51
270.0
  0
LINE
  5
26F
  8
1
  6
CONTINUOUS
 62
     7
 10
88.98333400000001
 20
-178.0
 30
0.0
 11
88.98333400000001
 21
-177.0
 31
0.0
  0
LINE
  5
270
  8
1
  6
CONTINUOUS
 62
     7
 10
195.9
 20
-71.74999999999999
 30
0.0
 11
196.016666
 21
-71.99999999999996
 31
0.0
  0
LINE
  5
271
  8
1
  6
CONTINUOUS
 62
     7
 10
89.1
 20
-189.0
 30
0.0
 11
88.983334
 21
-189.25
 31
0.0
  0
LINE
  5
272
  8
1
  6
CONTINUOUS
 62
     7
 10
161.016666
 20
-120.25
 30
0.0
 11
160.9
 21
-120.4999999999999
 31
0.0
  0
LINE
  5
273
  8
1
  6
CONTINUOUS
 62
     7
 10
88.98333400000001
 20
-190.25
 30
0.0
 11
89.10000000000001
 21
-190.5
 31
0.0
  0
LINE
  5
274
  8
1
  6
CONTINUOUS
 62
     7
 10
89.1
 20
-189.0
 30
0.0
 11
89.1
 21
-178.25
 31
0.0
  0
LINE
  5
275
  8
1
  6
CONTINUOUS
 62
     7
 10
55.90000000000001
 20
-200.9999999999999
 30
0.0
 11
56.016666
 21
-200.7499999999999
 31
0.0
  0
LINE
  5
276
  8
1
  6
CONTINUOUS
 62
     7
 10
196.016666
 20
-120.25
 30
0.0
 11
195.9
 21
-120.4999999999999
 31
0.0
  0
LINE
  5
277
  8
1
  6
CONTINUOUS
 62
     7
 10
196.016666
 20
-108.0
 30
0.0
 11
195.9
 21
-108.25
 31
0.0
  0
LINE
  5
278
  8
1
  6
CONTINUOUS
 62
     7
 10
55.90000000000001
 20
-165.9999999999999
 30
0.0
 11
55.90000000000001
 21
-176.75
 31
0.0
  0
LINE
  5
279
  8
1
  6
CONTINUOUS
 62
     7
 10
88.98333400000001
 20
-213.0
 30
0.0
 11
88.98333400000001
 21
-212.0
 31
0.0
  0
LINE
  5
27A
  8
1
  6
CONTINUOUS
 62
     7
 10
160.9
 20
-106.75
 30
0.0
 11
160.9
 21
-95.99999999999997
 31
0.0
  0
LINE
  5
27B
  8
1
  6
CONTINUOUS
 62
     7
 10
136.5
 20
-106.6
 30
0.0
 11
128.5
 21
-106.6
 31
0.0
  0
LINE
  5
27C
  8
1
  6
CONTINUOUS
 62
     7
 10
147.0
 20
-106.6
 30
0.0
 11
138.0
 21
-106.6
 31
0.0
  0
LINE
  5
27D
  8
1
  6
CONTINUOUS
 62
     7
 10
137.75
 20
-106.483334
 30
0.0
 11
138.0
 21
-106.6
 31
0.0
  0
LINE
  5
27E
  8
1
  6
CONTINUOUS
 62
     7
 10
160.9
 20
-71.74999999999999
 30
0.0
 11
160.9
 21
-61.99999999999994
 31
0.0
  0
LINE
  5
27F
  8
1
  6
CONTINUOUS
 62
     7
 10
161.016666
 20
-95.74999999999994
 30
0.0
 11
160.9
 21
-95.99999999999997
 31
0.0
  0
LINE
  5
280
  8
1
  6
CONTINUOUS
 62
     7
 10
196.016666
 20
-71.99999999999996
 30
0.0
 11
196.016666
 21
-72.99999999999996
 31
0.0
  0
LINE
  5
281
  8
1
  6
CONTINUOUS
 62
     7
 10
160.9
 20
-94.49999999999997
 30
0.0
 11
160.9
 21
-85.49999999999996
 31
0.0
  0
LINE
  5
282
  8
1
  6
CONTINUOUS
 62
     7
 10
195.9
 20
-71.74999999999999
 30
0.0
 11
195.9
 21
-61.99999999999994
 31
0.0
  0
LINE
  5
283
  8
1
  6
CONTINUOUS
 62
     7
 10
67.99999999999999
 20
-106.6
 30
0.0
 11
77.0
 21
-106.6
 31
0.0
  0
LINE
  5
284
  8
1
  6
CONTINUOUS
 62
     7
 10
160.9
 20
-118.9999999999999
 30
0.0
 11
160.9
 21
-108.25
 31
0.0
  0
LINE
  5
285
  8
1
  6
CONTINUOUS
 62
     7
 10
160.9
 20
-106.75
 30
0.0
 11
161.016666
 21
-107.0
 31
0.0
  0
LINE
  5
286
  8
1
  6
CONTINUOUS
 62
     7
 10
160.9
 20
-83.99999999999996
 30
0.0
 11
161.016666
 21
-84.24999999999993
 31
0.0
  0
ARC
  5
287
  8
1
  6
CONTINUOUS
 62
     7
 10
58.5
 20
-107.5
 30
0.0
 40
0.8999999999999841
 50
90.0
 51
270.0
  0
LINE
  5
288
  8
1
  6
CONTINUOUS
 62
     7
 10
88.98333400000001
 20
-189.25
 30
0.0
 11
88.98333400000001
 21
-190.25
 31
0.0
  0
LINE
  5
289
  8
1
  6
CONTINUOUS
 62
     7
 10
147.0
 20
-106.6
 30
0.0
 11
147.25
 21
-106.483334
 31
0.0
  0
LINE
  5
28A
  8
1
  6
CONTINUOUS
 62
     7
 10
56.016666
 20
-200.75
 30
0.0
 11
56.016666
 21
-199.75
 31
0.0
  0
LINE
  5
28B
  8
1
  6
CONTINUOUS
 62
     7
 10
77.25
 20
-106.483334
 30
0.0
 11
78.25
 21
-106.483334
 31
0.0
  0
LINE
  5
28C
  8
1
  6
CONTINUOUS
 62
     7
 10
136.75
 20
-106.483334
 30
0.0
 11
137.75
 21
-106.483334
 31
0.0
  0
ARC
  5
28D
  8
1
  6
CONTINUOUS
 62
     7
 10
44.5
 20
-107.5
 30
0.0
 40
0.899999999999998
 50
90.0
 51
270.0
  0
LINE
  5
28E
  8
1
  6
CONTINUOUS
 62
     7
 10
88.98333400000001
 20
-212.0
 30
0.0
 11
89.10000000000001
 21
-211.75
 31
0.0
  0
LINE
  5
28F
  8
1
  6
CONTINUOUS
 62
     7
 10
161.016666
 20
-84.24999999999993
 30
0.0
 11
161.016666
 21
-85.24999999999993
 31
0.0
  0
LINE
  5
290
  8
1
  6
CONTINUOUS
 62
     7
 10
196.016666
 20
-84.24999999999993
 30
0.0
 11
196.016666
 21
-85.24999999999993
 31
0.0
  0
LINE
  5
291
  8
1
  6
CONTINUOUS
 62
     7
 10
196.016666
 20
-95.74999999999994
 30
0.0
 11
195.9
 21
-95.99999999999997
 31
0.0
  0
LINE
  5
292
  8
1
  6
CONTINUOUS
 62
     7
 10
56.016666
 20
-199.75
 30
0.0
 11
55.90000000000001
 21
-199.5
 31
0.0
  0
LINE
  5
293
  8
1
  6
CONTINUOUS
 62
     7
 10
56.016666
 20
-212.0
 30
0.0
 11
56.016666
 21
-213.0
 31
0.0
  0
LINE
  5
294
  8
1
  6
CONTINUOUS
 62
     7
 10
77.0
 20
-106.6
 30
0.0
 11
77.25
 21
-106.483334
 31
0.0
  0
LINE
  5
295
  8
1
  6
CONTINUOUS
 62
     7
 10
196.016666
 20
-72.99999999999996
 30
0.0
 11
195.9
 21
-73.24999999999999
 31
0.0
  0
LINE
  5
296
  8
1
  6
CONTINUOUS
 62
     7
 10
55.90000000000001
 20
-190.5
 30
0.0
 11
56.016666
 21
-190.25
 31
0.0
  0
LINE
  5
297
  8
1
  6
CONTINUOUS
 62
     7
 10
55.90000000000001
 20
-155.5
 30
0.0
 11
56.016666
 21
-155.25
 31
0.0
  0
LINE
  5
298
  8
1
  6
CONTINUOUS
 62
     7
 10
78.5
 20
-106.6
 30
0.0
 11
86.49999999999999
 21
-106.6
 31
0.0
  0
LINE
  5
299
  8
1
  6
CONTINUOUS
 62
     7
 10
196.016666
 20
-119.25
 30
0.0
 11
196.016666
 21
-120.25
 31
0.0
  0
LINE
  5
29A
  8
1
  6
CONTINUOUS
 62
     7
 10
195.9
 20
-94.49999999999997
 30
0.0
 11
196.016666
 21
-94.74999999999994
 31
0.0
  0
LINE
  5
29B
  8
1
  6
CONTINUOUS
 62
     7
 10
195.9
 20
-118.9999999999999
 30
0.0
 11
195.9
 21
-108.25
 31
0.0
  0
LINE
  5
29C
  8
1
  6
CONTINUOUS
 62
     7
 10
55.90000000000001
 20
-146.0
 30
0.0
 11
55.90000000000001
 21
-154.0
 31
0.0
  0
LINE
  5
29D
  8
1
  6
CONTINUOUS
 62
     7
 10
56.016666
 20
-164.7499999999999
 30
0.0
 11
55.90000000000001
 21
-164.4999999999999
 31
0.0
  0
LINE
  5
29E
  8
1
  6
CONTINUOUS
 62
     7
 10
55.90000000000001
 20
-213.2499999999999
 30
0.0
 11
55.90000000000001
 21
-222.9999999999999
 31
0.0
  0
LINE
  5
29F
  8
1
  6
CONTINUOUS
 62
     7
 10
195.9
 20
-129.4999999999999
 30
0.0
 11
196.016666
 21
-129.75
 31
0.0
  0
ARC
  5
2A0
  8
1
  6
CONTINUOUS
 62
     7
 10
90.00000000000001
 20
-138.9999999999999
 30
0.0
 40
0.8999999999999841
 50
180.0
 51
0.0
  0
LINE
  5
2A1
  8
1
  6
CONTINUOUS
 62
     7
 10
55.90000000000001
 20
-165.9999999999999
 30
0.0
 11
56.016666
 21
-165.7499999999999
 31
0.0
  0
LINE
  5
2A2
  8
1
  6
CONTINUOUS
 62
     7
 10
56.016666
 20
-177.0
 30
0.0
 11
56.016666
 21
-178.0
 31
0.0
  0
LINE
  5
2A3
  8
1
  6
CONTINUOUS
 62
     7
 10
55.90000000000001
 20
-200.9999999999999
 30
0.0
 11
55.90000000000001
 21
-211.75
 31
0.0
  0
LINE
  5
2A4
  8
1
  6
CONTINUOUS
 62
     7
 10
55.90000000000001
 20
-190.5
 30
0.0
 11
55.90000000000001
 21
-199.4999999999999
 31
0.0
  0
LINE
  5
2A5
  8
1
  6
CONTINUOUS
 62
     7
 10
56.016666
 20
-155.25
 30
0.0
 11
56.016666
 21
-154.25
 31
0.0
  0
LINE
  5
2A6
  8
1
  6
CONTINUOUS
 62
     7
 10
55.90000000000001
 20
-176.75
 30
0.0
 11
56.016666
 21
-177.0
 31
0.0
  0
LINE
  5
2A7
  8
1
  6
CONTINUOUS
 62
     7
 10
56.016666
 20
-213.0
 30
0.0
 11
55.90000000000001
 21
-213.25
 31
0.0
  0
LINE
  5
2A8
  8
1
  6
CONTINUOUS
 62
     7
 10
56.016666
 20
-189.25
 30
0.0
 11
55.90000000000001
 21
-189.0
 31
0.0
  0
LINE
  5
2A9
  8
1
  6
CONTINUOUS
 62
     7
 10
195.9
 20
-94.49999999999997
 30
0.0
 11
195.9
 21
-85.49999999999996
 31
0.0
  0
LINE
  5
2AA
  8
1
  6
CONTINUOUS
 62
     7
 10
55.90000000000001
 20
-211.75
 30
0.0
 11
56.016666
 21
-212.0
 31
0.0
  0
LINE
  5
2AB
  8
1
  6
CONTINUOUS
 62
     7
 10
195.9
 20
-118.9999999999999
 30
0.0
 11
196.016666
 21
-119.25
 31
0.0
  0
LINE
  5
2AC
  8
1
  6
CONTINUOUS
 62
     7
 10
55.90000000000001
 20
-155.5
 30
0.0
 11
55.90000000000001
 21
-164.4999999999999
 31
0.0
  0
LINE
  5
2AD
  8
1
  6
CONTINUOUS
 62
     7
 10
56.016666
 20
-190.25
 30
0.0
 11
56.016666
 21
-189.25
 31
0.0
  0
LINE
  5
2AE
  8
1
  6
CONTINUOUS
 62
     7
 10
195.9
 20
-106.75
 30
0.0
 11
195.9
 21
-95.99999999999997
 31
0.0
  0
LINE
  5
2AF
  8
1
  6
CONTINUOUS
 62
     7
 10
195.9
 20
-83.99999999999996
 30
0.0
 11
196.016666
 21
-84.24999999999993
 31
0.0
  0
LINE
  5
2B0
  8
1
  6
CONTINUOUS
 62
     7
 10
195.9
 20
-129.4999999999999
 30
0.0
 11
195.9
 21
-120.4999999999999
 31
0.0
  0
LINE
  5
2B1
  8
1
  6
CONTINUOUS
 62
     7
 10
56.016666
 20
-154.25
 30
0.0
 11
55.90000000000001
 21
-154.0
 31
0.0
  0
ARC
  5
2B2
  8
1
  6
CONTINUOUS
 62
     7
 10
160.0
 20
-223.0
 30
0.0
 40
0.9000000000000119
 50
180.0
 51
0.0
  0
LINE
  5
2B3
  8
1
  6
CONTINUOUS
 62
     7
 10
195.9
 20
-83.99999999999996
 30
0.0
 11
195.9
 21
-73.24999999999999
 31
0.0
  0
LINE
  5
2B4
  8
1
  6
CONTINUOUS
 62
     7
 10
196.016666
 20
-107.0
 30
0.0
 11
196.016666
 21
-108.0
 31
0.0
  0
LINE
  5
2B5
  8
1
  6
CONTINUOUS
 62
     7
 10
195.9
 20
-106.75
 30
0.0
 11
196.016666
 21
-107.0
 31
0.0
  0
LINE
  5
2B6
  8
1
  6
CONTINUOUS
 62
     7
 10
160.5
 20
-143.516666
 30
0.0
 11
160.75
 21
-143.3999999999999
 31
0.0
  0
LINE
  5
2B7
  8
1
  6
CONTINUOUS
 62
     7
 10
90.90000000000002
 20
-213.2499999999999
 30
0.0
 11
90.90000000000002
 21
-222.9999999999999
 31
0.0
  0
LINE
  5
2B8
  8
1
  6
CONTINUOUS
 62
     7
 10
90.90000000000002
 20
-190.5
 30
0.0
 11
90.90000000000002
 21
-199.4999999999999
 31
0.0
  0
LINE
  5
2B9
  8
1
  6
CONTINUOUS
 62
     7
 10
148.25
 20
-143.516666
 30
0.0
 11
148.5
 21
-143.3999999999999
 31
0.0
  0
LINE
  5
2BA
  8
1
  6
CONTINUOUS
 62
     7
 10
147.0
 20
-143.3999999999999
 30
0.0
 11
138.0
 21
-143.3999999999999
 31
0.0
  0
LINE
  5
2BB
  8
1
  6
CONTINUOUS
 62
     7
 10
55.75
 20
-141.6
 30
0.0
 11
55.5
 21
-141.483334
 31
0.0
  0
LINE
  5
2BC
  8
1
  6
CONTINUOUS
 62
     7
 10
171.5
 20
-143.3999999999999
 30
0.0
 11
160.75
 21
-143.3999999999999
 31
0.0
  0
LINE
  5
2BD
  8
1
  6
CONTINUOUS
 62
     7
 10
90.90000000000002
 20
-200.9999999999999
 30
0.0
 11
90.90000000000002
 21
-211.75
 31
0.0
  0
LINE
  5
2BE
  8
1
  6
CONTINUOUS
 62
     7
 10
91.01666600000001
 20
-199.75
 30
0.0
 11
90.90000000000002
 21
-199.5
 31
0.0
  0
LINE
  5
2BF
  8
1
  6
CONTINUOUS
 62
     7
 10
91.01666600000001
 20
-212.0
 30
0.0
 11
91.01666600000001
 21
-213.0
 31
0.0
  0
LINE
  5
2C0
  8
1
  6
CONTINUOUS
 62
     7
 10
159.25
 20
-143.3999999999999
 30
0.0
 11
148.5
 21
-143.3999999999999
 31
0.0
  0
LINE
  5
2C1
  8
1
  6
CONTINUOUS
 62
     7
 10
121.5
 20
-141.6
 30
0.0
 11
113.5
 21
-141.6
 31
0.0
  0
LINE
  5
2C2
  8
1
  6
CONTINUOUS
 62
     7
 10
90.90000000000002
 20
-176.75
 30
0.0
 11
91.01666600000001
 21
-177.0
 31
0.0
  0
LINE
  5
2C3
  8
1
  6
CONTINUOUS
 62
     7
 10
102.75
 20
-141.483334
 30
0.0
 11
101.75
 21
-141.483334
 31
0.0
  0
LINE
  5
2C4
  8
1
  6
CONTINUOUS
 62
     7
 10
147.25
 20
-143.516666
 30
0.0
 11
148.25
 21
-143.516666
 31
0.0
  0
LINE
  5
2C5
  8
1
  6
CONTINUOUS
 62
     7
 10
67.99999999999999
 20
-141.6
 30
0.0
 11
67.75
 21
-141.483334
 31
0.0
  0
LINE
  5
2C6
  8
1
  6
CONTINUOUS
 62
     7
 10
91.01666600000001
 20
-189.25
 30
0.0
 11
90.90000000000002
 21
-189.0
 31
0.0
  0
LINE
  5
2C7
  8
1
  6
CONTINUOUS
 62
     7
 10
90.90000000000002
 20
-178.25
 30
0.0
 11
90.90000000000002
 21
-189.0
 31
0.0
  0
LINE
  5
2C8
  8
1
  6
CONTINUOUS
 62
     7
 10
67.75000000000001
 20
-141.483334
 30
0.0
 11
66.75000000000001
 21
-141.483334
 31
0.0
  0
LINE
  5
2C9
  8
1
  6
CONTINUOUS
 62
     7
 10
91.01666600000001
 20
-177.0
 30
0.0
 11
91.01666600000001
 21
-178.0
 31
0.0
  0
LINE
  5
2CA
  8
1
  6
CONTINUOUS
 62
     7
 10
54.25
 20
-141.6
 30
0.0
 11
44.50000000000001
 21
-141.6
 31
0.0
  0
LINE
  5
2CB
  8
1
  6
CONTINUOUS
 62
     7
 10
91.01666600000001
 20
-200.75
 30
0.0
 11
91.01666600000001
 21
-199.75
 31
0.0
  0
LINE
  5
2CC
  8
1
  6
CONTINUOUS
 62
     7
 10
103.0
 20
-141.6
 30
0.0
 11
102.75
 21
-141.483334
 31
0.0
  0
LINE
  5
2CD
  8
1
  6
CONTINUOUS
 62
     7
 10
77.0
 20
-141.6
 30
0.0
 11
67.99999999999999
 21
-141.6
 31
0.0
  0
LINE
  5
2CE
  8
1
  6
CONTINUOUS
 62
     7
 10
78.25
 20
-106.483334
 30
0.0
 11
78.5
 21
-106.6
 31
0.0
  0
LINE
  5
2CF
  8
1
  6
CONTINUOUS
 62
     7
 10
90.90000000000002
 20
-165.9999999999999
 30
0.0
 11
90.90000000000002
 21
-176.75
 31
0.0
  0
LINE
  5
2D0
  8
1
  6
CONTINUOUS
 62
     7
 10
112.25
 20
-141.483334
 30
0.0
 11
113.25
 21
-141.483334
 31
0.0
  0
LINE
  5
2D1
  8
1
  6
CONTINUOUS
 62
     7
 10
90.90000000000002
 20
-146.0
 30
0.0
 11
90.90000000000002
 21
-154.0
 31
0.0
  0
LINE
  5
2D2
  8
1
  6
CONTINUOUS
 62
     7
 10
113.25
 20
-141.483334
 30
0.0
 11
113.5
 21
-141.6
 31
0.0
  0
LINE
  5
2D3
  8
1
  6
CONTINUOUS
 62
     7
 10
90.90000000000002
 20
-211.75
 30
0.0
 11
91.01666600000001
 21
-212.0
 31
0.0
  0
LINE
  5
2D4
  8
1
  6
CONTINUOUS
 62
     7
 10
78.5
 20
-141.6
 30
0.0
 11
78.25
 21
-141.483334
 31
0.0
  0
LINE
  5
2D5
  8
1
  6
CONTINUOUS
 62
     7
 10
78.25
 20
-141.483334
 30
0.0
 11
77.25
 21
-141.483334
 31
0.0
  0
LINE
  5
2D6
  8
1
  6
CONTINUOUS
 62
     7
 10
77.25
 20
-141.483334
 30
0.0
 11
77.0
 21
-141.6
 31
0.0
  0
LINE
  5
2D7
  8
1
  6
CONTINUOUS
 62
     7
 10
89.25000000000001
 20
-141.6
 30
0.0
 11
78.50000000000001
 21
-141.6
 31
0.0
  0
LINE
  5
2D8
  8
1
  6
CONTINUOUS
 62
     7
 10
91.01666600000001
 20
-155.25
 30
0.0
 11
91.01666600000001
 21
-154.25
 31
0.0
  0
LINE
  5
2D9
  8
1
  6
CONTINUOUS
 62
     7
 10
90.90000000000002
 20
-155.5
 30
0.0
 11
91.01666600000001
 21
-155.25
 31
0.0
  0
LINE
  5
2DA
  8
1
  6
CONTINUOUS
 62
     7
 10
90.50000000000001
 20
-141.483334
 30
0.0
 11
89.50000000000001
 21
-141.483334
 31
0.0
  0
LINE
  5
2DB
  8
1
  6
CONTINUOUS
 62
     7
 10
66.50000000000001
 20
-141.6
 30
0.0
 11
55.75000000000001
 21
-141.6
 31
0.0
  0
LINE
  5
2DC
  8
1
  6
CONTINUOUS
 62
     7
 10
91.01666600000001
 20
-164.7499999999999
 30
0.0
 11
90.90000000000002
 21
-164.4999999999999
 31
0.0
  0
LINE
  5
2DD
  8
1
  6
CONTINUOUS
 62
     7
 10
91.01666600000001
 20
-154.25
 30
0.0
 11
90.90000000000002
 21
-154.0
 31
0.0
  0
LINE
  5
2DE
  8
1
  6
CONTINUOUS
 62
     7
 10
54.5
 20
-141.483334
 30
0.0
 11
54.25
 21
-141.6
 31
0.0
  0
LINE
  5
2DF
  8
1
  6
CONTINUOUS
 62
     7
 10
112.0
 20
-141.6
 30
0.0
 11
112.25
 21
-141.483334
 31
0.0
  0
LINE
  5
2E0
  8
1
  6
CONTINUOUS
 62
     7
 10
90.90000000000002
 20
-165.9999999999999
 30
0.0
 11
91.01666600000001
 21
-165.7499999999999
 31
0.0
  0
LINE
  5
2E1
  8
1
  6
CONTINUOUS
 62
     7
 10
137.75
 20
-143.516666
 30
0.0
 11
138.0
 21
-143.3999999999999
 31
0.0
  0
LINE
  5
2E2
  8
1
  6
CONTINUOUS
 62
     7
 10
90.75000000000001
 20
-141.6
 30
0.0
 11
90.50000000000001
 21
-141.483334
 31
0.0
  0
LINE
  5
2E3
  8
1
  6
CONTINUOUS
 62
     7
 10
90.90000000000002
 20
-190.5
 30
0.0
 11
91.01666600000001
 21
-190.25
 31
0.0
  0
LINE
  5
2E4
  8
1
  6
CONTINUOUS
 62
     7
 10
147.0
 20
-143.3999999999999
 30
0.0
 11
147.25
 21
-143.516666
 31
0.0
  0
LINE
  5
2E5
  8
1
  6
CONTINUOUS
 62
     7
 10
89.50000000000001
 20
-141.483334
 30
0.0
 11
89.25000000000001
 21
-141.6
 31
0.0
  0
LINE
  5
2E6
  8
1
  6
CONTINUOUS
 62
     7
 10
101.75
 20
-141.483334
 30
0.0
 11
101.5
 21
-141.6
 31
0.0
  0
LINE
  5
2E7
  8
1
  6
CONTINUOUS
 62
     7
 10
91.01666600000001
 20
-178.0
 30
0.0
 11
90.90000000000002
 21
-178.25
 31
0.0
  0
LINE
  5
2E8
  8
1
  6
CONTINUOUS
 62
     7
 10
196.016666
 20
-130.75
 30
0.0
 11
195.9
 21
-130.9999999999999
 31
0.0
  0
ARC
  5
2E9
  8
1
  6
CONTINUOUS
 62
     7
 10
121.5
 20
-142.4999999999999
 30
0.0
 40
0.9000000000000119
 50
270.0
 51
90.0
  0
LINE
  5
2EA
  8
1
  6
CONTINUOUS
 62
     7
 10
159.25
 20
-143.3999999999999
 30
0.0
 11
159.5
 21
-143.516666
 31
0.0
  0
LINE
  5
2EB
  8
1
  6
CONTINUOUS
 62
     7
 10
91.01666600000001
 20
-213.0
 30
0.0
 11
90.90000000000002
 21
-213.25
 31
0.0
  0
LINE
  5
2EC
  8
1
  6
CONTINUOUS
 62
     7
 10
91.01666600000001
 20
-165.7499999999999
 30
0.0
 11
91.01666600000001
 21
-164.7499999999999
 31
0.0
  0
LINE
  5
2ED
  8
1
  6
CONTINUOUS
 62
     7
 10
91.01666600000001
 20
-190.25
 30
0.0
 11
91.01666600000001
 21
-189.25
 31
0.0
  0
LINE
  5
2EE
  8
1
  6
CONTINUOUS
 62
     7
 10
90.90000000000002
 20
-200.9999999999999
 30
0.0
 11
91.01666600000001
 21
-200.7499999999999
 31
0.0
  0
LINE
  5
2EF
  8
1
  6
CONTINUOUS
 62
     7
 10
66.75000000000001
 20
-141.483334
 30
0.0
 11
66.50000000000001
 21
-141.6
 31
0.0
  0
LINE
  5
2F0
  8
1
  6
CONTINUOUS
 62
     7
 10
90.90000000000002
 20
-155.5
 30
0.0
 11
90.90000000000002
 21
-164.4999999999999
 31
0.0
  0
LINE
  5
2F1
  8
1
  6
CONTINUOUS
 62
     7
 10
58.5
 20
-106.6
 30
0.0
 11
66.5
 21
-106.6
 31
0.0
  0
LINE
  5
2F2
  8
1
  6
CONTINUOUS
 62
     7
 10
55.5
 20
-141.483334
 30
0.0
 11
54.5
 21
-141.483334
 31
0.0
  0
LINE
  5
2F3
  8
1
  6
CONTINUOUS
 62
     7
 10
112.0
 20
-141.6
 30
0.0
 11
103.0
 21
-141.6
 31
0.0
  0
LINE
  5
2F4
  8
1
  6
CONTINUOUS
 62
     7
 10
159.5
 20
-143.516666
 30
0.0
 11
160.5
 21
-143.516666
 31
0.0
  0
LINE
  5
2F5
  8
1
  6
CONTINUOUS
 62
     7
 10
101.5
 20
-141.6
 30
0.0
 11
90.75
 21
-141.6
 31
0.0
  0
LINE
  5
2F6
  8
1
  6
CONTINUOUS
 62
     7
 10
136.75
 20
-143.516666
 30
0.0
 11
137.75
 21
-143.516666
 31
0.0
  0
LINE
  5
2F7
  8
1
  6
CONTINUOUS
 62
     7
 10
194.5
 20
-143.516666
 30
0.0
 11
195.5
 21
-143.516666
 31
0.0
  0
LINE
  5
2F8
  8
1
  6
CONTINUOUS
 62
     7
 10
66.75000000000001
 20
-143.516666
 30
0.0
 11
67.75000000000001
 21
-143.516666
 31
0.0
  0
ARC
  5
2F9
  8
1
  6
CONTINUOUS
 62
     7
 10
44.5
 20
-142.4999999999999
 30
0.0
 40
0.899999999999998
 50
90.0
 51
270.0
  0
LINE
  5
2FA
  8
1
  6
CONTINUOUS
 62
     7
 10
194.25
 20
-143.3999999999999
 30
0.0
 11
194.5
 21
-143.516666
 31
0.0
  0
LINE
  5
2FB
  8
1
  6
CONTINUOUS
 62
     7
 10
171.5
 20
-143.3999999999999
 30
0.0
 11
171.75
 21
-143.516666
 31
0.0
  0
LINE
  5
2FC
  8
1
  6
CONTINUOUS
 62
     7
 10
66.50000000000001
 20
-143.3999999999999
 30
0.0
 11
66.75000000000001
 21
-143.516666
 31
0.0
  0
LINE
  5
2FD
  8
1
  6
CONTINUOUS
 62
     7
 10
55.5
 20
-143.516666
 30
0.0
 11
55.75
 21
-143.3999999999999
 31
0.0
  0
LINE
  5
2FE
  8
1
  6
CONTINUOUS
 62
     7
 10
183.25
 20
-143.516666
 30
0.0
 11
183.5
 21
-143.3999999999999
 31
0.0
  0
LINE
  5
2FF
  8
1
  6
CONTINUOUS
 62
     7
 10
136.5
 20
-143.3999999999999
 30
0.0
 11
128.5
 21
-143.3999999999999
 31
0.0
  0
LINE
  5
300
  8
1
  6
CONTINUOUS
 62
     7
 10
194.25
 20
-143.3999999999999
 30
0.0
 11
183.5
 21
-143.3999999999999
 31
0.0
  0
LINE
  5
301
  8
1
  6
CONTINUOUS
 62
     7
 10
172.75
 20
-143.516666
 30
0.0
 11
173.0
 21
-143.3999999999999
 31
0.0
  0
LINE
  5
302
  8
1
  6
CONTINUOUS
 62
     7
 10
182.25
 20
-143.516666
 30
0.0
 11
183.25
 21
-143.516666
 31
0.0
  0
LINE
  5
303
  8
1
  6
CONTINUOUS
 62
     7
 10
44.5
 20
-143.3999999999999
 30
0.0
 11
54.24999999999999
 21
-143.3999999999999
 31
0.0
  0
LINE
  5
304
  8
1
  6
CONTINUOUS
 62
     7
 10
55.75
 20
-143.3999999999999
 30
0.0
 11
66.5
 21
-143.3999999999999
 31
0.0
  0
LINE
  5
305
  8
1
  6
CONTINUOUS
 62
     7
 10
113.5
 20
-143.3999999999999
 30
0.0
 11
121.5
 21
-143.3999999999999
 31
0.0
  0
LINE
  5
306
  8
1
  6
CONTINUOUS
 62
     7
 10
182.0
 20
-143.3999999999999
 30
0.0
 11
173.0
 21
-143.3999999999999
 31
0.0
  0
LINE
  5
307
  8
1
  6
CONTINUOUS
 62
     7
 10
195.5
 20
-143.516666
 30
0.0
 11
195.75
 21
-143.3999999999999
 31
0.0
  0
LINE
  5
308
  8
1
  6
CONTINUOUS
 62
     7
 10
54.25
 20
-143.3999999999999
 30
0.0
 11
54.5
 21
-143.516666
 31
0.0
  0
LINE
  5
309
  8
1
  6
CONTINUOUS
 62
     7
 10
205.5
 20
-143.3999999999999
 30
0.0
 11
195.75
 21
-143.3999999999999
 31
0.0
  0
ARC
  5
30A
  8
1
  6
CONTINUOUS
 62
     7
 10
205.5
 20
-142.4999999999999
 30
0.0
 40
0.9000000000000119
 50
270.0
 51
90.0
  0
LINE
  5
30B
  8
1
  6
CONTINUOUS
 62
     7
 10
54.5
 20
-143.516666
 30
0.0
 11
55.5
 21
-143.516666
 31
0.0
  0
LINE
  5
30C
  8
1
  6
CONTINUOUS
 62
     7
 10
136.5
 20
-143.3999999999999
 30
0.0
 11
136.75
 21
-143.516666
 31
0.0
  0
LINE
  5
30D
  8
1
  6
CONTINUOUS
 62
     7
 10
113.5
 20
-143.3999999999999
 30
0.0
 11
113.25
 21
-143.516666
 31
0.0
  0
LINE
  5
30E
  8
1
  6
CONTINUOUS
 62
     7
 10
182.0
 20
-143.3999999999999
 30
0.0
 11
182.25
 21
-143.516666
 31
0.0
  0
LINE
  5
30F
  8
1
  6
CONTINUOUS
 62
     7
 10
67.99999999999999
 20
-143.3999999999999
 30
0.0
 11
77.0
 21
-143.3999999999999
 31
0.0
  0
LINE
  5
310
  8
1
  6
CONTINUOUS
 62
     7
 10
171.75
 20
-143.516666
 30
0.0
 11
172.75
 21
-143.516666
 31
0.0
  0
LINE
  5
311
  8
1
  6
CONTINUOUS
 62
     7
 10
148.25
 20
-176.483334
 30
0.0
 11
148.5
 21
-176.5999999999999
 31
0.0
  0
LINE
  5
312
  8
1
  6
CONTINUOUS
 62
     7
 10
159.1
 20
-199.4999999999999
 30
0.0
 11
158.983334
 21
-199.7499999999999
 31
0.0
  0
LINE
  5
313
  8
1
  6
CONTINUOUS
 62
     7
 10
171.75
 20
-141.483334
 30
0.0
 11
171.5
 21
-141.6
 31
0.0
  0
LINE
  5
314
  8
1
  6
CONTINUOUS
 62
     7
 10
159.1
 20
-190.5
 30
0.0
 11
159.1
 21
-199.4999999999999
 31
0.0
  0
LINE
  5
315
  8
1
  6
CONTINUOUS
 62
     7
 10
128.5
 20
-141.6
 30
0.0
 11
136.5
 21
-141.6
 31
0.0
  0
ARC
  5
316
  8
1
  6
CONTINUOUS
 62
     7
 10
121.5
 20
-177.5
 30
0.0
 40
0.9000000000000119
 50
270.0
 51
90.0
  0
LINE
  5
317
  8
1
  6
CONTINUOUS
 62
     7
 10
128.5
 20
-176.5999999999999
 30
0.0
 11
136.5
 21
-176.5999999999999
 31
0.0
  0
LINE
  5
318
  8
1
  6
CONTINUOUS
 62
     7
 10
90.90000000000002
 20
-108.25
 30
0.0
 11
90.90000000000002
 21
-118.9999999999999
 31
0.0
  0
LINE
  5
319
  8
1
  6
CONTINUOUS
 62
     7
 10
102.75
 20
-108.5166659999999
 30
0.0
 11
101.75
 21
-108.5166659999999
 31
0.0
  0
LINE
  5
31A
  8
1
  6
CONTINUOUS
 62
     7
 10
112.25
 20
-108.5166659999999
 30
0.0
 11
113.25
 21
-108.5166659999999
 31
0.0
  0
LINE
  5
31B
  8
1
  6
CONTINUOUS
 62
     7
 10
90.90000000000002
 20
-120.4999999999999
 30
0.0
 11
90.90000000000002
 21
-129.4999999999999
 31
0.0
  0
LINE
  5
31C
  8
1
  6
CONTINUOUS
 62
     7
 10
171.5
 20
-176.5999999999999
 30
0.0
 11
171.75
 21
-176.483334
 31
0.0
  0
LINE
  5
31D
  8
1
  6
CONTINUOUS
 62
     7
 10
90.90000000000002
 20
-73.24999999999999
 30
0.0
 11
90.90000000000002
 21
-83.99999999999996
 31
0.0
  0
LINE
  5
31E
  8
1
  6
CONTINUOUS
 62
     7
 10
158.983334
 20
-177.0
 30
0.0
 11
158.983334
 21
-178.0
 31
0.0
  0
LINE
  5
31F
  8
1
  6
CONTINUOUS
 62
     7
 10
121.5
 20
-176.5999999999999
 30
0.0
 11
113.5
 21
-176.5999999999999
 31
0.0
  0
LINE
  5
320
  8
1
  6
CONTINUOUS
 62
     7
 10
121.5
 20
-108.3999999999999
 30
0.0
 11
113.5
 21
-108.3999999999999
 31
0.0
  0
LINE
  5
321
  8
1
  6
CONTINUOUS
 62
     7
 10
171.75
 20
-176.483334
 30
0.0
 11
172.75
 21
-176.483334
 31
0.0
  0
LINE
  5
322
  8
1
  6
CONTINUOUS
 62
     7
 10
90.90000000000002
 20
-129.4999999999999
 30
0.0
 11
91.01666600000001
 21
-129.75
 31
0.0
  0
LINE
  5
323
  8
1
  6
CONTINUOUS
 62
     7
 10
160.75
 20
-141.6
 30
0.0
 11
171.5
 21
-141.6
 31
0.0
  0
LINE
  5
324
  8
1
  6
CONTINUOUS
 62
     7
 10
158.983334
 20
-199.75
 30
0.0
 11
158.983334
 21
-200.75
 31
0.0
  0
LINE
  5
325
  8
1
  6
CONTINUOUS
 62
     7
 10
91.01666600000001
 20
-120.25
 30
0.0
 11
90.90000000000002
 21
-120.4999999999999
 31
0.0
  0
LINE
  5
326
  8
1
  6
CONTINUOUS
 62
     7
 10
173.0
 20
-141.6
 30
0.0
 11
182.0
 21
-141.6
 31
0.0
  0
LINE
  5
327
  8
1
  6
CONTINUOUS
 62
     7
 10
182.25
 20
-176.483334
 30
0.0
 11
183.25
 21
-176.483334
 31
0.0
  0
LINE
  5
328
  8
1
  6
CONTINUOUS
 62
     7
 10
183.25
 20
-176.483334
 30
0.0
 11
183.5
 21
-176.5999999999999
 31
0.0
  0
LINE
  5
329
  8
1
  6
CONTINUOUS
 62
     7
 10
138.0
 20
-176.5999999999999
 30
0.0
 11
147.0
 21
-176.5999999999999
 31
0.0
  0
ARC
  5
32A
  8
1
  6
CONTINUOUS
 62
     7
 10
86.5
 20
-107.5
 30
0.0
 40
0.8999999999999841
 50
270.0
 51
90.0
  0
LINE
  5
32B
  8
1
  6
CONTINUOUS
 62
     7
 10
67.99999999999999
 20
-108.3999999999999
 30
0.0
 11
67.75
 21
-108.5166659999999
 31
0.0
  0
LINE
  5
32C
  8
1
  6
CONTINUOUS
 62
     7
 10
158.983334
 20
-165.7499999999999
 30
0.0
 11
159.1
 21
-165.9999999999999
 31
0.0
  0
LINE
  5
32D
  8
1
  6
CONTINUOUS
 62
     7
 10
112.0
 20
-108.3999999999999
 30
0.0
 11
103.0
 21
-108.3999999999999
 31
0.0
  0
LINE
  5
32E
  8
1
  6
CONTINUOUS
 62
     7
 10
90.90000000000002
 20
-118.9999999999999
 30
0.0
 11
91.01666600000001
 21
-119.25
 31
0.0
  0
LINE
  5
32F
  8
1
  6
CONTINUOUS
 62
     7
 10
158.983334
 20
-178.0
 30
0.0
 11
159.1
 21
-178.25
 31
0.0
  0
LINE
  5
330
  8
1
  6
CONTINUOUS
 62
     7
 10
160.75
 20
-141.6
 30
0.0
 11
160.5
 21
-141.483334
 31
0.0
  0
LINE
  5
331
  8
1
  6
CONTINUOUS
 62
     7
 10
183.5
 20
-176.5999999999999
 30
0.0
 11
191.5
 21
-176.5999999999999
 31
0.0
  0
LINE
  5
332
  8
1
  6
CONTINUOUS
 62
     7
 10
183.25
 20
-141.483334
 30
0.0
 11
182.25
 21
-141.483334
 31
0.0
  0
LINE
  5
333
  8
1
  6
CONTINUOUS
 62
     7
 10
147.25
 20
-176.483334
 30
0.0
 11
148.25
 21
-176.483334
 31
0.0
  0
LINE
  5
334
  8
1
  6
CONTINUOUS
 62
     7
 10
90.90000000000002
 20
-95.99999999999997
 30
0.0
 11
90.90000000000002
 21
-106.75
 31
0.0
  0
LINE
  5
335
  8
1
  6
CONTINUOUS
 62
     7
 10
91.01666600000001
 20
-84.24999999999993
 30
0.0
 11
91.01666600000001
 21
-85.24999999999993
 31
0.0
  0
LINE
  5
336
  8
1
  6
CONTINUOUS
 62
     7
 10
101.5
 20
-108.3999999999999
 30
0.0
 11
93.5
 21
-108.3999999999999
 31
0.0
  0
LINE
  5
337
  8
1
  6
CONTINUOUS
 62
     7
 10
182.0
 20
-176.5999999999999
 30
0.0
 11
182.25
 21
-176.483334
 31
0.0
  0
LINE
  5
338
  8
1
  6
CONTINUOUS
 62
     7
 10
195.75
 20
-141.6
 30
0.0
 11
205.5
 21
-141.6
 31
0.0
  0
LINE
  5
339
  8
1
  6
CONTINUOUS
 62
     7
 10
172.75
 20
-176.483334
 30
0.0
 11
173.0
 21
-176.5999999999999
 31
0.0
  0
LINE
  5
33A
  8
1
  6
CONTINUOUS
 62
     7
 10
91.01666600000001
 20
-95.74999999999994
 30
0.0
 11
90.90000000000002
 21
-95.99999999999997
 31
0.0
  0
LINE
  5
33B
  8
1
  6
CONTINUOUS
 62
     7
 10
182.25
 20
-141.483334
 30
0.0
 11
182.0
 21
-141.6
 31
0.0
  0
LINE
  5
33C
  8
1
  6
CONTINUOUS
 62
     7
 10
194.5
 20
-141.483334
 30
0.0
 11
194.25
 21
-141.6
 31
0.0
  0
LINE
  5
33D
  8
1
  6
CONTINUOUS
 62
     7
 10
90.90000000000002
 20
-85.49999999999996
 30
0.0
 11
90.90000000000002
 21
-94.49999999999997
 31
0.0
  0
LINE
  5
33E
  8
1
  6
CONTINUOUS
 62
     7
 10
91.01666600000001
 20
-85.24999999999993
 30
0.0
 11
90.90000000000002
 21
-85.49999999999996
 31
0.0
  0
LINE
  5
33F
  8
1
  6
CONTINUOUS
 62
     7
 10
77.0
 20
-108.3999999999999
 30
0.0
 11
67.99999999999999
 21
-108.3999999999999
 31
0.0
  0
LINE
  5
340
  8
1
  6
CONTINUOUS
 62
     7
 10
78.25
 20
-108.5166659999999
 30
0.0
 11
77.25
 21
-108.5166659999999
 31
0.0
  0
LINE
  5
341
  8
1
  6
CONTINUOUS
 62
     7
 10
136.75
 20
-176.483334
 30
0.0
 11
137.75
 21
-176.483334
 31
0.0
  0
LINE
  5
342
  8
1
  6
CONTINUOUS
 62
     7
 10
101.75
 20
-176.483334
 30
0.0
 11
102.75
 21
-176.483334
 31
0.0
  0
LINE
  5
343
  8
1
  6
CONTINUOUS
 62
     7
 10
66.75000000000001
 20
-108.5166659999999
 30
0.0
 11
66.50000000000001
 21
-108.3999999999999
 31
0.0
  0
LINE
  5
344
  8
1
  6
CONTINUOUS
 62
     7
 10
137.75
 20
-176.483334
 30
0.0
 11
138.0
 21
-176.5999999999999
 31
0.0
  0
LINE
  5
345
  8
1
  6
CONTINUOUS
 62
     7
 10
183.5
 20
-141.6
 30
0.0
 11
194.25
 21
-141.6
 31
0.0
  0
LINE
  5
346
  8
1
  6
CONTINUOUS
 62
     7
 10
136.5
 20
-176.5999999999999
 30
0.0
 11
136.75
 21
-176.483334
 31
0.0
  0
LINE
  5
347
  8
1
  6
CONTINUOUS
 62
     7
 10
90.90000000000002
 20
-73.24999999999999
 30
0.0
 11
91.01666600000001
 21
-72.99999999999996
 31
0.0
  0
LINE
  5
348
  8
1
  6
CONTINUOUS
 62
     7
 10
90.90000000000002
 20
-108.25
 30
0.0
 11
91.01666600000001
 21
-108.0
 31
0.0
  0
LINE
  5
349
  8
1
  6
CONTINUOUS
 62
     7
 10
159.5
 20
-141.483334
 30
0.0
 11
159.25
 21
-141.6
 31
0.0
  0
LINE
  5
34A
  8
1
  6
CONTINUOUS
 62
     7
 10
148.5
 20
-176.5999999999999
 30
0.0
 11
156.5
 21
-176.5999999999999
 31
0.0
  0
LINE
  5
34B
  8
1
  6
CONTINUOUS
 62
     7
 10
136.75
 20
-108.5166659999999
 30
0.0
 11
136.5
 21
-108.3999999999999
 31
0.0
  0
LINE
  5
34C
  8
1
  6
CONTINUOUS
 62
     7
 10
90.90000000000002
 20
-83.99999999999996
 30
0.0
 11
91.01666600000001
 21
-84.24999999999993
 31
0.0
  0
LINE
  5
34D
  8
1
  6
CONTINUOUS
 62
     7
 10
158.983334
 20
-200.75
 30
0.0
 11
159.1
 21
-201.0
 31
0.0
  0
LINE
  5
34E
  8
1
  6
CONTINUOUS
 62
     7
 10
138.0
 20
-108.3999999999999
 30
0.0
 11
147.0
 21
-108.3999999999999
 31
0.0
  0
LINE
  5
34F
  8
1
  6
CONTINUOUS
 62
     7
 10
91.01666600000001
 20
-130.75
 30
0.0
 11
90.90000000000002
 21
-130.9999999999999
 31
0.0
  0
LINE
  5
350
  8
1
  6
CONTINUOUS
 62
     7
 10
160.5
 20
-141.483334
 30
0.0
 11
159.5
 21
-141.483334
 31
0.0
  0
LINE
  5
351
  8
1
  6
CONTINUOUS
 62
     7
 10
148.5
 20
-108.3999999999999
 30
0.0
 11
156.5
 21
-108.3999999999999
 31
0.0
  0
LINE
  5
352
  8
1
  6
CONTINUOUS
 62
     7
 10
159.1
 20
-165.9999999999999
 30
0.0
 11
159.1
 21
-176.75
 31
0.0
  0
LINE
  5
353
  8
1
  6
CONTINUOUS
 62
     7
 10
159.1
 20
-213.2499999999999
 30
0.0
 11
159.1
 21
-222.9999999999999
 31
0.0
  0
LINE
  5
354
  8
1
  6
CONTINUOUS
 62
     7
 10
158.983334
 20
-190.25
 30
0.0
 11
159.1
 21
-190.5
 31
0.0
  0
LINE
  5
355
  8
1
  6
CONTINUOUS
 62
     7
 10
159.1
 20
-211.75
 30
0.0
 11
158.983334
 21
-212.0
 31
0.0
  0
LINE
  5
356
  8
1
  6
CONTINUOUS
 62
     7
 10
102.75
 20
-176.483334
 30
0.0
 11
103.0
 21
-176.5999999999999
 31
0.0
  0
LINE
  5
357
  8
1
  6
CONTINUOUS
 62
     7
 10
101.5
 20
-176.5999999999999
 30
0.0
 11
93.5
 21
-176.5999999999999
 31
0.0
  0
LINE
  5
358
  8
1
  6
CONTINUOUS
 62
     7
 10
137.75
 20
-108.5166659999999
 30
0.0
 11
136.75
 21
-108.5166659999999
 31
0.0
  0
LINE
  5
359
  8
1
  6
CONTINUOUS
 62
     7
 10
91.01666600000001
 20
-107.0
 30
0.0
 11
90.90000000000002
 21
-106.75
 31
0.0
  0
ARC
  5
35A
  8
1
  6
CONTINUOUS
 62
     7
 10
163.5
 20
-107.5
 30
0.0
 40
0.9000000000000119
 50
90.0
 51
270.0
  0
LINE
  5
35B
  8
1
  6
CONTINUOUS
 62
     7
 10
159.1
 20
-178.25
 30
0.0
 11
159.1
 21
-189.0
 31
0.0
  0
LINE
  5
35C
  8
1
  6
CONTINUOUS
 62
     7
 10
91.01666600000001
 20
-129.75
 30
0.0
 11
91.01666600000001
 21
-130.75
 31
0.0
  0
LINE
  5
35D
  8
1
  6
CONTINUOUS
 62
     7
 10
158.983334
 20
-189.25
 30
0.0
 11
158.983334
 21
-190.25
 31
0.0
  0
LINE
  5
35E
  8
1
  6
CONTINUOUS
 62
     7
 10
91.01666600000001
 20
-72.99999999999996
 30
0.0
 11
91.01666600000001
 21
-71.99999999999996
 31
0.0
  0
LINE
  5
35F
  8
1
  6
CONTINUOUS
 62
     7
 10
158.983334
 20
-212.0
 30
0.0
 11
158.983334
 21
-213.0
 31
0.0
  0
LINE
  5
360
  8
1
  6
CONTINUOUS
 62
     7
 10
183.25
 20
-108.5166659999999
 30
0.0
 11
182.25
 21
-108.5166659999999
 31
0.0
  0
LINE
  5
361
  8
1
  6
CONTINUOUS
 62
     7
 10
158.983334
 20
-155.25
 30
0.0
 11
159.1
 21
-155.5
 31
0.0
  0
LINE
  5
362
  8
1
  6
CONTINUOUS
 62
     7
 10
55.90000000000001
 20
-108.25
 30
0.0
 11
56.016666
 21
-108.0
 31
0.0
  0
LINE
  5
363
  8
1
  6
CONTINUOUS
 62
     7
 10
90.90000000000002
 20
-61.99999999999994
 30
0.0
 11
90.90000000000002
 21
-71.74999999999999
 31
0.0
  0
LINE
  5
364
  8
1
  6
CONTINUOUS
 62
     7
 10
159.1
 20
-200.9999999999999
 30
0.0
 11
159.1
 21
-211.75
 31
0.0
  0
ARC
  5
365
  8
1
  6
CONTINUOUS
 62
     7
 10
160.0
 20
-146.0
 30
0.0
 40
0.9000000000000119
 50
0.0
 51
180.0
  0
LINE
  5
366
  8
1
  6
CONTINUOUS
 62
     7
 10
56.016666
 20
-108.0
 30
0.0
 11
56.016666
 21
-107.0
 31
0.0
  0
LINE
  5
367
  8
1
  6
CONTINUOUS
 62
     7
 10
159.1
 20
-154.0
 30
0.0
 11
158.983334
 21
-154.25
 31
0.0
  0
LINE
  5
368
  8
1
  6
CONTINUOUS
 62
     7
 10
158.983334
 20
-213.0
 30
0.0
 11
159.1
 21
-213.25
 31
0.0
  0
LINE
  5
369
  8
1
  6
CONTINUOUS
 62
     7
 10
159.1
 20
-176.75
 30
0.0
 11
158.983334
 21
-177.0
 31
0.0
  0
LINE
  5
36A
  8
1
  6
CONTINUOUS
 62
     7
 10
113.25
 20
-176.483334
 30
0.0
 11
112.25
 21
-176.483334
 31
0.0
  0
LINE
  5
36B
  8
1
  6
CONTINUOUS
 62
     7
 10
112.25
 20
-176.483334
 30
0.0
 11
112.0
 21
-176.5999999999999
 31
0.0
  0
LINE
  5
36C
  8
1
  6
CONTINUOUS
 62
     7
 10
91.01666600000001
 20
-71.99999999999996
 30
0.0
 11
90.90000000000002
 21
-71.74999999999999
 31
0.0
  0
ARC
  5
36D
  8
1
  6
CONTINUOUS
 62
     7
 10
55.0
 20
-61.99999999999994
 30
0.0
 40
0.8999999999999841
 50
0.0
 51
180.0
  0
LINE
  5
36E
  8
1
  6
CONTINUOUS
 62
     7
 10
158.983334
 20
-154.25
 30
0.0
 11
158.983334
 21
-155.25
 31
0.0
  0
LINE
  5
36F
  8
1
  6
CONTINUOUS
 62
     7
 10
113.5
 20
-176.5999999999999
 30
0.0
 11
113.25
 21
-176.483334
 31
0.0
  0
LINE
  5
370
  8
1
  6
CONTINUOUS
 62
     7
 10
112.0
 20
-176.5999999999999
 30
0.0
 11
103.0
 21
-176.5999999999999
 31
0.0
  0
LINE
  5
371
  8
1
  6
CONTINUOUS
 62
     7
 10
148.5
 20
-108.3999999999999
 30
0.0
 11
148.25
 21
-108.5166659999999
 31
0.0
  0
LINE
  5
372
  8
1
  6
CONTINUOUS
 62
     7
 10
90.90000000000002
 20
-130.9999999999999
 30
0.0
 11
90.90000000000002
 21
-138.9999999999999
 31
0.0
  0
LINE
  5
373
  8
1
  6
CONTINUOUS
 62
     7
 10
158.983334
 20
-164.7499999999999
 30
0.0
 11
158.983334
 21
-165.7499999999999
 31
0.0
  0
LINE
  5
374
  8
1
  6
CONTINUOUS
 62
     7
 10
147.25
 20
-108.5166659999999
 30
0.0
 11
147.0
 21
-108.3999999999999
 31
0.0
  0
LINE
  5
375
  8
1
  6
CONTINUOUS
 62
     7
 10
159.1
 20
-164.4999999999999
 30
0.0
 11
158.983334
 21
-164.7499999999999
 31
0.0
  0
LINE
  5
376
  8
1
  6
CONTINUOUS
 62
     7
 10
159.1
 20
-155.5
 30
0.0
 11
159.1
 21
-164.4999999999999
 31
0.0
  0
LINE
  5
377
  8
1
  6
CONTINUOUS
 62
     7
 10
128.5
 20
-108.3999999999999
 30
0.0
 11
136.5
 21
-108.3999999999999
 31
0.0
  0
LINE
  5
378
  8
1
  6
CONTINUOUS
 62
     7
 10
66.50000000000001
 20
-176.5999999999999
 30
0.0
 11
58.50000000000001
 21
-176.5999999999999
 31
0.0
  0
LINE
  5
379
  8
1
  6
CONTINUOUS
 62
     7
 10
91.01666600000001
 20
-94.74999999999994
 30
0.0
 11
91.01666600000001
 21
-95.74999999999994
 31
0.0
  0
LINE
  5
37A
  8
1
  6
CONTINUOUS
 62
     7
 10
148.25
 20
-108.5166659999999
 30
0.0
 11
147.25
 21
-108.5166659999999
 31
0.0
  0
LINE
  5
37B
  8
1
  6
CONTINUOUS
 62
     7
 10
91.01666600000001
 20
-108.0
 30
0.0
 11
91.01666600000001
 21
-107.0
 31
0.0
  0
LINE
  5
37C
  8
1
  6
CONTINUOUS
 62
     7
 10
91.01666600000001
 20
-119.25
 30
0.0
 11
91.01666600000001
 21
-120.25
 31
0.0
  0
LINE
  5
37D
  8
1
  6
CONTINUOUS
 62
     7
 10
101.5
 20
-176.5999999999999
 30
0.0
 11
101.75
 21
-176.483334
 31
0.0
  0
LINE
  5
37E
  8
1
  6
CONTINUOUS
 62
     7
 10
159.1
 20
-146.0
 30
0.0
 11
159.1
 21
-154.0
 31
0.0
  0
LINE
  5
37F
  8
1
  6
CONTINUOUS
 62
     7
 10
159.1
 20
-189.0
 30
0.0
 11
158.983334
 21
-189.25
 31
0.0
  0
LINE
  5
380
  8
1
  6
CONTINUOUS
 62
     7
 10
90.90000000000002
 20
-94.49999999999997
 30
0.0
 11
91.01666600000001
 21
-94.74999999999994
 31
0.0
  0
LINE
  5
381
  8
1
  6
CONTINUOUS
 62
     7
 10
138.0
 20
-108.3999999999999
 30
0.0
 11
137.75
 21
-108.5166659999999
 31
0.0
  0
LINE
  5
382
  8
1
  6
CONTINUOUS
 62
     7
 10
198.25
 20
-227.0817699999999
 30
0.0
 11
198.25
 21
-221.8
 31
0.0
  0
LINE
  5
383
  8
1
  6
CONTINUOUS
 62
     7
 10
113.25
 20
-141.483334
 30
0.0
 11
113.25
 21
-143.516666
 31
0.0
  0
LINE
  5
384
  8
1
  6
CONTINUOUS
 62
     7
 10
113.25
 20
-176.483334
 30
0.0
 11
113.25
 21
-178.516666
 31
0.0
  0
LINE
  5
385
  8
1
  6
CONTINUOUS
 62
     7
 10
78.25
 20
-71.48333399999996
 30
0.0
 11
77.25
 21
-71.48333399999996
 31
0.0
  0
LINE
  5
386
  8
1
  6
CONTINUOUS
 62
     7
 10
183.25
 20
-213.516666
 30
0.0
 11
183.5
 21
-213.4
 31
0.0
  0
ARC
  5
387
  8
1
  6
CONTINUOUS
 62
     7
 10
142.5
 20
-223.0
 30
0.0
 40
1.500000000000001
 50
270.0
 51
0.0
  0
LINE
  5
388
  8
1
  6
CONTINUOUS
 62
     7
 10
144.0
 20
-72.49999999999996
 30
0.0
 11
144.0
 21
-61.99999999999994
 31
0.0
  0
LINE
  5
389
  8
1
  6
CONTINUOUS
 62
     7
 10
107.5
 20
-224.5
 30
0.0
 11
142.5
 21
-224.5
 31
0.0
  0
LINE
  5
38A
  8
1
  6
CONTINUOUS
 62
     7
 10
107.5
 20
-73.99999999999996
 30
0.0
 11
123.379904
 21
-73.99999999999996
 31
0.0
  0
ARC
  5
38B
  8
1
  6
CONTINUOUS
 62
     7
 10
86.5
 20
-72.49999999999996
 30
0.0
 40
0.8999999999999841
 50
270.0
 51
90.0
  0
LINE
  5
38C
  8
1
  6
CONTINUOUS
 62
     7
 10
107.5
 20
-211.0
 30
0.0
 11
123.379904
 21
-211.0
 31
0.0
  0
LINE
  5
38D
  8
1
  6
CONTINUOUS
 62
     7
 10
123.778698
 20
-211.028698
 30
0.0
 11
123.379904
 21
-211.0
 31
0.0
  0
LINE
  5
38E
  8
1
  6
CONTINUOUS
 62
     7
 10
126.620096
 20
-211.0
 30
0.0
 11
142.5
 21
-211.0
 31
0.0
  0
LINE
  5
38F
  8
1
  6
CONTINUOUS
 62
     7
 10
175.75
 20
-221.8
 30
0.0
 11
175.75
 21
-227.08177
 31
0.0
  0
LINE
  5
390
  8
1
  6
CONTINUOUS
 62
     7
 10
126.620096
 20
-211.0
 30
0.0
 11
126.221302
 21
-211.028698
 31
0.0
  0
ARC
  5
391
  8
1
  6
CONTINUOUS
 62
     7
 10
107.5
 20
-72.49999999999996
 30
0.0
 40
1.500000000000001
 50
180.0
 51
270.0
  0
LINE
  5
392
  8
1
  6
CONTINUOUS
 62
     7
 10
77.0
 20
-71.6
 30
0.0
 11
67.99999999999999
 21
-71.6
 31
0.0
  0
LINE
  5
393
  8
1
  6
CONTINUOUS
 62
     7
 10
67.99999999999999
 20
-71.6
 30
0.0
 11
67.75
 21
-71.48333399999996
 31
0.0
  0
LINE
  5
394
  8
1
  6
CONTINUOUS
 62
     7
 10
101.75
 20
-143.516666
 30
0.0
 11
101.75
 21
-141.483334
 31
0.0
  0
ARC
  5
395
  8
1
  6
CONTINUOUS
 62
     7
 10
107.5
 20
-61.99999999999994
 30
0.0
 40
1.500000000000001
 50
90.0
 51
180.0
  0
LINE
  5
396
  8
1
  6
CONTINUOUS
 62
     7
 10
106.0
 20
-212.5
 30
0.0
 11
106.0
 21
-223.0
 31
0.0
  0
LINE
  5
397
  8
1
  6
CONTINUOUS
 62
     7
 10
163.5
 20
-213.4
 30
0.0
 11
171.5
 21
-213.4
 31
0.0
  0
ARC
  5
398
  8
1
  6
CONTINUOUS
 62
     7
 10
46.5
 20
-63.99999999999994
 30
0.0
 40
4.299999999999998
 50
181.131404
 51
88.86859600000003
  0
LINE
  5
399
  8
1
  6
CONTINUOUS
 62
     7
 10
193.983334
 20
-95.74999999999994
 30
0.0
 11
196.016666
 21
-95.74999999999994
 31
0.0
  0
ARC
  5
39A
  8
1
  6
CONTINUOUS
 62
     7
 10
198.5
 20
-212.5
 30
0.0
 40
0.9000000000000119
 50
90.0
 51
270.0
  0
LINE
  5
39B
  8
1
  6
CONTINUOUS
 62
     7
 10
171.5
 20
-213.4
 30
0.0
 11
171.75
 21
-213.5166659999999
 31
0.0
  0
LINE
  5
39C
  8
1
  6
CONTINUOUS
 62
     7
 10
144.0
 20
-212.5
 30
0.0
 11
144.0
 21
-223.0
 31
0.0
  0
LINE
  5
39D
  8
1
  6
CONTINUOUS
 62
     7
 10
175.75
 20
-227.0817699999999
 30
0.0
 11
198.25
 21
-227.0817699999999
 31
0.0
  0
ARC
  5
39E
  8
1
  6
CONTINUOUS
 62
     7
 10
107.5
 20
-223.0
 30
0.0
 40
1.500000000000001
 50
180.0
 51
270.0
  0
LINE
  5
39F
  8
1
  6
CONTINUOUS
 62
     7
 10
161.016666
 20
-94.74999999999994
 30
0.0
 11
158.983334
 21
-94.74999999999994
 31
0.0
  0
ARC
  5
3A0
  8
1
  6
CONTINUOUS
 62
     7
 10
142.5
 20
-61.99999999999994
 30
0.0
 40
1.500000000000001
 50
0.0
 51
90.0
  0
LINE
  5
3A1
  8
1
  6
CONTINUOUS
 62
     7
 10
106.0
 20
-72.49999999999996
 30
0.0
 11
106.0
 21
-61.99999999999994
 31
0.0
  0
LINE
  5
3A2
  8
1
  6
CONTINUOUS
 62
     7
 10
126.620096
 20
-73.99999999999996
 30
0.0
 11
142.5
 21
-73.99999999999996
 31
0.0
  0
LINE
  5
3A3
  8
1
  6
CONTINUOUS
 62
     7
 10
78.5
 20
-71.6
 30
0.0
 11
78.25
 21
-71.48333399999996
 31
0.0
  0
LINE
  5
3A4
  8
1
  6
CONTINUOUS
 62
     7
 10
171.75
 20
-213.516666
 30
0.0
 11
172.75
 21
-213.516666
 31
0.0
  0
LINE
  5
3A5
  8
1
  6
CONTINUOUS
 62
     7
 10
56.016666
 20
-212.0
 30
0.0
 11
53.983334
 21
-212.0
 31
0.0
  0
LINE
  5
3A6
  8
1
  6
CONTINUOUS
 62
     7
 10
107.5
 20
-60.49999999999994
 30
0.0
 11
142.5
 21
-60.49999999999994
 31
0.0
  0
LINE
  5
3A7
  8
1
  6
CONTINUOUS
 62
     7
 10
86.5
 20
-71.6
 30
0.0
 11
78.50000000000001
 21
-71.6
 31
0.0
  0
LINE
  5
3A8
  8
1
  6
CONTINUOUS
 62
     7
 10
53.983334
 20
-154.25
 30
0.0
 11
56.016666
 21
-154.25
 31
0.0
  0
ARC
  5
3A9
  8
1
  6
CONTINUOUS
 62
     7
 10
203.491138
 20
-220.991138
 30
0.0
 40
4.308694000000002
 50
268.9887309999999
 51
1.011269000000027
  0
LINE
  5
3AA
  8
1
  6
CONTINUOUS
 62
     7
 10
66.75000000000001
 20
-71.48333399999996
 30
0.0
 11
66.50000000000001
 21
-71.6
 31
0.0
  0
ARC
  5
3AB
  8
1
  6
CONTINUOUS
 62
     7
 10
203.491138
 20
-64.008862
 30
0.0
 40
4.308694000000002
 50
358.9887309999999
 51
91.01126899999997
  0
LINE
  5
3AC
  8
1
  6
CONTINUOUS
 62
     7
 10
123.379904
 20
-73.99999999999996
 30
0.0
 11
123.778698
 21
-73.97130199999997
 31
0.0
  0
LINE
  5
3AD
  8
1
  6
CONTINUOUS
 62
     7
 10
66.50000000000001
 20
-71.6
 30
0.0
 11
58.50000000000001
 21
-71.6
 31
0.0
  0
LINE
  5
3AE
  8
1
  6
CONTINUOUS
 62
     7
 10
172.75
 20
-213.516666
 30
0.0
 11
173.0
 21
-213.4
 31
0.0
  0
LINE
  5
3AF
  8
1
  6
CONTINUOUS
 62
     7
 10
53.983334
 20
-85.24999999999993
 30
0.0
 11
56.016666
 21
-85.24999999999993
 31
0.0
  0
LINE
  5
3B0
  8
1
  6
CONTINUOUS
 62
     7
 10
159.5
 20
-141.483334
 30
0.0
 11
159.5
 21
-143.516666
 31
0.0
  0
ARC
  5
3B1
  8
1
  6
CONTINUOUS
 62
     7
 10
46.5
 20
-221.0
 30
0.0
 40
4.299999999999998
 50
271.131404
 51
178.868596
  0
ARC
  5
3B2
  8
1
  6
CONTINUOUS
 62
     7
 10
203.5
 20
-221.0
 30
0.0
 40
4.299999999999998
 50
1.131404
 51
268.868596
  0
ARC
  5
3B3
  8
1
  6
CONTINUOUS
 62
     7
 10
203.5
 20
-63.99999999999994
 30
0.0
 40
4.299999999999998
 50
91.131404
 51
358.868596
  0
ARC
  5
3B4
  8
1
  6
CONTINUOUS
 62
     7
 10
142.5
 20
-72.49999999999996
 30
0.0
 40
1.500000000000001
 50
270.0
 51
0.0
  0
LINE
  5
3B5
  8
1
  6
CONTINUOUS
 62
     7
 10
102.75
 20
-141.483334
 30
0.0
 11
102.75
 21
-143.516666
 31
0.0
  0
LINE
  5
3B6
  8
1
  6
CONTINUOUS
 62
     7
 10
126.221302
 20
-73.97130199999997
 30
0.0
 11
126.620096
 21
-73.99999999999996
 31
0.0
  0
ARC
  5
3B7
  8
1
  6
CONTINUOUS
 62
     7
 10
142.5
 20
-212.5
 30
0.0
 40
1.500000000000001
 50
0.0
 51
90.0
  0
ARC
  5
3B8
  8
1
  6
CONTINUOUS
 62
     7
 10
51.5
 20
-72.49999999999996
 30
0.0
 40
0.899999999999998
 50
270.0
 51
90.0
  0
LINE
  5
3B9
  8
1
  6
CONTINUOUS
 62
     7
 10
136.75
 20
-141.483334
 30
0.0
 11
136.75
 21
-143.516666
 31
0.0
  0
ARC
  5
3BA
  8
1
  6
CONTINUOUS
 62
     7
 10
163.5
 20
-212.5
 30
0.0
 40
0.9000000000000119
 50
90.0
 51
270.0
  0
LINE
  5
3BB
  8
1
  6
CONTINUOUS
 62
     7
 10
183.5
 20
-213.4
 30
0.0
 11
191.5
 21
-213.4
 31
0.0
  0
CIRCLE
  5
3BC
  8
1
  6
CONTINUOUS
 62
     7
 10
125.0
 20
-142.4999999999999
 30
0.0
 40
0.7499999999999868
  0
LINE
  5
3BD
  8
1
  6
CONTINUOUS
 62
     7
 10
67.75000000000001
 20
-71.48333399999996
 30
0.0
 11
66.75000000000001
 21
-71.48333399999996
 31
0.0
  0
LINE
  5
3BE
  8
1
  6
CONTINUOUS
 62
     7
 10
77.25
 20
-71.48333399999996
 30
0.0
 11
77.0
 21
-71.6
 31
0.0
  0
LINE
  5
3BF
  8
1
  6
CONTINUOUS
 62
     7
 10
182.25
 20
-71.48333399999996
 30
0.0
 11
182.25
 21
-73.51666599999996
 31
0.0
  0
LINE
  5
3C0
  8
1
  6
CONTINUOUS
 62
     7
 10
196.016666
 20
-94.74999999999994
 30
0.0
 11
193.983334
 21
-94.74999999999994
 31
0.0
  0
LINE
  5
3C1
  8
1
  6
CONTINUOUS
 62
     7
 10
56.016666
 20
-94.74999999999994
 30
0.0
 11
53.983334
 21
-94.74999999999994
 31
0.0
  0
LINE
  5
3C2
  8
1
  6
CONTINUOUS
 62
     7
 10
182.25
 20
-213.516666
 30
0.0
 11
183.25
 21
-213.516666
 31
0.0
  0
LINE
  5
3C3
  8
1
  6
CONTINUOUS
 62
     7
 10
183.25
 20
-71.48333399999996
 30
0.0
 11
182.25
 21
-71.48333399999996
 31
0.0
  0
LINE
  5
3C4
  8
1
  6
CONTINUOUS
 62
     7
 10
183.25
 20
-73.51666599999996
 30
0.0
 11
183.5
 21
-73.39999999999996
 31
0.0
  0
LINE
  5
3C5
  8
1
  6
CONTINUOUS
 62
     7
 10
77.25
 20
-73.51666599999996
 30
0.0
 11
78.25
 21
-73.51666599999996
 31
0.0
  0
ARC
  5
3C6
  8
1
  6
CONTINUOUS
 62
     7
 10
46.50886199999999
 20
-64.008862
 30
0.0
 40
4.308694000000002
 50
88.988731
 51
181.0112689999999
  0
LINE
  5
3C7
  8
1
  6
CONTINUOUS
 62
     7
 10
78.25
 20
-213.516666
 30
0.0
 11
78.5
 21
-213.4
 31
0.0
  0
ARC
  5
3C8
  8
1
  6
CONTINUOUS
 62
     7
 10
86.5
 20
-212.5
 30
0.0
 40
0.8999999999999841
 50
270.0
 51
90.0
  0
LINE
  5
3C9
  8
1
  6
CONTINUOUS
 62
     7
 10
183.5
 20
-71.6
 30
0.0
 11
191.5
 21
-71.6
 31
0.0
  0
ARC
  5
3CA
  8
1
  6
CONTINUOUS
 62
     7
 10
51.5
 20
-177.5
 30
0.0
 40
0.899999999999998
 50
270.0
 51
90.0
  0
LINE
  5
3CB
  8
1
  6
CONTINUOUS
 62
     7
 10
66.50000000000001
 20
-73.39999999999996
 30
0.0
 11
66.75000000000001
 21
-73.51666599999996
 31
0.0
  0
LINE
  5
3CC
  8
1
  6
CONTINUOUS
 62
     7
 10
67.75000000000001
 20
-73.51666599999996
 30
0.0
 11
68.0
 21
-73.39999999999996
 31
0.0
  0
LINE
  5
3CD
  8
1
  6
CONTINUOUS
 62
     7
 10
66.75000000000001
 20
-213.516666
 30
0.0
 11
67.75000000000001
 21
-213.516666
 31
0.0
  0
LINE
  5
3CE
  8
1
  6
CONTINUOUS
 62
     7
 10
67.75000000000001
 20
-211.483334
 30
0.0
 11
66.75000000000001
 21
-211.483334
 31
0.0
  0
LINE
  5
3CF
  8
1
  6
CONTINUOUS
 62
     7
 10
171.5
 20
-73.39999999999996
 30
0.0
 11
163.5
 21
-73.39999999999996
 31
0.0
  0
ARC
  5
3D0
  8
1
  6
CONTINUOUS
 62
     7
 10
163.5
 20
-72.49999999999996
 30
0.0
 40
0.9000000000000119
 50
90.0
 51
270.0
  0
ARC
  5
3D1
  8
1
  6
CONTINUOUS
 62
     7
 10
160.0
 20
-61.99999999999994
 30
0.0
 40
0.9000000000000119
 50
0.0
 51
180.0
  0
ARC
  5
3D2
  8
1
  6
CONTINUOUS
 62
     7
 10
51.5
 20
-107.5
 30
0.0
 40
0.899999999999998
 50
270.0
 51
90.0
  0
LINE
  5
3D3
  8
1
  6
CONTINUOUS
 62
     7
 10
182.0
 20
-211.5999999999999
 30
0.0
 11
173.0
 21
-211.5999999999999
 31
0.0
  0
LINE
  5
3D4
  8
1
  6
CONTINUOUS
 62
     7
 10
66.50000000000001
 20
-213.4
 30
0.0
 11
66.75000000000001
 21
-213.5166659999999
 31
0.0
  0
LINE
  5
3D5
  8
1
  6
CONTINUOUS
 62
     7
 10
171.75
 20
-211.483334
 30
0.0
 11
171.5
 21
-211.5999999999999
 31
0.0
  0
LINE
  5
3D6
  8
1
  6
CONTINUOUS
 62
     7
 10
182.0
 20
-73.39999999999996
 30
0.0
 11
182.25
 21
-73.51666599999996
 31
0.0
  0
LINE
  5
3D7
  8
1
  6
CONTINUOUS
 62
     7
 10
67.99999999999999
 20
-211.5999999999999
 30
0.0
 11
67.75
 21
-211.483334
 31
0.0
  0
LINE
  5
3D8
  8
1
  6
CONTINUOUS
 62
     7
 10
77.0
 20
-213.4
 30
0.0
 11
77.25
 21
-213.5166659999999
 31
0.0
  0
ARC
  5
3D9
  8
1
  6
CONTINUOUS
 62
     7
 10
51.5
 20
-212.5
 30
0.0
 40
0.899999999999998
 50
270.0
 51
90.0
  0
LINE
  5
3DA
  8
1
  6
CONTINUOUS
 62
     7
 10
173.0
 20
-71.6
 30
0.0
 11
182.0
 21
-71.6
 31
0.0
  0
LINE
  5
3DB
  8
1
  6
CONTINUOUS
 62
     7
 10
78.25
 20
-73.51666599999996
 30
0.0
 11
78.5
 21
-73.39999999999996
 31
0.0
  0
LINE
  5
3DC
  8
1
  6
CONTINUOUS
 62
     7
 10
182.0
 20
-73.39999999999996
 30
0.0
 11
173.0
 21
-73.39999999999996
 31
0.0
  0
LINE
  5
3DD
  8
1
  6
CONTINUOUS
 62
     7
 10
182.25
 20
-73.51666599999996
 30
0.0
 11
183.25
 21
-73.51666599999996
 31
0.0
  0
LINE
  5
3DE
  8
1
  6
CONTINUOUS
 62
     7
 10
66.75000000000001
 20
-211.483334
 30
0.0
 11
66.50000000000001
 21
-211.5999999999999
 31
0.0
  0
LINE
  5
3DF
  8
1
  6
CONTINUOUS
 62
     7
 10
67.99999999999999
 20
-73.39999999999996
 30
0.0
 11
77.0
 21
-73.39999999999996
 31
0.0
  0
LINE
  5
3E0
  8
1
  6
CONTINUOUS
 62
     7
 10
58.5
 20
-211.5999999999999
 30
0.0
 11
66.5
 21
-211.5999999999999
 31
0.0
  0
ARC
  5
3E1
  8
1
  6
CONTINUOUS
 62
     7
 10
198.5
 20
-72.49999999999996
 30
0.0
 40
0.9000000000000119
 50
90.0
 51
270.0
  0
LINE
  5
3E2
  8
1
  6
CONTINUOUS
 62
     7
 10
78.5
 20
-73.39999999999996
 30
0.0
 11
86.49999999999999
 21
-73.39999999999996
 31
0.0
  0
LINE
  5
3E3
  8
1
  6
CONTINUOUS
 62
     7
 10
58.5
 20
-73.39999999999996
 30
0.0
 11
66.5
 21
-73.39999999999996
 31
0.0
  0
LINE
  5
3E4
  8
1
  6
CONTINUOUS
 62
     7
 10
66.75000000000001
 20
-73.51666599999996
 30
0.0
 11
67.75000000000001
 21
-73.51666599999996
 31
0.0
  0
ARC
  5
3E5
  8
1
  6
CONTINUOUS
 62
     7
 10
107.5
 20
-212.5
 30
0.0
 40
1.500000000000001
 50
90.0
 51
180.0
  0
LINE
  5
3E6
  8
1
  6
CONTINUOUS
 62
     7
 10
78.25
 20
-211.483334
 30
0.0
 11
77.25
 21
-211.483334
 31
0.0
  0
LINE
  5
3E7
  8
1
  6
CONTINUOUS
 62
     7
 10
172.75
 20
-71.48333399999996
 30
0.0
 11
171.75
 21
-71.48333399999996
 31
0.0
  0
LINE
  5
3E8
  8
1
  6
CONTINUOUS
 62
     7
 10
191.5
 20
-73.39999999999996
 30
0.0
 11
183.5
 21
-73.39999999999996
 31
0.0
  0
LINE
  5
3E9
  8
1
  6
CONTINUOUS
 62
     7
 10
78.5
 20
-211.5999999999999
 30
0.0
 11
78.25
 21
-211.483334
 31
0.0
  0
LINE
  5
3EA
  8
1
  6
CONTINUOUS
 62
     7
 10
172.75
 20
-73.51666599999996
 30
0.0
 11
173.0
 21
-73.39999999999996
 31
0.0
  0
LINE
  5
3EB
  8
1
  6
CONTINUOUS
 62
     7
 10
183.5
 20
-71.6
 30
0.0
 11
183.25
 21
-71.48333399999996
 31
0.0
  0
LINE
  5
3EC
  8
1
  6
CONTINUOUS
 62
     7
 10
86.5
 20
-213.4
 30
0.0
 11
78.50000000000001
 21
-213.4
 31
0.0
  0
LINE
  5
3ED
  8
1
  6
CONTINUOUS
 62
     7
 10
171.75
 20
-71.48333399999996
 30
0.0
 11
171.5
 21
-71.6
 31
0.0
  0
LINE
  5
3EE
  8
1
  6
CONTINUOUS
 62
     7
 10
67.99999999999999
 20
-211.5999999999999
 30
0.0
 11
77.0
 21
-211.5999999999999
 31
0.0
  0
ARC
  5
3EF
  8
1
  6
CONTINUOUS
 62
     7
 10
198.5
 20
-107.5
 30
0.0
 40
0.9000000000000119
 50
90.0
 51
270.0
  0
LINE
  5
3F0
  8
1
  6
CONTINUOUS
 62
     7
 10
173.0
 20
-211.5999999999999
 30
0.0
 11
172.75
 21
-211.483334
 31
0.0
  0
LINE
  5
3F1
  8
1
  6
CONTINUOUS
 62
     7
 10
175.75
 20
-221.8
 30
0.0
 11
198.25
 21
-221.8
 31
0.0
  0
LINE
  5
3F2
  8
1
  6
CONTINUOUS
 62
     7
 10
77.0
 20
-73.39999999999996
 30
0.0
 11
77.25
 21
-73.51666599999996
 31
0.0
  0
LINE
  5
3F3
  8
1
  6
CONTINUOUS
 62
     7
 10
173.0
 20
-213.4
 30
0.0
 11
182.0
 21
-213.4
 31
0.0
  0
LINE
  5
3F4
  8
1
  6
CONTINUOUS
 62
     7
 10
172.75
 20
-211.483334
 30
0.0
 11
171.75
 21
-211.483334
 31
0.0
  0
LINE
  5
3F5
  8
1
  6
CONTINUOUS
 62
     7
 10
77.25
 20
-211.483334
 30
0.0
 11
77.0
 21
-211.5999999999999
 31
0.0
  0
LINE
  5
3F6
  8
1
  6
CONTINUOUS
 62
     7
 10
66.50000000000001
 20
-213.4
 30
0.0
 11
58.50000000000001
 21
-213.4
 31
0.0
  0
LINE
  5
3F7
  8
1
  6
CONTINUOUS
 62
     7
 10
182.0
 20
-213.4
 30
0.0
 11
182.25
 21
-213.5166659999999
 31
0.0
  0
ARC
  5
3F8
  8
1
  6
CONTINUOUS
 62
     7
 10
46.50886199999999
 20
-220.991138
 30
0.0
 40
4.308694000000002
 50
178.988731
 51
271.011269
  0
LINE
  5
3F9
  8
1
  6
CONTINUOUS
 62
     7
 10
173.0
 20
-71.6
 30
0.0
 11
172.75
 21
-71.48333399999996
 31
0.0
  0
LINE
  5
3FA
  8
1
  6
CONTINUOUS
 62
     7
 10
183.25
 20
-211.483334
 30
0.0
 11
182.25
 21
-211.483334
 31
0.0
  0
LINE
  5
3FB
  8
1
  6
CONTINUOUS
 62
     7
 10
171.5
 20
-73.39999999999996
 30
0.0
 11
171.75
 21
-73.51666599999996
 31
0.0
  0
LINE
  5
3FC
  8
1
  6
CONTINUOUS
 62
     7
 10
77.0
 20
-213.4
 30
0.0
 11
67.99999999999999
 21
-213.4
 31
0.0
  0
LINE
  5
3FD
  8
1
  6
CONTINUOUS
 62
     7
 10
77.25
 20
-213.516666
 30
0.0
 11
78.25
 21
-213.516666
 31
0.0
  0
LINE
  5
3FE
  8
1
  6
CONTINUOUS
 62
     7
 10
182.25
 20
-211.483334
 30
0.0
 11
182.0
 21
-211.5999999999999
 31
0.0
  0
LINE
  5
3FF
  8
1
  6
CONTINUOUS
 62
     7
 10
182.25
 20
-71.48333399999996
 30
0.0
 11
182.0
 21
-71.6
 31
0.0
  0
LINE
  5
400
  8
1
  6
CONTINUOUS
 62
     7
 10
171.75
 20
-73.51666599999996
 30
0.0
 11
172.75
 21
-73.51666599999996
 31
0.0
  0
LINE
  5
401
  8
1
  6
CONTINUOUS
 62
     7
 10
78.5
 20
-211.5999999999999
 30
0.0
 11
86.49999999999999
 21
-211.5999999999999
 31
0.0
  0
CIRCLE
  5
402
  8
1
  6
CONTINUOUS
 62
     7
 10
174.0
 20
-223.0
 30
0.0
 40
1.34999999999999
  0
LINE
  5
403
  8
1
  6
CONTINUOUS
 62
     7
 10
182.25
 20
-176.483334
 30
0.0
 11
182.25
 21
-178.516666
 31
0.0
  0
CIRCLE
  5
404
  8
1
  6
CONTINUOUS
 62
     7
 10
170.5
 20
-216.0
 30
0.0
 40
1.34999999999999
  0
CIRCLE
  5
405
  8
1
  6
CONTINUOUS
 62
     7
 10
181.0
 20
-205.4999999999999
 30
0.0
 40
1.34999999999999
  0
CIRCLE
  5
406
  8
1
  6
CONTINUOUS
 62
     7
 10
203.5
 20
-63.99999999999994
 30
0.0
 40
2.500000000000002
  0
LINE
  5
407
  8
1
  6
CONTINUOUS
 62
     7
 10
193.983334
 20
-154.25
 30
0.0
 11
196.016666
 21
-154.25
 31
0.0
  0
CIRCLE
  5
408
  8
1
  6
CONTINUOUS
 62
     7
 10
174.0
 20
-219.5
 30
0.0
 40
1.34999999999999
  0
CIRCLE
  5
409
  8
1
  6
CONTINUOUS
 62
     7
 10
177.5
 20
-219.5
 30
0.0
 40
1.34999999999999
  0
CIRCLE
  5
40A
  8
1
  6
CONTINUOUS
 62
     7
 10
191.5
 20
-216.0
 30
0.0
 40
1.34999999999999
  0
CIRCLE
  5
40B
  8
1
  6
CONTINUOUS
 62
     7
 10
181.0
 20
-219.5
 30
0.0
 40
1.34999999999999
  0
CIRCLE
  5
40C
  8
1
  6
CONTINUOUS
 62
     7
 10
191.5
 20
-201.9999999999999
 30
0.0
 40
1.34999999999999
  0
CIRCLE
  5
40D
  8
1
  6
CONTINUOUS
 62
     7
 10
191.5
 20
-205.4999999999999
 30
0.0
 40
1.34999999999999
  0
CIRCLE
  5
40E
  8
1
  6
CONTINUOUS
 62
     7
 10
177.5
 20
-209.0
 30
0.0
 40
1.34999999999999
  0
LINE
  5
40F
  8
1
  6
CONTINUOUS
 62
     7
 10
112.25
 20
-178.516666
 30
0.0
 11
112.25
 21
-176.483334
 31
0.0
  0
CIRCLE
  5
410
  8
1
  6
CONTINUOUS
 62
     7
 10
181.0
 20
-216.0
 30
0.0
 40
1.34999999999999
  0
CIRCLE
  5
411
  8
1
  6
CONTINUOUS
 62
     7
 10
170.5
 20
-219.5
 30
0.0
 40
1.34999999999999
  0
LINE
  5
412
  8
1
  6
CONTINUOUS
 62
     7
 10
143.25
 20
-212.5
 30
0.0
 11
143.25
 21
-223.0
 31
0.0
  0
CIRCLE
  5
413
  8
1
  6
CONTINUOUS
 62
     7
 10
167.0
 20
-219.5
 30
0.0
 40
1.34999999999999
  0
CIRCLE
  5
414
  8
1
  6
CONTINUOUS
 62
     7
 10
191.5
 20
-209.0
 30
0.0
 40
1.34999999999999
  0
CIRCLE
  5
415
  8
1
  6
CONTINUOUS
 62
     7
 10
184.5
 20
-201.9999999999999
 30
0.0
 40
1.34999999999999
  0
CIRCLE
  5
416
  8
1
  6
CONTINUOUS
 62
     7
 10
181.0
 20
-209.0
 30
0.0
 40
1.34999999999999
  0
CIRCLE
  5
417
  8
1
  6
CONTINUOUS
 62
     7
 10
188.0
 20
-209.0
 30
0.0
 40
1.34999999999999
  0
LINE
  5
418
  8
1
  6
CONTINUOUS
 62
     7
 10
193.983334
 20
-120.25
 30
0.0
 11
196.016666
 21
-120.25
 31
0.0
  0
CIRCLE
  5
419
  8
1
  6
CONTINUOUS
 62
     7
 10
188.0
 20
-205.4999999999999
 30
0.0
 40
1.34999999999999
  0
LINE
  5
41A
  8
1
  6
CONTINUOUS
 62
     7
 10
183.25
 20
-178.516666
 30
0.0
 11
183.25
 21
-176.483334
 31
0.0
  0
CIRCLE
  5
41B
  8
1
  6
CONTINUOUS
 62
     7
 10
191.5
 20
-219.5
 30
0.0
 40
1.34999999999999
  0
CIRCLE
  5
41C
  8
1
  6
CONTINUOUS
 62
     7
 10
184.5
 20
-216.0
 30
0.0
 40
1.34999999999999
  0
LINE
  5
41D
  8
1
  6
CONTINUOUS
 62
     7
 10
194.1
 20
-155.5
 30
0.0
 11
195.9
 21
-155.5
 31
0.0
  0
LINE
  5
41E
  8
1
  6
CONTINUOUS
 62
     7
 10
158.983334
 20
-164.7499999999999
 30
0.0
 11
161.016666
 21
-164.7499999999999
 31
0.0
  0
LINE
  5
41F
  8
1
  6
CONTINUOUS
 62
     7
 10
123.983334
 20
-154.25
 30
0.0
 11
126.016666
 21
-154.25
 31
0.0
  0
LINE
  5
420
  8
1
  6
CONTINUOUS
 62
     7
 10
143.25
 20
-72.49999999999996
 30
0.0
 11
143.25
 21
-61.99999999999994
 31
0.0
  0
CIRCLE
  5
421
  8
1
  6
CONTINUOUS
 62
     7
 10
46.5
 20
-221.0
 30
0.0
 40
2.500000000000002
  0
CIRCLE
  5
422
  8
1
  6
CONTINUOUS
 62
     7
 10
184.5
 20
-205.4999999999999
 30
0.0
 40
1.34999999999999
  0
LINE
  5
423
  8
1
  6
CONTINUOUS
 62
     7
 10
126.016666
 20
-107.0
 30
0.0
 11
123.983334
 21
-107.0
 31
0.0
  0
LINE
  5
424
  8
1
  6
CONTINUOUS
 62
     7
 10
183.25
 20
-108.5166659999999
 30
0.0
 11
183.25
 21
-106.483334
 31
0.0
  0
CIRCLE
  5
425
  8
1
  6
CONTINUOUS
 62
     7
 10
184.5
 20
-219.5
 30
0.0
 40
1.34999999999999
  0
CIRCLE
  5
426
  8
1
  6
CONTINUOUS
 62
     7
 10
188.0
 20
-219.5
 30
0.0
 40
1.34999999999999
  0
CIRCLE
  5
427
  8
1
  6
CONTINUOUS
 62
     7
 10
163.5
 20
-223.0
 30
0.0
 40
1.34999999999999
  0
CIRCLE
  5
428
  8
1
  6
CONTINUOUS
 62
     7
 10
188.0
 20
-201.9999999999999
 30
0.0
 40
1.34999999999999
  0
LINE
  5
429
  8
1
  6
CONTINUOUS
 62
     7
 10
171.75
 20
-71.48333399999996
 30
0.0
 11
171.75
 21
-73.51666599999996
 31
0.0
  0
CIRCLE
  5
42A
  8
1
  6
CONTINUOUS
 62
     7
 10
188.0
 20
-198.4999999999999
 30
0.0
 40
1.34999999999999
  0
CIRCLE
  5
42B
  8
1
  6
CONTINUOUS
 62
     7
 10
191.5
 20
-198.4999999999999
 30
0.0
 40
1.34999999999999
  0
LINE
  5
42C
  8
1
  6
CONTINUOUS
 62
     7
 10
126.016666
 20
-155.25
 30
0.0
 11
123.983334
 21
-155.25
 31
0.0
  0
CIRCLE
  5
42D
  8
1
  6
CONTINUOUS
 62
     7
 10
174.0
 20
-216.0
 30
0.0
 40
1.34999999999999
  0
CIRCLE
  5
42E
  8
1
  6
CONTINUOUS
 62
     7
 10
191.5
 20
-194.9999999999999
 30
0.0
 40
1.34999999999999
  0
LINE
  5
42F
  8
1
  6
CONTINUOUS
 62
     7
 10
123.983334
 20
-108.0
 30
0.0
 11
126.016666
 21
-108.0
 31
0.0
  0
CIRCLE
  5
430
  8
1
  6
CONTINUOUS
 62
     7
 10
184.5
 20
-209.0
 30
0.0
 40
1.34999999999999
  0
CIRCLE
  5
431
  8
1
  6
CONTINUOUS
 62
     7
 10
177.5
 20
-216.0
 30
0.0
 40
1.34999999999999
  0
LINE
  5
432
  8
1
  6
CONTINUOUS
 62
     7
 10
88.98333400000001
 20
-85.24999999999993
 30
0.0
 11
91.01666600000001
 21
-85.24999999999993
 31
0.0
  0
LINE
  5
433
  8
1
  6
CENTER
 62
     1
 10
33.99999999999999
 20
-142.4999999999999
 30
0.0
 11
216.0
 21
-142.4999999999999
 31
0.0
  0
LINE
  5
435
  8
1
  6
CONTINUOUS
 62
     7
 10
77.25
 20
-73.51666599999996
 30
0.0
 11
77.25
 21
-71.48333399999996
 31
0.0
  0
LINE
  5
436
  8
1
  6
CONTINUOUS
 62
     7
 10
158.983334
 20
-120.25
 30
0.0
 11
161.016666
 21
-120.25
 31
0.0
  0
LINE
  5
437
  8
1
  6
CONTINUOUS
 62
     7
 10
101.75
 20
-178.516666
 30
0.0
 11
101.75
 21
-176.483334
 31
0.0
  0
CIRCLE
  5
438
  8
1
  6
CONTINUOUS
 62
     7
 10
167.0
 20
-223.0
 30
0.0
 40
1.34999999999999
  0
LINE
  5
439
  8
1
  6
CONTINUOUS
 62
     7
 10
106.75
 20
-212.5
 30
0.0
 11
106.75
 21
-223.0
 31
0.0
  0
LINE
  5
43A
  8
1
  6
CONTINUOUS
 62
     7
 10
106.75
 20
-72.49999999999996
 30
0.0
 11
106.75
 21
-61.99999999999994
 31
0.0
  0
LINE
  5
43B
  8
1
  6
CONTINUOUS
 62
     7
 10
195.9
 20
-154.0
 30
0.0
 11
194.1
 21
-154.0
 31
0.0
  0
LINE
  5
43C
  8
1
  6
CONTINUOUS
 62
     7
 10
161.016666
 20
-107.0
 30
0.0
 11
158.983334
 21
-107.0
 31
0.0
  0
CIRCLE
  5
43D
  8
1
  6
CONTINUOUS
 62
     7
 10
46.5
 20
-63.99999999999994
 30
0.0
 40
2.500000000000002
  0
CIRCLE
  5
43E
  8
1
  6
CONTINUOUS
 62
     7
 10
188.0
 20
-216.0
 30
0.0
 40
1.34999999999999
  0
CIRCLE
  5
43F
  8
1
  6
CONTINUOUS
 62
     7
 10
170.5
 20
-223.0
 30
0.0
 40
1.34999999999999
  0
LINE
  5
440
  8
1
  6
CONTINUOUS
 62
     7
 10
44.5
 20
-176.5999999999999
 30
0.0
 11
51.5
 21
-176.5999999999999
 31
0.0
  0
CIRCLE
  5
441
  8
1
  6
CONTINUOUS
 62
     7
 10
205.5
 20
-209.0
 30
0.0
 40
1.34999999999999
  0
LINE
  5
442
  8
1
  6
CONTINUOUS
 62
     7
 10
205.5
 20
-108.3999999999999
 30
0.0
 11
198.5
 21
-108.3999999999999
 31
0.0
  0
CIRCLE
  5
443
  8
1
  6
CONTINUOUS
 62
     7
 10
198.5
 20
-191.5
 30
0.0
 40
1.34999999999999
  0
CIRCLE
  5
444
  8
1
  6
CONTINUOUS
 62
     7
 10
198.5
 20
-198.4999999999999
 30
0.0
 40
1.34999999999999
  0
CIRCLE
  5
445
  8
1
  6
CONTINUOUS
 62
     7
 10
205.5
 20
-198.4999999999999
 30
0.0
 40
1.34999999999999
  0
ARC
  5
446
  8
1
  6
CONTINUOUS
 62
     7
 10
299.421448
 20
-59.53068199999999
 30
0.0
 40
1.800000000000024
 50
91.0
 51
180.0
  0
LINE
  5
447
  8
1
  6
CONTINUOUS
 62
     7
 10
44.5
 20
-211.5999999999999
 30
0.0
 11
51.5
 21
-211.5999999999999
 31
0.0
  0
ARC
  5
448
  8
1
  6
CONTINUOUS
 62
     7
 10
299.421448
 20
-225.4693179999999
 30
0.0
 40
1.800000000000024
 50
180.0
 51
269.0
  0
LINE
  5
449
  8
1
  6
CONTINUOUS
 62
     7
 10
137.75
 20
-108.5166659999999
 30
0.0
 11
137.75
 21
-106.483334
 31
0.0
  0
CIRCLE
  5
44A
  8
1
  6
CONTINUOUS
 62
     7
 10
198.5
 20
-194.9999999999999
 30
0.0
 40
1.34999999999999
  0
LINE
  5
44B
  8
1
  6
CONTINUOUS
 62
     7
 10
198.5
 20
-71.6
 30
0.0
 11
205.5
 21
-71.6
 31
0.0
  0
CIRCLE
  5
44C
  8
1
  6
CONTINUOUS
 62
     7
 10
198.5
 20
-209.0
 30
0.0
 40
1.34999999999999
  0
CIRCLE
  5
44D
  8
1
  6
CONTINUOUS
 62
     7
 10
205.5
 20
-201.9999999999999
 30
0.0
 40
1.34999999999999
  0
LINE
  5
44E
  8
1
  6
CONTINUOUS
 62
     7
 10
198.5
 20
-178.4
 30
0.0
 11
205.5
 21
-178.4
 31
0.0
  0
CIRCLE
  5
44F
  8
1
  6
CONTINUOUS
 62
     7
 10
205.5
 20
-194.9999999999999
 30
0.0
 40
1.34999999999999
  0
LINE
  5
450
  8
1
  6
CONTINUOUS
 62
     7
 10
297.6214479999999
 20
-225.4693179999999
 30
0.0
 11
297.6214479999999
 21
-59.53068199999997
 31
0.0
  0
LINE
  5
451
  8
1
  6
CONTINUOUS
 62
     7
 10
183.25
 20
-73.51666599999996
 30
0.0
 11
183.25
 21
-71.48333399999996
 31
0.0
  0
LINE
  5
452
  8
1
  6
CONTINUOUS
 62
     7
 10
51.5
 20
-106.6
 30
0.0
 11
44.5
 21
-106.6
 31
0.0
  0
LINE
  5
453
  8
1
  6
CONTINUOUS
 62
     7
 10
172.75
 20
-143.516666
 30
0.0
 11
172.75
 21
-141.483334
 31
0.0
  0
CIRCLE
  5
454
  8
1
  6
CONTINUOUS
 62
     7
 10
202.0
 20
-188.0
 30
0.0
 40
1.34999999999999
  0
LINE
  5
455
  8
1
  6
CONTINUOUS
 62
     7
 10
196.016666
 20
-71.99999999999996
 30
0.0
 11
193.983334
 21
-71.99999999999996
 31
0.0
  0
LINE
  5
456
  8
1
  6
CONTINUOUS
 62
     7
 10
198.5
 20
-106.6
 30
0.0
 11
205.5
 21
-106.6
 31
0.0
  0
LINE
  5
457
  8
1
  6
CONTINUOUS
 62
     7
 10
193.983334
 20
-108.0
 30
0.0
 11
196.016666
 21
-108.0
 31
0.0
  0
LINE
  5
458
  8
1
  6
CONTINUOUS
 62
     7
 10
196.016666
 20
-119.25
 30
0.0
 11
193.983334
 21
-119.25
 31
0.0
  0
LINE
  5
459
  8
1
  6
CONTINUOUS
 62
     7
 10
312.621448
 20
-227.4999999999999
 30
0.0
 11
299.390034
 21
-227.269044
 31
0.0
  0
CIRCLE
  5
45A
  8
1
  6
CONTINUOUS
 62
     7
 10
205.5
 20
-181.0
 30
0.0
 40
1.34999999999999
  0
LINE
  5
45B
  8
1
  6
CONTINUOUS
 62
     7
 10
198.5
 20
-213.4
 30
0.0
 11
205.5
 21
-213.4
 31
0.0
  0
LINE
  5
45C
  8
1
  6
CONTINUOUS
 62
     7
 10
205.5
 20
-211.5999999999999
 30
0.0
 11
198.5
 21
-211.5999999999999
 31
0.0
  0
CIRCLE
  5
45D
  8
1
  6
CONTINUOUS
 62
     7
 10
198.5
 20
-201.9999999999999
 30
0.0
 40
1.34999999999999
  0
CIRCLE
  5
45E
  8
1
  6
CONTINUOUS
 62
     7
 10
205.5
 20
-191.5
 30
0.0
 40
1.34999999999999
  0
LINE
  5
45F
  8
1
  6
CONTINUOUS
 62
     7
 10
44.5
 20
-73.39999999999996
 30
0.0
 11
51.5
 21
-73.39999999999996
 31
0.0
  0
LINE
  5
460
  8
1
  6
CENTER
 62
     1
 10
125.0
 20
-233.4999999999999
 30
0.0
 11
125.0
 21
-51.49999999999991
 31
0.0
  0
LINE
  5
461
  8
1
  6
CONTINUOUS
 62
     7
 10
51.5
 20
-178.4
 30
0.0
 11
44.5
 21
-178.4
 31
0.0
  0
LINE
  5
462
  8
1
  6
CONTINUOUS
 62
     7
 10
205.5
 20
-73.39999999999996
 30
0.0
 11
198.5
 21
-73.39999999999996
 31
0.0
  0
CIRCLE
  5
463
  8
1
  6
CONTINUOUS
 62
     7
 10
205.5
 20
-205.4999999999999
 30
0.0
 40
1.34999999999999
  0
LINE
  5
464
  8
1
  6
CONTINUOUS
 62
     7
 10
196.016666
 20
-129.75
 30
0.0
 11
193.983334
 21
-129.75
 31
0.0
  0
LINE
  5
465
  8
1
  6
CONTINUOUS
 62
     7
 10
158.983334
 20
-108.0
 30
0.0
 11
161.016666
 21
-108.0
 31
0.0
  0
CIRCLE
  5
466
  8
1
  6
CONTINUOUS
 62
     7
 10
202.0
 20
-205.4999999999999
 30
0.0
 40
1.34999999999999
  0
LINE
  5
467
  8
1
  6
CONTINUOUS
 62
     7
 10
182.25
 20
-106.483334
 30
0.0
 11
182.25
 21
-108.5166659999999
 31
0.0
  0
CIRCLE
  5
468
  8
1
  6
CONTINUOUS
 62
     7
 10
198.5
 20
-205.4999999999999
 30
0.0
 40
1.34999999999999
  0
CIRCLE
  5
469
  8
1
  6
CONTINUOUS
 62
     7
 10
203.5
 20
-221.0
 30
0.0
 40
2.500000000000002
  0
LINE
  5
46A
  8
1
  6
CONTINUOUS
 62
     7
 10
147.25
 20
-141.483334
 30
0.0
 11
147.25
 21
-143.516666
 31
0.0
  0
CIRCLE
  5
46B
  8
1
  6
CONTINUOUS
 62
     7
 10
125.0
 20
-142.4999999999999
 30
0.0
 40
1.349999999999976
  0
LINE
  5
46C
  8
1
  6
CONTINUOUS
 62
     7
 10
123.983334
 20
-120.25
 30
0.0
 11
126.016666
 21
-120.25
 31
0.0
  0
CIRCLE
  5
46D
  8
1
  6
CONTINUOUS
 62
     7
 10
202.0
 20
-184.5
 30
0.0
 40
1.34999999999999
  0
LINE
  5
46E
  8
1
  6
CONTINUOUS
 62
     7
 10
205.5
 20
-176.5999999999999
 30
0.0
 11
198.5
 21
-176.5999999999999
 31
0.0
  0
CIRCLE
  5
46F
  8
1
  6
CONTINUOUS
 62
     7
 10
202.0
 20
-209.0
 30
0.0
 40
1.34999999999999
  0
CIRCLE
  5
470
  8
1
  6
CONTINUOUS
 62
     7
 10
198.5
 20
-216.0
 30
0.0
 40
1.34999999999999
  0
LINE
  5
471
  8
1
  6
CONTINUOUS
 62
     7
 10
158.983334
 20
-85.24999999999993
 30
0.0
 11
161.016666
 21
-85.24999999999993
 31
0.0
  0
LINE
  5
472
  8
1
  6
CONTINUOUS
 62
     7
 10
196.016666
 20
-107.0
 30
0.0
 11
193.983334
 21
-107.0
 31
0.0
  0
LINE
  5
473
  8
1
  6
CONTINUOUS
 62
     7
 10
51.5
 20
-71.6
 30
0.0
 11
44.5
 21
-71.6
 31
0.0
  0
CIRCLE
  5
474
  8
1
  6
CONTINUOUS
 62
     7
 10
198.5
 20
-188.0
 30
0.0
 40
1.34999999999999
  0
LINE
  5
475
  8
1
  6
CONTINUOUS
 62
     7
 10
44.5
 20
-108.3999999999999
 30
0.0
 11
51.5
 21
-108.3999999999999
 31
0.0
  0
CIRCLE
  5
476
  8
1
  6
CONTINUOUS
 62
     7
 10
205.5
 20
-184.5
 30
0.0
 40
1.34999999999999
  0
LINE
  5
477
  8
1
  6
CONTINUOUS
 62
     7
 10
193.983334
 20
-72.99999999999996
 30
0.0
 11
196.016666
 21
-72.99999999999996
 31
0.0
  0
LINE
  5
478
  8
1
  6
CONTINUOUS
 62
     7
 10
182.25
 20
-141.483334
 30
0.0
 11
182.25
 21
-143.516666
 31
0.0
  0
LINE
  5
479
  8
1
  6
CONTINUOUS
 62
     7
 10
196.016666
 20
-155.25
 30
0.0
 11
193.983334
 21
-155.25
 31
0.0
  0
CIRCLE
  5
47A
  8
1
  6
CONTINUOUS
 62
     7
 10
202.0
 20
-191.5
 30
0.0
 40
1.34999999999999
  0
LINE
  5
47B
  8
1
  6
CONTINUOUS
 62
     7
 10
158.983334
 20
-130.75
 30
0.0
 11
161.016666
 21
-130.75
 31
0.0
  0
CIRCLE
  5
47C
  8
1
  6
CONTINUOUS
 62
     7
 10
205.5
 20
-188.0
 30
0.0
 40
1.34999999999999
  0
LINE
  5
47D
  8
1
  6
CONTINUOUS
 62
     7
 10
51.5
 20
-213.4
 30
0.0
 11
44.5
 21
-213.4
 31
0.0
  0
CIRCLE
  5
47E
  8
1
  6
CONTINUOUS
 62
     7
 10
202.0
 20
-201.9999999999999
 30
0.0
 40
1.34999999999999
  0
CIRCLE
  5
47F
  8
1
  6
CONTINUOUS
 62
     7
 10
202.0
 20
-198.4999999999999
 30
0.0
 40
1.34999999999999
  0
LINE
  5
480
  8
1
  6
CONTINUOUS
 62
     7
 10
103.0
 20
-143.3999999999999
 30
0.0
 11
112.0
 21
-143.3999999999999
 31
0.0
  0
LINE
  5
481
  8
1
  6
CONTINUOUS
 62
     7
 10
126.016666
 20
-165.7499999999999
 30
0.0
 11
123.983334
 21
-165.7499999999999
 31
0.0
  0
ARC
  5
482
  8
1
  6
CONTINUOUS
 62
     7
 10
42.03068199999999
 20
-306.921448
 30
0.0
 40
1.800000000000003
 50
90.0
 51
179.0
  0
LINE
  5
483
  8
1
  6
CONTINUOUS
 62
     7
 10
78.5
 20
-143.3999999999999
 30
0.0
 11
89.25
 21
-143.3999999999999
 31
0.0
  0
LINE
  5
484
  8
1
  6
CONTINUOUS
 62
     7
 10
77.0
 20
-143.3999999999999
 30
0.0
 11
77.25
 21
-143.516666
 31
0.0
  0
LINE
  5
485
  8
1
  6
CONTINUOUS
 62
     7
 10
102.75
 20
-176.483334
 30
0.0
 11
102.75
 21
-178.516666
 31
0.0
  0
LINE
  5
486
  8
1
  6
CONTINUOUS
 62
     7
 10
56.016666
 20
-119.25
 30
0.0
 11
53.983334
 21
-119.25
 31
0.0
  0
LINE
  5
487
  8
1
  6
CONTINUOUS
 62
     7
 10
39.99999999999999
 20
-219.5
 30
0.0
 11
39.99999999999999
 21
-65.49999999999994
 31
0.0
  0
LINE
  5
488
  8
1
  6
CONTINUOUS
 62
     7
 10
141.75
 20
-212.5
 30
0.0
 11
141.75
 21
-223.0
 31
0.0
  0
ARC
  5
489
  8
1
  6
CONTINUOUS
 62
     7
 10
48.0
 20
-219.5
 30
0.0
 40
8.0
 50
180.0
 51
270.0
  0
ARC
  5
48A
  8
1
  6
CONTINUOUS
 62
     7
 10
202.0
 20
-65.49999999999994
 30
0.0
 40
8.000000000000007
 50
0.0
 51
90.0
  0
LINE
  5
48B
  8
1
  6
CONTINUOUS
 62
     7
 10
89.50000000000001
 20
-143.516666
 30
0.0
 11
90.50000000000001
 21
-143.516666
 31
0.0
  0
LINE
  5
48C
  8
1
  6
CONTINUOUS
 62
     7
 10
312.621448
 20
-57.49999999999993
 30
0.0
 11
299.390034
 21
-57.73095599999994
 31
0.0
  0
LINE
  5
48D
  8
1
  6
CONTINUOUS
 62
     7
 10
91.01666600000001
 20
-119.25
 30
0.0
 11
88.98333400000001
 21
-119.25
 31
0.0
  0
LINE
  5
48E
  8
1
  6
CONTINUOUS
 62
     7
 10
53.983334
 20
-107.0
 30
0.0
 11
56.016666
 21
-107.0
 31
0.0
  0
LINE
  5
48F
  8
1
  6
CONTINUOUS
 62
     7
 10
203.415094
 20
-305.1214479999999
 30
0.0
 11
207.799992
 21
-305.121576
 31
0.0
  0
LINE
  5
490
  8
1
  6
CONTINUOUS
 62
     7
 10
196.016666
 20
-190.25
 30
0.0
 11
193.983334
 21
-190.25
 31
0.0
  0
LINE
  5
491
  8
1
  6
CONTINUOUS
 62
     7
 10
42.03068199999999
 20
-305.1214479999999
 30
0.0
 11
207.969318
 21
-305.1214479999999
 31
0.0
  0
LINE
  5
492
  8
1
  6
CONTINUOUS
 62
     7
 10
297.6214479999999
 20
-64.08490599999995
 30
0.0
 11
297.621814
 21
-59.70044199999997
 31
0.0
  0
LINE
  5
493
  8
1
  6
CONTINUOUS
 62
     7
 10
108.25
 20
-72.49999999999996
 30
0.0
 11
108.25
 21
-61.99999999999994
 31
0.0
  0
LINE
  5
494
  8
1
  6
CONTINUOUS
 62
     7
 10
210.0
 20
-320.121448
 30
0.0
 11
209.769044
 21
-306.890034
 31
0.0
  0
ARC
  5
495
  8
1
  6
CONTINUOUS
 62
     7
 10
142.5
 20
-61.99999999999994
 30
0.0
 40
0.7500000000000007
 50
0.0
 51
180.0
  0
LINE
  5
496
  8
1
  6
CONTINUOUS
 62
     7
 10
67.75000000000001
 20
-211.483334
 30
0.0
 11
67.75000000000001
 21
-213.5166659999999
 31
0.0
  0
LINE
  5
497
  8
1
  6
CONTINUOUS
 62
     7
 10
56.016666
 20
-129.75
 30
0.0
 11
53.983334
 21
-129.75
 31
0.0
  0
LINE
  5
498
  8
1
  6
CONTINUOUS
 62
     7
 10
91.01666600000001
 20
-200.75
 30
0.0
 11
88.98333400000001
 21
-200.75
 31
0.0
  0
LINE
  5
499
  8
1
  6
CONTINUOUS
 62
     7
 10
312.621448
 20
-57.49999999999993
 30
0.0
 11
312.621448
 21
-227.4999999999999
 31
0.0
  0
LINE
  5
49A
  8
1
  6
CONTINUOUS
 62
     7
 10
53.983334
 20
-95.74999999999994
 30
0.0
 11
56.016666
 21
-95.74999999999994
 31
0.0
  0
LINE
  5
49B
  8
1
  6
CONTINUOUS
 62
     7
 10
78.25
 20
-143.516666
 30
0.0
 11
78.5
 21
-143.3999999999999
 31
0.0
  0
LINE
  5
49C
  8
1
  6
CONTINUOUS
 62
     7
 10
198.25
 20
-306.1214479999999
 30
0.0
 11
198.25
 21
-305.1214479999999
 31
0.0
  0
LINE
  5
49D
  8
1
  6
CONTINUOUS
 62
     7
 10
102.75
 20
-143.516666
 30
0.0
 11
103.0
 21
-143.3999999999999
 31
0.0
  0
ARC
  5
49E
  8
1
  6
CONTINUOUS
 62
     7
 10
142.5
 20
-223.0
 30
0.0
 40
0.7500000000000007
 50
180.0
 51
0.0
  0
ARC
  5
49F
  8
1
  6
CONTINUOUS
 62
     7
 10
142.5
 20
-72.49999999999996
 30
0.0
 40
0.7500000000000007
 50
180.0
 51
0.0
  0
LINE
  5
4A0
  8
1
  6
CONTINUOUS
 62
     7
 10
39.99999999999999
 20
-320.121448
 30
0.0
 11
40.230956
 21
-306.890034
 31
0.0
  0
LINE
  5
4A1
  8
1
  6
CONTINUOUS
 62
     7
 10
113.25
 20
-143.516666
 30
0.0
 11
112.25
 21
-143.516666
 31
0.0
  0
ARC
  5
4A2
  8
1
  6
CONTINUOUS
 62
     7
 10
107.5
 20
-212.5
 30
0.0
 40
0.7500000000000007
 50
0.0
 51
180.0
  0
LINE
  5
4A3
  8
1
  6
CONTINUOUS
 62
     7
 10
112.25
 20
-143.516666
 30
0.0
 11
112.0
 21
-143.3999999999999
 31
0.0
  0
LINE
  5
4A4
  8
1
  6
CONTINUOUS
 62
     7
 10
90.75000000000001
 20
-143.3999999999999
 30
0.0
 11
101.5
 21
-143.3999999999999
 31
0.0
  0
ARC
  5
4A5
  8
1
  6
CONTINUOUS
 62
     7
 10
107.5
 20
-61.99999999999994
 30
0.0
 40
0.7500000000000007
 50
0.0
 51
180.0
  0
ARC
  5
4A6
  8
1
  6
CONTINUOUS
 62
     7
 10
125.0
 20
-138.9999999999999
 30
0.0
 40
0.899999999999998
 50
180.0
 51
0.0
  0
ARC
  5
4A7
  8
1
  6
CONTINUOUS
 62
     7
 10
125.0
 20
-146.0
 30
0.0
 40
0.899999999999998
 50
0.0
 51
180.0
  0
LINE
  5
4A8
  8
1
  6
CONTINUOUS
 62
     7
 10
108.25
 20
-212.5
 30
0.0
 11
108.25
 21
-223.0
 31
0.0
  0
LINE
  5
4A9
  8
1
  6
CONTINUOUS
 62
     7
 10
207.799992
 20
-305.121576
 30
0.0
 11
207.799162
 21
-305.1214479999999
 31
0.0
  0
LINE
  5
4AA
  8
1
  6
CONTINUOUS
 62
     7
 10
175.75
 20
-306.1214479999999
 30
0.0
 11
198.25
 21
-306.1214479999999
 31
0.0
  0
LINE
  5
4AB
  8
1
  6
CONTINUOUS
 62
     7
 10
101.75
 20
-143.516666
 30
0.0
 11
102.75
 21
-143.516666
 31
0.0
  0
LINE
  5
4AC
  8
1
  6
CONTINUOUS
 62
     7
 10
101.5
 20
-143.3999999999999
 30
0.0
 11
101.75
 21
-143.516666
 31
0.0
  0
LINE
  5
4AD
  8
1
  6
CONTINUOUS
 62
     7
 10
90.50000000000001
 20
-143.516666
 30
0.0
 11
90.75000000000001
 21
-143.3999999999999
 31
0.0
  0
ARC
  5
4AE
  8
1
  6
CONTINUOUS
 62
     7
 10
125.0
 20
-223.0
 30
0.0
 40
0.899999999999998
 50
180.0
 51
0.0
  0
ARC
  5
4AF
  8
1
  6
CONTINUOUS
 62
     7
 10
125.0
 20
-61.99999999999994
 30
0.0
 40
0.899999999999998
 50
0.0
 51
180.0
  0
LINE
  5
4B0
  8
1
  6
CONTINUOUS
 62
     7
 10
175.75
 20
-305.1214479999999
 30
0.0
 11
175.75
 21
-306.1214479999999
 31
0.0
  0
LINE
  5
4B1
  8
1
  6
CONTINUOUS
 62
     7
 10
210.0
 20
-320.121448
 30
0.0
 11
39.99999999999998
 21
-320.121448
 31
0.0
  0
LINE
  5
4B2
  8
1
  6
CONTINUOUS
 62
     7
 10
141.75
 20
-72.49999999999996
 30
0.0
 11
141.75
 21
-61.99999999999994
 31
0.0
  0
LINE
  5
4B3
  8
1
  6
CONTINUOUS
 62
     7
 10
77.25
 20
-143.516666
 30
0.0
 11
78.25
 21
-143.516666
 31
0.0
  0
ARC
  5
4B4
  8
1
  6
CONTINUOUS
 62
     7
 10
202.0
 20
-219.5
 30
0.0
 40
8.000000000000007
 50
270.0
 51
0.0
  0
LINE
  5
4B5
  8
1
  6
CONTINUOUS
 62
     7
 10
210.0
 20
-65.49999999999994
 30
0.0
 11
210.0
 21
-219.5
 31
0.0
  0
ARC
  5
4B6
  8
1
  6
CONTINUOUS
 62
     7
 10
107.5
 20
-72.49999999999996
 30
0.0
 40
0.7500000000000007
 50
180.0
 51
0.0
  0
LINE
  5
4B7
  8
1
  6
CONTINUOUS
 62
     7
 10
89.25000000000001
 20
-143.3999999999999
 30
0.0
 11
89.50000000000001
 21
-143.516666
 31
0.0
  0
LINE
  5
4B8
  8
1
  6
CONTINUOUS
 62
     7
 10
53.983334
 20
-120.25
 30
0.0
 11
56.016666
 21
-120.25
 31
0.0
  0
LINE
  5
4B9
  8
1
  6
CONTINUOUS
 62
     7
 10
161.016666
 20
-155.25
 30
0.0
 11
158.983334
 21
-155.25
 31
0.0
  0
ARC
  5
4BA
  8
1
  6
CONTINUOUS
 62
     7
 10
107.5
 20
-223.0
 30
0.0
 40
0.7500000000000007
 50
180.0
 51
0.0
  0
LINE
  5
4BB
  8
1
  6
CONTINUOUS
 62
     7
 10
193.983334
 20
-212.0
 30
0.0
 11
196.016666
 21
-212.0
 31
0.0
  0
LINE
  5
4BC
  8
1
  6
CONTINUOUS
 62
     7
 10
48.0
 20
-57.49999999999993
 30
0.0
 11
202.0
 21
-57.49999999999993
 31
0.0
  0
ARC
  5
4BD
  8
1
  6
CONTINUOUS
 62
     7
 10
207.969318
 20
-306.921448
 30
0.0
 40
1.799999999999996
 50
1.0
 51
90.0
  0
LINE
  5
4BE
  8
1
  6
CONTINUOUS
 62
     7
 10
67.75000000000001
 20
-143.516666
 30
0.0
 11
68.0
 21
-143.3999999999999
 31
0.0
  0
CIRCLE
  5
4BF
  8
1
  6
CONTINUOUS
 62
     7
 10
202.0
 20
-194.9999999999999
 30
0.0
 40
1.34999999999999
  0
LINE
  5
4C0
  8
1
  6
CONTINUOUS
 62
     7
 10
91.01666600000001
 20
-129.75
 30
0.0
 11
88.98333400000001
 21
-129.75
 31
0.0
  0
LINE
  5
4C1
  8
1
  6
CONTINUOUS
 62
     7
 10
112.25
 20
-108.5166659999999
 30
0.0
 11
112.25
 21
-106.483334
 31
0.0
  0
LINE
  5
4C2
  8
1
  6
CONTINUOUS
 62
     7
 10
161.016666
 20
-178.0
 30
0.0
 11
158.983334
 21
-178.0
 31
0.0
  0
LINE
  5
4C3
  8
1
  6
CONTINUOUS
 62
     7
 10
53.983334
 20
-71.99999999999996
 30
0.0
 11
56.016666
 21
-71.99999999999996
 31
0.0
  0
ARC
  5
4C4
  8
1
  6
CONTINUOUS
 62
     7
 10
142.5
 20
-212.5
 30
0.0
 40
0.7500000000000007
 50
0.0
 51
180.0
  0
LINE
  5
4C5
  8
1
  6
CONTINUOUS
 62
     7
 10
126.016666
 20
-178.0
 30
0.0
 11
123.983334
 21
-178.0
 31
0.0
  0
LINE
  5
4C6
  8
1
  6
CONTINUOUS
 62
     7
 10
88.98333400000001
 20
-189.25
 30
0.0
 11
91.01666600000001
 21
-189.25
 31
0.0
  0
LINE
  5
4C7
  8
1
  6
CONTINUOUS
 62
     7
 10
161.016666
 20
-200.75
 30
0.0
 11
158.983334
 21
-200.75
 31
0.0
  0
LINE
  5
4C8
  8
1
  6
CONTINUOUS
 62
     7
 10
123.983334
 20
-177.0
 30
0.0
 11
126.016666
 21
-177.0
 31
0.0
  0
LINE
  5
4C9
  8
1
  6
CONTINUOUS
 62
     7
 10
67.75000000000001
 20
-176.483334
 30
0.0
 11
67.75000000000001
 21
-178.516666
 31
0.0
  0
LINE
  5
4CA
  8
1
  6
CONTINUOUS
 62
     7
 10
136.75
 20
-176.483334
 30
0.0
 11
136.75
 21
-178.516666
 31
0.0
  0
LINE
  5
4CB
  8
1
  6
CONTINUOUS
 62
     7
 10
123.983334
 20
-212.0
 30
0.0
 11
126.016666
 21
-212.0
 31
0.0
  0
LINE
  5
4CC
  8
1
  6
CONTINUOUS
 62
     7
 10
171.75
 20
-176.483334
 30
0.0
 11
171.75
 21
-178.516666
 31
0.0
  0
LINE
  5
4CD
  8
1
  6
CONTINUOUS
 62
     7
 10
196.016666
 20
-84.24999999999993
 30
0.0
 11
193.983334
 21
-84.24999999999993
 31
0.0
  0
LINE
  5
4CE
  8
1
  6
CONTINUOUS
 62
     7
 10
158.983334
 20
-95.74999999999994
 30
0.0
 11
161.016666
 21
-95.74999999999994
 31
0.0
  0
LINE
  5
4CF
  8
1
  6
CONTINUOUS
 62
     7
 10
56.016666
 20
-200.75
 30
0.0
 11
53.983334
 21
-200.75
 31
0.0
  0
LINE
  5
4D0
  8
1
  6
CONTINUOUS
 62
     7
 10
66.75000000000001
 20
-178.516666
 30
0.0
 11
66.75000000000001
 21
-176.483334
 31
0.0
  0
LINE
  5
4D1
  8
1
  6
CONTINUOUS
 62
     7
 10
161.016666
 20
-213.0
 30
0.0
 11
158.983334
 21
-213.0
 31
0.0
  0
LINE
  5
4D2
  8
1
  6
CONTINUOUS
 62
     7
 10
172.75
 20
-178.516666
 30
0.0
 11
172.75
 21
-176.483334
 31
0.0
  0
LINE
  5
4D3
  8
1
  6
CONTINUOUS
 62
     7
 10
196.016666
 20
-213.0
 30
0.0
 11
193.983334
 21
-213.0
 31
0.0
  0
LINE
  5
4D4
  8
1
  6
CONTINUOUS
 62
     7
 10
160.5
 20
-143.516666
 30
0.0
 11
160.5
 21
-141.483334
 31
0.0
  0
LINE
  5
4D5
  8
1
  6
CONTINUOUS
 62
     7
 10
53.983334
 20
-130.75
 30
0.0
 11
56.016666
 21
-130.75
 31
0.0
  0
LINE
  5
4D6
  8
1
  6
CONTINUOUS
 62
     7
 10
202.0
 20
-227.4999999999999
 30
0.0
 11
47.99999999999999
 21
-227.4999999999999
 31
0.0
  0
LINE
  5
4D7
  8
1
  6
CONTINUOUS
 62
     7
 10
90.50000000000001
 20
-141.483334
 30
0.0
 11
90.50000000000001
 21
-143.516666
 31
0.0
  0
LINE
  5
4D8
  8
1
  6
CONTINUOUS
 62
     7
 10
89.50000000000001
 20
-143.516666
 30
0.0
 11
89.50000000000001
 21
-141.483334
 31
0.0
  0
LINE
  5
4D9
  8
1
  6
CONTINUOUS
 62
     7
 10
77.25
 20
-143.516666
 30
0.0
 11
77.25
 21
-141.483334
 31
0.0
  0
ARC
  5
4DA
  8
1
  6
CONTINUOUS
 62
     7
 10
48.0
 20
-65.49999999999994
 30
0.0
 40
8.0
 50
90.0
 51
180.0
  0
LINE
  5
4DB
  8
1
  6
CONTINUOUS
 62
     7
 10
123.983334
 20
-189.25
 30
0.0
 11
126.016666
 21
-189.25
 31
0.0
  0
LINE
  5
4DC
  8
1
  6
CONTINUOUS
 62
     7
 10
56.016666
 20
-108.0
 30
0.0
 11
53.983334
 21
-108.0
 31
0.0
  0
LINE
  5
4DD
  8
1
  6
CONTINUOUS
 62
     7
 10
88.98333400000001
 20
-71.99999999999996
 30
0.0
 11
91.01666600000001
 21
-71.99999999999996
 31
0.0
  0
LINE
  5
4DE
  8
1
  6
CONTINUOUS
 62
     7
 10
126.016666
 20
-190.25
 30
0.0
 11
123.983334
 21
-190.25
 31
0.0
  0
LINE
  5
4DF
  8
1
  6
CONTINUOUS
 62
     7
 10
196.016666
 20
-178.0
 30
0.0
 11
193.983334
 21
-178.0
 31
0.0
  0
LINE
  5
4E0
  8
1
  6
CONTINUOUS
 62
     7
 10
147.25
 20
-106.483334
 30
0.0
 11
147.25
 21
-108.5166659999999
 31
0.0
  0
LINE
  5
4E1
  8
1
  6
CONTINUOUS
 62
     7
 10
91.01666600000001
 20
-72.99999999999996
 30
0.0
 11
88.98333400000001
 21
-72.99999999999996
 31
0.0
  0
LINE
  5
4E2
  8
1
  6
CONTINUOUS
 62
     7
 10
67.75000000000001
 20
-71.48333399999996
 30
0.0
 11
67.75000000000001
 21
-73.51666599999996
 31
0.0
  0
LINE
  5
4E3
  8
1
  6
CONTINUOUS
 62
     7
 10
123.983334
 20
-164.7499999999999
 30
0.0
 11
126.016666
 21
-164.7499999999999
 31
0.0
  0
LINE
  5
4E4
  8
1
  6
CONTINUOUS
 62
     7
 10
101.75
 20
-108.5166659999999
 30
0.0
 11
101.75
 21
-106.483334
 31
0.0
  0
LINE
  5
4E5
  8
1
  6
CONTINUOUS
 62
     7
 10
102.75
 20
-106.483334
 30
0.0
 11
102.75
 21
-108.5166659999999
 31
0.0
  0
LINE
  5
4E6
  8
1
  6
CONTINUOUS
 62
     7
 10
126.016666
 20
-213.0
 30
0.0
 11
123.983334
 21
-213.0
 31
0.0
  0
LINE
  5
4E7
  8
1
  6
CONTINUOUS
 62
     7
 10
91.01666600000001
 20
-190.25
 30
0.0
 11
88.98333400000001
 21
-190.25
 31
0.0
  0
LINE
  5
4E8
  8
1
  6
CONTINUOUS
 62
     7
 10
147.25
 20
-176.483334
 30
0.0
 11
147.25
 21
-178.516666
 31
0.0
  0
LINE
  5
4E9
  8
1
  6
CONTINUOUS
 62
     7
 10
161.016666
 20
-119.25
 30
0.0
 11
158.983334
 21
-119.25
 31
0.0
  0
LINE
  5
4EA
  8
1
  6
CONTINUOUS
 62
     7
 10
88.98333400000001
 20
-154.25
 30
0.0
 11
91.01666600000001
 21
-154.25
 31
0.0
  0
LINE
  5
4EB
  8
1
  6
CONTINUOUS
 62
     7
 10
91.01666600000001
 20
-94.74999999999994
 30
0.0
 11
88.98333400000001
 21
-94.74999999999994
 31
0.0
  0
LINE
  5
4EC
  8
1
  6
CONTINUOUS
 62
     7
 10
53.983334
 20
-178.0
 30
0.0
 11
56.016666
 21
-178.0
 31
0.0
  0
LINE
  5
4ED
  8
1
  6
CONTINUOUS
 62
     7
 10
78.25
 20
-141.483334
 30
0.0
 11
78.25
 21
-143.516666
 31
0.0
  0
LINE
  5
4EE
  8
1
  6
CONTINUOUS
 62
     7
 10
126.016666
 20
-71.99999999999996
 30
0.0
 11
123.983334
 21
-71.99999999999996
 31
0.0
  0
LINE
  5
4EF
  8
1
  6
CONTINUOUS
 62
     7
 10
148.25
 20
-178.516666
 30
0.0
 11
148.25
 21
-176.483334
 31
0.0
  0
LINE
  5
4F0
  8
1
  6
CONTINUOUS
 62
     7
 10
91.01666600000001
 20
-155.25
 30
0.0
 11
88.98333400000001
 21
-155.25
 31
0.0
  0
LINE
  5
4F1
  8
1
  6
CONTINUOUS
 62
     7
 10
53.983334
 20
-189.25
 30
0.0
 11
56.016666
 21
-189.25
 31
0.0
  0
LINE
  5
4F2
  8
1
  6
CONTINUOUS
 62
     7
 10
88.98333400000001
 20
-95.74999999999994
 30
0.0
 11
91.01666600000001
 21
-95.74999999999994
 31
0.0
  0
LINE
  5
4F3
  8
1
  6
CONTINUOUS
 62
     7
 10
193.983334
 20
-189.25
 30
0.0
 11
196.016666
 21
-189.25
 31
0.0
  0
LINE
  5
4F4
  8
1
  6
CONTINUOUS
 62
     7
 10
88.98333400000001
 20
-199.75
 30
0.0
 11
91.01666600000001
 21
-199.75
 31
0.0
  0
LINE
  5
4F5
  8
1
  6
CONTINUOUS
 62
     7
 10
193.983334
 20
-177.0
 30
0.0
 11
196.016666
 21
-177.0
 31
0.0
  0
LINE
  5
4F6
  8
1
  6
CONTINUOUS
 62
     7
 10
91.01666600000001
 20
-108.0
 30
0.0
 11
88.98333400000001
 21
-108.0
 31
0.0
  0
LINE
  5
4F7
  8
1
  6
CONTINUOUS
 62
     7
 10
161.016666
 20
-84.24999999999993
 30
0.0
 11
158.983334
 21
-84.24999999999993
 31
0.0
  0
LINE
  5
4F8
  8
1
  6
CONTINUOUS
 62
     7
 10
88.98333400000001
 20
-120.25
 30
0.0
 11
91.01666600000001
 21
-120.25
 31
0.0
  0
LINE
  5
4F9
  8
1
  6
CONTINUOUS
 62
     7
 10
158.983334
 20
-189.25
 30
0.0
 11
161.016666
 21
-189.25
 31
0.0
  0
LINE
  5
4FA
  8
1
  6
CONTINUOUS
 62
     7
 10
148.25
 20
-143.516666
 30
0.0
 11
148.25
 21
-141.483334
 31
0.0
  0
LINE
  5
4FB
  8
1
  6
CONTINUOUS
 62
     7
 10
158.983334
 20
-154.25
 30
0.0
 11
161.016666
 21
-154.25
 31
0.0
  0
LINE
  5
4FC
  8
1
  6
CONTINUOUS
 62
     7
 10
161.016666
 20
-190.25
 30
0.0
 11
158.983334
 21
-190.25
 31
0.0
  0
LINE
  5
4FD
  8
1
  6
CONTINUOUS
 62
     7
 10
88.98333400000001
 20
-213.0
 30
0.0
 11
91.01666600000001
 21
-213.0
 31
0.0
  0
LINE
  5
4FE
  8
1
  6
CONTINUOUS
 62
     7
 10
53.983334
 20
-213.0
 30
0.0
 11
56.016666
 21
-213.0
 31
0.0
  0
LINE
  5
4FF
  8
1
  6
CONTINUOUS
 62
     7
 10
66.75000000000001
 20
-73.51666599999996
 30
0.0
 11
66.75000000000001
 21
-71.48333399999996
 31
0.0
  0
LINE
  5
500
  8
1
  6
CONTINUOUS
 62
     7
 10
172.75
 20
-213.516666
 30
0.0
 11
172.75
 21
-211.483334
 31
0.0
  0
LINE
  5
501
  8
1
  6
CONTINUOUS
 62
     7
 10
55.5
 20
-141.483334
 30
0.0
 11
55.5
 21
-143.516666
 31
0.0
  0
LINE
  5
502
  8
1
  6
CONTINUOUS
 62
     7
 10
113.25
 20
-106.483334
 30
0.0
 11
113.25
 21
-108.5166659999999
 31
0.0
  0
LINE
  5
503
  8
1
  6
CONTINUOUS
 62
     7
 10
91.01666600000001
 20
-177.0
 30
0.0
 11
88.98333400000001
 21
-177.0
 31
0.0
  0
LINE
  5
504
  8
1
  6
CONTINUOUS
 62
     7
 10
91.01666600000001
 20
-212.0
 30
0.0
 11
88.98333400000001
 21
-212.0
 31
0.0
  0
LINE
  5
505
  8
1
  6
CONTINUOUS
 62
     7
 10
78.25
 20
-106.483334
 30
0.0
 11
78.25
 21
-108.5166659999999
 31
0.0
  0
LINE
  5
506
  8
1
  6
CONTINUOUS
 62
     7
 10
148.25
 20
-108.5166659999999
 30
0.0
 11
148.25
 21
-106.483334
 31
0.0
  0
LINE
  5
507
  8
1
  6
CONTINUOUS
 62
     7
 10
183.25
 20
-213.516666
 30
0.0
 11
183.25
 21
-211.483334
 31
0.0
  0
LINE
  5
508
  8
1
  6
CONTINUOUS
 62
     7
 10
126.016666
 20
-94.74999999999994
 30
0.0
 11
123.983334
 21
-94.74999999999994
 31
0.0
  0
LINE
  5
509
  8
1
  6
CONTINUOUS
 62
     7
 10
196.016666
 20
-200.75
 30
0.0
 11
193.983334
 21
-200.75
 31
0.0
  0
LINE
  5
50A
  8
1
  6
CONTINUOUS
 62
     7
 10
56.016666
 20
-84.24999999999993
 30
0.0
 11
53.983334
 21
-84.24999999999993
 31
0.0
  0
LINE
  5
50B
  8
1
  6
CONTINUOUS
 62
     7
 10
56.016666
 20
-165.7499999999999
 30
0.0
 11
53.983334
 21
-165.7499999999999
 31
0.0
  0
LINE
  5
50C
  8
1
  6
CONTINUOUS
 62
     7
 10
182.25
 20
-211.483334
 30
0.0
 11
182.25
 21
-213.5166659999999
 31
0.0
  0
LINE
  5
50D
  8
1
  6
CONTINUOUS
 62
     7
 10
77.25
 20
-178.516666
 30
0.0
 11
77.25
 21
-176.483334
 31
0.0
  0
LINE
  5
50E
  8
1
  6
CONTINUOUS
 62
     7
 10
56.016666
 20
-155.25
 30
0.0
 11
53.983334
 21
-155.25
 31
0.0
  0
LINE
  5
50F
  8
1
  6
CONTINUOUS
 62
     7
 10
66.75000000000001
 20
-213.516666
 30
0.0
 11
66.75000000000001
 21
-211.483334
 31
0.0
  0
LINE
  5
510
  8
1
  6
CONTINUOUS
 62
     7
 10
56.016666
 20
-177.0
 30
0.0
 11
53.983334
 21
-177.0
 31
0.0
  0
LINE
  5
511
  8
1
  6
CONTINUOUS
 62
     7
 10
158.983334
 20
-177.0
 30
0.0
 11
161.016666
 21
-177.0
 31
0.0
  0
LINE
  5
512
  8
1
  6
CONTINUOUS
 62
     7
 10
183.25
 20
-143.516666
 30
0.0
 11
183.25
 21
-141.483334
 31
0.0
  0
LINE
  5
513
  8
1
  6
CONTINUOUS
 62
     7
 10
137.75
 20
-178.516666
 30
0.0
 11
137.75
 21
-176.483334
 31
0.0
  0
LINE
  5
514
  8
1
  6
CONTINUOUS
 62
     7
 10
123.983334
 20
-95.74999999999994
 30
0.0
 11
126.016666
 21
-95.74999999999994
 31
0.0
  0
LINE
  5
515
  8
1
  6
CONTINUOUS
 62
     7
 10
88.98333400000001
 20
-178.0
 30
0.0
 11
91.01666600000001
 21
-178.0
 31
0.0
  0
LINE
  5
516
  8
1
  6
CONTINUOUS
 62
     7
 10
53.983334
 20
-164.7499999999999
 30
0.0
 11
56.016666
 21
-164.7499999999999
 31
0.0
  0
LINE
  5
517
  8
1
  6
CONTINUOUS
 62
     7
 10
112.25
 20
-143.516666
 30
0.0
 11
112.25
 21
-141.483334
 31
0.0
  0
LINE
  5
518
  8
1
  6
CONTINUOUS
 62
     7
 10
54.5
 20
-143.516666
 30
0.0
 11
54.5
 21
-141.483334
 31
0.0
  0
LINE
  5
519
  8
1
  6
CONTINUOUS
 62
     7
 10
193.983334
 20
-85.24999999999993
 30
0.0
 11
196.016666
 21
-85.24999999999993
 31
0.0
  0
LINE
  5
51A
  8
1
  6
CONTINUOUS
 62
     7
 10
91.01666600000001
 20
-165.7499999999999
 30
0.0
 11
88.98333400000001
 21
-165.7499999999999
 31
0.0
  0
LINE
  5
51B
  8
1
  6
CONTINUOUS
 62
     7
 10
77.25
 20
-213.516666
 30
0.0
 11
77.25
 21
-211.483334
 31
0.0
  0
LINE
  5
51C
  8
1
  6
CONTINUOUS
 62
     7
 10
78.25
 20
-71.48333399999996
 30
0.0
 11
78.25
 21
-73.51666599999996
 31
0.0
  0
LINE
  5
51D
  8
1
  6
CONTINUOUS
 62
     7
 10
161.016666
 20
-129.75
 30
0.0
 11
158.983334
 21
-129.75
 31
0.0
  0
LINE
  5
51E
  8
1
  6
CONTINUOUS
 62
     7
 10
193.983334
 20
-130.75
 30
0.0
 11
196.016666
 21
-130.75
 31
0.0
  0
LINE
  5
51F
  8
1
  6
CONTINUOUS
 62
     7
 10
56.016666
 20
-72.99999999999996
 30
0.0
 11
53.983334
 21
-72.99999999999996
 31
0.0
  0
LINE
  5
520
  8
1
  6
CONTINUOUS
 62
     7
 10
91.01666600000001
 20
-84.24999999999993
 30
0.0
 11
88.98333400000001
 21
-84.24999999999993
 31
0.0
  0
LINE
  5
521
  8
1
  6
CONTINUOUS
 62
     7
 10
78.25
 20
-211.483334
 30
0.0
 11
78.25
 21
-213.5166659999999
 31
0.0
  0
LINE
  5
522
  8
1
  6
CONTINUOUS
 62
     7
 10
194.5
 20
-141.483334
 30
0.0
 11
194.5
 21
-143.516666
 31
0.0
  0
LINE
  5
523
  8
1
  6
CONTINUOUS
 62
     7
 10
158.983334
 20
-72.99999999999996
 30
0.0
 11
161.016666
 21
-72.99999999999996
 31
0.0
  0
LINE
  5
524
  8
1
  6
CONTINUOUS
 62
     7
 10
123.983334
 20
-72.99999999999996
 30
0.0
 11
126.016666
 21
-72.99999999999996
 31
0.0
  0
LINE
  5
525
  8
1
  6
CONTINUOUS
 62
     7
 10
196.016666
 20
-165.7499999999999
 30
0.0
 11
193.983334
 21
-165.7499999999999
 31
0.0
  0
LINE
  5
526
  8
1
  6
CONTINUOUS
 62
     7
 10
66.75000000000001
 20
-108.5166659999999
 30
0.0
 11
66.75000000000001
 21
-106.483334
 31
0.0
  0
LINE
  5
527
  8
1
  6
CONTINUOUS
 62
     7
 10
126.016666
 20
-200.75
 30
0.0
 11
123.983334
 21
-200.75
 31
0.0
  0
LINE
  5
528
  8
1
  6
CONTINUOUS
 62
     7
 10
53.983334
 20
-199.75
 30
0.0
 11
56.016666
 21
-199.75
 31
0.0
  0
LINE
  5
529
  8
1
  6
CONTINUOUS
 62
     7
 10
193.983334
 20
-164.7499999999999
 30
0.0
 11
196.016666
 21
-164.7499999999999
 31
0.0
  0
LINE
  5
52A
  8
1
  6
CONTINUOUS
 62
     7
 10
77.25
 20
-108.5166659999999
 30
0.0
 11
77.25
 21
-106.483334
 31
0.0
  0
LINE
  5
52B
  8
1
  6
CONTINUOUS
 62
     7
 10
136.75
 20
-106.483334
 30
0.0
 11
136.75
 21
-108.5166659999999
 31
0.0
  0
LINE
  5
52C
  8
1
  6
CONTINUOUS
 62
     7
 10
126.016666
 20
-129.75
 30
0.0
 11
123.983334
 21
-129.75
 31
0.0
  0
LINE
  5
52D
  8
1
  6
CONTINUOUS
 62
     7
 10
172.75
 20
-73.51666599999996
 30
0.0
 11
172.75
 21
-71.48333399999996
 31
0.0
  0
LINE
  5
52E
  8
1
  6
CONTINUOUS
 62
     7
 10
137.75
 20
-143.516666
 30
0.0
 11
137.75
 21
-141.483334
 31
0.0
  0
LINE
  5
52F
  8
1
  6
CONTINUOUS
 62
     7
 10
123.983334
 20
-130.75
 30
0.0
 11
126.016666
 21
-130.75
 31
0.0
  0
LINE
  5
530
  8
1
  6
CONTINUOUS
 62
     7
 10
158.983334
 20
-199.75
 30
0.0
 11
161.016666
 21
-199.75
 31
0.0
  0
LINE
  5
531
  8
1
  6
CONTINUOUS
 62
     7
 10
193.983334
 20
-199.75
 30
0.0
 11
196.016666
 21
-199.75
 31
0.0
  0
LINE
  5
532
  8
1
  6
CONTINUOUS
 62
     7
 10
161.016666
 20
-71.99999999999996
 30
0.0
 11
158.983334
 21
-71.99999999999996
 31
0.0
  0
LINE
  5
533
  8
1
  6
CONTINUOUS
 62
     7
 10
56.016666
 20
-190.25
 30
0.0
 11
53.983334
 21
-190.25
 31
0.0
  0
LINE
  5
534
  8
1
  6
CONTINUOUS
 62
     7
 10
88.98333400000001
 20
-130.75
 30
0.0
 11
91.01666600000001
 21
-130.75
 31
0.0
  0
LINE
  5
535
  8
1
  6
CONTINUOUS
 62
     7
 10
67.75000000000001
 20
-106.483334
 30
0.0
 11
67.75000000000001
 21
-108.5166659999999
 31
0.0
  0
LINE
  5
536
  8
1
  6
CONTINUOUS
 62
     7
 10
123.983334
 20
-199.75
 30
0.0
 11
126.016666
 21
-199.75
 31
0.0
  0
LINE
  5
537
  8
1
  6
CONTINUOUS
 62
     7
 10
88.98333400000001
 20
-164.7499999999999
 30
0.0
 11
91.01666600000001
 21
-164.7499999999999
 31
0.0
  0
LINE
  5
538
  8
1
  6
CONTINUOUS
 62
     7
 10
171.75
 20
-141.483334
 30
0.0
 11
171.75
 21
-143.516666
 31
0.0
  0
LINE
  5
539
  8
1
  6
CONTINUOUS
 62
     7
 10
171.75
 20
-211.483334
 30
0.0
 11
171.75
 21
-213.5166659999999
 31
0.0
  0
LINE
  5
53A
  8
1
  6
CONTINUOUS
 62
     7
 10
158.983334
 20
-212.0
 30
0.0
 11
161.016666
 21
-212.0
 31
0.0
  0
LINE
  5
53B
  8
1
  6
CONTINUOUS
 62
     7
 10
78.25
 20
-176.483334
 30
0.0
 11
78.25
 21
-178.516666
 31
0.0
  0
LINE
  5
53C
  8
1
  6
CONTINUOUS
 62
     7
 10
66.75000000000001
 20
-143.516666
 30
0.0
 11
66.75000000000001
 21
-141.483334
 31
0.0
  0
LINE
  5
53D
  8
1
  6
CONTINUOUS
 62
     7
 10
172.75
 20
-108.5166659999999
 30
0.0
 11
172.75
 21
-106.483334
 31
0.0
  0
LINE
  5
53E
  8
1
  6
CONTINUOUS
 62
     7
 10
126.016666
 20
-119.25
 30
0.0
 11
123.983334
 21
-119.25
 31
0.0
  0
LINE
  5
53F
  8
1
  6
CONTINUOUS
 62
     7
 10
88.98333400000001
 20
-107.0
 30
0.0
 11
91.01666600000001
 21
-107.0
 31
0.0
  0
LINE
  5
540
  8
1
  6
CONTINUOUS
 62
     7
 10
126.016666
 20
-84.24999999999993
 30
0.0
 11
123.983334
 21
-84.24999999999993
 31
0.0
  0
LINE
  5
541
  8
1
  6
CONTINUOUS
 62
     7
 10
67.75000000000001
 20
-141.483334
 30
0.0
 11
67.75000000000001
 21
-143.516666
 31
0.0
  0
LINE
  5
542
  8
1
  6
CONTINUOUS
 62
     7
 10
123.983334
 20
-85.24999999999993
 30
0.0
 11
126.016666
 21
-85.24999999999993
 31
0.0
  0
LINE
  5
543
  8
1
  6
CONTINUOUS
 62
     7
 10
171.75
 20
-106.483334
 30
0.0
 11
171.75
 21
-108.5166659999999
 31
0.0
  0
LINE
  5
544
  8
1
  6
CONTINUOUS
 62
     7
 10
161.016666
 20
-165.7499999999999
 30
0.0
 11
158.983334
 21
-165.7499999999999
 31
0.0
  0
LINE
  5
545
  8
1
  6
CONTINUOUS
 62
     7
 10
195.5
 20
-143.516666
 30
0.0
 11
195.5
 21
-141.483334
 31
0.0
  0
LINE
  5
546
  8
1
  6
CONTINUOUS
 62
     7
 10
66.50000000000001
 20
-176.5999999999999
 30
0.0
 11
66.75000000000001
 21
-176.483334
 31
0.0
  0
ENDSEC
  0
EOF
