  0
SECTION
  2
HEADER
  9
$ACADVER
  1
AC1027
  9
$ACADMAINTVER
 70
   105
  9
$DWGCODEPAGE
  3
ANSI_932
  9
$REQUIREDVERSIONS
160
                 0
  9
$INSBASE
 10
0.0
 20
0.0
 30
0.0
  9
$EXTMIN
 10
-714.3218728653
 20
1218.9339685768
 30
0.0
  9
$EXTMAX
 10
-349.1515058239
 20
1535.4408900744
 30
0.0
  9
$LIMMIN
 10
0.0
 20
0.0
  9
$LIMMAX
 10
12.0
 20
9.0
  9
$ORTHOMODE
 70
     0
  9
$REGENMODE
 70
     1
  9
$FILLMODE
 70
     1
  9
$QTEXTMODE
 70
     0
  9
$MIRRTEXT
 70
     1
  9
$LTSCALE
 40
1.0
  9
$ATTMODE
 70
     1
  9
$TEXTSIZE
 40
0.2
  9
$TRACEWID
 40
0.05
  9
$TEXTSTYLE
  7
Standard
  9
$CLAYER
  8
0
  9
$CELTYPE
  6
ByLayer
  9
$CECOLOR
 62
   256
  9
$CELTSCALE
 40
1.0
  9
$DISPSILH
 70
     0
  9
$DIMSCALE
 40
1.0
  9
$DIMASZ
 40
2.0
  9
$DIMEXO
 40
0.0625
  9
$DIMDLI
 40
0.38
  9
$DIMRND
 40
0.0
  9
$DIMDLE
 40
0.0
  9
$DIMEXE
 40
1.0
  9
$DIMTP
 40
0.0
  9
$DIMTM
 40
0.0
  9
$DIMTXT
 40
3.0
  9
$DIMCEN
 40
0.09
  9
$DIMTSZ
 40
0.0
  9
$DIMTOL
 70
     0
  9
$DIMLIM
 70
     0
  9
$DIMTIH
 70
     1
  9
$DIMTOH
 70
     1
  9
$DIMSE1
 70
     0
  9
$DIMSE2
 70
     0
  9
$DIMTAD
 70
     1
  9
$DIMZIN
 70
     0
  9
$DIMBLK
  1

  9
$DIMASO
 70
     1
  9
$DIMSHO
 70
     1
  9
$DIMPOST
  1

  9
$DIMAPOST
  1

  9
$DIMALT
 70
     0
  9
$DIMALTD
 70
     2
  9
$DIMALTF
 40
25.4
  9
$DIMLFAC
 40
1.0
  9
$DIMTOFL
 70
     0
  9
$DIMTVP
 40
0.0
  9
$DIMTIX
 70
     0
  9
$DIMSOXD
 70
     0
  9
$DIMSAH
 70
     0
  9
$DIMBLK1
  1

  9
$DIMBLK2
  1

  9
$DIMSTYLE
  2
Standard
  9
$DIMCLRD
 70
     0
  9
$DIMCLRE
 70
     0
  9
$DIMCLRT
 70
     0
  9
$DIMTFAC
 40
1.0
  9
$DIMGAP
 40
1.5
  9
$DIMJUST
 70
     0
  9
$DIMSD1
 70
     0
  9
$DIMSD2
 70
     0
  9
$DIMTOLJ
 70
     1
  9
$DIMTZIN
 70
     0
  9
$DIMALTZ
 70
     0
  9
$DIMALTTZ
 70
     0
  9
$DIMUPT
 70
     0
  9
$DIMDEC
 70
     2
  9
$DIMTDEC
 70
     4
  9
$DIMALTU
 70
     2
  9
$DIMALTTD
 70
     2
  9
$DIMTXSTY
  7
ＭＳ ゴシック
  9
$DIMAUNIT
 70
     0
  9
$DIMADEC
 70
     2
  9
$DIMALTRND
 40
0.0
  9
$DIMAZIN
 70
     0
  9
$DIMDSEP
 70
    46
  9
$DIMATFIT
 70
     3
  9
$DIMFRAC
 70
     0
  9
$DIMLDRBLK
  1

  9
$DIMLUNIT
 70
     2
  9
$DIMLWD
 70
    -2
  9
$DIMLWE
 70
    -2
  9
$DIMTMOVE
 70
     0
  9
$DIMFXL
 40
1.0
  9
$DIMFXLON
 70
     0
  9
$DIMJOGANG
 40
0.7853981633974483
  9
$DIMTFILL
 70
     0
  9
$DIMTFILLCLR
 70
     0
  9
$DIMARCSYM
 70
     0
  9
$DIMLTYPE
  6

  9
$DIMLTEX1
  6

  9
$DIMLTEX2
  6

  9
$DIMTXTDIRECTION
 70
     0
  9
$LUNITS
 70
     2
  9
$LUPREC
 70
     4
  9
$SKETCHINC
 40
0.1
  9
$FILLETRAD
 40
0.5
  9
$AUNITS
 70
     0
  9
$AUPREC
 70
     0
  9
$MENU
  1
.
  9
$ELEVATION
 40
0.0
  9
$PELEVATION
 40
0.0
  9
$THICKNESS
 40
0.0
  9
$LIMCHECK
 70
     0
  9
$CHAMFERA
 40
0.0
  9
$CHAMFERB
 40
0.0
  9
$CHAMFERC
 40
0.0
  9
$CHAMFERD
 40
0.0
  9
$SKPOLY
 70
     0
  9
$TDCREATE
 40
2460378.478214479
  9
$TDUCREATE
 40
2460378.103214479
  9
$TDUPDATE
 40
2460378.478214629
  9
$TDUUPDATE
 40
2460378.103214629
  9
$TDINDWG
 40
0.0000000116
  9
$TDUSRTIMER
 40
0.0000000116
  9
$USRTIMER
 70
     1
  9
$ANGBASE
 50
0.0
  9
$ANGDIR
 70
     0
  9
$PDMODE
 70
     0
  9
$PDSIZE
 40
0.0
  9
$PLINEWID
 40
0.0
  9
$SPLFRAME
 70
     0
  9
$SPLINETYPE
 70
     6
  9
$SPLINESEGS
 70
     8
  9
$HANDSEED
  5
2E3
  9
$SURFTAB1
 70
     6
  9
$SURFTAB2
 70
     6
  9
$SURFTYPE
 70
     6
  9
$SURFU
 70
     6
  9
$SURFV
 70
     6
  9
$UCSBASE
  2

  9
$UCSNAME
  2

  9
$UCSORG
 10
0.0
 20
0.0
 30
0.0
  9
$UCSXDIR
 10
1.0
 20
0.0
 30
0.0
  9
$UCSYDIR
 10
0.0
 20
1.0
 30
0.0
  9
$UCSORTHOREF
  2

  9
$UCSORTHOVIEW
 70
     0
  9
$UCSORGTOP
 10
0.0
 20
0.0
 30
0.0
  9
$UCSORGBOTTOM
 10
0.0
 20
0.0
 30
0.0
  9
$UCSORGLEFT
 10
0.0
 20
0.0
 30
0.0
  9
$UCSORGRIGHT
 10
0.0
 20
0.0
 30
0.0
  9
$UCSORGFRONT
 10
0.0
 20
0.0
 30
0.0
  9
$UCSORGBACK
 10
0.0
 20
0.0
 30
0.0
  9
$PUCSBASE
  2

  9
$PUCSNAME
  2

  9
$PUCSORG
 10
0.0
 20
0.0
 30
0.0
  9
$PUCSXDIR
 10
1.0
 20
0.0
 30
0.0
  9
$PUCSYDIR
 10
0.0
 20
1.0
 30
0.0
  9
$PUCSORTHOREF
  2

  9
$PUCSORTHOVIEW
 70
     0
  9
$PUCSORGTOP
 10
0.0
 20
0.0
 30
0.0
  9
$PUCSORGBOTTOM
 10
0.0
 20
0.0
 30
0.0
  9
$PUCSORGLEFT
 10
0.0
 20
0.0
 30
0.0
  9
$PUCSORGRIGHT
 10
0.0
 20
0.0
 30
0.0
  9
$PUCSORGFRONT
 10
0.0
 20
0.0
 30
0.0
  9
$PUCSORGBACK
 10
0.0
 20
0.0
 30
0.0
  9
$USERI1
 70
     0
  9
$USERI2
 70
     0
  9
$USERI3
 70
     0
  9
$USERI4
 70
     0
  9
$USERI5
 70
     0
  9
$USERR1
 40
0.0
  9
$USERR2
 40
0.0
  9
$USERR3
 40
0.0
  9
$USERR4
 40
0.0
  9
$USERR5
 40
0.0
  9
$WORLDVIEW
 70
     1
  9
$SHADEDGE
 70
     3
  9
$SHADEDIF
 70
    70
  9
$TILEMODE
 70
     1
  9
$MAXACTVP
 70
    64
  9
$PINSBASE
 10
0.0
 20
0.0
 30
0.0
  9
$PLIMCHECK
 70
     0
  9
$PEXTMIN
 10
1.000000000000000E+20
 20
1.000000000000000E+20
 30
1.000000000000000E+20
  9
$PEXTMAX
 10
-1.000000000000000E+20
 20
-1.000000000000000E+20
 30
-1.000000000000000E+20
  9
$PLIMMIN
 10
0.0
 20
0.0
  9
$PLIMMAX
 10
12.0
 20
9.0
  9
$UNITMODE
 70
     0
  9
$VISRETAIN
 70
     1
  9
$PLINEGEN
 70
     0
  9
$PSLTSCALE
 70
     1
  9
$TREEDEPTH
 70
  3020
  9
$CMLSTYLE
  2
Standard
  9
$CMLJUST
 70
     0
  9
$CMLSCALE
 40
1.0
  9
$PROXYGRAPHICS
 70
     1
  9
$MEASUREMENT
 70
     1
  9
$CELWEIGHT
370
    -1
  9
$ENDCAPS
280
     0
  9
$JOINSTYLE
280
     0
  9
$LWDISPLAY
290
     1
  9
$INSUNITS
 70
     4
  9
$HYPERLINKBASE
  1

  9
$STYLESHEET
  1

  9
$XEDIT
290
     1
  9
$CEPSNTYPE
380
     0
  9
$PSTYLEMODE
290
     1
  9
$FINGERPRINTGUID
  2
{965850C2-92F2-42DF-BA57-F18C4DEF4971}
  9
$VERSIONGUID
  2
{FAEB1C32-E019-11D5-929B-00C0DF256EC4}
  9
$EXTNAMES
290
     1
  9
$PSVPSCALE
 40
0.0
  9
$OLESTARTUP
290
     0
  9
$SORTENTS
280
   127
  9
$INDEXCTL
280
     0
  9
$HIDETEXT
280
     1
  9
$XCLIPFRAME
280
     2
  9
$HALOGAP
280
     0
  9
$OBSCOLOR
 70
   257
  9
$OBSLTYPE
280
     0
  9
$INTERSECTIONDISPLAY
280
     0
  9
$INTERSECTIONCOLOR
 70
   257
  9
$DIMASSOC
280
     2
  9
$PROJECTNAME
  1

  9
$CAMERADISPLAY
290
     0
  9
$LENSLENGTH
 40
50.0
  9
$CAMERAHEIGHT
 40
0.0
  9
$STEPSPERSEC
 40
2.0
  9
$STEPSIZE
 40
6.0
  9
$3DDWFPREC
 40
2.0
  9
$PSOLWIDTH
 40
0.25
  9
$PSOLHEIGHT
 40
4.0
  9
$LOFTANG1
 40
1.570796326794897
  9
$LOFTANG2
 40
1.570796326794897
  9
$LOFTMAG1
 40
0.0
  9
$LOFTMAG2
 40
0.0
  9
$LOFTPARAM
 70
     7
  9
$LOFTNORMALS
280
     1
  9
$LATITUDE
 40
37.795
  9
$LONGITUDE
 40
-122.394
  9
$NORTHDIRECTION
 40
0.0
  9
$TIMEZONE
 70
 -8000
  9
$LIGHTGLYPHDISPLAY
280
     1
  9
$TILEMODELIGHTSYNCH
280
     1
  9
$CMATERIAL
347
44
  9
$SOLIDHIST
280
     0
  9
$SHOWHIST
280
     1
  9
$DWFFRAME
280
     2
  9
$DGNFRAME
280
     2
  9
$REALWORLDSCALE
290
     1
  9
$INTERFERECOLOR
 62
   256
  9
$CSHADOW
280
     0
  9
$SHADOWPLANELOCATION
 40
0.0
  0
ENDSEC
  0
SECTION
  2
CLASSES
  0
CLASS
  1
ACDBDICTIONARYWDFLT
  2
AcDbDictionaryWithDefault
  3
ObjectDBX Classes
 90
        0
 91
        3
280
     0
281
     0
  0
CLASS
  1
VISUALSTYLE
  2
AcDbVisualStyle
  3
ObjectDBX Classes
 90
     4095
 91
        3
280
     0
281
     0
  0
CLASS
  1
MATERIAL
  2
AcDbMaterial
  3
ObjectDBX Classes
 90
     1153
 91
        3
280
     0
281
     0
  0
CLASS
  1
SCALE
  2
AcDbScale
  3
ObjectDBX Classes
 90
     1153
 91
        3
280
     0
281
     0
  0
CLASS
  1
TABLESTYLE
  2
AcDbTableStyle
  3
ObjectDBX Classes
 90
     4095
 91
        3
280
     0
281
     0
  0
CLASS
  1
MLEADERSTYLE
  2
AcDbMLeaderStyle
  3
ACDB_MLEADERSTYLE_CLASS
 90
     4095
 91
        3
280
     0
281
     0
  0
CLASS
  1
SUN
  2
AcDbSun
  3
SCENEOE
 90
     1153
 91
        3
280
     0
281
     0
  0
CLASS
  1
DICTIONARYVAR
  2
AcDbDictionaryVar
  3
ObjectDBX Classes
 90
        0
 91
        3
280
     0
281
     0
  0
CLASS
  1
CELLSTYLEMAP
  2
AcDbCellStyleMap
  3
ObjectDBX Classes
 90
     1152
 91
        3
280
     0
281
     0
  0
ENDSEC
  0
SECTION
  2
TABLES
  0
TABLE
  2
VPORT
  5
8
330
0
100
AcDbSymbolTable
 70
     1
  0
VPORT
  5
29
330
8
100
AcDbSymbolTableRecord
100
AcDbViewportTableRecord
  2
*Active
 70
     0
 10
0.0
 20
0.0
 11
1.0
 21
1.0
 12
-531.7366893446
 22
1377.1874293256
 13
0.0
 23
0.0
 14
0.5
 24
0.5
 15
0.5
 25
0.5
 16
0.0
 26
0.0
 36
1.0
 17
0.0
 27
0.0
 37
0.0
 40
316.5069214975999
 41
1.6
 42
50.0
 43
0.0
 44
0.0
 50
0.0
 51
0.0
 71
     0
 72
   100
 73
     1
 74
     3
 75
     0
 76
     0
 77
     0
 78
     0
281
     0
 65
     1
110
0.0
120
0.0
130
0.0
111
1.0
121
0.0
131
0.0
112
0.0
122
1.0
132
0.0
 79
     0
146
0.0
348
2F
 60
     3
 61
     5
292
     1
282
     1
141
0.0
142
0.0
 63
   250
361
6D
  0
ENDTAB
  0
TABLE
  2
LTYPE
  5
5
330
0
100
AcDbSymbolTable
 70
     2
  0
LTYPE
  5
14
330
5
100
AcDbSymbolTableRecord
100
AcDbLinetypeTableRecord
  2
ByBlock
 70
     0
  3

 72
    65
 73
     0
 40
0.0
  0
LTYPE
  5
15
330
5
100
AcDbSymbolTableRecord
100
AcDbLinetypeTableRecord
  2
ByLayer
 70
     0
  3

 72
    65
 73
     0
 40
0.0
  0
LTYPE
  5
16
330
5
100
AcDbSymbolTableRecord
100
AcDbLinetypeTableRecord
  2
Continuous
 70
     0
  3
Solid line
 72
    65
 73
     0
 40
0.0
  0
LTYPE
  5
72
330
5
100
AcDbSymbolTableRecord
100
AcDbLinetypeTableRecord
  2
CENTER
 70
     0
  3

 72
    65
 73
     0
 40
0.0
  0
ENDTAB
  0
TABLE
  2
LAYER
  5
2
330
0
100
AcDbSymbolTable
 70
     2
  0
LAYER
  5
10
330
2
100
AcDbSymbolTableRecord
100
AcDbLayerTableRecord
  2
0
 70
     0
 62
     7
  6
Continuous
370
    -3
390
F
347
46
348
0
  0
LAYER
  5
6E
330
2
100
AcDbSymbolTableRecord
100
AcDbLayerTableRecord
  2
1
 70
     0
 62
     7
  6
Continuous
370
    -3
390
F
347
46
348
0
  0
ENDTAB
  0
TABLE
  2
STYLE
  5
3
330
0
100
AcDbSymbolTable
 70
     2
  0
STYLE
  5
11
330
3
100
AcDbSymbolTableRecord
100
AcDbTextStyleTableRecord
  2
Standard
 70
     0
 40
0.0
 41
1.0
 50
0.0
 71
     0
 42
0.2
  3
txt
  4

  0
STYLE
  5
6F
330
3
100
AcDbSymbolTableRecord
100
AcDbTextStyleTableRecord
  2
ＭＳ ゴシック
 70
     0
 40
0.0
 41
1.0
 50
0.0
 71
     0
 42
0.2
  3
ＭＳ ゴシック.shx
  4

  0
ENDTAB
  0
TABLE
  2
VIEW
  5
6
330
0
100
AcDbSymbolTable
 70
     0
  0
ENDTAB
  0
TABLE
  2
UCS
  5
7
330
0
100
AcDbSymbolTable
 70
     0
  0
ENDTAB
  0
TABLE
  2
APPID
  5
9
330
0
100
AcDbSymbolTable
 70
     1
  0
APPID
  5
12
330
9
100
AcDbSymbolTableRecord
100
AcDbRegAppTableRecord
  2
ACAD
 70
     0
  0
ENDTAB
  0
TABLE
  2
DIMSTYLE
  5
A
330
0
100
AcDbSymbolTable
 70
     1
100
AcDbDimStyleTable
  0
DIMSTYLE
105
27
330
A
100
AcDbSymbolTableRecord
100
AcDbDimStyleTableRecord
  2
Standard
 70
     0
178
     0
340
11
  0
ENDTAB
  0
TABLE
  2
BLOCK_RECORD
  5
1
330
0
100
AcDbSymbolTable
 70
     1
  0
BLOCK_RECORD
  5
1F
330
1
100
AcDbSymbolTableRecord
100
AcDbBlockTableRecord
  2
*Model_Space
340
22
 70
     0
280
     1
281
     0
  0
BLOCK_RECORD
  5
1B
330
1
100
AcDbSymbolTableRecord
100
AcDbBlockTableRecord
  2
*Paper_Space
340
1E
 70
     0
280
     1
281
     0
  0
BLOCK_RECORD
  5
23
330
1
100
AcDbSymbolTableRecord
100
AcDbBlockTableRecord
  2
*Paper_Space0
340
26
 70
     0
280
     1
281
     0
  0
ENDTAB
  0
ENDSEC
  0
SECTION
  2
BLOCKS
  0
BLOCK
  5
20
330
1F
100
AcDbEntity
  8
0
100
AcDbBlockBegin
  2
*Model_Space
 70
     0
 10
0.0
 20
0.0
 30
0.0
  3
*Model_Space
  1

  0
ENDBLK
  5
21
330
1F
100
AcDbEntity
  8
0
100
AcDbBlockEnd
  0
BLOCK
  5
1C
330
1B
100
AcDbEntity
 67
     1
  8
0
100
AcDbBlockBegin
  2
*Paper_Space
 70
     0
 10
0.0
 20
0.0
 30
0.0
  3
*Paper_Space
  1

  0
ENDBLK
  5
1D
330
1B
100
AcDbEntity
 67
     1
  8
0
100
AcDbBlockEnd
  0
BLOCK
  5
24
330
23
100
AcDbEntity
  8
0
100
AcDbBlockBegin
  2
*Paper_Space0
 70
     0
 10
0.0
 20
0.0
 30
0.0
  3
*Paper_Space0
  1

  0
ENDBLK
  5
25
330
23
100
AcDbEntity
  8
0
100
AcDbBlockEnd
  0
ENDSEC
  0
SECTION
  2
ENTITIES
  0
MTEXT
  5
70
330
1F
100
AcDbEntity
  8
1
 62
     7
100
AcDbMText
 10
-392.1556097730659
 20
1246.338895636364
 30
0.0
 40
3.0
 41
0.0
 46
0.0
 71
     1
 72
     1
  1
{\fＭＳ ゴシック;\W0.871618;\Q14.999825;ＢＦＯ－２０２５}
 73
     1
 44
1.0
  0
LINE
  5
71
330
1F
100
AcDbEntity
  8
1
  6
CENTER
 62
     7
370
     9
100
AcDbLine
 10
-589.3218728649
 20
1535.4408899939
 30
0.0
 11
-589.3218728649
 21
1332.4316232105
 31
0.0
  0
LINE
  5
73
330
1F
100
AcDbEntity
  8
1
  6
Continuous
 62
     7
370
     9
100
AcDbLine
 10
-706.3218728649
 20
1335.4408899939
 30
0.0
 11
-472.3218728649
 21
1335.4408899939
 31
0.0
  0
ARC
  5
74
330
1F
100
AcDbEntity
  8
1
  6
Continuous
 62
     7
370
     9
100
AcDbCircle
 10
-571.8218728649
 20
1529.9408899938
 30
0.0
 40
1.5
100
AcDbArc
 50
0.0
 51
180.0
  0
ARC
  5
75
330
1F
100
AcDbEntity
  8
1
  6
Continuous
 62
     7
370
     9
100
AcDbCircle
 10
-554.3218728649
 20
1432.1908899939
 30
0.0
 40
1.25
100
AcDbArc
 50
0.0
 51
180.0
  0
LINE
  5
76
330
1F
100
AcDbEntity
  8
1
  6
Continuous
 62
     7
370
     9
100
AcDbLine
 10
-555.5718728649
 20
1432.1908899939
 30
0.0
 11
-555.5718728649
 21
1340.6908900007
 31
0.0
  0
ARC
  5
77
330
1F
100
AcDbEntity
  8
1
  6
Continuous
 62
     7
370
     9
100
AcDbCircle
 10
-656.0718728649
 20
1473.9408899939
 30
0.0
 40
1.25
100
AcDbArc
 50
90.0
 51
270.0
  0
LINE
  5
78
330
1F
100
AcDbEntity
  8
1
  6
Continuous
 62
     7
370
     9
100
AcDbLine
 10
-573.3218728649
 20
1340.9408899869
 30
0.0
 11
-573.3218728649
 21
1351.4408899869
 31
0.0
  0
ARC
  5
79
330
1F
100
AcDbEntity
  8
1
  6
Continuous
 62
     7
370
     9
100
AcDbCircle
 10
-627.5718728649
 20
1473.9408899939
 30
0.0
 40
1.25
100
AcDbArc
 50
270.0
 51
90.0
  0
ARC
  5
7A
330
1F
100
AcDbEntity
  8
1
  6
Continuous
 62
     7
370
     9
100
AcDbCircle
 10
-621.0718728649
 20
1473.9408899939
 30
0.0
 40
1.25
100
AcDbArc
 50
90.0
 51
270.0
  0
ARC
  5
7B
330
1F
100
AcDbEntity
  8
1
  6
Continuous
 62
     7
370
     9
100
AcDbCircle
 10
-589.3218728649
 20
1340.6908899869
 30
0.0
 40
1.25
100
AcDbArc
 50
180.0
 51
0.0
  0
ARC
  5
7C
330
1F
100
AcDbEntity
  8
1
  6
Continuous
 62
     7
370
     9
100
AcDbCircle
 10
-571.8218728649
 20
1351.4408899869
 30
0.0
 40
1.5
100
AcDbArc
 50
0.0
 51
180.0
  0
ARC
  5
7D
330
1F
100
AcDbEntity
  8
1
  6
Continuous
 62
     7
370
     9
100
AcDbCircle
 10
-589.3218728649
 20
1530.1908899938
 30
0.0
 40
1.25
100
AcDbArc
 50
0.0
 51
180.0
  0
LINE
  5
7E
330
1F
100
AcDbEntity
  8
1
  6
Continuous
 62
     7
370
     9
100
AcDbLine
 10
-625.5718728649
 20
1432.1908899939
 30
0.0
 11
-625.5718728649
 21
1340.6908900007
 31
0.0
  0
LINE
  5
7F
330
1F
100
AcDbEntity
  8
1
  6
Continuous
 62
     7
370
     9
100
AcDbLine
 10
-553.0718728649
 20
1340.6908900007
 30
0.0
 11
-553.0718728649
 21
1432.1908899939
 31
0.0
  0
ARC
  5
80
330
1F
100
AcDbEntity
  8
1
  6
Continuous
 62
     7
370
     9
100
AcDbCircle
 10
-606.8218728649
 20
1519.4408899938
 30
0.0
 40
1.5
100
AcDbArc
 50
180.0
 51
0.0
  0
LINE
  5
81
330
1F
100
AcDbEntity
  8
1
  6
Continuous
 62
     7
370
     9
100
AcDbLine
 10
-608.3218728649
 20
1529.9408899938
 30
0.0
 11
-608.3218728649
 21
1519.4408899938
 31
0.0
  0
LINE
  5
82
330
1F
100
AcDbEntity
  8
1
  6
CENTER
 62
     7
370
     9
100
AcDbLine
 10
-714.3218728649
 20
1435.4408899939
 30
0.0
 11
-459.6893292787
 21
1435.4408899938
 31
0.0
  0
ARC
  5
83
330
1F
100
AcDbEntity
  8
1
  6
Continuous
 62
     7
370
     9
100
AcDbCircle
 10
-571.8218728649
 20
1340.9408899869
 30
0.0
 40
1.5
100
AcDbArc
 50
180.0
 51
0.0
  0
ARC
  5
84
330
1F
100
AcDbEntity
  8
1
  6
Continuous
 62
     7
370
     9
100
AcDbCircle
 10
-571.8218728649
 20
1519.4408899938
 30
0.0
 40
1.5
100
AcDbArc
 50
180.0
 51
0.0
  0
CIRCLE
  5
85
330
1F
100
AcDbEntity
  8
1
  6
Continuous
 62
     7
370
     9
100
AcDbCircle
 10
-706.8218728649
 20
1342.9408899939
 30
0.0
 40
2.5
  0
LINE
  5
86
330
1F
100
AcDbEntity
  8
1
  6
Continuous
 62
     7
370
     9
100
AcDbLine
 10
-573.3218728649
 20
1529.9408899938
 30
0.0
 11
-573.3218728649
 21
1519.4408899938
 31
0.0
  0
LINE
  5
87
330
1F
100
AcDbEntity
  8
1
  6
Continuous
 62
     7
370
     9
100
AcDbLine
 10
-590.5718728649
 20
1438.6908899939
 30
0.0
 11
-590.5718728649
 21
1530.1908899938
 31
0.0
  0
LINE
  5
88
330
1F
100
AcDbEntity
  8
1
  6
Continuous
 62
     7
370
     9
100
AcDbLine
 10
-605.3218728649
 20
1340.9408899869
 30
0.0
 11
-605.3218728649
 21
1351.4408899869
 31
0.0
  0
LINE
  5
89
330
1F
100
AcDbEntity
  8
1
  6
Continuous
 62
     7
370
     9
100
AcDbLine
 10
-570.3218728649
 20
1529.9408899938
 30
0.0
 11
-570.3218728649
 21
1519.4408899938
 31
0.0
  0
LINE
  5
8A
330
1F
100
AcDbEntity
  8
1
  6
Continuous
 62
     7
370
     9
100
AcDbLine
 10
-606.8218728649
 20
1352.9408899869
 30
0.0
 11
-571.8218728649
 21
1352.9408899869
 31
0.0
  0
ARC
  5
8B
330
1F
100
AcDbEntity
  8
1
  6
Continuous
 62
     7
370
     9
100
AcDbCircle
 10
-624.3218728649
 20
1438.6908899939
 30
0.0
 40
1.25
100
AcDbArc
 50
180.0
 51
0.0
  0
ARC
  5
8C
330
1F
100
AcDbEntity
  8
1
  6
Continuous
 62
     7
370
     9
100
AcDbCircle
 10
-606.8218728649
 20
1351.4408899869
 30
0.0
 40
1.5
100
AcDbArc
 50
0.0
 51
180.0
  0
ARC
  5
8D
330
1F
100
AcDbEntity
  8
1
  6
Continuous
 62
     7
370
     9
100
AcDbCircle
 10
-706.3218728649
 20
1343.4408899939
 30
0.0
 40
8.0
100
AcDbArc
 50
180.0
 51
270.0
  0
LINE
  5
8E
330
1F
100
AcDbEntity
  8
1
  6
Continuous
 62
     7
370
     9
100
AcDbLine
 10
-553.0718728649
 20
1530.1908899938
 30
0.0
 11
-553.0718728649
 21
1438.6908899939
 31
0.0
  0
LINE
  5
8F
330
1F
100
AcDbEntity
  8
1
  6
Continuous
 62
     7
370
     9
100
AcDbLine
 10
-555.5718728649
 20
1438.6908899939
 30
0.0
 11
-555.5718728649
 21
1530.1908899938
 31
0.0
  0
LINE
  5
90
330
1F
100
AcDbEntity
  8
1
  6
Continuous
 62
     7
370
     9
100
AcDbLine
 10
-588.0718728649
 20
1340.6908899869
 30
0.0
 11
-588.0718728649
 21
1432.1908899939
 31
0.0
  0
ARC
  5
91
330
1F
100
AcDbEntity
  8
1
  6
Continuous
 62
     7
370
     9
100
AcDbCircle
 10
-624.3218728649
 20
1340.6908900007
 30
0.0
 40
1.25
100
AcDbArc
 50
180.0
 51
0.0
  0
ARC
  5
92
330
1F
100
AcDbEntity
  8
1
  6
Continuous
 62
     7
370
     9
100
AcDbCircle
 10
-589.3218728649
 20
1432.1908899939
 30
0.0
 40
1.25
100
AcDbArc
 50
0.0
 51
180.0
  0
ARC
  5
93
330
1F
100
AcDbEntity
  8
1
  6
Continuous
 62
     7
370
     9
100
AcDbCircle
 10
-624.3218728649
 20
1432.1908899939
 30
0.0
 40
1.25
100
AcDbArc
 50
0.0
 51
180.0
  0
LINE
  5
94
330
1F
100
AcDbEntity
  8
1
  6
Continuous
 62
     7
370
     9
100
AcDbLine
 10
-623.0718728649
 20
1340.6908900007
 30
0.0
 11
-623.0718728649
 21
1432.1908899939
 31
0.0
  0
ARC
  5
95
330
1F
100
AcDbEntity
  8
1
  6
Continuous
 62
     7
370
     9
100
AcDbCircle
 10
-554.3218728649
 20
1340.6908900007
 30
0.0
 40
1.25
100
AcDbArc
 50
180.0
 51
0.0
  0
LINE
  5
96
330
1F
100
AcDbEntity
  8
1
  6
Continuous
 62
     7
370
     9
100
AcDbLine
 10
-605.3218728649
 20
1529.9408899938
 30
0.0
 11
-605.3218728649
 21
1519.4408899938
 31
0.0
  0
LINE
  5
97
330
1F
100
AcDbEntity
  8
1
  6
Continuous
 62
     7
370
     9
100
AcDbLine
 10
-627.5718728649
 20
1472.6908899939
 30
0.0
 11
-656.0718728649
 21
1472.6908899939
 31
0.0
  0
ARC
  5
98
330
1F
100
AcDbEntity
  8
1
  6
Continuous
 62
     7
370
     9
100
AcDbCircle
 10
-592.5718728649
 20
1473.9408899939
 30
0.0
 40
1.25
100
AcDbArc
 50
270.0
 51
90.0
  0
LINE
  5
99
330
1F
100
AcDbEntity
  8
1
  6
Continuous
 62
     7
370
     9
100
AcDbLine
 10
-592.5718728649
 20
1472.6908899939
 30
0.0
 11
-621.0718728649
 21
1472.6908899939
 31
0.0
  0
ARC
  5
9A
330
1F
100
AcDbEntity
  8
1
  6
Continuous
 62
     7
370
     9
100
AcDbCircle
 10
-522.5718728649
 20
1473.9408899939
 30
0.0
 40
1.25
100
AcDbArc
 50
270.0
 51
90.0
  0
LINE
  5
9B
330
1F
100
AcDbEntity
  8
1
  6
Continuous
 62
     7
370
     9
100
AcDbLine
 10
-522.5718728649
 20
1475.1908899939
 30
0.0
 11
-551.0718728649
 21
1475.1908899939
 31
0.0
  0
ARC
  5
9C
330
1F
100
AcDbEntity
  8
1
  6
Continuous
 62
     7
370
     9
100
AcDbCircle
 10
-589.3218728649
 20
1438.6908899939
 30
0.0
 40
1.25
100
AcDbArc
 50
180.0
 51
0.0
  0
ARC
  5
9D
330
1F
100
AcDbEntity
  8
1
  6
Continuous
 62
     7
370
     9
100
AcDbCircle
 10
-551.0718728649
 20
1473.9408899939
 30
0.0
 40
1.25
100
AcDbArc
 50
90.0
 51
270.0
  0
LINE
  5
9E
330
1F
100
AcDbEntity
  8
1
  6
Continuous
 62
     7
370
     9
100
AcDbLine
 10
-608.3218728649
 20
1340.9408899869
 30
0.0
 11
-608.3218728649
 21
1351.4408899869
 31
0.0
  0
LINE
  5
9F
330
1F
100
AcDbEntity
  8
1
  6
Continuous
 62
     7
370
     9
100
AcDbLine
 10
-570.3218728649
 20
1340.9408899869
 30
0.0
 11
-570.3218728649
 21
1351.4408899869
 31
0.0
  0
LINE
  5
A0
330
1F
100
AcDbEntity
  8
1
  6
Continuous
 62
     7
370
     9
100
AcDbLine
 10
-588.0718728649
 20
1530.1908899938
 30
0.0
 11
-588.0718728649
 21
1438.6908899939
 31
0.0
  0
LINE
  5
A1
330
1F
100
AcDbEntity
  8
1
  6
Continuous
 62
     7
370
     9
100
AcDbLine
 10
-606.8218728649
 20
1531.4408899938
 30
0.0
 11
-571.8218728649
 21
1531.4408899938
 31
0.0
  0
LINE
  5
A2
330
1F
100
AcDbEntity
  8
1
  6
Continuous
 62
     7
370
     9
100
AcDbLine
 10
-472.3218728649
 20
1535.4408899939
 30
0.0
 11
-706.3218728649
 21
1535.4408899939
 31
0.0
  0
ARC
  5
A3
330
1F
100
AcDbEntity
  8
1
  6
Continuous
 62
     7
370
     9
100
AcDbCircle
 10
-606.8218728649
 20
1529.9408899938
 30
0.0
 40
1.5
100
AcDbArc
 50
0.0
 51
180.0
  0
LINE
  5
A4
330
1F
100
AcDbEntity
  8
1
  6
Continuous
 62
     7
370
     9
100
AcDbLine
 10
-571.8218728649
 20
1517.9408899938
 30
0.0
 11
-606.8218728649
 21
1517.9408899938
 31
0.0
  0
ARC
  5
A5
330
1F
100
AcDbEntity
  8
1
  6
Continuous
 62
     7
370
     9
100
AcDbCircle
 10
-606.8218728649
 20
1340.9408899869
 30
0.0
 40
1.5
100
AcDbArc
 50
180.0
 51
0.0
  0
LINE
  5
A6
330
1F
100
AcDbEntity
  8
1
  6
Continuous
 62
     7
370
     9
100
AcDbLine
 10
-571.8218728649
 20
1339.4408899869
 30
0.0
 11
-606.8218728649
 21
1339.4408899869
 31
0.0
  0
LINE
  5
A7
330
1F
100
AcDbEntity
  8
1
  6
Continuous
 62
     7
370
     9
100
AcDbLine
 10
-590.5718728649
 20
1432.1908899939
 30
0.0
 11
-590.5718728649
 21
1340.6908899869
 31
0.0
  0
LINE
  5
A8
330
1F
100
AcDbEntity
  8
1
  6
Continuous
 62
     7
370
     9
100
AcDbLine
 10
-623.0718728649
 20
1530.1908899938
 30
0.0
 11
-623.0718728649
 21
1438.6908899939
 31
0.0
  0
LINE
  5
A9
330
1F
100
AcDbEntity
  8
1
  6
Continuous
 62
     7
370
     9
100
AcDbLine
 10
-625.5718728649
 20
1438.6908899939
 30
0.0
 11
-625.5718728649
 21
1530.1908899938
 31
0.0
  0
LINE
  5
AA
330
1F
100
AcDbEntity
  8
1
  6
Continuous
 62
     7
370
     9
100
AcDbLine
 10
-487.5718728649
 20
1514.6908899939
 30
0.0
 11
-516.0718728649
 21
1514.6908899939
 31
0.0
  0
ARC
  5
AB
330
1F
100
AcDbEntity
  8
1
  6
Continuous
 62
     7
370
     9
100
AcDbCircle
 10
-487.5718728649
 20
1396.9408899939
 30
0.0
 40
1.25
100
AcDbArc
 50
270.0
 51
90.0
  0
LINE
  5
AC
330
1F
100
AcDbEntity
  8
1
  6
Continuous
 62
     7
370
     9
100
AcDbLine
 10
-627.5718728649
 20
1395.6908899939
 30
0.0
 11
-656.0718728649
 21
1395.6908899939
 31
0.0
  0
ARC
  5
AD
330
1F
100
AcDbEntity
  8
1
  6
Continuous
 62
     7
370
     9
100
AcDbCircle
 10
-551.0718728649
 20
1396.9408899939
 30
0.0
 40
1.25
100
AcDbArc
 50
90.0
 51
270.0
  0
LINE
  5
AE
330
1F
100
AcDbEntity
  8
1
  6
Continuous
 62
     7
370
     9
100
AcDbLine
 10
-551.0718728649
 20
1472.6908899939
 30
0.0
 11
-522.5718728649
 21
1472.6908899939
 31
0.0
  0
ARC
  5
AF
330
1F
100
AcDbEntity
  8
1
  6
Continuous
 62
     7
370
     9
100
AcDbCircle
 10
-516.0718728649
 20
1396.9408899939
 30
0.0
 40
1.25
100
AcDbArc
 50
90.0
 51
270.0
  0
ARC
  5
B0
330
1F
100
AcDbEntity
  8
1
  6
Continuous
 62
     7
370
     9
100
AcDbCircle
 10
-627.5718728649
 20
1396.9408899939
 30
0.0
 40
1.25
100
AcDbArc
 50
270.0
 51
90.0
  0
LINE
  5
B1
330
1F
100
AcDbEntity
  8
1
  6
Continuous
 62
     7
370
     9
100
AcDbLine
 10
-658.0718728649
 20
1438.6908899939
 30
0.0
 11
-658.0718728649
 21
1530.1908899938
 31
0.0
  0
LINE
  5
B2
330
1F
100
AcDbEntity
  8
1
  6
Continuous
 62
     7
370
     9
100
AcDbLine
 10
-691.0718728649
 20
1395.6908899939
 30
0.0
 11
-662.5718728649
 21
1395.6908899939
 31
0.0
  0
LINE
  5
B3
330
1F
100
AcDbEntity
  8
1
  6
Continuous
 62
     7
370
     9
100
AcDbLine
 10
-586.0718728649
 20
1517.1908899939
 30
0.0
 11
-557.5718728649
 21
1517.1908899939
 31
0.0
  0
ARC
  5
B4
330
1F
100
AcDbEntity
  8
1
  6
Continuous
 62
     7
370
     9
100
AcDbCircle
 10
-586.0718728649
 20
1435.4408899939
 30
0.0
 40
1.25
100
AcDbArc
 50
90.0
 51
270.0
  0
LINE
  5
B5
330
1F
100
AcDbEntity
  8
1
  6
Continuous
 62
     7
370
     9
100
AcDbLine
 10
-487.5718728649
 20
1395.6908899939
 30
0.0
 11
-516.0718728649
 21
1395.6908899939
 31
0.0
  0
LINE
  5
B6
330
1F
100
AcDbEntity
  8
1
  6
Continuous
 62
     7
370
     9
100
AcDbLine
 10
-592.5718728649
 20
1434.1908899939
 30
0.0
 11
-708.5718728649
 21
1434.1908899939
 31
0.0
  0
ARC
  5
B7
330
1F
100
AcDbEntity
  8
1
  6
Continuous
 62
     7
370
     9
100
AcDbCircle
 10
-516.0718728649
 20
1515.9408899939
 30
0.0
 40
1.25
100
AcDbArc
 50
90.0
 51
270.0
  0
LINE
  5
B8
330
1F
100
AcDbEntity
  8
1
  6
Continuous
 62
     7
370
     9
100
AcDbLine
 10
-586.0718728649
 20
1395.6908899939
 30
0.0
 11
-557.5718728649
 21
1395.6908899939
 31
0.0
  0
LINE
  5
B9
330
1F
100
AcDbEntity
  8
1
  6
Continuous
 62
     7
370
     9
100
AcDbLine
 10
-487.5718728649
 20
1475.1908899939
 30
0.0
 11
-516.0718728649
 21
1475.1908899939
 31
0.0
  0
ARC
  5
BA
330
1F
100
AcDbEntity
  8
1
  6
Continuous
 62
     7
370
     9
100
AcDbCircle
 10
-656.0718728649
 20
1396.9408899939
 30
0.0
 40
1.25
100
AcDbArc
 50
90.0
 51
270.0
  0
ARC
  5
BB
330
1F
100
AcDbEntity
  8
1
  6
Continuous
 62
     7
370
     9
100
AcDbCircle
 10
-522.5718728649
 20
1396.9408899939
 30
0.0
 40
1.25
100
AcDbArc
 50
270.0
 51
90.0
  0
ARC
  5
BC
330
1F
100
AcDbEntity
  8
1
  6
Continuous
 62
     7
370
     9
100
AcDbCircle
 10
-557.5718728649
 20
1473.9408899939
 30
0.0
 40
1.25
100
AcDbArc
 50
270.0
 51
90.0
  0
ARC
  5
BD
330
1F
100
AcDbEntity
  8
1
  6
Continuous
 62
     7
370
     9
100
AcDbCircle
 10
-557.5718728649
 20
1396.9408899939
 30
0.0
 40
1.25
100
AcDbArc
 50
270.0
 51
90.0
  0
ARC
  5
BE
330
1F
100
AcDbEntity
  8
1
  6
Continuous
 62
     7
370
     9
100
AcDbCircle
 10
-516.0718728649
 20
1473.9408899939
 30
0.0
 40
1.25
100
AcDbArc
 50
90.0
 51
270.0
  0
ARC
  5
BF
330
1F
100
AcDbEntity
  8
1
  6
Continuous
 62
     7
370
     9
100
AcDbCircle
 10
-662.5718728649
 20
1473.9408899939
 30
0.0
 40
1.25
100
AcDbArc
 50
270.0
 51
90.0
  0
ARC
  5
C0
330
1F
100
AcDbEntity
  8
1
  6
Continuous
 62
     7
370
     9
100
AcDbCircle
 10
-662.5718728649
 20
1396.9408899939
 30
0.0
 40
1.25
100
AcDbArc
 50
270.0
 51
90.0
  0
LINE
  5
C1
330
1F
100
AcDbEntity
  8
1
  6
Continuous
 62
     7
370
     9
100
AcDbLine
 10
-660.5718728649
 20
1340.6908899869
 30
0.0
 11
-660.5718728649
 21
1432.1908899939
 31
0.0
  0
LINE
  5
C2
330
1F
100
AcDbEntity
  8
1
  6
Continuous
 62
     7
370
     9
100
AcDbLine
 10
-691.0718728649
 20
1475.1908899939
 30
0.0
 11
-662.5718728649
 21
1475.1908899939
 31
0.0
  0
LINE
  5
C3
330
1F
100
AcDbEntity
  8
1
  6
Continuous
 62
     7
370
     9
100
AcDbLine
 10
-586.0718728649
 20
1434.1908899939
 30
0.0
 11
-470.0718728649
 21
1434.1908899939
 31
0.0
  0
LINE
  5
C4
330
1F
100
AcDbEntity
  8
1
  6
Continuous
 62
     7
370
     9
100
AcDbLine
 10
-520.5718728649
 20
1438.6908899939
 30
0.0
 11
-520.5718728649
 21
1530.1908899938
 31
0.0
  0
LINE
  5
C5
330
1F
100
AcDbEntity
  8
1
  6
Continuous
 62
     7
370
     9
100
AcDbLine
 10
-551.0718728649
 20
1395.6908899939
 30
0.0
 11
-522.5718728649
 21
1395.6908899939
 31
0.0
  0
ARC
  5
C6
330
1F
100
AcDbEntity
  8
1
  6
Continuous
 62
     7
370
     9
100
AcDbCircle
 10
-706.3218728649
 20
1527.4408899939
 30
0.0
 40
8.0
100
AcDbArc
 50
90.0
 51
180.0
  0
ARC
  5
C7
330
1F
100
AcDbEntity
  8
1
  6
Continuous
 62
     7
370
     9
100
AcDbCircle
 10
-586.0718728649
 20
1473.9408899939
 30
0.0
 40
1.25
100
AcDbArc
 50
90.0
 51
270.0
  0
LINE
  5
C8
330
1F
100
AcDbEntity
  8
1
  6
Continuous
 62
     7
370
     9
100
AcDbLine
 10
-660.5718728649
 20
1530.1908899938
 30
0.0
 11
-660.5718728649
 21
1438.6908899939
 31
0.0
  0
LINE
  5
C9
330
1F
100
AcDbEntity
  8
1
  6
Continuous
 62
     7
370
     9
100
AcDbLine
 10
-714.3218728649
 20
1343.4408899939
 30
0.0
 11
-714.3218728649
 21
1527.4408899939
 31
0.0
  0
ARC
  5
CA
330
1F
100
AcDbEntity
  8
1
  6
Continuous
 62
     7
370
     9
100
AcDbCircle
 10
-659.3218728649
 20
1438.6908899939
 30
0.0
 40
1.25
100
AcDbArc
 50
180.0
 51
0.0
  0
LINE
  5
CB
330
1F
100
AcDbEntity
  8
1
  6
Continuous
 62
     7
370
     9
100
AcDbLine
 10
-708.5718728649
 20
1436.6908899939
 30
0.0
 11
-592.5718728649
 21
1436.6908899939
 31
0.0
  0
LINE
  5
CC
330
1F
100
AcDbEntity
  8
1
  6
Continuous
 62
     7
370
     9
100
AcDbLine
 10
-662.5718728649
 20
1398.1908899939
 30
0.0
 11
-691.0718728649
 21
1398.1908899939
 31
0.0
  0
LINE
  5
CD
330
1F
100
AcDbEntity
  8
1
  6
Continuous
 62
     7
370
     9
100
AcDbLine
 10
-551.0718728649
 20
1517.1908899939
 30
0.0
 11
-522.5718728649
 21
1517.1908899939
 31
0.0
  0
ARC
  5
CE
330
1F
100
AcDbEntity
  8
1
  6
Continuous
 62
     7
370
     9
100
AcDbCircle
 10
-557.5718728649
 20
1515.9408899939
 30
0.0
 40
1.25
100
AcDbArc
 50
270.0
 51
90.0
  0
LINE
  5
CF
330
1F
100
AcDbEntity
  8
1
  6
Continuous
 62
     7
370
     9
100
AcDbLine
 10
-662.5718728649
 20
1472.6908899939
 30
0.0
 11
-691.0718728649
 21
1472.6908899939
 31
0.0
  0
LINE
  5
D0
330
1F
100
AcDbEntity
  8
1
  6
Continuous
 62
     7
370
     9
100
AcDbLine
 10
-621.0718728649
 20
1398.1908899939
 30
0.0
 11
-592.5718728649
 21
1398.1908899939
 31
0.0
  0
ARC
  5
D1
330
1F
100
AcDbEntity
  8
1
  6
Continuous
 62
     7
370
     9
100
AcDbCircle
 10
-592.5718728649
 20
1396.9408899939
 30
0.0
 40
1.25
100
AcDbArc
 50
270.0
 51
90.0
  0
ARC
  5
D2
330
1F
100
AcDbEntity
  8
1
  6
Continuous
 62
     7
370
     9
100
AcDbCircle
 10
-659.3218728649
 20
1432.1908899939
 30
0.0
 40
1.25
100
AcDbArc
 50
0.0
 51
180.0
  0
ARC
  5
D3
330
1F
100
AcDbEntity
  8
1
  6
Continuous
 62
     7
370
     9
100
AcDbCircle
 10
-554.3218728649
 20
1438.6908899939
 30
0.0
 40
1.25
100
AcDbArc
 50
180.0
 51
0.0
  0
ARC
  5
D4
330
1F
100
AcDbEntity
  8
1
  6
Continuous
 62
     7
370
     9
100
AcDbCircle
 10
-519.3218728649
 20
1438.6908899939
 30
0.0
 40
1.25
100
AcDbArc
 50
180.0
 51
0.0
  0
LINE
  5
D5
330
1F
100
AcDbEntity
  8
1
  6
Continuous
 62
     7
370
     9
100
AcDbLine
 10
-592.5718728649
 20
1395.6908899939
 30
0.0
 11
-621.0718728649
 21
1395.6908899939
 31
0.0
  0
LINE
  5
D6
330
1F
100
AcDbEntity
  8
1
  6
Continuous
 62
     7
370
     9
100
AcDbLine
 10
-518.0718728649
 20
1530.1908899938
 30
0.0
 11
-518.0718728649
 21
1438.6908899939
 31
0.0
  0
ARC
  5
D7
330
1F
100
AcDbEntity
  8
1
  6
Continuous
 62
     7
370
     9
100
AcDbCircle
 10
-621.0718728649
 20
1396.9408899939
 30
0.0
 40
1.25
100
AcDbArc
 50
90.0
 51
270.0
  0
ARC
  5
D8
330
1F
100
AcDbEntity
  8
1
  6
Continuous
 62
     7
370
     9
100
AcDbCircle
 10
-519.3218728649
 20
1340.6908899869
 30
0.0
 40
1.25
100
AcDbArc
 50
180.0
 51
0.0
  0
ARC
  5
D9
330
1F
100
AcDbEntity
  8
1
  6
Continuous
 62
     7
370
     9
100
AcDbCircle
 10
-519.3218728649
 20
1432.1908899939
 30
0.0
 40
1.25
100
AcDbArc
 50
0.0
 51
180.0
  0
ARC
  5
DA
330
1F
100
AcDbEntity
  8
1
  6
Continuous
 62
     7
370
     9
100
AcDbCircle
 10
-551.0718728649
 20
1515.9408899939
 30
0.0
 40
1.25
100
AcDbArc
 50
90.0
 51
270.0
  0
LINE
  5
DB
330
1F
100
AcDbEntity
  8
1
  6
Continuous
 62
     7
370
     9
100
AcDbLine
 10
-516.0718728649
 20
1398.1908899939
 30
0.0
 11
-487.5718728649
 21
1398.1908899939
 31
0.0
  0
LINE
  5
DC
330
1F
100
AcDbEntity
  8
1
  6
Continuous
 62
     7
370
     9
100
AcDbLine
 10
-520.5718728649
 20
1432.1908899939
 30
0.0
 11
-520.5718728649
 21
1340.6908899869
 31
0.0
  0
LINE
  5
DD
330
1F
100
AcDbEntity
  8
1
  6
Continuous
 62
     7
370
     9
100
AcDbLine
 10
-470.0718728649
 20
1436.6908899939
 30
0.0
 11
-586.0718728649
 21
1436.6908899939
 31
0.0
  0
LINE
  5
DE
330
1F
100
AcDbEntity
  8
1
  6
Continuous
 62
     7
370
     9
100
AcDbLine
 10
-656.0718728649
 20
1398.1908899939
 30
0.0
 11
-627.5718728649
 21
1398.1908899939
 31
0.0
  0
ARC
  5
DF
330
1F
100
AcDbEntity
  8
1
  6
Continuous
 62
     7
370
     9
100
AcDbCircle
 10
-586.0718728649
 20
1396.9408899939
 30
0.0
 40
1.25
100
AcDbArc
 50
90.0
 51
270.0
  0
LINE
  5
E0
330
1F
100
AcDbEntity
  8
1
  6
Continuous
 62
     7
370
     9
100
AcDbLine
 10
-589.3218728649
 20
1351.4408899869
 30
0.0
 11
-589.3218728649
 21
1349.300916898
 31
0.0
  0
LINE
  5
E1
330
1F
100
AcDbEntity
  8
1
  6
Continuous
 62
     7
370
     9
100
AcDbLine
 10
-516.0718728649
 20
1472.6908899939
 30
0.0
 11
-487.5718728649
 21
1472.6908899939
 31
0.0
  0
LINE
  5
E2
330
1F
100
AcDbEntity
  8
1
  6
Continuous
 62
     7
370
     9
100
AcDbLine
 10
-518.0718728649
 20
1340.6908899869
 30
0.0
 11
-518.0718728649
 21
1432.1908899939
 31
0.0
  0
LINE
  5
E3
330
1F
100
AcDbEntity
  8
1
  6
Continuous
 62
     7
370
     9
100
AcDbLine
 10
-586.0718728649
 20
1472.6908899939
 30
0.0
 11
-557.5718728649
 21
1472.6908899939
 31
0.0
  0
ARC
  5
E4
330
1F
100
AcDbEntity
  8
1
  6
Continuous
 62
     7
370
     9
100
AcDbCircle
 10
-659.3218728649
 20
1340.6908899869
 30
0.0
 40
1.25
100
AcDbArc
 50
180.0
 51
0.0
  0
ARC
  5
E5
330
1F
100
AcDbEntity
  8
1
  6
Continuous
 62
     7
370
     9
100
AcDbCircle
 10
-592.5718728649
 20
1435.4408899939
 30
0.0
 40
1.25
100
AcDbArc
 50
270.0
 51
90.0
  0
LINE
  5
E6
330
1F
100
AcDbEntity
  8
1
  6
Continuous
 62
     7
370
     9
100
AcDbLine
 10
-658.0718728649
 20
1432.1908899939
 30
0.0
 11
-658.0718728649
 21
1340.6908899869
 31
0.0
  0
LINE
  5
E7
330
1F
100
AcDbEntity
  8
1
  6
Continuous
 62
     7
370
     9
100
AcDbLine
 10
-522.5718728649
 20
1514.6908899939
 30
0.0
 11
-551.0718728649
 21
1514.6908899939
 31
0.0
  0
CIRCLE
  5
E8
330
1F
100
AcDbEntity
  8
1
  6
Continuous
 62
     7
370
     9
100
AcDbCircle
 10
-706.8218728649
 20
1527.9408899939
 30
0.0
 40
2.5
  0
LINE
  5
E9
330
1F
100
AcDbEntity
  8
1
  6
Continuous
 62
     7
370
     9
100
AcDbLine
 10
-557.5718728649
 20
1398.1908899939
 30
0.0
 11
-586.0718728649
 21
1398.1908899939
 31
0.0
  0
ARC
  5
EA
330
1F
100
AcDbEntity
  8
1
  6
Continuous
 62
     7
370
     9
100
AcDbCircle
 10
-586.0718728649
 20
1515.9408899939
 30
0.0
 40
1.25
100
AcDbArc
 50
90.0
 51
270.0
  0
CIRCLE
  5
EB
330
1F
100
AcDbEntity
  8
1
  6
Continuous
 62
     7
370
     9
100
AcDbCircle
 10
-706.8218728649
 20
1342.9408899939
 30
0.0
 40
4.75
  0
LINE
  5
EC
330
1F
100
AcDbEntity
  8
1
  6
Continuous
 62
     7
370
     9
100
AcDbLine
 10
-695.5718728649
 20
1530.1908899938
 30
0.0
 11
-695.5718728649
 21
1438.6908899939
 31
0.0
  0
LINE
  5
ED
330
1F
100
AcDbEntity
  8
1
  6
Continuous
 62
     7
370
     9
100
AcDbLine
 10
-627.5718728649
 20
1356.1908899869
 30
0.0
 11
-656.0718728649
 21
1356.1908899869
 31
0.0
  0
LINE
  5
EE
330
1F
100
AcDbEntity
  8
1
  6
Continuous
 62
     7
370
     9
100
AcDbLine
 10
-586.0718728649
 20
1514.6908899939
 30
0.0
 11
-557.5718728649
 21
1514.6908899939
 31
0.0
  0
ARC
  5
EF
330
1F
100
AcDbEntity
  8
1
  6
Continuous
 62
     7
370
     9
100
AcDbCircle
 10
-557.5718728649
 20
1354.9408899869
 30
0.0
 40
1.25
100
AcDbArc
 50
270.0
 51
90.0
  0
ARC
  5
F0
330
1F
100
AcDbEntity
  8
1
  6
Continuous
 62
     7
370
     9
100
AcDbCircle
 10
-487.5718728649
 20
1354.9408899869
 30
0.0
 40
1.25
100
AcDbArc
 50
270.0
 51
90.0
  0
LINE
  5
F1
330
1F
100
AcDbEntity
  8
1
  6
Continuous
 62
     7
370
     9
100
AcDbLine
 10
-592.5718728649
 20
1356.1908899869
 30
0.0
 11
-621.0718728649
 21
1356.1908899869
 31
0.0
  0
ARC
  5
F2
330
1F
100
AcDbEntity
  8
1
  6
Continuous
 62
     7
370
     9
100
AcDbCircle
 10
-516.0718728649
 20
1354.9408899869
 30
0.0
 40
1.25
100
AcDbArc
 50
90.0
 51
270.0
  0
ARC
  5
F3
330
1F
100
AcDbEntity
  8
1
  6
Continuous
 62
     7
370
     9
100
AcDbCircle
 10
-662.5718728649
 20
1515.9408899939
 30
0.0
 40
1.25
100
AcDbArc
 50
270.0
 51
90.0
  0
ARC
  5
F4
330
1F
100
AcDbEntity
  8
1
  6
Continuous
 62
     7
370
     9
100
AcDbCircle
 10
-662.5718728649
 20
1354.9408899869
 30
0.0
 40
1.25
100
AcDbArc
 50
270.0
 51
90.0
  0
LINE
  5
F5
330
1F
100
AcDbEntity
  8
1
  6
Continuous
 62
     7
370
     9
100
AcDbLine
 10
-551.0718728649
 20
1398.1908899939
 30
0.0
 11
-522.5718728649
 21
1398.1908899939
 31
0.0
  0
ARC
  5
F6
330
1F
100
AcDbEntity
  8
1
  6
Continuous
 62
     7
370
     9
100
AcDbCircle
 10
-656.0718728649
 20
1515.9408899939
 30
0.0
 40
1.25
100
AcDbArc
 50
90.0
 51
270.0
  0
LINE
  5
F7
330
1F
100
AcDbEntity
  8
1
  6
Continuous
 62
     7
370
     9
100
AcDbLine
 10
-592.5718728649
 20
1517.1908899939
 30
0.0
 11
-621.0718728649
 21
1517.1908899939
 31
0.0
  0
LINE
  5
F8
330
1F
100
AcDbEntity
  8
1
  6
Continuous
 62
     7
370
     9
100
AcDbLine
 10
-656.0718728649
 20
1353.6908899869
 30
0.0
 11
-627.5718728649
 21
1353.6908899869
 31
0.0
  0
LINE
  5
F9
330
1F
100
AcDbEntity
  8
1
  6
Continuous
 62
     7
370
     9
100
AcDbLine
 10
-697.5718728649
 20
1472.6908899939
 30
0.0
 11
-708.5718728649
 21
1472.6908899939
 31
0.0
  0
ARC
  5
FA
330
1F
100
AcDbEntity
  8
1
  6
Continuous
 62
     7
370
     9
100
AcDbCircle
 10
-694.3218728649
 20
1438.6908899939
 30
0.0
 40
1.25
100
AcDbArc
 50
180.0
 51
0.0
  0
LINE
  5
FB
330
1F
100
AcDbEntity
  8
1
  6
Continuous
 62
     7
370
     9
100
AcDbLine
 10
-487.5718728649
 20
1353.6908899869
 30
0.0
 11
-516.0718728649
 21
1353.6908899869
 31
0.0
  0
LINE
  5
FC
330
1F
100
AcDbEntity
  8
1
  6
Continuous
 62
     7
370
     9
100
AcDbLine
 10
-691.0718728649
 20
1353.6908899869
 30
0.0
 11
-662.5718728649
 21
1353.6908899869
 31
0.0
  0
LINE
  5
FD
330
1F
100
AcDbEntity
  8
1
  6
Continuous
 62
     7
370
     9
100
AcDbLine
 10
-588.0718728649
 20
1416.6908899939
 30
0.0
 11
-590.5718728649
 21
1416.6908899939
 31
0.0
  0
ARC
  5
FE
330
1F
100
AcDbEntity
  8
1
  6
Continuous
 62
     7
370
     9
100
AcDbCircle
 10
-697.5718728649
 20
1396.9408899939
 30
0.0
 40
1.25
100
AcDbArc
 50
270.0
 51
90.0
  0
ARC
  5
FF
330
1F
100
AcDbEntity
  8
1
  6
Continuous
 62
     7
370
     9
100
AcDbCircle
 10
-697.5718728649
 20
1473.9408899939
 30
0.0
 40
1.25
100
AcDbArc
 50
270.0
 51
90.0
  0
LINE
  5
100
330
1F
100
AcDbEntity
  8
1
  6
Continuous
 62
     7
370
     9
100
AcDbLine
 10
-697.5718728649
 20
1398.1908899939
 30
0.0
 11
-708.5718728649
 21
1398.1908899939
 31
0.0
  0
ARC
  5
101
330
1F
100
AcDbEntity
  8
1
  6
Continuous
 62
     7
370
     9
100
AcDbCircle
 10
-708.5718728649
 20
1396.9408899939
 30
0.0
 40
1.25
100
AcDbArc
 50
90.0
 51
270.0
  0
LINE
  5
102
330
1F
100
AcDbEntity
  8
1
  6
Continuous
 62
     7
370
     9
100
AcDbLine
 10
-691.0718728649
 20
1514.6908899939
 30
0.0
 11
-662.5718728649
 21
1514.6908899939
 31
0.0
  0
ARC
  5
103
330
1F
100
AcDbEntity
  8
1
  6
Continuous
 62
     7
370
     9
100
AcDbCircle
 10
-627.5718728649
 20
1354.9408899869
 30
0.0
 40
1.25
100
AcDbArc
 50
270.0
 51
90.0
  0
ARC
  5
104
330
1F
100
AcDbEntity
  8
1
  6
Continuous
 62
     7
370
     9
100
AcDbCircle
 10
-522.5718728649
 20
1515.9408899939
 30
0.0
 40
1.25
100
AcDbArc
 50
270.0
 51
90.0
  0
LINE
  5
105
330
1F
100
AcDbEntity
  8
1
  6
Continuous
 62
     7
370
     9
100
AcDbLine
 10
-708.5718728649
 20
1395.6908899939
 30
0.0
 11
-697.5718728649
 21
1395.6908899939
 31
0.0
  0
LINE
  5
106
330
1F
100
AcDbEntity
  8
1
  6
Continuous
 62
     7
370
     9
100
AcDbLine
 10
-656.0718728649
 20
1514.6908899939
 30
0.0
 11
-627.5718728649
 21
1514.6908899939
 31
0.0
  0
LINE
  5
107
330
1F
100
AcDbEntity
  8
1
  6
Continuous
 62
     7
370
     9
100
AcDbLine
 10
-693.0718728649
 20
1438.6908899939
 30
0.0
 11
-693.0718728649
 21
1530.1908899938
 31
0.0
  0
LINE
  5
108
330
1F
100
AcDbEntity
  8
1
  6
Continuous
 62
     7
370
     9
100
AcDbLine
 10
-592.5718728649
 20
1475.1908899939
 30
0.0
 11
-621.0718728649
 21
1475.1908899939
 31
0.0
  0
LINE
  5
109
330
1F
100
AcDbEntity
  8
1
  6
Continuous
 62
     7
370
     9
100
AcDbLine
 10
-590.5718728649
 20
1415.6908899939
 30
0.0
 11
-588.0718728649
 21
1415.6908899939
 31
0.0
  0
LINE
  5
10A
330
1F
100
AcDbEntity
  8
1
  6
Continuous
 62
     7
370
     9
100
AcDbLine
 10
-586.0718728649
 20
1353.6908899869
 30
0.0
 11
-557.5718728649
 21
1353.6908899869
 31
0.0
  0
LINE
  5
10B
330
1F
100
AcDbEntity
  8
1
  6
Continuous
 62
     7
370
     9
100
AcDbLine
 10
-627.5718728649
 20
1517.1908899939
 30
0.0
 11
-656.0718728649
 21
1517.1908899939
 31
0.0
  0
LINE
  5
10C
330
1F
100
AcDbEntity
  8
1
  6
Continuous
 62
     7
370
     9
100
AcDbLine
 10
-662.5718728649
 20
1517.1908899939
 30
0.0
 11
-691.0718728649
 21
1517.1908899939
 31
0.0
  0
LINE
  5
10D
330
1F
100
AcDbEntity
  8
1
  6
Continuous
 62
     7
370
     9
100
AcDbLine
 10
-627.5718728649
 20
1475.1908899939
 30
0.0
 11
-656.0718728649
 21
1475.1908899939
 31
0.0
  0
ARC
  5
10E
330
1F
100
AcDbEntity
  8
1
  6
Continuous
 62
     7
370
     9
100
AcDbCircle
 10
-656.0718728649
 20
1354.9408899869
 30
0.0
 40
1.25
100
AcDbArc
 50
90.0
 51
270.0
  0
ARC
  5
10F
330
1F
100
AcDbEntity
  8
1
  6
Continuous
 62
     7
370
     9
100
AcDbCircle
 10
-621.0718728649
 20
1354.9408899869
 30
0.0
 40
1.25
100
AcDbArc
 50
90.0
 51
270.0
  0
ARC
  5
110
330
1F
100
AcDbEntity
  8
1
  6
Continuous
 62
     7
370
     9
100
AcDbCircle
 10
-522.5718728649
 20
1354.9408899869
 30
0.0
 40
1.25
100
AcDbArc
 50
270.0
 51
90.0
  0
ARC
  5
111
330
1F
100
AcDbEntity
  8
1
  6
Continuous
 62
     7
370
     9
100
AcDbCircle
 10
-627.5718728649
 20
1515.9408899939
 30
0.0
 40
1.25
100
AcDbArc
 50
270.0
 51
90.0
  0
LINE
  5
112
330
1F
100
AcDbEntity
  8
1
  6
Continuous
 62
     7
370
     9
100
AcDbLine
 10
-662.5718728649
 20
1356.1908899869
 30
0.0
 11
-691.0718728649
 21
1356.1908899869
 31
0.0
  0
LINE
  5
113
330
1F
100
AcDbEntity
  8
1
  6
Continuous
 62
     7
370
     9
100
AcDbLine
 10
-592.5718728649
 20
1353.6908899869
 30
0.0
 11
-621.0718728649
 21
1353.6908899869
 31
0.0
  0
ARC
  5
114
330
1F
100
AcDbEntity
  8
1
  6
Continuous
 62
     7
370
     9
100
AcDbCircle
 10
-551.0718728649
 20
1354.9408899869
 30
0.0
 40
1.25
100
AcDbArc
 50
90.0
 51
270.0
  0
LINE
  5
115
330
1F
100
AcDbEntity
  8
1
  6
Continuous
 62
     7
370
     9
100
AcDbLine
 10
-516.0718728649
 20
1356.1908899869
 30
0.0
 11
-487.5718728649
 21
1356.1908899869
 31
0.0
  0
LINE
  5
116
330
1F
100
AcDbEntity
  8
1
  6
Continuous
 62
     7
370
     9
100
AcDbLine
 10
-551.0718728649
 20
1356.1908899869
 30
0.0
 11
-522.5718728649
 21
1356.1908899869
 31
0.0
  0
LINE
  5
117
330
1F
100
AcDbEntity
  8
1
  6
Continuous
 62
     7
370
     9
100
AcDbLine
 10
-589.3218728649
 20
1394.4611929329
 30
0.0
 11
-589.3218728649
 21
1396.9408899939
 31
0.0
  0
LINE
  5
118
330
1F
100
AcDbEntity
  8
1
  6
Continuous
 62
     7
370
     9
100
AcDbLine
 10
-708.5718728649
 20
1475.1908899939
 30
0.0
 11
-697.5718728649
 21
1475.1908899939
 31
0.0
  0
ARC
  5
119
330
1F
100
AcDbEntity
  8
1
  6
Continuous
 62
     7
370
     9
100
AcDbCircle
 10
-708.5718728649
 20
1473.9408899939
 30
0.0
 40
1.25
100
AcDbArc
 50
90.0
 51
270.0
  0
LINE
  5
11A
330
1F
100
AcDbEntity
  8
1
  6
Continuous
 62
     7
370
     9
100
AcDbLine
 10
-516.0718728649
 20
1517.1908899939
 30
0.0
 11
-487.5718728649
 21
1517.1908899939
 31
0.0
  0
LINE
  5
11B
330
1F
100
AcDbEntity
  8
1
  6
Continuous
 62
     7
370
     9
100
AcDbLine
 10
-586.0718728649
 20
1475.1908899939
 30
0.0
 11
-557.5718728649
 21
1475.1908899939
 31
0.0
  0
ARC
  5
11C
330
1F
100
AcDbEntity
  8
1
  6
Continuous
 62
     7
370
     9
100
AcDbCircle
 10
-592.5718728649
 20
1515.9408899939
 30
0.0
 40
1.25
100
AcDbArc
 50
270.0
 51
90.0
  0
ARC
  5
11D
330
1F
100
AcDbEntity
  8
1
  6
Continuous
 62
     7
370
     9
100
AcDbCircle
 10
-592.5718728649
 20
1354.9408899869
 30
0.0
 40
1.25
100
AcDbArc
 50
270.0
 51
90.0
  0
ARC
  5
11E
330
1F
100
AcDbEntity
  8
1
  6
Continuous
 62
     7
370
     9
100
AcDbCircle
 10
-586.0718728649
 20
1354.9408899869
 30
0.0
 40
1.25
100
AcDbArc
 50
90.0
 51
270.0
  0
CIRCLE
  5
11F
330
1F
100
AcDbEntity
  8
1
  6
Continuous
 62
     7
370
     9
100
AcDbCircle
 10
-706.8218728649
 20
1527.9408899939
 30
0.0
 40
4.75
  0
ARC
  5
120
330
1F
100
AcDbEntity
  8
1
  6
Continuous
 62
     7
370
     9
100
AcDbCircle
 10
-691.0718728649
 20
1473.9408899939
 30
0.0
 40
1.25
100
AcDbArc
 50
90.0
 51
270.0
  0
ARC
  5
121
330
1F
100
AcDbEntity
  8
1
  6
Continuous
 62
     7
370
     9
100
AcDbCircle
 10
-691.0718728649
 20
1396.9408899939
 30
0.0
 40
1.25
100
AcDbArc
 50
90.0
 51
270.0
  0
ARC
  5
122
330
1F
100
AcDbEntity
  8
1
  6
Continuous
 62
     7
370
     9
100
AcDbCircle
 10
-708.5718728649
 20
1435.4408899939
 30
0.0
 40
1.25
100
AcDbArc
 50
90.0
 51
270.0
  0
LINE
  5
123
330
1F
100
AcDbEntity
  8
1
  6
Continuous
 62
     7
370
     9
100
AcDbLine
 10
-522.5718728649
 20
1353.6908899869
 30
0.0
 11
-551.0718728649
 21
1353.6908899869
 31
0.0
  0
LINE
  5
124
330
1F
100
AcDbEntity
  8
1
  6
Continuous
 62
     7
370
     9
100
AcDbLine
 10
-592.5718728649
 20
1514.6908899939
 30
0.0
 11
-621.0718728649
 21
1514.6908899939
 31
0.0
  0
ARC
  5
125
330
1F
100
AcDbEntity
  8
1
  6
Continuous
 62
     7
370
     9
100
AcDbCircle
 10
-621.0718728649
 20
1515.9408899939
 30
0.0
 40
1.25
100
AcDbArc
 50
90.0
 51
270.0
  0
CIRCLE
  5
126
330
1F
100
AcDbEntity
  8
1
  6
Continuous
 62
     7
370
     9
100
AcDbCircle
 10
-470.3218728649
 20
1512.4408899939
 30
0.0
 40
1.35
  0
LINE
  5
127
330
1F
100
AcDbEntity
  8
1
  6
Continuous
 62
     7
370
     9
100
AcDbLine
 10
-485.5718728649
 20
1432.1908899939
 30
0.0
 11
-485.5718728649
 21
1344.3408899937
 31
0.0
  0
CIRCLE
  5
128
330
1F
100
AcDbEntity
  8
1
  6
Continuous
 62
     7
370
     9
100
AcDbCircle
 10
-470.3218728649
 20
1508.9408899939
 30
0.0
 40
1.35
  0
CIRCLE
  5
129
330
1F
100
AcDbEntity
  8
1
  6
Continuous
 62
     7
370
     9
100
AcDbCircle
 10
-470.3218728649
 20
1505.4408899939
 30
0.0
 40
1.35
  0
ARC
  5
12A
330
1F
100
AcDbEntity
  8
1
  6
Continuous
 62
     7
370
     9
100
AcDbCircle
 10
-624.3218728649
 20
1530.1908899938
 30
0.0
 40
1.25
100
AcDbArc
 50
0.0
 51
180.0
  0
CIRCLE
  5
12B
330
1F
100
AcDbEntity
  8
1
  6
Continuous
 62
     7
370
     9
100
AcDbCircle
 10
-470.3218728649
 20
1501.9408899939
 30
0.0
 40
1.35
  0
ARC
  5
12C
330
1F
100
AcDbEntity
  8
1
  6
Continuous
 62
     7
370
     9
100
AcDbCircle
 10
-691.0718728649
 20
1354.9408899869
 30
0.0
 40
1.25
100
AcDbArc
 50
90.0
 51
270.0
  0
ARC
  5
12D
330
1F
100
AcDbEntity
  8
1
  6
Continuous
 62
     7
370
     9
100
AcDbCircle
 10
-691.0718728649
 20
1515.9408899939
 30
0.0
 40
1.25
100
AcDbArc
 50
90.0
 51
270.0
  0
CIRCLE
  5
12E
330
1F
100
AcDbEntity
  8
1
  6
Continuous
 62
     7
370
     9
100
AcDbCircle
 10
-470.3218728649
 20
1498.4408899939
 30
0.0
 40
1.35
  0
LINE
  5
12F
330
1F
100
AcDbEntity
  8
1
  6
Continuous
 62
     7
370
     9
100
AcDbLine
 10
-470.0718728649
 20
1353.6908899869
 30
0.0
 11
-481.0718728649
 21
1353.6908899869
 31
0.0
  0
ARC
  5
130
330
1F
100
AcDbEntity
  8
1
  6
Continuous
 62
     7
370
     9
100
AcDbCircle
 10
-697.5718728649
 20
1354.9408899869
 30
0.0
 40
1.25
100
AcDbArc
 50
270.0
 51
90.0
  0
LINE
  5
131
330
1F
100
AcDbEntity
  8
1
  6
Continuous
 62
     7
370
     9
100
AcDbLine
 10
-470.0718728649
 20
1395.6908899939
 30
0.0
 11
-481.0718728649
 21
1395.6908899939
 31
0.0
  0
CIRCLE
  5
132
330
1F
100
AcDbEntity
  8
1
  6
Continuous
 62
     7
370
     9
100
AcDbCircle
 10
-471.8218728649
 20
1527.9408899939
 30
0.0
 40
4.75
  0
LINE
  5
133
330
1F
100
AcDbEntity
  8
1
  6
Continuous
 62
     7
370
     9
100
AcDbLine
 10
-485.5718728649
 20
1438.6908899939
 30
0.0
 11
-485.5718728649
 21
1530.1908899938
 31
0.0
  0
LINE
  5
134
330
1F
100
AcDbEntity
  8
1
  6
Continuous
 62
     7
370
     9
100
AcDbLine
 10
-695.5718728649
 20
1347.8408899937
 30
0.0
 11
-695.5718728649
 21
1432.1908899939
 31
0.0
  0
ARC
  5
135
330
1F
100
AcDbEntity
  8
1
  6
Continuous
 62
     7
370
     9
100
AcDbCircle
 10
-694.3218728649
 20
1347.8408899937
 30
0.0
 40
1.25
100
AcDbArc
 50
180.0
 51
0.0
  0
ARC
  5
136
330
1F
100
AcDbEntity
  8
1
  6
Continuous
 62
     7
370
     9
100
AcDbCircle
 10
-481.0718728649
 20
1354.9408899869
 30
0.0
 40
1.25
100
AcDbArc
 50
90.0
 51
270.0
  0
LINE
  5
137
330
1F
100
AcDbEntity
  8
1
  6
Continuous
 62
     7
370
     9
100
AcDbLine
 10
-483.0718728649
 20
1344.3408899937
 30
0.0
 11
-483.0718728649
 21
1432.1908899939
 31
0.0
  0
ARC
  5
138
330
1F
100
AcDbEntity
  8
1
  6
Continuous
 62
     7
370
     9
100
AcDbCircle
 10
-470.0718728649
 20
1473.9408899939
 30
0.0
 40
1.25
100
AcDbArc
 50
270.0
 51
90.0
  0
ARC
  5
139
330
1F
100
AcDbEntity
  8
1
  6
Continuous
 62
     7
370
     9
100
AcDbCircle
 10
-481.0718728649
 20
1396.9408899939
 30
0.0
 40
1.25
100
AcDbArc
 50
90.0
 51
270.0
  0
ARC
  5
13A
330
1F
100
AcDbEntity
  8
1
  6
Continuous
 62
     7
370
     9
100
AcDbCircle
 10
-554.3218728649
 20
1530.1908899938
 30
0.0
 40
1.25
100
AcDbArc
 50
0.0
 51
180.0
  0
ARC
  5
13B
330
1F
100
AcDbEntity
  8
1
  6
Continuous
 62
     7
370
     9
100
AcDbCircle
 10
-519.3218728649
 20
1530.1908899938
 30
0.0
 40
1.25
100
AcDbArc
 50
0.0
 51
180.0
  0
LINE
  5
13C
330
1F
100
AcDbEntity
  8
1
  6
Continuous
 62
     7
370
     9
100
AcDbLine
 10
-481.0718728649
 20
1356.1908899869
 30
0.0
 11
-470.0718728649
 21
1356.1908899869
 31
0.0
  0
LINE
  5
13D
330
1F
100
AcDbEntity
  8
1
  6
Continuous
 62
     7
370
     9
100
AcDbLine
 10
-464.3218728649
 20
1343.4408899939
 30
0.0
 11
-464.3218728649
 21
1527.4408899939
 31
0.0
  0
ARC
  5
13E
330
1F
100
AcDbEntity
  8
1
  6
Continuous
 62
     7
370
     9
100
AcDbCircle
 10
-484.3218728649
 20
1344.3408899937
 30
0.0
 40
1.25
100
AcDbArc
 50
180.0
 51
0.0
  0
LINE
  5
13F
330
1F
100
AcDbEntity
  8
1
  6
Continuous
 62
     7
370
     9
100
AcDbLine
 10
-697.5718728649
 20
1517.1908899939
 30
0.0
 11
-708.5718728649
 21
1517.1908899939
 31
0.0
  0
ARC
  5
140
330
1F
100
AcDbEntity
  8
1
  6
Continuous
 62
     7
370
     9
100
AcDbCircle
 10
-472.3218728649
 20
1527.4408899939
 30
0.0
 40
8.0
100
AcDbArc
 50
0.0
 51
90.0
  0
LINE
  5
141
330
1F
100
AcDbEntity
  8
1
  6
Continuous
 62
     7
370
     9
100
AcDbLine
 10
-483.0718728649
 20
1530.1908899938
 30
0.0
 11
-483.0718728649
 21
1438.6908899939
 31
0.0
  0
LINE
  5
142
330
1F
100
AcDbEntity
  8
1
  6
Continuous
 62
     7
370
     9
100
AcDbLine
 10
-708.5718728649
 20
1514.6908899939
 30
0.0
 11
-697.5718728649
 21
1514.6908899939
 31
0.0
  0
ARC
  5
143
330
1F
100
AcDbEntity
  8
1
  6
Continuous
 62
     7
370
     9
100
AcDbCircle
 10
-470.0718728649
 20
1515.9408899939
 30
0.0
 40
1.25
100
AcDbArc
 50
270.0
 51
90.0
  0
CIRCLE
  5
144
330
1F
100
AcDbEntity
  8
1
  6
Continuous
 62
     7
370
     9
100
AcDbCircle
 10
-471.8218728649
 20
1527.9408899939
 30
0.0
 40
2.5
  0
ARC
  5
145
330
1F
100
AcDbEntity
  8
1
  6
Continuous
 62
     7
370
     9
100
AcDbCircle
 10
-470.0718728649
 20
1435.4408899939
 30
0.0
 40
1.25
100
AcDbArc
 50
270.0
 51
90.0
  0
ARC
  5
146
330
1F
100
AcDbEntity
  8
1
  6
Continuous
 62
     7
370
     9
100
AcDbCircle
 10
-708.5718728649
 20
1515.9408899939
 30
0.0
 40
1.25
100
AcDbArc
 50
90.0
 51
270.0
  0
LINE
  5
147
330
1F
100
AcDbEntity
  8
1
  6
Continuous
 62
     7
370
     9
100
AcDbLine
 10
-481.0718728649
 20
1472.6908899939
 30
0.0
 11
-470.0718728649
 21
1472.6908899939
 31
0.0
  0
LINE
  5
148
330
1F
100
AcDbEntity
  8
1
  6
Continuous
 62
     7
370
     9
100
AcDbLine
 10
-470.0718728649
 20
1514.6908899939
 30
0.0
 11
-481.0718728649
 21
1514.6908899939
 31
0.0
  0
ARC
  5
149
330
1F
100
AcDbEntity
  8
1
  6
Continuous
 62
     7
370
     9
100
AcDbCircle
 10
-694.3218728649
 20
1530.1908899938
 30
0.0
 40
1.25
100
AcDbArc
 50
0.0
 51
180.0
  0
ARC
  5
14A
330
1F
100
AcDbEntity
  8
1
  6
Continuous
 62
     7
370
     9
100
AcDbCircle
 10
-697.5718728649
 20
1515.9408899939
 30
0.0
 40
1.25
100
AcDbArc
 50
270.0
 51
90.0
  0
ARC
  5
14B
330
1F
100
AcDbEntity
  8
1
  6
Continuous
 62
     7
370
     9
100
AcDbCircle
 10
-472.3218728649
 20
1343.4408899939
 30
0.0
 40
8.0
100
AcDbArc
 50
270.0
 51
0.0
  0
CIRCLE
  5
14C
330
1F
100
AcDbEntity
  8
1
  6
Continuous
 62
     7
370
     9
100
AcDbCircle
 10
-471.8218728649
 20
1342.9408899939
 30
0.0
 40
2.5
  0
ARC
  5
14D
330
1F
100
AcDbEntity
  8
1
  6
Continuous
 62
     7
370
     9
100
AcDbCircle
 10
-481.0718728649
 20
1473.9408899939
 30
0.0
 40
1.25
100
AcDbArc
 50
90.0
 51
270.0
  0
ARC
  5
14E
330
1F
100
AcDbEntity
  8
1
  6
Continuous
 62
     7
370
     9
100
AcDbCircle
 10
-484.3218728649
 20
1432.1908899939
 30
0.0
 40
1.25
100
AcDbArc
 50
0.0
 51
180.0
  0
LINE
  5
14F
330
1F
100
AcDbEntity
  8
1
  6
Continuous
 62
     7
370
     9
100
AcDbLine
 10
-481.0718728649
 20
1517.1908899939
 30
0.0
 11
-470.0718728649
 21
1517.1908899939
 31
0.0
  0
ARC
  5
150
330
1F
100
AcDbEntity
  8
1
  6
Continuous
 62
     7
370
     9
100
AcDbCircle
 10
-694.3218728649
 20
1432.1908899939
 30
0.0
 40
1.25
100
AcDbArc
 50
0.0
 51
180.0
  0
ARC
  5
151
330
1F
100
AcDbEntity
  8
1
  6
Continuous
 62
     7
370
     9
100
AcDbCircle
 10
-470.0718728649
 20
1354.9408899869
 30
0.0
 40
1.25
100
AcDbArc
 50
270.0
 51
90.0
  0
ARC
  5
152
330
1F
100
AcDbEntity
  8
1
  6
Continuous
 62
     7
370
     9
100
AcDbCircle
 10
-487.5718728649
 20
1473.9408899939
 30
0.0
 40
1.25
100
AcDbArc
 50
270.0
 51
90.0
  0
ARC
  5
153
330
1F
100
AcDbEntity
  8
1
  6
Continuous
 62
     7
370
     9
100
AcDbCircle
 10
-487.5718728649
 20
1515.9408899939
 30
0.0
 40
1.25
100
AcDbArc
 50
270.0
 51
90.0
  0
LINE
  5
154
330
1F
100
AcDbEntity
  8
1
  6
Continuous
 62
     7
370
     9
100
AcDbLine
 10
-378.6417019039
 20
1338.6508077571
 30
0.0
 11
-378.6417019039
 21
1532.2309722306
 31
0.0
  0
LINE
  5
155
330
1F
100
AcDbEntity
  8
1
  6
CENTER
 62
     7
370
     9
100
AcDbLine
 10
-349.1515058239
 20
1435.4408899954
 30
0.0
 11
-385.9951772603
 21
1435.4408899954
 31
0.0
  0
LINE
  5
156
330
1F
100
AcDbEntity
  8
1
  6
Continuous
 62
     7
370
     9
100
AcDbLine
 10
-470.0718728649
 20
1475.1908899939
 30
0.0
 11
-481.0718728649
 21
1475.1908899939
 31
0.0
  0
ARC
  5
157
330
1F
100
AcDbEntity
  8
1
  6
Continuous
 62
     7
370
     9
100
AcDbCircle
 10
-375.6417019039
 20
1338.6508077571
 30
0.0
 40
3.0
100
AcDbArc
 50
180.0
 51
269.0
  0
ARC
  5
158
330
1F
100
AcDbEntity
  8
1
  6
Continuous
 62
     7
370
     9
100
AcDbCircle
 10
-659.3218728649
 20
1530.1908899938
 30
0.0
 40
1.25
100
AcDbArc
 50
0.0
 51
180.0
  0
LINE
  5
159
330
1F
100
AcDbEntity
  8
1
  6
Continuous
 62
     7
370
     9
100
AcDbLine
 10
-363.6417019039
 20
1535.4408899939
 30
0.0
 11
-375.6940591232
 21
1535.2305153161
 31
0.0
  0
LINE
  5
15A
330
1F
100
AcDbEntity
  8
1
  6
Continuous
 62
     7
370
     9
100
AcDbLine
 10
-693.0718728649
 20
1432.1908899939
 30
0.0
 11
-693.0718728649
 21
1347.8408899937
 31
0.0
  0
LINE
  5
15B
330
1F
100
AcDbEntity
  8
1
  6
Continuous
 62
     7
370
     9
100
AcDbLine
 10
-697.5718728649
 20
1356.1908899869
 30
0.0
 11
-708.5718728649
 21
1356.1908899869
 31
0.0
  0
ARC
  5
15C
330
1F
100
AcDbEntity
  8
1
  6
Continuous
 62
     7
370
     9
100
AcDbCircle
 10
-708.5718728649
 20
1354.9408899869
 30
0.0
 40
1.25
100
AcDbArc
 50
90.0
 51
270.0
  0
LINE
  5
15D
330
1F
100
AcDbEntity
  8
1
  6
Continuous
 62
     7
370
     9
100
AcDbLine
 10
-708.5718728649
 20
1353.6908899869
 30
0.0
 11
-697.5718728649
 21
1353.6908899869
 31
0.0
  0
ARC
  5
15E
330
1F
100
AcDbEntity
  8
1
  6
Continuous
 62
     7
370
     9
100
AcDbCircle
 10
-470.0718728649
 20
1396.9408899939
 30
0.0
 40
1.25
100
AcDbArc
 50
270.0
 51
90.0
  0
LINE
  5
15F
330
1F
100
AcDbEntity
  8
1
  6
Continuous
 62
     7
370
     9
100
AcDbLine
 10
-481.0718728649
 20
1398.1908899939
 30
0.0
 11
-470.0718728649
 21
1398.1908899939
 31
0.0
  0
ARC
  5
160
330
1F
100
AcDbEntity
  8
1
  6
Continuous
 62
     7
370
     9
100
AcDbCircle
 10
-375.6417019039
 20
1532.2309722306
 30
0.0
 40
3.0
100
AcDbArc
 50
91.0
 51
180.0
  0
LINE
  5
161
330
1F
100
AcDbEntity
  8
1
  6
Continuous
 62
     7
370
     9
100
AcDbLine
 10
-353.6417019039
 20
1535.3536213962
 30
0.0
 11
-353.6417019039
 21
1335.5281585913
 31
0.0
  0
ARC
  5
162
330
1F
100
AcDbEntity
  8
1
  6
Continuous
 62
     7
370
     9
100
AcDbCircle
 10
-481.0718728649
 20
1515.9408899939
 30
0.0
 40
1.25
100
AcDbArc
 50
90.0
 51
270.0
  0
ARC
  5
163
330
1F
100
AcDbEntity
  8
1
  6
Continuous
 62
     7
370
     9
100
AcDbCircle
 10
-484.3218728649
 20
1438.6908899939
 30
0.0
 40
1.25
100
AcDbArc
 50
180.0
 51
0.0
  0
ARC
  5
164
330
1F
100
AcDbEntity
  8
1
  6
Continuous
 62
     7
370
     9
100
AcDbCircle
 10
-484.3218728649
 20
1530.1908899938
 30
0.0
 40
1.25
100
AcDbArc
 50
0.0
 51
180.0
  0
CIRCLE
  5
165
330
1F
100
AcDbEntity
  8
1
  6
Continuous
 62
     7
370
     9
100
AcDbCircle
 10
-471.8218728649
 20
1342.9408899939
 30
0.0
 40
4.75
  0
CIRCLE
  5
166
330
1F
100
AcDbEntity
  8
1
  6
Continuous
 62
     7
370
     9
100
AcDbCircle
 10
-585.8218728649
 20
1505.4408899939
 30
0.0
 40
1.35
  0
CIRCLE
  5
167
330
1F
100
AcDbEntity
  8
1
  6
Continuous
 62
     7
370
     9
100
AcDbCircle
 10
-585.8218728649
 20
1491.4408899939
 30
0.0
 40
1.35
  0
CIRCLE
  5
168
330
1F
100
AcDbEntity
  8
1
  6
Continuous
 62
     7
370
     9
100
AcDbCircle
 10
-568.3218728649
 20
1529.9408899939
 30
0.0
 40
1.35
  0
CIRCLE
  5
169
330
1F
100
AcDbEntity
  8
1
  6
Continuous
 62
     7
370
     9
100
AcDbCircle
 10
-561.3218728649
 20
1529.9408899939
 30
0.0
 40
1.35
  0
CIRCLE
  5
16A
330
1F
100
AcDbEntity
  8
1
  6
Continuous
 62
     7
370
     9
100
AcDbCircle
 10
-557.8218728649
 20
1529.9408899939
 30
0.0
 40
1.35
  0
CIRCLE
  5
16B
330
1F
100
AcDbEntity
  8
1
  6
Continuous
 62
     7
370
     9
100
AcDbCircle
 10
-498.3218728649
 20
1529.9408899939
 30
0.0
 40
1.35
  0
CIRCLE
  5
16C
330
1F
100
AcDbEntity
  8
1
  6
Continuous
 62
     7
370
     9
100
AcDbCircle
 10
-585.8218728649
 20
1526.4408899938
 30
0.0
 40
1.35
  0
CIRCLE
  5
16D
330
1F
100
AcDbEntity
  8
1
  6
Continuous
 62
     7
370
     9
100
AcDbCircle
 10
-582.3218728649
 20
1526.4408899938
 30
0.0
 40
1.35
  0
CIRCLE
  5
16E
330
1F
100
AcDbEntity
  8
1
  6
Continuous
 62
     7
370
     9
100
AcDbCircle
 10
-578.8218728649
 20
1526.4408899938
 30
0.0
 40
1.35
  0
CIRCLE
  5
16F
330
1F
100
AcDbEntity
  8
1
  6
Continuous
 62
     7
370
     9
100
AcDbCircle
 10
-480.8218728649
 20
1519.4408899938
 30
0.0
 40
1.35
  0
CIRCLE
  5
170
330
1F
100
AcDbEntity
  8
1
  6
Continuous
 62
     7
370
     9
100
AcDbCircle
 10
-550.8218728649
 20
1529.9408899939
 30
0.0
 40
1.35
  0
CIRCLE
  5
171
330
1F
100
AcDbEntity
  8
1
  6
Continuous
 62
     7
370
     9
100
AcDbCircle
 10
-470.3218728649
 20
1445.9408899938
 30
0.0
 40
1.35
  0
CIRCLE
  5
172
330
1F
100
AcDbEntity
  8
1
  6
Continuous
 62
     7
370
     9
100
AcDbCircle
 10
-585.8218728649
 20
1498.4408899939
 30
0.0
 40
1.35
  0
CIRCLE
  5
173
330
1F
100
AcDbEntity
  8
1
  6
Continuous
 62
     7
370
     9
100
AcDbCircle
 10
-585.8218728649
 20
1477.4408899939
 30
0.0
 40
1.35
  0
CIRCLE
  5
174
330
1F
100
AcDbEntity
  8
1
  6
Continuous
 62
     7
370
     9
100
AcDbCircle
 10
-522.8218728649
 20
1529.9408899939
 30
0.0
 40
1.35
  0
CIRCLE
  5
175
330
1F
100
AcDbEntity
  8
1
  6
Continuous
 62
     7
370
     9
100
AcDbCircle
 10
-480.8218728649
 20
1522.9408899938
 30
0.0
 40
1.35
  0
CIRCLE
  5
176
330
1F
100
AcDbEntity
  8
1
  6
Continuous
 62
     7
370
     9
100
AcDbCircle
 10
-547.3218728649
 20
1529.9408899939
 30
0.0
 40
1.35
  0
CIRCLE
  5
177
330
1F
100
AcDbEntity
  8
1
  6
Continuous
 62
     7
370
     9
100
AcDbCircle
 10
-470.3218728649
 20
1494.9408899939
 30
0.0
 40
1.35
  0
CIRCLE
  5
178
330
1F
100
AcDbEntity
  8
1
  6
Continuous
 62
     7
370
     9
100
AcDbCircle
 10
-470.3218728649
 20
1463.4408899938
 30
0.0
 40
1.35
  0
CIRCLE
  5
179
330
1F
100
AcDbEntity
  8
1
  6
Continuous
 62
     7
370
     9
100
AcDbCircle
 10
-470.3218728649
 20
1456.4408899938
 30
0.0
 40
1.35
  0
CIRCLE
  5
17A
330
1F
100
AcDbEntity
  8
1
  6
Continuous
 62
     7
370
     9
100
AcDbCircle
 10
-470.3218728649
 20
1452.9408899938
 30
0.0
 40
1.35
  0
CIRCLE
  5
17B
330
1F
100
AcDbEntity
  8
1
  6
Continuous
 62
     7
370
     9
100
AcDbCircle
 10
-470.3218728649
 20
1449.4408899938
 30
0.0
 40
1.35
  0
CIRCLE
  5
17C
330
1F
100
AcDbEntity
  8
1
  6
Continuous
 62
     7
370
     9
100
AcDbCircle
 10
-585.8218728649
 20
1529.9408899939
 30
0.0
 40
1.35
  0
CIRCLE
  5
17D
330
1F
100
AcDbEntity
  8
1
  6
Continuous
 62
     7
370
     9
100
AcDbCircle
 10
-564.8218728649
 20
1529.9408899939
 30
0.0
 40
1.35
  0
CIRCLE
  5
17E
330
1F
100
AcDbEntity
  8
1
  6
Continuous
 62
     7
370
     9
100
AcDbCircle
 10
-585.8218728649
 20
1494.9408899939
 30
0.0
 40
1.35
  0
CIRCLE
  5
17F
330
1F
100
AcDbEntity
  8
1
  6
Continuous
 62
     7
370
     9
100
AcDbCircle
 10
-470.3218728649
 20
1487.9408899939
 30
0.0
 40
1.35
  0
CIRCLE
  5
180
330
1F
100
AcDbEntity
  8
1
  6
Continuous
 62
     7
370
     9
100
AcDbCircle
 10
-470.3218728649
 20
1477.4408899939
 30
0.0
 40
1.35
  0
CIRCLE
  5
181
330
1F
100
AcDbEntity
  8
1
  6
Continuous
 62
     7
370
     9
100
AcDbCircle
 10
-487.8218728649
 20
1529.9408899939
 30
0.0
 40
1.35
  0
CIRCLE
  5
182
330
1F
100
AcDbEntity
  8
1
  6
Continuous
 62
     7
370
     9
100
AcDbCircle
 10
-470.3218728649
 20
1519.4408899938
 30
0.0
 40
1.35
  0
CIRCLE
  5
183
330
1F
100
AcDbEntity
  8
1
  6
Continuous
 62
     7
370
     9
100
AcDbCircle
 10
-470.3218728649
 20
1480.9408899939
 30
0.0
 40
1.35
  0
CIRCLE
  5
184
330
1F
100
AcDbEntity
  8
1
  6
Continuous
 62
     7
370
     9
100
AcDbCircle
 10
-470.3218728649
 20
1438.9408899938
 30
0.0
 40
1.35
  0
CIRCLE
  5
185
330
1F
100
AcDbEntity
  8
1
  6
Continuous
 62
     7
370
     9
100
AcDbCircle
 10
-585.8218728649
 20
1484.4408899939
 30
0.0
 40
1.35
  0
CIRCLE
  5
186
330
1F
100
AcDbEntity
  8
1
  6
Continuous
 62
     7
370
     9
100
AcDbCircle
 10
-585.8218728649
 20
1480.9408899939
 30
0.0
 40
1.35
  0
CIRCLE
  5
187
330
1F
100
AcDbEntity
  8
1
  6
Continuous
 62
     7
370
     9
100
AcDbCircle
 10
-536.8218728649
 20
1529.9408899939
 30
0.0
 40
1.35
  0
CIRCLE
  5
188
330
1F
100
AcDbEntity
  8
1
  6
Continuous
 62
     7
370
     9
100
AcDbCircle
 10
-508.8218728649
 20
1529.9408899939
 30
0.0
 40
1.35
  0
CIRCLE
  5
189
330
1F
100
AcDbEntity
  8
1
  6
Continuous
 62
     7
370
     9
100
AcDbCircle
 10
-540.3218728649
 20
1529.9408899939
 30
0.0
 40
1.35
  0
CIRCLE
  5
18A
330
1F
100
AcDbEntity
  8
1
  6
Continuous
 62
     7
370
     9
100
AcDbCircle
 10
-470.3218728649
 20
1484.4408899939
 30
0.0
 40
1.35
  0
CIRCLE
  5
18B
330
1F
100
AcDbEntity
  8
1
  6
Continuous
 62
     7
370
     9
100
AcDbCircle
 10
-533.3218728649
 20
1529.9408899939
 30
0.0
 40
1.35
  0
CIRCLE
  5
18C
330
1F
100
AcDbEntity
  8
1
  6
Continuous
 62
     7
370
     9
100
AcDbCircle
 10
-505.3218728649001
 20
1529.9408899939
 30
0.0
 40
1.35
  0
CIRCLE
  5
18D
330
1F
100
AcDbEntity
  8
1
  6
Continuous
 62
     7
370
     9
100
AcDbCircle
 10
-480.8218728649
 20
1526.4408899938
 30
0.0
 40
1.35
  0
CIRCLE
  5
18E
330
1F
100
AcDbEntity
  8
1
  6
Continuous
 62
     7
370
     9
100
AcDbCircle
 10
-512.3218728649
 20
1529.9408899939
 30
0.0
 40
1.35
  0
CIRCLE
  5
18F
330
1F
100
AcDbEntity
  8
1
  6
Continuous
 62
     7
370
     9
100
AcDbCircle
 10
-477.3218728649
 20
1519.4408899938
 30
0.0
 40
1.35
  0
CIRCLE
  5
190
330
1F
100
AcDbEntity
  8
1
  6
Continuous
 62
     7
370
     9
100
AcDbCircle
 10
-470.3218728649
 20
1470.4408899939
 30
0.0
 40
1.35
  0
CIRCLE
  5
191
330
1F
100
AcDbEntity
  8
1
  6
Continuous
 62
     7
370
     9
100
AcDbCircle
 10
-585.8218728649
 20
1501.9408899939
 30
0.0
 40
1.35
  0
CIRCLE
  5
192
330
1F
100
AcDbEntity
  8
1
  6
Continuous
 62
     7
370
     9
100
AcDbCircle
 10
-585.8218728649
 20
1487.9408899939
 30
0.0
 40
1.35
  0
CIRCLE
  5
193
330
1F
100
AcDbEntity
  8
1
  6
Continuous
 62
     7
370
     9
100
AcDbCircle
 10
-578.8218728649
 20
1529.9408899939
 30
0.0
 40
1.35
  0
CIRCLE
  5
194
330
1F
100
AcDbEntity
  8
1
  6
Continuous
 62
     7
370
     9
100
AcDbCircle
 10
-470.3218728649
 20
1491.4408899939
 30
0.0
 40
1.35
  0
CIRCLE
  5
195
330
1F
100
AcDbEntity
  8
1
  6
Continuous
 62
     7
370
     9
100
AcDbCircle
 10
-480.8218728649
 20
1529.9408899939
 30
0.0
 40
1.35
  0
CIRCLE
  5
196
330
1F
100
AcDbEntity
  8
1
  6
Continuous
 62
     7
370
     9
100
AcDbCircle
 10
-494.8218728649
 20
1529.9408899939
 30
0.0
 40
1.35
  0
CIRCLE
  5
197
330
1F
100
AcDbEntity
  8
1
  6
Continuous
 62
     7
370
     9
100
AcDbCircle
 10
-575.3218728649
 20
1529.9408899939
 30
0.0
 40
1.35
  0
CIRCLE
  5
198
330
1F
100
AcDbEntity
  8
1
  6
Continuous
 62
     7
370
     9
100
AcDbCircle
 10
-470.3218728649
 20
1442.4408899938
 30
0.0
 40
1.35
  0
CIRCLE
  5
199
330
1F
100
AcDbEntity
  8
1
  6
Continuous
 62
     7
370
     9
100
AcDbCircle
 10
-543.8218728649
 20
1529.9408899939
 30
0.0
 40
1.35
  0
CIRCLE
  5
19A
330
1F
100
AcDbEntity
  8
1
  6
Continuous
 62
     7
370
     9
100
AcDbCircle
 10
-526.3218728649
 20
1529.9408899939
 30
0.0
 40
1.35
  0
CIRCLE
  5
19B
330
1F
100
AcDbEntity
  8
1
  6
Continuous
 62
     7
370
     9
100
AcDbCircle
 10
-515.8218728649
 20
1529.9408899939
 30
0.0
 40
1.35
  0
CIRCLE
  5
19C
330
1F
100
AcDbEntity
  8
1
  6
Continuous
 62
     7
370
     9
100
AcDbCircle
 10
-529.8218728649
 20
1529.9408899939
 30
0.0
 40
1.35
  0
CIRCLE
  5
19D
330
1F
100
AcDbEntity
  8
1
  6
Continuous
 62
     7
370
     9
100
AcDbCircle
 10
-470.3218728649
 20
1459.9408899938
 30
0.0
 40
1.35
  0
CIRCLE
  5
19E
330
1F
100
AcDbEntity
  8
1
  6
Continuous
 62
     7
370
     9
100
AcDbCircle
 10
-585.8218728649
 20
1512.4408899939
 30
0.0
 40
1.35
  0
CIRCLE
  5
19F
330
1F
100
AcDbEntity
  8
1
  6
Continuous
 62
     7
370
     9
100
AcDbCircle
 10
-585.8218728649
 20
1508.9408899939
 30
0.0
 40
1.35
  0
CIRCLE
  5
1A0
330
1F
100
AcDbEntity
  8
1
  6
Continuous
 62
     7
370
     9
100
AcDbCircle
 10
-501.8218728649
 20
1529.9408899939
 30
0.0
 40
1.35
  0
CIRCLE
  5
1A1
330
1F
100
AcDbEntity
  8
1
  6
Continuous
 62
     7
370
     9
100
AcDbCircle
 10
-491.3218728649
 20
1529.9408899939
 30
0.0
 40
1.35
  0
CIRCLE
  5
1A2
330
1F
100
AcDbEntity
  8
1
  6
Continuous
 62
     7
370
     9
100
AcDbCircle
 10
-473.8218728649
 20
1519.4408899938
 30
0.0
 40
1.35
  0
CIRCLE
  5
1A3
330
1F
100
AcDbEntity
  8
1
  6
Continuous
 62
     7
370
     9
100
AcDbCircle
 10
-582.3218728649
 20
1529.9408899939
 30
0.0
 40
1.35
  0
CIRCLE
  5
1A4
330
1F
100
AcDbEntity
  8
1
  6
Continuous
 62
     7
370
     9
100
AcDbCircle
 10
-470.3218728649
 20
1466.9408899938
 30
0.0
 40
1.35
  0
CIRCLE
  5
1A5
330
1F
100
AcDbEntity
  8
1
  6
Continuous
 62
     7
370
     9
100
AcDbCircle
 10
-655.8218728649
 20
1529.9408899939
 30
0.0
 40
1.35
  0
CIRCLE
  5
1A6
330
1F
100
AcDbEntity
  8
1
  6
Continuous
 62
     7
370
     9
100
AcDbCircle
 10
-701.3218728649
 20
1519.4408899938
 30
0.0
 40
1.35
  0
CIRCLE
  5
1A7
330
1F
100
AcDbEntity
  8
1
  6
Continuous
 62
     7
370
     9
100
AcDbCircle
 10
-708.3218728649
 20
1459.9408899938
 30
0.0
 40
1.35
  0
CIRCLE
  5
1A8
330
1F
100
AcDbEntity
  8
1
  6
Continuous
 62
     7
370
     9
100
AcDbCircle
 10
-708.3218728649
 20
1456.4408899938
 30
0.0
 40
1.35
  0
CIRCLE
  5
1A9
330
1F
100
AcDbEntity
  8
1
  6
Continuous
 62
     7
370
     9
100
AcDbCircle
 10
-592.8218728649
 20
1494.9408899939
 30
0.0
 40
1.35
  0
CIRCLE
  5
1AA
330
1F
100
AcDbEntity
  8
1
  6
Continuous
 62
     7
370
     9
100
AcDbCircle
 10
-648.8218728649
 20
1529.9408899939
 30
0.0
 40
1.35
  0
CIRCLE
  5
1AB
330
1F
100
AcDbEntity
  8
1
  6
Continuous
 62
     7
370
     9
100
AcDbCircle
 10
-676.8218728649
 20
1529.9408899939
 30
0.0
 40
1.35
  0
CIRCLE
  5
1AC
330
1F
100
AcDbEntity
  8
1
  6
Continuous
 62
     7
370
     9
100
AcDbCircle
 10
-690.8218728649
 20
1529.9408899939
 30
0.0
 40
1.35
  0
CIRCLE
  5
1AD
330
1F
100
AcDbEntity
  8
1
  6
Continuous
 62
     7
370
     9
100
AcDbCircle
 10
-697.8218728649
 20
1529.9408899939
 30
0.0
 40
1.35
  0
CIRCLE
  5
1AE
330
1F
100
AcDbEntity
  8
1
  6
Continuous
 62
     7
370
     9
100
AcDbCircle
 10
-557.8218728649
 20
1526.4408899938
 30
0.0
 40
1.35
  0
CIRCLE
  5
1AF
330
1F
100
AcDbEntity
  8
1
  6
Continuous
 62
     7
370
     9
100
AcDbCircle
 10
-585.8218728649
 20
1442.4408899938
 30
0.0
 40
1.35
  0
CIRCLE
  5
1B0
330
1F
100
AcDbEntity
  8
1
  6
Continuous
 62
     7
370
     9
100
AcDbCircle
 10
-697.8218728649
 20
1522.9408899938
 30
0.0
 40
1.35
  0
CIRCLE
  5
1B1
330
1F
100
AcDbEntity
  8
1
  6
Continuous
 62
     7
370
     9
100
AcDbCircle
 10
-592.8218728649
 20
1508.9408899939
 30
0.0
 40
1.35
  0
CIRCLE
  5
1B2
330
1F
100
AcDbEntity
  8
1
  6
Continuous
 62
     7
370
     9
100
AcDbCircle
 10
-585.8218728649
 20
1445.9408899938
 30
0.0
 40
1.35
  0
CIRCLE
  5
1B3
330
1F
100
AcDbEntity
  8
1
  6
Continuous
 62
     7
370
     9
100
AcDbCircle
 10
-575.3218728649
 20
1526.4408899938
 30
0.0
 40
1.35
  0
CIRCLE
  5
1B4
330
1F
100
AcDbEntity
  8
1
  6
Continuous
 62
     7
370
     9
100
AcDbCircle
 10
-585.8218728649
 20
1519.4408899938
 30
0.0
 40
1.35
  0
CIRCLE
  5
1B5
330
1F
100
AcDbEntity
  8
1
  6
Continuous
 62
     7
370
     9
100
AcDbCircle
 10
-578.8218728649
 20
1519.4408899938
 30
0.0
 40
1.35
  0
CIRCLE
  5
1B6
330
1F
100
AcDbEntity
  8
1
  6
Continuous
 62
     7
370
     9
100
AcDbCircle
 10
-627.8218728649
 20
1529.9408899939
 30
0.0
 40
1.35
  0
CIRCLE
  5
1B7
330
1F
100
AcDbEntity
  8
1
  6
Continuous
 62
     7
370
     9
100
AcDbCircle
 10
-575.3218728649
 20
1519.4408899938
 30
0.0
 40
1.35
  0
CIRCLE
  5
1B8
330
1F
100
AcDbEntity
  8
1
  6
Continuous
 62
     7
370
     9
100
AcDbCircle
 10
-708.3218728649
 20
1519.4408899938
 30
0.0
 40
1.35
  0
CIRCLE
  5
1B9
330
1F
100
AcDbEntity
  8
1
  6
Continuous
 62
     7
370
     9
100
AcDbCircle
 10
-708.3218728649
 20
1452.9408899938
 30
0.0
 40
1.35
  0
CIRCLE
  5
1BA
330
1F
100
AcDbEntity
  8
1
  6
Continuous
 62
     7
370
     9
100
AcDbCircle
 10
-592.8218728649
 20
1501.9408899939
 30
0.0
 40
1.35
  0
CIRCLE
  5
1BB
330
1F
100
AcDbEntity
  8
1
  6
Continuous
 62
     7
370
     9
100
AcDbCircle
 10
-592.8218728649
 20
1491.4408899939
 30
0.0
 40
1.35
  0
CIRCLE
  5
1BC
330
1F
100
AcDbEntity
  8
1
  6
Continuous
 62
     7
370
     9
100
AcDbCircle
 10
-697.8218728649
 20
1526.4408899938
 30
0.0
 40
1.35
  0
CIRCLE
  5
1BD
330
1F
100
AcDbEntity
  8
1
  6
Continuous
 62
     7
370
     9
100
AcDbCircle
 10
-592.8218728649
 20
1505.4408899939
 30
0.0
 40
1.35
  0
CIRCLE
  5
1BE
330
1F
100
AcDbEntity
  8
1
  6
Continuous
 62
     7
370
     9
100
AcDbCircle
 10
-704.8218728649
 20
1519.4408899938
 30
0.0
 40
1.35
  0
CIRCLE
  5
1BF
330
1F
100
AcDbEntity
  8
1
  6
Continuous
 62
     7
370
     9
100
AcDbCircle
 10
-662.8218728649
 20
1529.9408899939
 30
0.0
 40
1.35
  0
CIRCLE
  5
1C0
330
1F
100
AcDbEntity
  8
1
  6
Continuous
 62
     7
370
     9
100
AcDbCircle
 10
-578.8218728649
 20
1522.9408899938
 30
0.0
 40
1.35
  0
CIRCLE
  5
1C1
330
1F
100
AcDbEntity
  8
1
  6
Continuous
 62
     7
370
     9
100
AcDbCircle
 10
-585.8218728649
 20
1456.4408899938
 30
0.0
 40
1.35
  0
CIRCLE
  5
1C2
330
1F
100
AcDbEntity
  8
1
  6
Continuous
 62
     7
370
     9
100
AcDbCircle
 10
-557.8218728649
 20
1519.4408899938
 30
0.0
 40
1.35
  0
CIRCLE
  5
1C3
330
1F
100
AcDbEntity
  8
1
  6
Continuous
 62
     7
370
     9
100
AcDbCircle
 10
-697.8218728649
 20
1519.4408899938
 30
0.0
 40
1.35
  0
CIRCLE
  5
1C4
330
1F
100
AcDbEntity
  8
1
  6
Continuous
 62
     7
370
     9
100
AcDbCircle
 10
-585.8218728649
 20
1452.9408899938
 30
0.0
 40
1.35
  0
CIRCLE
  5
1C5
330
1F
100
AcDbEntity
  8
1
  6
Continuous
 62
     7
370
     9
100
AcDbCircle
 10
-708.3218728649
 20
1466.9408899938
 30
0.0
 40
1.35
  0
CIRCLE
  5
1C6
330
1F
100
AcDbEntity
  8
1
  6
Continuous
 62
     7
370
     9
100
AcDbCircle
 10
-708.3218728649
 20
1445.9408899938
 30
0.0
 40
1.35
  0
CIRCLE
  5
1C7
330
1F
100
AcDbEntity
  8
1
  6
Continuous
 62
     7
370
     9
100
AcDbCircle
 10
-708.3218728649
 20
1438.9408899938
 30
0.0
 40
1.35
  0
CIRCLE
  5
1C8
330
1F
100
AcDbEntity
  8
1
  6
Continuous
 62
     7
370
     9
100
AcDbCircle
 10
-638.3218728649
 20
1529.9408899939
 30
0.0
 40
1.35
  0
CIRCLE
  5
1C9
330
1F
100
AcDbEntity
  8
1
  6
Continuous
 62
     7
370
     9
100
AcDbCircle
 10
-641.8218728649
 20
1529.9408899939
 30
0.0
 40
1.35
  0
CIRCLE
  5
1CA
330
1F
100
AcDbEntity
  8
1
  6
Continuous
 62
     7
370
     9
100
AcDbCircle
 10
-708.3218728649
 20
1442.4408899938
 30
0.0
 40
1.35
  0
CIRCLE
  5
1CB
330
1F
100
AcDbEntity
  8
1
  6
Continuous
 62
     7
370
     9
100
AcDbCircle
 10
-666.3218728649
 20
1529.9408899939
 30
0.0
 40
1.35
  0
CIRCLE
  5
1CC
330
1F
100
AcDbEntity
  8
1
  6
Continuous
 62
     7
370
     9
100
AcDbCircle
 10
-585.8218728649
 20
1522.9408899938
 30
0.0
 40
1.35
  0
CIRCLE
  5
1CD
330
1F
100
AcDbEntity
  8
1
  6
Continuous
 62
     7
370
     9
100
AcDbCircle
 10
-592.8218728649
 20
1512.4408899939
 30
0.0
 40
1.35
  0
CIRCLE
  5
1CE
330
1F
100
AcDbEntity
  8
1
  6
Continuous
 62
     7
370
     9
100
AcDbCircle
 10
-575.3218728649
 20
1522.9408899938
 30
0.0
 40
1.35
  0
CIRCLE
  5
1CF
330
1F
100
AcDbEntity
  8
1
  6
Continuous
 62
     7
370
     9
100
AcDbCircle
 10
-634.8218728649
 20
1529.9408899939
 30
0.0
 40
1.35
  0
CIRCLE
  5
1D0
330
1F
100
AcDbEntity
  8
1
  6
Continuous
 62
     7
370
     9
100
AcDbCircle
 10
-680.3218728649
 20
1529.9408899939
 30
0.0
 40
1.35
  0
CIRCLE
  5
1D1
330
1F
100
AcDbEntity
  8
1
  6
Continuous
 62
     7
370
     9
100
AcDbCircle
 10
-585.8218728649
 20
1449.4408899938
 30
0.0
 40
1.35
  0
CIRCLE
  5
1D2
330
1F
100
AcDbEntity
  8
1
  6
Continuous
 62
     7
370
     9
100
AcDbCircle
 10
-683.8218728649
 20
1529.9408899939
 30
0.0
 40
1.35
  0
CIRCLE
  5
1D3
330
1F
100
AcDbEntity
  8
1
  6
Continuous
 62
     7
370
     9
100
AcDbCircle
 10
-708.3218728649
 20
1470.4408899939
 30
0.0
 40
1.35
  0
CIRCLE
  5
1D4
330
1F
100
AcDbEntity
  8
1
  6
Continuous
 62
     7
370
     9
100
AcDbCircle
 10
-708.3218728649
 20
1463.4408899938
 30
0.0
 40
1.35
  0
CIRCLE
  5
1D5
330
1F
100
AcDbEntity
  8
1
  6
Continuous
 62
     7
370
     9
100
AcDbCircle
 10
-708.3218728649
 20
1449.4408899938
 30
0.0
 40
1.35
  0
CIRCLE
  5
1D6
330
1F
100
AcDbEntity
  8
1
  6
Continuous
 62
     7
370
     9
100
AcDbCircle
 10
-585.8218728649
 20
1438.9408899938
 30
0.0
 40
1.35
  0
CIRCLE
  5
1D7
330
1F
100
AcDbEntity
  8
1
  6
Continuous
 62
     7
370
     9
100
AcDbCircle
 10
-652.3218728649
 20
1529.9408899939
 30
0.0
 40
1.35
  0
CIRCLE
  5
1D8
330
1F
100
AcDbEntity
  8
1
  6
Continuous
 62
     7
370
     9
100
AcDbCircle
 10
-669.8218728649
 20
1529.9408899939
 30
0.0
 40
1.35
  0
CIRCLE
  5
1D9
330
1F
100
AcDbEntity
  8
1
  6
Continuous
 62
     7
370
     9
100
AcDbCircle
 10
-592.8218728649
 20
1498.4408899939
 30
0.0
 40
1.35
  0
CIRCLE
  5
1DA
330
1F
100
AcDbEntity
  8
1
  6
Continuous
 62
     7
370
     9
100
AcDbCircle
 10
-585.8218728649
 20
1459.9408899938
 30
0.0
 40
1.35
  0
CIRCLE
  5
1DB
330
1F
100
AcDbEntity
  8
1
  6
Continuous
 62
     7
370
     9
100
AcDbCircle
 10
-631.3218728649
 20
1529.9408899939
 30
0.0
 40
1.35
  0
CIRCLE
  5
1DC
330
1F
100
AcDbEntity
  8
1
  6
Continuous
 62
     7
370
     9
100
AcDbCircle
 10
-673.3218728649
 20
1529.9408899939
 30
0.0
 40
1.35
  0
CIRCLE
  5
1DD
330
1F
100
AcDbEntity
  8
1
  6
Continuous
 62
     7
370
     9
100
AcDbCircle
 10
-582.3218728649
 20
1519.4408899938
 30
0.0
 40
1.35
  0
CIRCLE
  5
1DE
330
1F
100
AcDbEntity
  8
1
  6
Continuous
 62
     7
370
     9
100
AcDbCircle
 10
-585.8218728649
 20
1470.4408899939
 30
0.0
 40
1.35
  0
CIRCLE
  5
1DF
330
1F
100
AcDbEntity
  8
1
  6
Continuous
 62
     7
370
     9
100
AcDbCircle
 10
-687.3218728649
 20
1529.9408899939
 30
0.0
 40
1.35
  0
CIRCLE
  5
1E0
330
1F
100
AcDbEntity
  8
1
  6
Continuous
 62
     7
370
     9
100
AcDbCircle
 10
-582.3218728649
 20
1522.9408899938
 30
0.0
 40
1.35
  0
CIRCLE
  5
1E1
330
1F
100
AcDbEntity
  8
1
  6
Continuous
 62
     7
370
     9
100
AcDbCircle
 10
-585.8218728649
 20
1466.9408899938
 30
0.0
 40
1.35
  0
CIRCLE
  5
1E2
330
1F
100
AcDbEntity
  8
1
  6
Continuous
 62
     7
370
     9
100
AcDbCircle
 10
-585.8218728649
 20
1463.4408899938
 30
0.0
 40
1.35
  0
CIRCLE
  5
1E3
330
1F
100
AcDbEntity
  8
1
  6
Continuous
 62
     7
370
     9
100
AcDbCircle
 10
-645.3218728649
 20
1529.9408899939
 30
0.0
 40
1.35
  0
CIRCLE
  5
1E4
330
1F
100
AcDbEntity
  8
1
  6
Continuous
 62
     7
370
     9
100
AcDbCircle
 10
-557.8218728649
 20
1522.9408899938
 30
0.0
 40
1.35
  0
CIRCLE
  5
1E5
330
1F
100
AcDbEntity
  8
1
  6
Continuous
 62
     7
370
     9
100
AcDbCircle
 10
-596.3218728649
 20
1519.4408899938
 30
0.0
 40
1.35
  0
CIRCLE
  5
1E6
330
1F
100
AcDbEntity
  8
1
  6
Continuous
 62
     7
370
     9
100
AcDbCircle
 10
-505.3218728649001
 20
1340.9408899937
 30
0.0
 40
1.35
  0
CIRCLE
  5
1E7
330
1F
100
AcDbEntity
  8
1
  6
Continuous
 62
     7
370
     9
100
AcDbCircle
 10
-536.8218728649
 20
1340.9408899937
 30
0.0
 40
1.35
  0
CIRCLE
  5
1E8
330
1F
100
AcDbEntity
  8
1
  6
Continuous
 62
     7
370
     9
100
AcDbCircle
 10
-512.3218728649
 20
1344.4408899937
 30
0.0
 40
1.35
  0
CIRCLE
  5
1E9
330
1F
100
AcDbEntity
  8
1
  6
Continuous
 62
     7
370
     9
100
AcDbCircle
 10
-508.8218728649
 20
1344.4408899937
 30
0.0
 40
1.35
  0
CIRCLE
  5
1EA
330
1F
100
AcDbEntity
  8
1
  6
Continuous
 62
     7
370
     9
100
AcDbCircle
 10
-515.8218728649
 20
1340.9408899937
 30
0.0
 40
1.35
  0
CIRCLE
  5
1EB
330
1F
100
AcDbEntity
  8
1
  6
Continuous
 62
     7
370
     9
100
AcDbCircle
 10
-596.3218728649
 20
1522.9408899938
 30
0.0
 40
1.35
  0
CIRCLE
  5
1EC
330
1F
100
AcDbEntity
  8
1
  6
Continuous
 62
     7
370
     9
100
AcDbCircle
 10
-592.8218728649
 20
1445.9408899938
 30
0.0
 40
1.35
  0
CIRCLE
  5
1ED
330
1F
100
AcDbEntity
  8
1
  6
Continuous
 62
     7
370
     9
100
AcDbCircle
 10
-512.3218728649
 20
1340.9408899937
 30
0.0
 40
1.35
  0
CIRCLE
  5
1EE
330
1F
100
AcDbEntity
  8
1
  6
Continuous
 62
     7
370
     9
100
AcDbCircle
 10
-470.3218728649
 20
1379.4408899937
 30
0.0
 40
1.35
  0
CIRCLE
  5
1EF
330
1F
100
AcDbEntity
  8
1
  6
Continuous
 62
     7
370
     9
100
AcDbCircle
 10
-592.8218728649
 20
1463.4408899938
 30
0.0
 40
1.35
  0
CIRCLE
  5
1F0
330
1F
100
AcDbEntity
  8
1
  6
Continuous
 62
     7
370
     9
100
AcDbCircle
 10
-592.8218728649
 20
1526.4408899938
 30
0.0
 40
1.35
  0
CIRCLE
  5
1F1
330
1F
100
AcDbEntity
  8
1
  6
Continuous
 62
     7
370
     9
100
AcDbCircle
 10
-592.8218728649
 20
1480.9408899939
 30
0.0
 40
1.35
  0
CIRCLE
  5
1F2
330
1F
100
AcDbEntity
  8
1
  6
Continuous
 62
     7
370
     9
100
AcDbCircle
 10
-547.3218728649
 20
1340.9408899937
 30
0.0
 40
1.35
  0
CIRCLE
  5
1F3
330
1F
100
AcDbEntity
  8
1
  6
Continuous
 62
     7
370
     9
100
AcDbCircle
 10
-610.3218728649
 20
1529.9408899939
 30
0.0
 40
1.35
  0
CIRCLE
  5
1F4
330
1F
100
AcDbEntity
  8
1
  6
Continuous
 62
     7
370
     9
100
AcDbCircle
 10
-617.3218728649
 20
1529.9408899939
 30
0.0
 40
1.35
  0
CIRCLE
  5
1F5
330
1F
100
AcDbEntity
  8
1
  6
Continuous
 62
     7
370
     9
100
AcDbCircle
 10
-592.8218728649
 20
1452.9408899938
 30
0.0
 40
1.35
  0
CIRCLE
  5
1F6
330
1F
100
AcDbEntity
  8
1
  6
Continuous
 62
     7
370
     9
100
AcDbCircle
 10
-540.3218728649
 20
1340.9408899937
 30
0.0
 40
1.35
  0
CIRCLE
  5
1F7
330
1F
100
AcDbEntity
  8
1
  6
Continuous
 62
     7
370
     9
100
AcDbCircle
 10
-603.3218728649
 20
1519.4408899938
 30
0.0
 40
1.35
  0
CIRCLE
  5
1F8
330
1F
100
AcDbEntity
  8
1
  6
Continuous
 62
     7
370
     9
100
AcDbCircle
 10
-592.8218728649
 20
1487.9408899939
 30
0.0
 40
1.35
  0
CIRCLE
  5
1F9
330
1F
100
AcDbEntity
  8
1
  6
Continuous
 62
     7
370
     9
100
AcDbCircle
 10
-620.8218728649
 20
1529.9408899939
 30
0.0
 40
1.35
  0
CIRCLE
  5
1FA
330
1F
100
AcDbEntity
  8
1
  6
Continuous
 62
     7
370
     9
100
AcDbCircle
 10
-620.8218728649
 20
1519.4408899938
 30
0.0
 40
1.35
  0
CIRCLE
  5
1FB
330
1F
100
AcDbEntity
  8
1
  6
Continuous
 62
     7
370
     9
100
AcDbCircle
 10
-592.8218728649
 20
1442.4408899938
 30
0.0
 40
1.35
  0
CIRCLE
  5
1FC
330
1F
100
AcDbEntity
  8
1
  6
Continuous
 62
     7
370
     9
100
AcDbCircle
 10
-592.8218728649
 20
1519.4408899938
 30
0.0
 40
1.35
  0
CIRCLE
  5
1FD
330
1F
100
AcDbEntity
  8
1
  6
Continuous
 62
     7
370
     9
100
AcDbCircle
 10
-470.3218728649
 20
1386.4408899937
 30
0.0
 40
1.35
  0
CIRCLE
  5
1FE
330
1F
100
AcDbEntity
  8
1
  6
Continuous
 62
     7
370
     9
100
AcDbCircle
 10
-470.3218728649
 20
1389.9408899937
 30
0.0
 40
1.35
  0
CIRCLE
  5
1FF
330
1F
100
AcDbEntity
  8
1
  6
Continuous
 62
     7
370
     9
100
AcDbCircle
 10
-599.8218728649
 20
1529.9408899939
 30
0.0
 40
1.35
  0
CIRCLE
  5
200
330
1F
100
AcDbEntity
  8
1
  6
Continuous
 62
     7
370
     9
100
AcDbCircle
 10
-533.3218728649
 20
1340.9408899937
 30
0.0
 40
1.35
  0
CIRCLE
  5
201
330
1F
100
AcDbEntity
  8
1
  6
Continuous
 62
     7
370
     9
100
AcDbCircle
 10
-592.8218728649
 20
1529.9408899939
 30
0.0
 40
1.35
  0
CIRCLE
  5
202
330
1F
100
AcDbEntity
  8
1
  6
Continuous
 62
     7
370
     9
100
AcDbCircle
 10
-599.8218728649
 20
1526.4408899938
 30
0.0
 40
1.35
  0
CIRCLE
  5
203
330
1F
100
AcDbEntity
  8
1
  6
Continuous
 62
     7
370
     9
100
AcDbCircle
 10
-592.8218728649
 20
1449.4408899938
 30
0.0
 40
1.35
  0
CIRCLE
  5
204
330
1F
100
AcDbEntity
  8
1
  6
Continuous
 62
     7
370
     9
100
AcDbCircle
 10
-592.8218728649
 20
1470.4408899939
 30
0.0
 40
1.35
  0
CIRCLE
  5
205
330
1F
100
AcDbEntity
  8
1
  6
Continuous
 62
     7
370
     9
100
AcDbCircle
 10
-470.3218728649
 20
1358.4408899937
 30
0.0
 40
1.35
  0
CIRCLE
  5
206
330
1F
100
AcDbEntity
  8
1
  6
Continuous
 62
     7
370
     9
100
AcDbCircle
 10
-470.3218728649
 20
1365.4408899937
 30
0.0
 40
1.35
  0
CIRCLE
  5
207
330
1F
100
AcDbEntity
  8
1
  6
Continuous
 62
     7
370
     9
100
AcDbCircle
 10
-592.8218728649
 20
1459.9408899938
 30
0.0
 40
1.35
  0
CIRCLE
  5
208
330
1F
100
AcDbEntity
  8
1
  6
Continuous
 62
     7
370
     9
100
AcDbCircle
 10
-596.3218728649
 20
1526.4408899938
 30
0.0
 40
1.35
  0
CIRCLE
  5
209
330
1F
100
AcDbEntity
  8
1
  6
Continuous
 62
     7
370
     9
100
AcDbCircle
 10
-599.8218728649
 20
1522.9408899938
 30
0.0
 40
1.35
  0
CIRCLE
  5
20A
330
1F
100
AcDbEntity
  8
1
  6
Continuous
 62
     7
370
     9
100
AcDbCircle
 10
-603.3218728649
 20
1526.4408899938
 30
0.0
 40
1.35
  0
CIRCLE
  5
20B
330
1F
100
AcDbEntity
  8
1
  6
Continuous
 62
     7
370
     9
100
AcDbCircle
 10
-592.8218728649
 20
1466.9408899938
 30
0.0
 40
1.35
  0
CIRCLE
  5
20C
330
1F
100
AcDbEntity
  8
1
  6
Continuous
 62
     7
370
     9
100
AcDbCircle
 10
-470.3218728649
 20
1372.4408899937
 30
0.0
 40
1.35
  0
CIRCLE
  5
20D
330
1F
100
AcDbEntity
  8
1
  6
Continuous
 62
     7
370
     9
100
AcDbCircle
 10
-603.3218728649
 20
1522.9408899938
 30
0.0
 40
1.35
  0
CIRCLE
  5
20E
330
1F
100
AcDbEntity
  8
1
  6
Continuous
 62
     7
370
     9
100
AcDbCircle
 10
-470.3218728649
 20
1375.9408899937
 30
0.0
 40
1.35
  0
CIRCLE
  5
20F
330
1F
100
AcDbEntity
  8
1
  6
Continuous
 62
     7
370
     9
100
AcDbCircle
 10
-592.8218728649
 20
1477.4408899939
 30
0.0
 40
1.35
  0
CIRCLE
  5
210
330
1F
100
AcDbEntity
  8
1
  6
Continuous
 62
     7
370
     9
100
AcDbCircle
 10
-470.3218728649
 20
1393.4408899937
 30
0.0
 40
1.35
  0
CIRCLE
  5
211
330
1F
100
AcDbEntity
  8
1
  6
Continuous
 62
     7
370
     9
100
AcDbCircle
 10
-550.8218728649
 20
1340.9408899937
 30
0.0
 40
1.35
  0
CIRCLE
  5
212
330
1F
100
AcDbEntity
  8
1
  6
Continuous
 62
     7
370
     9
100
AcDbCircle
 10
-470.3218728649
 20
1368.9408899937
 30
0.0
 40
1.35
  0
CIRCLE
  5
213
330
1F
100
AcDbEntity
  8
1
  6
Continuous
 62
     7
370
     9
100
AcDbCircle
 10
-543.8218728649
 20
1340.9408899937
 30
0.0
 40
1.35
  0
CIRCLE
  5
214
330
1F
100
AcDbEntity
  8
1
  6
Continuous
 62
     7
370
     9
100
AcDbCircle
 10
-529.8218728649
 20
1340.9408899937
 30
0.0
 40
1.35
  0
CIRCLE
  5
215
330
1F
100
AcDbEntity
  8
1
  6
Continuous
 62
     7
370
     9
100
AcDbCircle
 10
-620.8218728649
 20
1522.9408899938
 30
0.0
 40
1.35
  0
CIRCLE
  5
216
330
1F
100
AcDbEntity
  8
1
  6
Continuous
 62
     7
370
     9
100
AcDbCircle
 10
-599.8218728649
 20
1519.4408899938
 30
0.0
 40
1.35
  0
CIRCLE
  5
217
330
1F
100
AcDbEntity
  8
1
  6
Continuous
 62
     7
370
     9
100
AcDbCircle
 10
-592.8218728649
 20
1438.9408899938
 30
0.0
 40
1.35
  0
CIRCLE
  5
218
330
1F
100
AcDbEntity
  8
1
  6
Continuous
 62
     7
370
     9
100
AcDbCircle
 10
-470.3218728649
 20
1382.9408899937
 30
0.0
 40
1.35
  0
CIRCLE
  5
219
330
1F
100
AcDbEntity
  8
1
  6
Continuous
 62
     7
370
     9
100
AcDbCircle
 10
-526.3218728649
 20
1340.9408899937
 30
0.0
 40
1.35
  0
CIRCLE
  5
21A
330
1F
100
AcDbEntity
  8
1
  6
Continuous
 62
     7
370
     9
100
AcDbCircle
 10
-592.8218728649
 20
1522.9408899938
 30
0.0
 40
1.35
  0
CIRCLE
  5
21B
330
1F
100
AcDbEntity
  8
1
  6
Continuous
 62
     7
370
     9
100
AcDbCircle
 10
-522.8218728649
 20
1340.9408899937
 30
0.0
 40
1.35
  0
CIRCLE
  5
21C
330
1F
100
AcDbEntity
  8
1
  6
Continuous
 62
     7
370
     9
100
AcDbCircle
 10
-515.8218728649
 20
1344.4408899937
 30
0.0
 40
1.35
  0
CIRCLE
  5
21D
330
1F
100
AcDbEntity
  8
1
  6
Continuous
 62
     7
370
     9
100
AcDbCircle
 10
-613.8218728649
 20
1529.9408899939
 30
0.0
 40
1.35
  0
CIRCLE
  5
21E
330
1F
100
AcDbEntity
  8
1
  6
Continuous
 62
     7
370
     9
100
AcDbCircle
 10
-592.8218728649
 20
1484.4408899939
 30
0.0
 40
1.35
  0
CIRCLE
  5
21F
330
1F
100
AcDbEntity
  8
1
  6
Continuous
 62
     7
370
     9
100
AcDbCircle
 10
-470.3218728649
 20
1361.9408899937
 30
0.0
 40
1.35
  0
CIRCLE
  5
220
330
1F
100
AcDbEntity
  8
1
  6
Continuous
 62
     7
370
     9
100
AcDbCircle
 10
-508.8218728649
 20
1340.9408899937
 30
0.0
 40
1.35
  0
CIRCLE
  5
221
330
1F
100
AcDbEntity
  8
1
  6
Continuous
 62
     7
370
     9
100
AcDbCircle
 10
-620.8218728649
 20
1526.4408899938
 30
0.0
 40
1.35
  0
CIRCLE
  5
222
330
1F
100
AcDbEntity
  8
1
  6
Continuous
 62
     7
370
     9
100
AcDbCircle
 10
-592.8218728649
 20
1456.4408899938
 30
0.0
 40
1.35
  0
CIRCLE
  5
223
330
1F
100
AcDbEntity
  8
1
  6
Continuous
 62
     7
370
     9
100
AcDbCircle
 10
-596.3218728649
 20
1529.9408899939
 30
0.0
 40
1.35
  0
CIRCLE
  5
224
330
1F
100
AcDbEntity
  8
1
  6
Continuous
 62
     7
370
     9
100
AcDbCircle
 10
-603.3218728649
 20
1529.9408899939
 30
0.0
 40
1.35
  0
CIRCLE
  5
225
330
1F
100
AcDbEntity
  8
1
  6
Continuous
 62
     7
370
     9
100
AcDbCircle
 10
-494.8218728649
 20
1344.4408899937
 30
0.0
 40
1.35
  0
CIRCLE
  5
226
330
1F
100
AcDbEntity
  8
1
  6
Continuous
 62
     7
370
     9
100
AcDbCircle
 10
-498.3218728649
 20
1344.4408899937
 30
0.0
 40
1.35
  0
CIRCLE
  5
227
330
1F
100
AcDbEntity
  8
1
  6
Continuous
 62
     7
370
     9
100
AcDbCircle
 10
-491.3218728649
 20
1344.4408899937
 30
0.0
 40
1.35
  0
CIRCLE
  5
228
330
1F
100
AcDbEntity
  8
1
  6
Continuous
 62
     7
370
     9
100
AcDbCircle
 10
-487.8218728649
 20
1344.4408899937
 30
0.0
 40
1.35
  0
CIRCLE
  5
229
330
1F
100
AcDbEntity
  8
1
  6
Continuous
 62
     7
370
     9
100
AcDbCircle
 10
-501.8218728649
 20
1344.4408899937
 30
0.0
 40
1.35
  0
CIRCLE
  5
22A
330
1F
100
AcDbEntity
  8
1
  6
Continuous
 62
     7
370
     9
100
AcDbCircle
 10
-505.3218728649001
 20
1344.4408899937
 30
0.0
 40
1.35
  0
CIRCLE
  5
22B
330
1F
100
AcDbEntity
  8
1
  6
Continuous
 62
     7
370
     9
100
AcDbCircle
 10
-697.8218728649
 20
1351.4408899937
 30
0.0
 40
1.35
  0
CIRCLE
  5
22C
330
1F
100
AcDbEntity
  8
1
  6
Continuous
 62
     7
370
     9
100
AcDbCircle
 10
-701.3218728649
 20
1351.4408899937
 30
0.0
 40
1.35
  0
CIRCLE
  5
22D
330
1F
100
AcDbEntity
  8
1
  6
Continuous
 62
     7
370
     9
100
AcDbCircle
 10
-704.8218728649
 20
1351.4408899937
 30
0.0
 40
1.35
  0
CIRCLE
  5
22E
330
1F
100
AcDbEntity
  8
1
  6
Continuous
 62
     7
370
     9
100
AcDbCircle
 10
-596.3218728649
 20
1340.9408899937
 30
0.0
 40
1.35
  0
CIRCLE
  5
22F
330
1F
100
AcDbEntity
  8
1
  6
Continuous
 62
     7
370
     9
100
AcDbCircle
 10
-610.3218728649
 20
1340.9408899937
 30
0.0
 40
1.35
  0
CIRCLE
  5
230
330
1F
100
AcDbEntity
  8
1
  6
Continuous
 62
     7
370
     9
100
AcDbCircle
 10
-673.3218728649
 20
1340.9408899937
 30
0.0
 40
1.35
  0
CIRCLE
  5
231
330
1F
100
AcDbEntity
  8
1
  6
Continuous
 62
     7
370
     9
100
AcDbCircle
 10
-585.8218728649
 20
1400.4408899937
 30
0.0
 40
1.35
  0
CIRCLE
  5
232
330
1F
100
AcDbEntity
  8
1
  6
Continuous
 62
     7
370
     9
100
AcDbCircle
 10
-690.8218728649
 20
1344.4408899937
 30
0.0
 40
1.35
  0
CIRCLE
  5
233
330
1F
100
AcDbEntity
  8
1
  6
Continuous
 62
     7
370
     9
100
AcDbCircle
 10
-613.8218728649
 20
1340.9408899937
 30
0.0
 40
1.35
  0
CIRCLE
  5
234
330
1F
100
AcDbEntity
  8
1
  6
Continuous
 62
     7
370
     9
100
AcDbCircle
 10
-575.3218728649
 20
1351.4408899937
 30
0.0
 40
1.35
  0
CIRCLE
  5
235
330
1F
100
AcDbEntity
  8
1
  6
Continuous
 62
     7
370
     9
100
AcDbCircle
 10
-582.3218728649
 20
1351.4408899937
 30
0.0
 40
1.35
  0
CIRCLE
  5
236
330
1F
100
AcDbEntity
  8
1
  6
Continuous
 62
     7
370
     9
100
AcDbCircle
 10
-708.3218728649
 20
1358.4408899937
 30
0.0
 40
1.35
  0
CIRCLE
  5
237
330
1F
100
AcDbEntity
  8
1
  6
Continuous
 62
     7
370
     9
100
AcDbCircle
 10
-708.3218728649
 20
1382.9408899937
 30
0.0
 40
1.35
  0
CIRCLE
  5
238
330
1F
100
AcDbEntity
  8
1
  6
Continuous
 62
     7
370
     9
100
AcDbCircle
 10
-617.3218728649
 20
1340.9408899937
 30
0.0
 40
1.35
  0
CIRCLE
  5
239
330
1F
100
AcDbEntity
  8
1
  6
Continuous
 62
     7
370
     9
100
AcDbCircle
 10
-578.8218728649
 20
1351.4408899937
 30
0.0
 40
1.35
  0
CIRCLE
  5
23A
330
1F
100
AcDbEntity
  8
1
  6
Continuous
 62
     7
370
     9
100
AcDbCircle
 10
-708.3218728649
 20
1365.4408899937
 30
0.0
 40
1.35
  0
CIRCLE
  5
23B
330
1F
100
AcDbEntity
  8
1
  6
Continuous
 62
     7
370
     9
100
AcDbCircle
 10
-708.3218728649
 20
1386.4408899937
 30
0.0
 40
1.35
  0
CIRCLE
  5
23C
330
1F
100
AcDbEntity
  8
1
  6
Continuous
 62
     7
370
     9
100
AcDbCircle
 10
-708.3218728649
 20
1389.9408899937
 30
0.0
 40
1.35
  0
CIRCLE
  5
23D
330
1F
100
AcDbEntity
  8
1
  6
Continuous
 62
     7
370
     9
100
AcDbCircle
 10
-578.8218728649
 20
1347.9408899937
 30
0.0
 40
1.35
  0
CIRCLE
  5
23E
330
1F
100
AcDbEntity
  8
1
  6
Continuous
 62
     7
370
     9
100
AcDbCircle
 10
-575.3218728649
 20
1347.9408899937
 30
0.0
 40
1.35
  0
CIRCLE
  5
23F
330
1F
100
AcDbEntity
  8
1
  6
Continuous
 62
     7
370
     9
100
AcDbCircle
 10
-585.8218728649
 20
1403.9408899937
 30
0.0
 40
1.35
  0
CIRCLE
  5
240
330
1F
100
AcDbEntity
  8
1
  6
Continuous
 62
     7
370
     9
100
AcDbCircle
 10
-708.3218728649
 20
1368.9408899937
 30
0.0
 40
1.35
  0
CIRCLE
  5
241
330
1F
100
AcDbEntity
  8
1
  6
Continuous
 62
     7
370
     9
100
AcDbCircle
 10
-557.8218728649
 20
1344.4408899937
 30
0.0
 40
1.35
  0
CIRCLE
  5
242
330
1F
100
AcDbEntity
  8
1
  6
Continuous
 62
     7
370
     9
100
AcDbCircle
 10
-627.8218728649
 20
1340.9408899937
 30
0.0
 40
1.35
  0
CIRCLE
  5
243
330
1F
100
AcDbEntity
  8
1
  6
Continuous
 62
     7
370
     9
100
AcDbCircle
 10
-631.3218728649
 20
1340.9408899937
 30
0.0
 40
1.35
  0
CIRCLE
  5
244
330
1F
100
AcDbEntity
  8
1
  6
Continuous
 62
     7
370
     9
100
AcDbCircle
 10
-641.8218728649
 20
1340.9408899937
 30
0.0
 40
1.35
  0
CIRCLE
  5
245
330
1F
100
AcDbEntity
  8
1
  6
Continuous
 62
     7
370
     9
100
AcDbCircle
 10
-645.3218728649
 20
1340.9408899937
 30
0.0
 40
1.35
  0
CIRCLE
  5
246
330
1F
100
AcDbEntity
  8
1
  6
Continuous
 62
     7
370
     9
100
AcDbCircle
 10
-669.8218728649
 20
1340.9408899937
 30
0.0
 40
1.35
  0
CIRCLE
  5
247
330
1F
100
AcDbEntity
  8
1
  6
Continuous
 62
     7
370
     9
100
AcDbCircle
 10
-557.8218728649
 20
1351.4408899937
 30
0.0
 40
1.35
  0
CIRCLE
  5
248
330
1F
100
AcDbEntity
  8
1
  6
Continuous
 62
     7
370
     9
100
AcDbCircle
 10
-585.8218728649
 20
1417.9408899937
 30
0.0
 40
1.35
  0
CIRCLE
  5
249
330
1F
100
AcDbEntity
  8
1
  6
Continuous
 62
     7
370
     9
100
AcDbCircle
 10
-557.8218728649
 20
1347.9408899937
 30
0.0
 40
1.35
  0
CIRCLE
  5
24A
330
1F
100
AcDbEntity
  8
1
  6
Continuous
 62
     7
370
     9
100
AcDbCircle
 10
-585.8218728649
 20
1410.9408899937
 30
0.0
 40
1.35
  0
CIRCLE
  5
24B
330
1F
100
AcDbEntity
  8
1
  6
Continuous
 62
     7
370
     9
100
AcDbCircle
 10
-585.8218728649
 20
1428.4408899937
 30
0.0
 40
1.35
  0
CIRCLE
  5
24C
330
1F
100
AcDbEntity
  8
1
  6
Continuous
 62
     7
370
     9
100
AcDbCircle
 10
-708.3218728649
 20
1372.4408899937
 30
0.0
 40
1.35
  0
CIRCLE
  5
24D
330
1F
100
AcDbEntity
  8
1
  6
Continuous
 62
     7
370
     9
100
AcDbCircle
 10
-655.8218728649
 20
1340.9408899937
 30
0.0
 40
1.35
  0
CIRCLE
  5
24E
330
1F
100
AcDbEntity
  8
1
  6
Continuous
 62
     7
370
     9
100
AcDbCircle
 10
-697.8218728649
 20
1347.9408899937
 30
0.0
 40
1.35
  0
CIRCLE
  5
24F
330
1F
100
AcDbEntity
  8
1
  6
Continuous
 62
     7
370
     9
100
AcDbCircle
 10
-585.8218728649
 20
1351.4408899937
 30
0.0
 40
1.35
  0
CIRCLE
  5
250
330
1F
100
AcDbEntity
  8
1
  6
Continuous
 62
     7
370
     9
100
AcDbCircle
 10
-585.8218728649
 20
1424.9408899937
 30
0.0
 40
1.35
  0
CIRCLE
  5
251
330
1F
100
AcDbEntity
  8
1
  6
Continuous
 62
     7
370
     9
100
AcDbCircle
 10
-662.8218728649
 20
1340.9408899937
 30
0.0
 40
1.35
  0
CIRCLE
  5
252
330
1F
100
AcDbEntity
  8
1
  6
Continuous
 62
     7
370
     9
100
AcDbCircle
 10
-592.8218728649
 20
1340.9408899937
 30
0.0
 40
1.35
  0
CIRCLE
  5
253
330
1F
100
AcDbEntity
  8
1
  6
Continuous
 62
     7
370
     9
100
AcDbCircle
 10
-599.8218728649
 20
1340.9408899937
 30
0.0
 40
1.35
  0
CIRCLE
  5
254
330
1F
100
AcDbEntity
  8
1
  6
Continuous
 62
     7
370
     9
100
AcDbCircle
 10
-708.3218728649
 20
1361.9408899937
 30
0.0
 40
1.35
  0
CIRCLE
  5
255
330
1F
100
AcDbEntity
  8
1
  6
Continuous
 62
     7
370
     9
100
AcDbCircle
 10
-585.8218728649
 20
1421.4408899937
 30
0.0
 40
1.35
  0
CIRCLE
  5
256
330
1F
100
AcDbEntity
  8
1
  6
Continuous
 62
     7
370
     9
100
AcDbCircle
 10
-708.3218728649
 20
1351.4408899937
 30
0.0
 40
1.35
  0
CIRCLE
  5
257
330
1F
100
AcDbEntity
  8
1
  6
Continuous
 62
     7
370
     9
100
AcDbCircle
 10
-603.3218728649
 20
1340.9408899937
 30
0.0
 40
1.35
  0
CIRCLE
  5
258
330
1F
100
AcDbEntity
  8
1
  6
Continuous
 62
     7
370
     9
100
AcDbCircle
 10
-585.8218728649
 20
1407.4408899937
 30
0.0
 40
1.35
  0
CIRCLE
  5
259
330
1F
100
AcDbEntity
  8
1
  6
Continuous
 62
     7
370
     9
100
AcDbCircle
 10
-582.3218728649
 20
1347.9408899937
 30
0.0
 40
1.35
  0
CIRCLE
  5
25A
330
1F
100
AcDbEntity
  8
1
  6
Continuous
 62
     7
370
     9
100
AcDbCircle
 10
-652.3218728649
 20
1340.9408899937
 30
0.0
 40
1.35
  0
CIRCLE
  5
25B
330
1F
100
AcDbEntity
  8
1
  6
Continuous
 62
     7
370
     9
100
AcDbCircle
 10
-708.3218728649
 20
1379.4408899937
 30
0.0
 40
1.35
  0
CIRCLE
  5
25C
330
1F
100
AcDbEntity
  8
1
  6
Continuous
 62
     7
370
     9
100
AcDbCircle
 10
-708.3218728649
 20
1393.4408899937
 30
0.0
 40
1.35
  0
CIRCLE
  5
25D
330
1F
100
AcDbEntity
  8
1
  6
Continuous
 62
     7
370
     9
100
AcDbCircle
 10
-585.8218728649
 20
1431.9408899937
 30
0.0
 40
1.35
  0
CIRCLE
  5
25E
330
1F
100
AcDbEntity
  8
1
  6
Continuous
 62
     7
370
     9
100
AcDbCircle
 10
-634.8218728649
 20
1340.9408899937
 30
0.0
 40
1.35
  0
CIRCLE
  5
25F
330
1F
100
AcDbEntity
  8
1
  6
Continuous
 62
     7
370
     9
100
AcDbCircle
 10
-666.3218728649
 20
1340.9408899937
 30
0.0
 40
1.35
  0
CIRCLE
  5
260
330
1F
100
AcDbEntity
  8
1
  6
Continuous
 62
     7
370
     9
100
AcDbCircle
 10
-690.8218728649
 20
1347.9408899937
 30
0.0
 40
1.35
  0
CIRCLE
  5
261
330
1F
100
AcDbEntity
  8
1
  6
Continuous
 62
     7
370
     9
100
AcDbCircle
 10
-585.8218728649
 20
1414.4408899937
 30
0.0
 40
1.35
  0
CIRCLE
  5
262
330
1F
100
AcDbEntity
  8
1
  6
Continuous
 62
     7
370
     9
100
AcDbCircle
 10
-708.3218728649
 20
1375.9408899937
 30
0.0
 40
1.35
  0
CIRCLE
  5
263
330
1F
100
AcDbEntity
  8
1
  6
Continuous
 62
     7
370
     9
100
AcDbCircle
 10
-648.8218728649
 20
1340.9408899937
 30
0.0
 40
1.35
  0
CIRCLE
  5
264
330
1F
100
AcDbEntity
  8
1
  6
Continuous
 62
     7
370
     9
100
AcDbCircle
 10
-690.8218728649
 20
1351.4408899937
 30
0.0
 40
1.35
  0
CIRCLE
  5
265
330
1F
100
AcDbEntity
  8
1
  6
Continuous
 62
     7
370
     9
100
AcDbCircle
 10
-585.8218728649
 20
1347.9408899937
 30
0.0
 40
1.35
  0
CIRCLE
  5
266
330
1F
100
AcDbEntity
  8
1
  6
Continuous
 62
     7
370
     9
100
AcDbCircle
 10
-638.3218728649
 20
1340.9408899937
 30
0.0
 40
1.35
  0
CIRCLE
  5
267
330
1F
100
AcDbEntity
  8
1
  6
Continuous
 62
     7
370
     9
100
AcDbCircle
 10
-708.3218728649
 20
1491.4408899935
 30
0.0
 40
1.35
  0
CIRCLE
  5
268
330
1F
100
AcDbEntity
  8
1
  6
Continuous
 62
     7
370
     9
100
AcDbCircle
 10
-592.8218728649
 20
1431.9408899937
 30
0.0
 40
1.35
  0
CIRCLE
  5
269
330
1F
100
AcDbEntity
  8
1
  6
Continuous
 62
     7
370
     9
100
AcDbCircle
 10
-676.8218728649
 20
1340.9408899937
 30
0.0
 40
1.35
  0
LINE
  5
26A
330
1F
100
AcDbEntity
  8
1
  6
Continuous
 62
     7
370
     9
100
AcDbLine
 10
-363.6417019395
 20
1335.4408899131
 30
0.0
 11
-353.6417019039
 21
1335.5281585913
 31
0.0
  0
CIRCLE
  5
26B
330
1F
100
AcDbEntity
  8
1
  6
Continuous
 62
     7
370
     9
100
AcDbCircle
 10
-592.8218728649
 20
1414.4408899937
 30
0.0
 40
1.35
  0
CIRCLE
  5
26C
330
1F
100
AcDbEntity
  8
1
  6
Continuous
 62
     7
370
     9
100
AcDbCircle
 10
-708.3218728649
 20
1505.4408899935
 30
0.0
 40
1.35
  0
CIRCLE
  5
26D
330
1F
100
AcDbEntity
  8
1
  6
Continuous
 62
     7
370
     9
100
AcDbCircle
 10
-708.3218728649
 20
1487.9408899935
 30
0.0
 40
1.35
  0
CIRCLE
  5
26E
330
1F
100
AcDbEntity
  8
1
  6
Continuous
 62
     7
370
     9
100
AcDbCircle
 10
-708.3218728649
 20
1484.4408899935
 30
0.0
 40
1.35
  0
CIRCLE
  5
26F
330
1F
100
AcDbEntity
  8
1
  6
Continuous
 62
     7
370
     9
100
AcDbCircle
 10
-708.3218728649
 20
1431.9408899934
 30
0.0
 40
1.35
  0
CIRCLE
  5
270
330
1F
100
AcDbEntity
  8
1
  6
Continuous
 62
     7
370
     9
100
AcDbCircle
 10
-596.3218728649
 20
1347.9408899937
 30
0.0
 40
1.35
  0
CIRCLE
  5
271
330
1F
100
AcDbEntity
  8
1
  6
Continuous
 62
     7
370
     9
100
AcDbCircle
 10
-592.8218728649
 20
1351.4408899937
 30
0.0
 40
1.35
  0
CIRCLE
  5
272
330
1F
100
AcDbEntity
  8
1
  6
Continuous
 62
     7
370
     9
100
AcDbCircle
 10
-683.8218728649
 20
1340.9408899937
 30
0.0
 40
1.35
  0
CIRCLE
  5
273
330
1F
100
AcDbEntity
  8
1
  6
Continuous
 62
     7
370
     9
100
AcDbCircle
 10
-592.8218728649
 20
1424.9408899937
 30
0.0
 40
1.35
  0
LINE
  5
274
330
1F
100
AcDbEntity
  8
1
  6
Continuous
 62
     7
370
     9
100
AcDbLine
 10
-464.4091415428
 20
1220.5956505666
 30
0.0
 11
-714.3218728649
 21
1220.5956505666
 31
0.0
  0
CIRCLE
  5
275
330
1F
100
AcDbEntity
  8
1
  6
Continuous
 62
     7
370
     9
100
AcDbCircle
 10
-680.3218728649
 20
1340.9408899937
 30
0.0
 40
1.35
  0
CIRCLE
  5
276
330
1F
100
AcDbEntity
  8
1
  6
Continuous
 62
     7
370
     9
100
AcDbCircle
 10
-708.3218728649
 20
1421.4408899934
 30
0.0
 40
1.35
  0
CIRCLE
  5
277
330
1F
100
AcDbEntity
  8
1
  6
Continuous
 62
     7
370
     9
100
AcDbCircle
 10
-592.8218728649
 20
1344.4408899937
 30
0.0
 40
1.35
  0
CIRCLE
  5
278
330
1F
100
AcDbEntity
  8
1
  6
Continuous
 62
     7
370
     9
100
AcDbCircle
 10
-596.3218728649
 20
1351.4408899937
 30
0.0
 40
1.35
  0
CIRCLE
  5
279
330
1F
100
AcDbEntity
  8
1
  6
Continuous
 62
     7
370
     9
100
AcDbCircle
 10
-592.8218728649
 20
1347.9408899937
 30
0.0
 40
1.35
  0
CIRCLE
  5
27A
330
1F
100
AcDbEntity
  8
1
  6
Continuous
 62
     7
370
     9
100
AcDbCircle
 10
-592.8218728649
 20
1403.9408899937
 30
0.0
 40
1.35
  0
CIRCLE
  5
27B
330
1F
100
AcDbEntity
  8
1
  6
Continuous
 62
     7
370
     9
100
AcDbCircle
 10
-687.3218728649
 20
1340.9408899937
 30
0.0
 40
1.35
  0
LINE
  5
27C
330
1F
100
AcDbEntity
  8
1
  6
Continuous
 62
     7
370
     9
100
AcDbLine
 10
-363.6417019395
 20
1535.4408900744
 30
0.0
 11
-353.6417019039
 21
1535.3536213962
 31
0.0
  0
CIRCLE
  5
27D
330
1F
100
AcDbEntity
  8
1
  6
Continuous
 62
     7
370
     9
100
AcDbCircle
 10
-599.8218728649
 20
1344.4408899937
 30
0.0
 40
1.35
  0
LINE
  5
27E
330
1F
100
AcDbEntity
  8
1
  6
Continuous
 62
     7
370
     9
100
AcDbLine
 10
-711.1119551013
 20
1245.5956505666
 30
0.0
 11
-467.5317906282
 21
1245.5956505666
 31
0.0
  0
CIRCLE
  5
27F
330
1F
100
AcDbEntity
  8
1
  6
Continuous
 62
     7
370
     9
100
AcDbCircle
 10
-592.8218728649
 20
1407.4408899937
 30
0.0
 40
1.35
  0
ARC
  5
280
330
1F
100
AcDbEntity
  8
1
  6
Continuous
 62
     7
370
     9
100
AcDbCircle
 10
-467.5317906282
 20
1242.595650571
 30
0.0
 40
3.0
100
AcDbArc
 50
1.0
 51
90.0
  0
LINE
  5
281
330
1F
100
AcDbEntity
  8
1
  6
Continuous
 62
     7
370
     9
100
AcDbLine
 10
-464.321872865
 20
1230.595650571
 30
0.0
 11
-464.5322475428
 21
1242.6480077903
 31
0.0
  0
CIRCLE
  5
282
330
1F
100
AcDbEntity
  8
1
  6
Continuous
 62
     7
370
     9
100
AcDbCircle
 10
-620.8218728649
 20
1347.9408899937
 30
0.0
 40
1.35
  0
LINE
  5
283
330
1F
100
AcDbEntity
  8
1
  6
CENTER
 62
     7
370
     9
100
AcDbLine
 10
-589.3218728649
 20
1218.9339685768
 30
0.0
 11
-589.3218728649
 21
1252.949125923
 31
0.0
  0
CIRCLE
  5
284
330
1F
100
AcDbEntity
  8
1
  6
Continuous
 62
     7
370
     9
100
AcDbCircle
 10
-690.8218728649
 20
1340.9408899937
 30
0.0
 40
1.35
  0
CIRCLE
  5
285
330
1F
100
AcDbEntity
  8
1
  6
Continuous
 62
     7
370
     9
100
AcDbCircle
 10
-603.3218728649
 20
1347.9408899937
 30
0.0
 40
1.35
  0
CIRCLE
  5
286
330
1F
100
AcDbEntity
  8
1
  6
Continuous
 62
     7
370
     9
100
AcDbCircle
 10
-708.3218728649
 20
1400.4408899933
 30
0.0
 40
1.35
  0
CIRCLE
  5
287
330
1F
100
AcDbEntity
  8
1
  6
Continuous
 62
     7
370
     9
100
AcDbCircle
 10
-620.8218728649
 20
1344.4408899937
 30
0.0
 40
1.35
  0
CIRCLE
  5
288
330
1F
100
AcDbEntity
  8
1
  6
Continuous
 62
     7
370
     9
100
AcDbCircle
 10
-708.3218728649
 20
1407.4408899934
 30
0.0
 40
1.35
  0
CIRCLE
  5
289
330
1F
100
AcDbEntity
  8
1
  6
Continuous
 62
     7
370
     9
100
AcDbCircle
 10
-603.3218728649
 20
1344.4408899937
 30
0.0
 40
1.35
  0
CIRCLE
  5
28A
330
1F
100
AcDbEntity
  8
1
  6
Continuous
 62
     7
370
     9
100
AcDbCircle
 10
-620.8218728649
 20
1351.4408899937
 30
0.0
 40
1.35
  0
CIRCLE
  5
28B
330
1F
100
AcDbEntity
  8
1
  6
Continuous
 62
     7
370
     9
100
AcDbCircle
 10
-603.3218728649
 20
1351.4408899937
 30
0.0
 40
1.35
  0
CIRCLE
  5
28C
330
1F
100
AcDbEntity
  8
1
  6
Continuous
 62
     7
370
     9
100
AcDbCircle
 10
-599.8218728649
 20
1347.9408899937
 30
0.0
 40
1.35
  0
CIRCLE
  5
28D
330
1F
100
AcDbEntity
  8
1
  6
Continuous
 62
     7
370
     9
100
AcDbCircle
 10
-592.8218728649
 20
1400.4408899937
 30
0.0
 40
1.35
  0
CIRCLE
  5
28E
330
1F
100
AcDbEntity
  8
1
  6
Continuous
 62
     7
370
     9
100
AcDbCircle
 10
-592.8218728649
 20
1410.9408899937
 30
0.0
 40
1.35
  0
CIRCLE
  5
28F
330
1F
100
AcDbEntity
  8
1
  6
Continuous
 62
     7
370
     9
100
AcDbCircle
 10
-592.8218728649
 20
1421.4408899937
 30
0.0
 40
1.35
  0
CIRCLE
  5
290
330
1F
100
AcDbEntity
  8
1
  6
Continuous
 62
     7
370
     9
100
AcDbCircle
 10
-592.8218728649
 20
1417.9408899937
 30
0.0
 40
1.35
  0
CIRCLE
  5
291
330
1F
100
AcDbEntity
  8
1
  6
Continuous
 62
     7
370
     9
100
AcDbCircle
 10
-708.3218728649
 20
1414.4408899934
 30
0.0
 40
1.35
  0
LINE
  5
292
330
1F
100
AcDbEntity
  8
1
  6
Continuous
 62
     7
370
     9
100
AcDbLine
 10
-464.3218728649
 20
1230.595650571
 30
0.0
 11
-464.4091382199
 21
1220.5960313404
 31
0.0
  0
CIRCLE
  5
293
330
1F
100
AcDbEntity
  8
1
  6
Continuous
 62
     7
370
     9
100
AcDbCircle
 10
-620.8218728649
 20
1340.9408899937
 30
0.0
 40
1.35
  0
ARC
  5
294
330
1F
100
AcDbEntity
  8
1
  6
Continuous
 62
     7
370
     9
100
AcDbCircle
 10
-711.1119551013
 20
1242.5956505666
 30
0.0
 40
3.0
100
AcDbArc
 50
90.0
 51
179.0
  0
CIRCLE
  5
295
330
1F
100
AcDbEntity
  8
1
  6
Continuous
 62
     7
370
     9
100
AcDbCircle
 10
-589.3218728649
 20
1435.4408899938
 30
0.0
 40
1.35
  0
LINE
  5
296
330
1F
100
AcDbEntity
  8
1
  6
Continuous
 62
     7
370
     9
100
AcDbLine
 10
-586.0718728649
 20
1356.1908899869
 30
0.0
 11
-557.5718728649
 21
1356.1908899869
 31
0.0
  0
CIRCLE
  5
297
330
1F
100
AcDbEntity
  8
1
  6
Continuous
 62
     7
370
     9
100
AcDbCircle
 10
-708.3218728649
 20
1410.9408899934
 30
0.0
 40
1.35
  0
CIRCLE
  5
298
330
1F
100
AcDbEntity
  8
1
  6
Continuous
 62
     7
370
     9
100
AcDbCircle
 10
-708.3218728649
 20
1417.9408899934
 30
0.0
 40
1.35
  0
CIRCLE
  5
299
330
1F
100
AcDbEntity
  8
1
  6
Continuous
 62
     7
370
     9
100
AcDbCircle
 10
-708.3218728649
 20
1424.9408899934
 30
0.0
 40
1.35
  0
CIRCLE
  5
29A
330
1F
100
AcDbEntity
  8
1
  6
Continuous
 62
     7
370
     9
100
AcDbCircle
 10
-708.3218728649
 20
1512.4408899935
 30
0.0
 40
1.35
  0
CIRCLE
  5
29B
330
1F
100
AcDbEntity
  8
1
  6
Continuous
 62
     7
370
     9
100
AcDbCircle
 10
-599.8218728649
 20
1351.4408899937
 30
0.0
 40
1.35
  0
LINE
  5
29C
330
1F
100
AcDbEntity
  8
1
  6
Continuous
 62
     7
370
     9
100
AcDbLine
 10
-714.3218728645
 20
1230.5956505666
 30
0.0
 11
-714.1114981867
 21
1242.6480077859
 31
0.0
  0
CIRCLE
  5
29D
330
1F
100
AcDbEntity
  8
1
  6
Continuous
 62
     7
370
     9
100
AcDbCircle
 10
-708.3218728649
 20
1508.9408899935
 30
0.0
 40
1.35
  0
CIRCLE
  5
29E
330
1F
100
AcDbEntity
  8
1
  6
Continuous
 62
     7
370
     9
100
AcDbCircle
 10
-708.3218728649
 20
1501.9408899935
 30
0.0
 40
1.35
  0
CIRCLE
  5
29F
330
1F
100
AcDbEntity
  8
1
  6
Continuous
 62
     7
370
     9
100
AcDbCircle
 10
-708.3218728649
 20
1428.4408899934
 30
0.0
 40
1.35
  0
CIRCLE
  5
2A0
330
1F
100
AcDbEntity
  8
1
  6
Continuous
 62
     7
370
     9
100
AcDbCircle
 10
-708.3218728649
 20
1498.4408899935
 30
0.0
 40
1.35
  0
CIRCLE
  5
2A1
330
1F
100
AcDbEntity
  8
1
  6
Continuous
 62
     7
370
     9
100
AcDbCircle
 10
-708.3218728649
 20
1403.9408899934
 30
0.0
 40
1.35
  0
CIRCLE
  5
2A2
330
1F
100
AcDbEntity
  8
1
  6
Continuous
 62
     7
370
     9
100
AcDbCircle
 10
-592.8218728649
 20
1428.4408899937
 30
0.0
 40
1.35
  0
LINE
  5
2A3
330
1F
100
AcDbEntity
  8
1
  6
Continuous
 62
     7
370
     9
100
AcDbLine
 10
-714.3218728653
 20
1230.5956505666
 30
0.0
 11
-714.2346075103
 21
1220.5960313359
 31
0.0
  0
CIRCLE
  5
2A4
330
1F
100
AcDbEntity
  8
1
  6
Continuous
 62
     7
370
     9
100
AcDbCircle
 10
-708.3218728649
 20
1494.9408899935
 30
0.0
 40
1.35
  0
LINE
  5
2A5
330
1F
100
AcDbEntity
  8
1
  6
Continuous
 62
     7
370
     9
100
AcDbLine
 10
-363.6417019039
 20
1335.4408899937
 30
0.0
 11
-375.6940591232
 21
1335.6512646715
 31
0.0
  0
CIRCLE
  5
2A6
330
1F
100
AcDbEntity
  8
1
  6
Continuous
 62
     7
370
     9
100
AcDbCircle
 10
-596.3218728649
 20
1344.4408899937
 30
0.0
 40
1.35
  0
CIRCLE
  5
2A7
330
1F
100
AcDbEntity
  8
1
  6
Continuous
 62
     7
370
     9
100
AcDbCircle
 10
-592.8218728649
 20
1386.4408899933
 30
0.0
 40
1.35
  0
CIRCLE
  5
2A8
330
1F
100
AcDbEntity
  8
1
  6
Continuous
 62
     7
370
     9
100
AcDbCircle
 10
-592.8218728649
 20
1389.9408899933
 30
0.0
 40
1.35
  0
CIRCLE
  5
2A9
330
1F
100
AcDbEntity
  8
1
  6
Continuous
 62
     7
370
     9
100
AcDbCircle
 10
-585.8218728649
 20
1375.9408899933
 30
0.0
 40
1.35
  0
CIRCLE
  5
2AA
330
1F
100
AcDbEntity
  8
1
  6
Continuous
 62
     7
370
     9
100
AcDbCircle
 10
-585.8218728649
 20
1386.4408899933
 30
0.0
 40
1.35
  0
CIRCLE
  5
2AB
330
1F
100
AcDbEntity
  8
1
  6
Continuous
 62
     7
370
     9
100
AcDbCircle
 10
-592.8218728649
 20
1368.9408899933
 30
0.0
 40
1.35
  0
CIRCLE
  5
2AC
330
1F
100
AcDbEntity
  8
1
  6
Continuous
 62
     7
370
     9
100
AcDbCircle
 10
-592.8218728649
 20
1372.4408899933
 30
0.0
 40
1.35
  0
CIRCLE
  5
2AD
330
1F
100
AcDbEntity
  8
1
  6
Continuous
 62
     7
370
     9
100
AcDbCircle
 10
-592.8218728649
 20
1361.9408899933
 30
0.0
 40
1.35
  0
CIRCLE
  5
2AE
330
1F
100
AcDbEntity
  8
1
  6
Continuous
 62
     7
370
     9
100
AcDbCircle
 10
-708.3218728649
 20
1477.4408899935
 30
0.0
 40
1.35
  0
CIRCLE
  5
2AF
330
1F
100
AcDbEntity
  8
1
  6
Continuous
 62
     7
370
     9
100
AcDbCircle
 10
-585.8218728649
 20
1379.4408899933
 30
0.0
 40
1.35
  0
CIRCLE
  5
2B0
330
1F
100
AcDbEntity
  8
1
  6
Continuous
 62
     7
370
     9
100
AcDbCircle
 10
-585.8218728649
 20
1358.4408899933
 30
0.0
 40
1.35
  0
CIRCLE
  5
2B1
330
1F
100
AcDbEntity
  8
1
  6
Continuous
 62
     7
370
     9
100
AcDbCircle
 10
-585.8218728649
 20
1372.4408899933
 30
0.0
 40
1.35
  0
CIRCLE
  5
2B2
330
1F
100
AcDbEntity
  8
1
  6
Continuous
 62
     7
370
     9
100
AcDbCircle
 10
-585.8218728649
 20
1368.9408899933
 30
0.0
 40
1.35
  0
CIRCLE
  5
2B3
330
1F
100
AcDbEntity
  8
1
  6
Continuous
 62
     7
370
     9
100
AcDbCircle
 10
-585.8218728649
 20
1389.9408899933
 30
0.0
 40
1.35
  0
CIRCLE
  5
2B4
330
1F
100
AcDbEntity
  8
1
  6
Continuous
 62
     7
370
     9
100
AcDbCircle
 10
-585.8218728649
 20
1393.4408899933
 30
0.0
 40
1.35
  0
CIRCLE
  5
2B5
330
1F
100
AcDbEntity
  8
1
  6
Continuous
 62
     7
370
     9
100
AcDbCircle
 10
-585.8218728649
 20
1382.9408899933
 30
0.0
 40
1.35
  0
CIRCLE
  5
2B6
330
1F
100
AcDbEntity
  8
1
  6
Continuous
 62
     7
370
     9
100
AcDbCircle
 10
-585.8218728649
 20
1361.9408899933
 30
0.0
 40
1.35
  0
CIRCLE
  5
2B7
330
1F
100
AcDbEntity
  8
1
  6
Continuous
 62
     7
370
     9
100
AcDbCircle
 10
-592.8218728649
 20
1382.9408899933
 30
0.0
 40
1.35
  0
CIRCLE
  5
2B8
330
1F
100
AcDbEntity
  8
1
  6
Continuous
 62
     7
370
     9
100
AcDbCircle
 10
-585.8218728649
 20
1365.4408899933
 30
0.0
 40
1.35
  0
CIRCLE
  5
2B9
330
1F
100
AcDbEntity
  8
1
  6
Continuous
 62
     7
370
     9
100
AcDbCircle
 10
-708.3218728649
 20
1480.9408899935
 30
0.0
 40
1.35
  0
CIRCLE
  5
2BA
330
1F
100
AcDbEntity
  8
1
  6
Continuous
 62
     7
370
     9
100
AcDbCircle
 10
-592.8218728649
 20
1365.4408899933
 30
0.0
 40
1.35
  0
CIRCLE
  5
2BB
330
1F
100
AcDbEntity
  8
1
  6
Continuous
 62
     7
370
     9
100
AcDbCircle
 10
-592.8218728649
 20
1393.4408899933
 30
0.0
 40
1.35
  0
CIRCLE
  5
2BC
330
1F
100
AcDbEntity
  8
1
  6
Continuous
 62
     7
370
     9
100
AcDbCircle
 10
-592.8218728649
 20
1375.9408899933
 30
0.0
 40
1.35
  0
CIRCLE
  5
2BD
330
1F
100
AcDbEntity
  8
1
  6
Continuous
 62
     7
370
     9
100
AcDbCircle
 10
-592.8218728649
 20
1379.4408899933
 30
0.0
 40
1.35
  0
CIRCLE
  5
2BE
330
1F
100
AcDbEntity
  8
1
  6
Continuous
 62
     7
370
     9
100
AcDbCircle
 10
-592.8218728649
 20
1358.4408899933
 30
0.0
 40
1.35
  0
CIRCLE
  5
2BF
330
1F
100
AcDbEntity
  8
1
  6
Continuous
 62
     7
370
     9
100
AcDbCircle
 10
-473.8218728649
 20
1351.4408899937
 30
0.0
 40
1.35
  0
CIRCLE
  5
2C0
330
1F
100
AcDbEntity
  8
1
  6
Continuous
 62
     7
370
     9
100
AcDbCircle
 10
-470.3218728649
 20
1351.4408899937
 30
0.0
 40
1.35
  0
CIRCLE
  5
2C1
330
1F
100
AcDbEntity
  8
1
  6
Continuous
 62
     7
370
     9
100
AcDbCircle
 10
-470.3218728649
 20
1431.9408899937
 30
0.0
 40
1.35
  0
CIRCLE
  5
2C2
330
1F
100
AcDbEntity
  8
1
  6
Continuous
 62
     7
370
     9
100
AcDbCircle
 10
-575.3218728649
 20
1340.9408899937
 30
0.0
 40
1.35
  0
CIRCLE
  5
2C3
330
1F
100
AcDbEntity
  8
1
  6
Continuous
 62
     7
370
     9
100
AcDbCircle
 10
-561.3218728649
 20
1340.9408899937
 30
0.0
 40
1.35
  0
CIRCLE
  5
2C4
330
1F
100
AcDbEntity
  8
1
  6
Continuous
 62
     7
370
     9
100
AcDbCircle
 10
-480.8218728649
 20
1347.9408899937
 30
0.0
 40
1.35
  0
CIRCLE
  5
2C5
330
1F
100
AcDbEntity
  8
1
  6
Continuous
 62
     7
370
     9
100
AcDbCircle
 10
-470.3218728649
 20
1403.9408899937
 30
0.0
 40
1.35
  0
CIRCLE
  5
2C6
330
1F
100
AcDbEntity
  8
1
  6
Continuous
 62
     7
370
     9
100
AcDbCircle
 10
-582.3218728649
 20
1340.9408899937
 30
0.0
 40
1.35
  0
CIRCLE
  5
2C7
330
1F
100
AcDbEntity
  8
1
  6
Continuous
 62
     7
370
     9
100
AcDbCircle
 10
-470.3218728649
 20
1400.4408899937
 30
0.0
 40
1.35
  0
CIRCLE
  5
2C8
330
1F
100
AcDbEntity
  8
1
  6
Continuous
 62
     7
370
     9
100
AcDbCircle
 10
-470.3218728649
 20
1407.4408899937
 30
0.0
 40
1.35
  0
CIRCLE
  5
2C9
330
1F
100
AcDbEntity
  8
1
  6
Continuous
 62
     7
370
     9
100
AcDbCircle
 10
-557.8218728649
 20
1340.9408899937
 30
0.0
 40
1.35
  0
CIRCLE
  5
2CA
330
1F
100
AcDbEntity
  8
1
  6
Continuous
 62
     7
370
     9
100
AcDbCircle
 10
-585.8218728649
 20
1344.4408899937
 30
0.0
 40
1.35
  0
CIRCLE
  5
2CB
330
1F
100
AcDbEntity
  8
1
  6
Continuous
 62
     7
370
     9
100
AcDbCircle
 10
-582.3218728649
 20
1344.4408899937
 30
0.0
 40
1.35
  0
CIRCLE
  5
2CC
330
1F
100
AcDbEntity
  8
1
  6
Continuous
 62
     7
370
     9
100
AcDbCircle
 10
-578.8218728649
 20
1340.9408899937
 30
0.0
 40
1.35
  0
CIRCLE
  5
2CD
330
1F
100
AcDbEntity
  8
1
  6
Continuous
 62
     7
370
     9
100
AcDbCircle
 10
-470.3218728649
 20
1410.9408899937
 30
0.0
 40
1.35
  0
CIRCLE
  5
2CE
330
1F
100
AcDbEntity
  8
1
  6
Continuous
 62
     7
370
     9
100
AcDbCircle
 10
-470.3218728649
 20
1421.4408899937
 30
0.0
 40
1.35
  0
CIRCLE
  5
2CF
330
1F
100
AcDbEntity
  8
1
  6
Continuous
 62
     7
370
     9
100
AcDbCircle
 10
-578.8218728649
 20
1344.4408899937
 30
0.0
 40
1.35
  0
CIRCLE
  5
2D0
330
1F
100
AcDbEntity
  8
1
  6
Continuous
 62
     7
370
     9
100
AcDbCircle
 10
-480.8218728649
 20
1344.4408899937
 30
0.0
 40
1.35
  0
CIRCLE
  5
2D1
330
1F
100
AcDbEntity
  8
1
  6
Continuous
 62
     7
370
     9
100
AcDbCircle
 10
-585.8218728649
 20
1340.9408899937
 30
0.0
 40
1.35
  0
CIRCLE
  5
2D2
330
1F
100
AcDbEntity
  8
1
  6
Continuous
 62
     7
370
     9
100
AcDbCircle
 10
-564.8218728649
 20
1340.9408899937
 30
0.0
 40
1.35
  0
CIRCLE
  5
2D3
330
1F
100
AcDbEntity
  8
1
  6
Continuous
 62
     7
370
     9
100
AcDbCircle
 10
-575.3218728649
 20
1344.4408899937
 30
0.0
 40
1.35
  0
CIRCLE
  5
2D4
330
1F
100
AcDbEntity
  8
1
  6
Continuous
 62
     7
370
     9
100
AcDbCircle
 10
-470.3218728649
 20
1414.4408899937
 30
0.0
 40
1.35
  0
CIRCLE
  5
2D5
330
1F
100
AcDbEntity
  8
1
  6
Continuous
 62
     7
370
     9
100
AcDbCircle
 10
-568.3218728649
 20
1340.9408899937
 30
0.0
 40
1.35
  0
CIRCLE
  5
2D6
330
1F
100
AcDbEntity
  8
1
  6
Continuous
 62
     7
370
     9
100
AcDbCircle
 10
-470.3218728649
 20
1417.9408899937
 30
0.0
 40
1.35
  0
CIRCLE
  5
2D7
330
1F
100
AcDbEntity
  8
1
  6
Continuous
 62
     7
370
     9
100
AcDbCircle
 10
-470.3218728649
 20
1424.9408899937
 30
0.0
 40
1.35
  0
CIRCLE
  5
2D8
330
1F
100
AcDbEntity
  8
1
  6
Continuous
 62
     7
370
     9
100
AcDbCircle
 10
-477.3218728649
 20
1351.4408899937
 30
0.0
 40
1.35
  0
CIRCLE
  5
2D9
330
1F
100
AcDbEntity
  8
1
  6
Continuous
 62
     7
370
     9
100
AcDbCircle
 10
-470.3218728649
 20
1428.4408899937
 30
0.0
 40
1.35
  0
ENDSEC
  0
SECTION
  2
OBJECTS
  0
DICTIONARY
  5
C
330
0
100
AcDbDictionary
281
     1
  3
ACAD_DETAILVIEWSTYLE
350
2E1
  3
ACAD_GROUP
350
D
  3
ACAD_LAYOUT
350
1A
  3
ACAD_MATERIAL
350
43
  3
ACAD_MLEADERSTYLE
350
6B
  3
ACAD_MLINESTYLE
350
17
  3
ACAD_PLOTSETTINGS
350
19
  3
ACAD_PLOTSTYLENAME
350
E
  3
ACAD_SCALELIST
350
47
  3
ACAD_SECTIONVIEWSTYLE
350
2E2
  3
ACAD_TABLESTYLE
350
69
  3
ACAD_VISUALSTYLE
350
2A
  3
ACDB_RECOMPOSE_DATA
350
2DE
  3
AcDbVariableDictionary
350
2DA
  0
SUN
  5
6D
330
29
100
AcDbSun
 90
        1
290
     0
 63
     7
421
 16777215
 40
1.0
291
     1
 91
  2455826
 92
 54000000
292
     0
 70
     2
 71
   256
280
     1
  0
DICTIONARY
  5
2E1
102
{ACAD_REACTORS
330
C
102
}
330
C
100
AcDbDictionary
281
     1
  0
DICTIONARY
  5
D
102
{ACAD_REACTORS
330
C
102
}
330
C
100
AcDbDictionary
281
     1
  0
DICTIONARY
  5
1A
102
{ACAD_REACTORS
330
C
102
}
330
C
100
AcDbDictionary
281
     1
  3
Layout1
350
1E
  3
Layout2
350
26
  3
Model
350
22
  0
DICTIONARY
  5
43
102
{ACAD_REACTORS
330
C
102
}
330
C
100
AcDbDictionary
281
     1
  3
ByBlock
350
45
  3
ByLayer
350
44
  3
Global
350
46
  0
DICTIONARY
  5
6B
102
{ACAD_REACTORS
330
C
102
}
330
C
100
AcDbDictionary
281
     1
  3
Standard
350
6C
  0
DICTIONARY
  5
17
102
{ACAD_REACTORS
330
C
102
}
330
C
100
AcDbDictionary
281
     1
  3
Standard
350
18
  0
DICTIONARY
  5
19
102
{ACAD_REACTORS
330
C
102
}
330
C
100
AcDbDictionary
281
     1
  0
ACDBDICTIONARYWDFLT
  5
E
102
{ACAD_REACTORS
330
C
102
}
330
C
100
AcDbDictionary
281
     1
  3
Normal
350
F
100
AcDbDictionaryWithDefault
340
F
  0
DICTIONARY
  5
47
102
{ACAD_REACTORS
330
C
102
}
330
C
100
AcDbDictionary
281
     1
  3
A0
350
48
  3
A1
350
49
  3
A2
350
4A
  3
A3
350
4B
  3
A4
350
4C
  3
A5
350
4D
  3
A6
350
4E
  3
A7
350
4F
  3
A8
350
50
  3
A9
350
51
  3
B0
350
52
  3
B1
350
53
  3
B2
350
54
  3
B3
350
55
  3
B4
350
56
  3
B5
350
57
  3
B6
350
58
  3
B7
350
59
  3
B8
350
5A
  3
B9
350
5B
  3
C0
350
5C
  3
C1
350
5D
  3
C2
350
5E
  3
C3
350
5F
  3
C4
350
60
  3
C5
350
61
  3
C6
350
62
  3
C7
350
63
  3
C8
350
64
  3
C9
350
65
  3
D0
350
66
  3
D1
350
67
  3
D2
350
68
  0
DICTIONARY
  5
2E2
102
{ACAD_REACTORS
330
C
102
}
330
C
100
AcDbDictionary
281
     1
  0
DICTIONARY
  5
69
102
{ACAD_REACTORS
330
C
102
}
330
C
100
AcDbDictionary
281
     1
  3
Standard
350
6A
  0
DICTIONARY
  5
2A
102
{ACAD_REACTORS
330
C
102
}
330
C
100
AcDbDictionary
281
     1
  3
2dWireframe
350
2F
  3
Basic
350
32
  3
Brighten
350
36
  3
ColorChange
350
3A
  3
Conceptual
350
34
  3
Dim
350
35
  3
EdgeColorOff
350
3D
  3
Facepattern
350
39
  3
Flat
350
2B
  3
FlatWithEdges
350
2C
  3
Gouraud
350
2D
  3
GouraudWithEdges
350
2E
  3
Hidden
350
31
  3
JitterOff
350
3B
  3
Linepattern
350
38
  3
OverhangOff
350
3C
  3
Realistic
350
33
  3
Shaded
350
42
  3
Shaded with edges
350
41
  3
Shades of Gray
350
3E
  3
Sketchy
350
3F
  3
Thicken
350
37
  3
Wireframe
350
30
  3
X-Ray
350
40
  0
XRECORD
  5
2DE
102
{ACAD_REACTORS
330
C
102
}
330
C
100
AcDbXrecord
280
     1
 90
        1
330
6A
  0
DICTIONARY
  5
2DA
102
{ACAD_REACTORS
330
C
102
}
330
C
100
AcDbDictionary
281
     1
  3
CANNOSCALE
350
2DB
  3
CMLEADERSTYLE
350
2E0
  3
CTABLESTYLE
350
2DF
  0
LAYOUT
  5
1E
102
{ACAD_REACTORS
330
1A
102
}
330
1A
100
AcDbPlotSettings
  1

  2
none_device
  4

  6

 40
0.0
 41
0.0
 42
0.0
 43
0.0
 44
0.0
 45
0.0
 46
0.0
 47
0.0
 48
0.0
 49
0.0
140
0.0
141
0.0
142
1.0
143
1.0
 70
   688
 72
     0
 73
     0
 74
     5
  7

 75
    16
 76
     0
 77
     2
 78
   300
147
1.0
148
0.0
149
0.0
100
AcDbLayout
  1
Layout1
 70
     1
 71
     1
 10
0.0
 20
0.0
 11
12.0
 21
9.0
 12
0.0
 22
0.0
 32
0.0
 14
1.000000000000000E+20
 24
1.000000000000000E+20
 34
1.000000000000000E+20
 15
-1.000000000000000E+20
 25
-1.000000000000000E+20
 35
-1.000000000000000E+20
146
0.0
 13
0.0
 23
0.0
 33
0.0
 16
1.0
 26
0.0
 36
0.0
 17
0.0
 27
1.0
 37
0.0
 76
     0
330
1B
  0
LAYOUT
  5
26
102
{ACAD_REACTORS
330
1A
102
}
330
1A
100
AcDbPlotSettings
  1

  2
none_device
  4

  6

 40
0.0
 41
0.0
 42
0.0
 43
0.0
 44
0.0
 45
0.0
 46
0.0
 47
0.0
 48
0.0
 49
0.0
140
0.0
141
0.0
142
1.0
143
1.0
 70
   688
 72
     0
 73
     0
 74
     5
  7

 75
    16
 76
     0
 77
     2
 78
   300
147
1.0
148
0.0
149
0.0
100
AcDbLayout
  1
Layout2
 70
     1
 71
     2
 10
0.0
 20
0.0
 11
0.0
 21
0.0
 12
0.0
 22
0.0
 32
0.0
 14
0.0
 24
0.0
 34
0.0
 15
0.0
 25
0.0
 35
0.0
146
0.0
 13
0.0
 23
0.0
 33
0.0
 16
1.0
 26
0.0
 36
0.0
 17
0.0
 27
1.0
 37
0.0
 76
     0
330
23
  0
LAYOUT
  5
22
102
{ACAD_REACTORS
330
1A
102
}
330
1A
100
AcDbPlotSettings
  1

  2
none_device
  4
Letter_(8.50_x_11.00_Inches)
  6

 40
6.35
 41
6.35
 42
6.35000508
 43
6.35000508
 44
215.9
 45
279.4
 46
0.0
 47
0.0
 48
0.0
 49
0.0
140
0.0
141
0.0
142
1.0
143
1.0
 70
  1712
 72
     0
 73
     0
 74
     0
  7

 75
     0
 76
     0
 77
     2
 78
   300
147
1.0
148
0.0
149
0.0
100
AcDbLayout
  1
Model
 70
     1
 71
     0
 10
0.0
 20
0.0
 11
12.0
 21
9.0
 12
0.0
 22
0.0
 32
0.0
 14
-714.3218728653
 24
1218.9339685768
 34
0.0
 15
-349.1515058239
 25
1535.4408900744
 35
0.0
146
0.0
 13
0.0
 23
0.0
 33
0.0
 16
1.0
 26
0.0
 36
0.0
 17
0.0
 27
1.0
 37
0.0
 76
     0
330
1F
331
29
  0
MATERIAL
  5
45
102
{ACAD_REACTORS
330
43
102
}
330
43
100
AcDbMaterial
  1
ByBlock
 72
     1
 94
      127
  0
MATERIAL
  5
44
102
{ACAD_REACTORS
330
43
102
}
330
43
100
AcDbMaterial
  1
ByLayer
 72
     1
 94
      127
  0
MATERIAL
  5
46
102
{ACAD_REACTORS
330
43
102
}
330
43
100
AcDbMaterial
  1
Global
 72
     1
 94
      127
  0
MLEADERSTYLE
  5
6C
102
{ACAD_REACTORS
330
6B
102
}
330
6B
100
AcDbMLeaderStyle
179
     2
170
     2
171
     1
172
     0
 90
        2
 40
0.0
 41
0.0
173
     1
 91
-1056964608
340
14
 92
       -2
290
     1
 42
0.09
291
     1
 43
0.36
  3
Standard
341
0
 44
0.18
300

342
11
174
     1
178
     6
175
     1
176
     0
 93
-1056964608
 45
0.18
292
     0
297
     0
 46
0.18
343
0
 94
-1056964608
 47
1.0
 49
1.0
140
1.0
293
     1
141
0.0
294
     1
177
     0
142
1.0
295
     0
296
     0
143
0.125
271
     0
272
     9
273
     9
298
     0
  0
MLINESTYLE
  5
18
102
{ACAD_REACTORS
330
17
102
}
330
17
100
AcDbMlineStyle
  2
Standard
 70
     0
  3

 62
   256
 51
90.0
 52
90.0
 71
     2
 49
0.5
 62
   256
  6
BYLAYER
 49
-0.5
 62
   256
  6
BYLAYER
  0
ACDBPLACEHOLDER
  5
F
102
{ACAD_REACTORS
330
E
102
}
330
E
  0
SCALE
  5
48
102
{ACAD_REACTORS
330
47
102
}
330
47
100
AcDbScale
 70
     0
300
1:1
140
1.0
141
1.0
290
     1
  0
SCALE
  5
49
102
{ACAD_REACTORS
330
47
102
}
330
47
100
AcDbScale
 70
     0
300
1:2
140
1.0
141
2.0
290
     0
  0
SCALE
  5
4A
102
{ACAD_REACTORS
330
47
102
}
330
47
100
AcDbScale
 70
     0
300
1:4
140
1.0
141
4.0
290
     0
  0
SCALE
  5
4B
102
{ACAD_REACTORS
330
47
102
}
330
47
100
AcDbScale
 70
     0
300
1:5
140
1.0
141
5.0
290
     0
  0
SCALE
  5
4C
102
{ACAD_REACTORS
330
47
102
}
330
47
100
AcDbScale
 70
     0
300
1:8
140
1.0
141
8.0
290
     0
  0
SCALE
  5
4D
102
{ACAD_REACTORS
330
47
102
}
330
47
100
AcDbScale
 70
     0
300
1:10
140
1.0
141
10.0
290
     0
  0
SCALE
  5
4E
102
{ACAD_REACTORS
330
47
102
}
330
47
100
AcDbScale
 70
     0
300
1:16
140
1.0
141
16.0
290
     0
  0
SCALE
  5
4F
102
{ACAD_REACTORS
330
47
102
}
330
47
100
AcDbScale
 70
     0
300
1:20
140
1.0
141
20.0
290
     0
  0
SCALE
  5
50
102
{ACAD_REACTORS
330
47
102
}
330
47
100
AcDbScale
 70
     0
300
1:30
140
1.0
141
30.0
290
     0
  0
SCALE
  5
51
102
{ACAD_REACTORS
330
47
102
}
330
47
100
AcDbScale
 70
     0
300
1:40
140
1.0
141
40.0
290
     0
  0
SCALE
  5
52
102
{ACAD_REACTORS
330
47
102
}
330
47
100
AcDbScale
 70
     0
300
1:50
140
1.0
141
50.0
290
     0
  0
SCALE
  5
53
102
{ACAD_REACTORS
330
47
102
}
330
47
100
AcDbScale
 70
     0
300
1:100
140
1.0
141
100.0
290
     0
  0
SCALE
  5
54
102
{ACAD_REACTORS
330
47
102
}
330
47
100
AcDbScale
 70
     0
300
2:1
140
2.0
141
1.0
290
     0
  0
SCALE
  5
55
102
{ACAD_REACTORS
330
47
102
}
330
47
100
AcDbScale
 70
     0
300
4:1
140
4.0
141
1.0
290
     0
  0
SCALE
  5
56
102
{ACAD_REACTORS
330
47
102
}
330
47
100
AcDbScale
 70
     0
300
8:1
140
8.0
141
1.0
290
     0
  0
SCALE
  5
57
102
{ACAD_REACTORS
330
47
102
}
330
47
100
AcDbScale
 70
     0
300
10:1
140
10.0
141
1.0
290
     0
  0
SCALE
  5
58
102
{ACAD_REACTORS
330
47
102
}
330
47
100
AcDbScale
 70
     0
300
100:1
140
100.0
141
1.0
290
     0
  0
SCALE
  5
59
102
{ACAD_REACTORS
330
47
102
}
330
47
100
AcDbScale
 70
     0
300
1/128" = 1'-0"
140
0.0078125
141
12.0
290
     0
  0
SCALE
  5
5A
102
{ACAD_REACTORS
330
47
102
}
330
47
100
AcDbScale
 70
     0
300
1/64" = 1'-0"
140
0.015625
141
12.0
290
     0
  0
SCALE
  5
5B
102
{ACAD_REACTORS
330
47
102
}
330
47
100
AcDbScale
 70
     0
300
1/32" = 1'-0"
140
0.03125
141
12.0
290
     0
  0
SCALE
  5
5C
102
{ACAD_REACTORS
330
47
102
}
330
47
100
AcDbScale
 70
     0
300
1/16" = 1'-0"
140
0.0625
141
12.0
290
     0
  0
SCALE
  5
5D
102
{ACAD_REACTORS
330
47
102
}
330
47
100
AcDbScale
 70
     0
300
3/32" = 1'-0"
140
0.09375
141
12.0
290
     0
  0
SCALE
  5
5E
102
{ACAD_REACTORS
330
47
102
}
330
47
100
AcDbScale
 70
     0
300
1/8" = 1'-0"
140
0.125
141
12.0
290
     0
  0
SCALE
  5
5F
102
{ACAD_REACTORS
330
47
102
}
330
47
100
AcDbScale
 70
     0
300
3/16" = 1'-0"
140
0.1875
141
12.0
290
     0
  0
SCALE
  5
60
102
{ACAD_REACTORS
330
47
102
}
330
47
100
AcDbScale
 70
     0
300
1/4" = 1'-0"
140
0.25
141
12.0
290
     0
  0
SCALE
  5
61
102
{ACAD_REACTORS
330
47
102
}
330
47
100
AcDbScale
 70
     0
300
3/8" = 1'-0"
140
0.375
141
12.0
290
     0
  0
SCALE
  5
62
102
{ACAD_REACTORS
330
47
102
}
330
47
100
AcDbScale
 70
     0
300
1/2" = 1'-0"
140
0.5
141
12.0
290
     0
  0
SCALE
  5
63
102
{ACAD_REACTORS
330
47
102
}
330
47
100
AcDbScale
 70
     0
300
3/4" = 1'-0"
140
0.75
141
12.0
290
     0
  0
SCALE
  5
64
102
{ACAD_REACTORS
330
47
102
}
330
47
100
AcDbScale
 70
     0
300
1" = 1'-0"
140
1.0
141
12.0
290
     0
  0
SCALE
  5
65
102
{ACAD_REACTORS
330
47
102
}
330
47
100
AcDbScale
 70
     0
300
1-1/2" = 1'-0"
140
1.5
141
12.0
290
     0
  0
SCALE
  5
66
102
{ACAD_REACTORS
330
47
102
}
330
47
100
AcDbScale
 70
     0
300
3" = 1'-0"
140
3.0
141
12.0
290
     0
  0
SCALE
  5
67
102
{ACAD_REACTORS
330
47
102
}
330
47
100
AcDbScale
 70
     0
300
6" = 1'-0"
140
6.0
141
12.0
290
     0
  0
SCALE
  5
68
102
{ACAD_REACTORS
330
47
102
}
330
47
100
AcDbScale
 70
     0
300
1'-0" = 1'-0"
140
12.0
141
12.0
290
     0
  0
TABLESTYLE
  5
6A
102
{ACAD_REACTORS
330
69
102
}
102
{ACAD_XDICTIONARY
360
2DC
102
}
330
69
100
AcDbTableStyle
  3
Standard
 70
     0
 71
     0
 40
0.06
 41
0.06
280
     0
281
     0
  7
Standard
140
0.18
170
     2
 62
     0
 63
   257
283
     0
 90
        4
 91
        0
  1

274
    -2
284
     1
 64
     0
275
    -2
285
     1
 65
     0
276
    -2
286
     1
 66
     0
277
    -2
287
     1
 67
     0
278
    -2
288
     1
 68
     0
279
    -2
289
     1
 69
     0
  7
Standard
140
0.25
170
     5
 62
     0
 63
   257
283
     0
 90
        4
 91
        0
  1

274
    -2
284
     1
 64
     0
275
    -2
285
     1
 65
     0
276
    -2
286
     1
 66
     0
277
    -2
287
     1
 67
     0
278
    -2
288
     1
 68
     0
279
    -2
289
     1
 69
     0
  7
Standard
140
0.18
170
     5
 62
     0
 63
   257
283
     0
 90
        4
 91
        0
  1

274
    -2
284
     1
 64
     0
275
    -2
285
     1
 65
     0
276
    -2
286
     1
 66
     0
277
    -2
287
     1
 67
     0
278
    -2
288
     1
 68
     0
279
    -2
289
     1
 69
     0
  0
VISUALSTYLE
  5
2F
102
{ACAD_REACTORS
330
2A
102
}
330
2A
100
AcDbVisualStyle
  2
2dWireframe
 70
     4
177
     3
291
     0
 70
    58
 90
        0
176
     1
 90
        2
176
     1
 90
        0
176
     1
 90
        0
176
     1
 40
0.6
176
     1
 40
30.0
176
     1
 62
     7
420
 16777215
176
     1
 90
        1
176
     1
 90
        4
176
     1
 62
     7
176
     1
 62
   257
176
     1
 90
        1
176
     1
 90
        1
176
     1
 40
1.0
176
     1
 90
        0
176
     1
 62
   257
176
     1
 40
1.0
176
     1
 90
        1
176
     1
 90
        6
176
     1
 90
        2
176
     1
 62
     7
176
     1
 90
        5
176
     1
 90
        0
176
     1
 90
        0
176
     1
290
     0
176
     1
 90
        1
176
     1
 40
0.0
176
     1
 90
        0
176
     1
290
     1
176
     1
290
     1
176
     1
290
     0
176
     1
290
     0
176
     1
290
     0
176
     1
290
     0
176
     1
290
     0
176
     1
290
     0
176
     1
290
     0
176
     1
 90
       50
176
     1
 40
0.0
176
     1
 40
1.0
176
     1
 90
        0
176
     1
 62
    18
420
        0
176
     1
 90
       50
176
     1
 90
        3
176
     1
 62
     5
420
      255
176
     1
290
     0
176
     1
 90
       50
176
     1
 90
       50
176
     1
 90
       50
176
     1
290
     0
176
     1
 90
       50
176
     1
 62
   256
176
     0
 40
1.0
176
     0
 90
        2
176
     1
  1
strokes_ogs.tif
176
     1
290
     0
176
     1
 40
1.0
176
     1
 40
1.0
176
     1
  0
VISUALSTYLE
  5
32
102
{ACAD_REACTORS
330
2A
102
}
330
2A
100
AcDbVisualStyle
  2
Basic
 70
     7
177
     3
291
     1
 70
    58
 90
        1
176
     1
 90
        0
176
     1
 90
        1
176
     1
 90
        0
176
     1
 40
0.6
176
     1
 40
30.0
176
     1
 62
     7
420
 16777215
176
     1
 90
        0
176
     1
 90
        4
176
     1
 62
     7
176
     1
 62
   257
176
     1
 90
        1
176
     1
 90
        1
176
     1
 40
1.0
176
     1
 90
        8
176
     1
 62
     7
176
     1
 40
1.0
176
     1
 90
        1
176
     1
 90
        6
176
     1
 90
        2
176
     1
 62
     7
176
     1
 90
        5
176
     1
 90
        0
176
     1
 90
        0
176
     1
290
     0
176
     1
 90
        1
176
     1
 40
0.0
176
     1
 90
        0
176
     1
290
     0
176
     1
290
     1
176
     1
290
     1
176
     1
290
     0
176
     1
290
     0
176
     1
290
     0
176
     1
290
     0
176
     1
290
     0
176
     1
290
     0
176
     1
 90
       50
176
     1
 40
0.0
176
     1
 40
1.0
176
     1
 90
        0
176
     1
 62
    18
420
        0
176
     1
 90
       50
176
     1
 90
        3
176
     1
 62
     5
420
      255
176
     1
290
     0
176
     1
 90
       50
176
     1
 90
       50
176
     1
 90
       50
176
     1
290
     0
176
     1
 90
       50
176
     1
 62
   256
176
     0
 40
1.0
176
     0
 90
        2
176
     1
  1
strokes_ogs.tif
176
     1
290
     0
176
     1
 40
1.0
176
     1
 40
1.0
176
     1
  0
VISUALSTYLE
  5
36
102
{ACAD_REACTORS
330
2A
102
}
330
2A
100
AcDbVisualStyle
  2
Brighten
 70
    12
177
     3
291
     1
 70
    58
 90
        2
176
     1
 90
        2
176
     1
 90
        0
176
     1
 90
        0
176
     1
 40
0.6
176
     1
 40
30.0
176
     1
 62
     7
420
 16777215
176
     1
 90
        1
176
     1
 90
        4
176
     1
 62
     7
176
     1
 62
   257
176
     1
 90
        1
176
     1
 90
        1
176
     1
 40
1.0
176
     1
 90
        8
176
     1
 62
     7
176
     1
 40
1.0
176
     1
 90
        1
176
     1
 90
        6
176
     1
 90
        2
176
     1
 62
     7
176
     1
 90
        5
176
     1
 90
        0
176
     1
 90
        0
176
     1
290
     0
176
     1
 90
        1
176
     1
 40
50.0
176
     1
 90
        0
176
     1
290
     0
176
     1
290
     1
176
     1
290
     1
176
     1
290
     0
176
     1
290
     0
176
     1
290
     0
176
     1
290
     0
176
     1
290
     0
176
     1
290
     0
176
     1
 90
       50
176
     1
 40
0.0
176
     1
 40
1.0
176
     1
 90
        0
176
     1
 62
    18
420
        0
176
     1
 90
       50
176
     1
 90
        3
176
     1
 62
     5
420
      255
176
     1
290
     0
176
     1
 90
       50
176
     1
 90
       50
176
     1
 90
       50
176
     1
290
     0
176
     1
 90
       50
176
     1
 62
   256
176
     0
 40
1.0
176
     0
 90
        2
176
     1
  1
strokes_ogs.tif
176
     1
290
     0
176
     1
 40
1.0
176
     1
 40
1.0
176
     1
  0
VISUALSTYLE
  5
3A
102
{ACAD_REACTORS
330
2A
102
}
330
2A
100
AcDbVisualStyle
  2
ColorChange
 70
    16
177
     3
291
     1
 70
    58
 90
        2
176
     1
 90
        2
176
     1
 90
        3
176
     1
 90
        0
176
     1
 40
0.6
176
     1
 40
30.0
176
     1
 62
     8
420
  8421504
176
     1
 90
        1
176
     1
 90
        4
176
     1
 62
     7
176
     1
 62
   257
176
     1
 90
        1
176
     1
 90
        1
176
     1
 40
1.0
176
     1
 90
        8
176
     1
 62
     8
420
  8421504
176
     1
 40
1.0
176
     1
 90
        1
176
     1
 90
        6
176
     1
 90
        2
176
     1
 62
     7
176
     1
 90
        5
176
     1
 90
        0
176
     1
 90
        0
176
     1
290
     0
176
     1
 90
        1
176
     1
 40
0.0
176
     1
 90
        0
176
     1
290
     0
176
     1
290
     1
176
     1
290
     1
176
     1
290
     0
176
     1
290
     0
176
     1
290
     0
176
     1
290
     0
176
     1
290
     0
176
     1
290
     0
176
     1
 90
       50
176
     1
 40
0.0
176
     1
 40
1.0
176
     1
 90
        0
176
     1
 62
    18
420
        0
176
     1
 90
       50
176
     1
 90
        3
176
     1
 62
     5
420
      255
176
     1
290
     0
176
     1
 90
       50
176
     1
 90
       50
176
     1
 90
       50
176
     1
290
     0
176
     1
 90
       50
176
     1
 62
   256
176
     0
 40
1.0
176
     0
 90
        2
176
     1
  1
strokes_ogs.tif
176
     1
290
     0
176
     1
 40
1.0
176
     1
 40
1.0
176
     1
  0
VISUALSTYLE
  5
34
102
{ACAD_REACTORS
330
2A
102
}
330
2A
100
AcDbVisualStyle
  2
Conceptual
 70
     9
177
     3
291
     0
 70
    58
 90
        3
176
     1
 90
        2
176
     1
 90
        0
176
     1
 90
        0
176
     1
 40
0.6
176
     1
 40
30.0
176
     1
 62
     7
420
 16777215
176
     1
 90
        2
176
     1
 90
        2
176
     1
 62
     7
176
     1
 62
   257
176
     1
 90
        1
176
     1
 90
        1
176
     1
 40
179.0
176
     1
 90
        8
176
     1
 62
     7
176
     1
 40
1.0
176
     1
 90
        1
176
     1
 90
        6
176
     1
 90
        2
176
     1
 62
     7
176
     1
 90
        3
176
     1
 90
        0
176
     1
 90
        0
176
     1
290
     0
176
     1
 90
        1
176
     1
 40
0.0
176
     1
 90
        0
176
     1
290
     0
176
     1
290
     1
176
     1
290
     1
176
     1
290
     0
176
     1
290
     0
176
     1
290
     0
176
     1
290
     0
176
     1
290
     0
176
     1
290
     0
176
     1
 90
       50
176
     1
 40
0.0
176
     1
 40
1.0
176
     1
 90
        0
176
     1
 62
    18
420
        0
176
     1
 90
       50
176
     1
 90
        3
176
     1
 62
     5
420
      255
176
     1
290
     0
176
     1
 90
       50
176
     1
 90
       50
176
     1
 90
       50
176
     1
290
     0
176
     1
 90
       50
176
     1
 62
   256
176
     0
 40
1.0
176
     0
 90
        2
176
     1
  1
strokes_ogs.tif
176
     1
290
     0
176
     1
 40
1.0
176
     1
 40
1.0
176
     1
  0
VISUALSTYLE
  5
35
102
{ACAD_REACTORS
330
2A
102
}
330
2A
100
AcDbVisualStyle
  2
Dim
 70
    11
177
     3
291
     1
 70
    58
 90
        2
176
     1
 90
        2
176
     1
 90
        0
176
     1
 90
        0
176
     1
 40
0.6
176
     1
 40
30.0
176
     1
 62
     7
420
 16777215
176
     1
 90
        1
176
     1
 90
        4
176
     1
 62
     7
176
     1
 62
   257
176
     1
 90
        1
176
     1
 90
        1
176
     1
 40
1.0
176
     1
 90
        8
176
     1
 62
     7
176
     1
 40
1.0
176
     1
 90
        1
176
     1
 90
        6
176
     1
 90
        2
176
     1
 62
     7
176
     1
 90
        5
176
     1
 90
        0
176
     1
 90
        0
176
     1
290
     0
176
     1
 90
        1
176
     1
 40
-50.0
176
     1
 90
        0
176
     1
290
     0
176
     1
290
     1
176
     1
290
     1
176
     1
290
     0
176
     1
290
     0
176
     1
290
     0
176
     1
290
     0
176
     1
290
     0
176
     1
290
     0
176
     1
 90
       50
176
     1
 40
0.0
176
     1
 40
1.0
176
     1
 90
        0
176
     1
 62
    18
420
        0
176
     1
 90
       50
176
     1
 90
        3
176
     1
 62
     5
420
      255
176
     1
290
     0
176
     1
 90
       50
176
     1
 90
       50
176
     1
 90
       50
176
     1
290
     0
176
     1
 90
       50
176
     1
 62
   256
176
     0
 40
1.0
176
     0
 90
        2
176
     1
  1
strokes_ogs.tif
176
     1
290
     0
176
     1
 40
1.0
176
     1
 40
1.0
176
     1
  0
VISUALSTYLE
  5
3D
102
{ACAD_REACTORS
330
2A
102
}
330
2A
100
AcDbVisualStyle
  2
EdgeColorOff
 70
    22
177
     3
291
     1
 70
    58
 90
        2
176
     0
 90
        2
176
     0
 90
        0
176
     0
 90
        0
176
     0
 40
0.6
176
     0
 40
30.0
176
     0
 62
     7
420
 16777215
176
     0
 90
        1
176
     0
 90
        4
176
     0
 62
     7
176
     0
 62
   257
176
     0
 90
        1
176
     0
 90
        1
176
     0
 40
1.0
176
     0
 90
        8
176
     2
 62
     7
176
     0
 40
1.0
176
     0
 90
        1
176
     0
 90
        6
176
     0
 90
        2
176
     0
 62
     7
176
     0
 90
        5
176
     0
 90
        0
176
     0
 90
        0
176
     0
290
     0
176
     0
 90
        1
176
     0
 40
0.0
176
     0
 90
        0
176
     0
290
     0
176
     0
290
     1
176
     0
290
     1
176
     0
290
     0
176
     0
290
     0
176
     0
290
     0
176
     0
290
     0
176
     0
290
     0
176
     0
290
     0
176
     0
 90
       50
176
     0
 40
0.0
176
     0
 40
1.0
176
     0
 90
        0
176
     0
 62
    18
420
        0
176
     0
 90
       50
176
     0
 90
        3
176
     0
 62
     5
420
      255
176
     0
290
     0
176
     0
 90
       50
176
     0
 90
       50
176
     0
 90
       50
176
     0
290
     0
176
     0
 90
       50
176
     0
 62
   256
176
     0
 40
1.0
176
     0
 90
        2
176
     0
  1
strokes_ogs.tif
176
     0
290
     0
176
     0
 40
1.0
176
     0
 40
1.0
176
     0
  0
VISUALSTYLE
  5
39
102
{ACAD_REACTORS
330
2A
102
}
330
2A
100
AcDbVisualStyle
  2
Facepattern
 70
    15
177
     3
291
     1
 70
    58
 90
        2
176
     1
 90
        2
176
     1
 90
        0
176
     1
 90
        0
176
     1
 40
0.6
176
     1
 40
30.0
176
     1
 62
     7
420
 16777215
176
     1
 90
        1
176
     1
 90
        4
176
     1
 62
     7
176
     1
 62
   257
176
     1
 90
        1
176
     1
 90
        1
176
     1
 40
1.0
176
     1
 90
        8
176
     1
 62
     7
176
     1
 40
1.0
176
     1
 90
        1
176
     1
 90
        6
176
     1
 90
        2
176
     1
 62
     7
176
     1
 90
        5
176
     1
 90
        0
176
     1
 90
        0
176
     1
290
     0
176
     1
 90
        1
176
     1
 40
0.0
176
     1
 90
        0
176
     1
290
     0
176
     1
290
     1
176
     1
290
     1
176
     1
290
     0
176
     1
290
     0
176
     1
290
     0
176
     1
290
     0
176
     1
290
     0
176
     1
290
     0
176
     1
 90
       50
176
     1
 40
0.0
176
     1
 40
1.0
176
     1
 90
        0
176
     1
 62
    18
420
        0
176
     1
 90
       50
176
     1
 90
        3
176
     1
 62
     5
420
      255
176
     1
290
     0
176
     1
 90
       50
176
     1
 90
       50
176
     1
 90
       50
176
     1
290
     0
176
     1
 90
       50
176
     1
 62
   256
176
     0
 40
1.0
176
     0
 90
        2
176
     1
  1
strokes_ogs.tif
176
     1
290
     0
176
     1
 40
1.0
176
     1
 40
1.0
176
     1
  0
VISUALSTYLE
  5
2B
102
{ACAD_REACTORS
330
2A
102
}
330
2A
100
AcDbVisualStyle
  2
Flat
 70
     0
177
     3
291
     1
 70
    58
 90
        2
176
     1
 90
        1
176
     1
 90
        1
176
     1
 90
        2
176
     1
 40
0.6
176
     1
 40
30.0
176
     1
 62
     7
420
 16777215
176
     1
 90
        0
176
     1
 90
        0
176
     1
 62
     7
176
     1
 62
   257
176
     1
 90
        1
176
     1
 90
        1
176
     1
 40
1.0
176
     1
 90
        8
176
     1
 62
     7
176
     1
 40
1.0
176
     1
 90
        1
176
     1
 90
        6
176
     1
 90
        2
176
     1
 62
     7
176
     1
 90
        5
176
     1
 90
        0
176
     1
 90
        0
176
     1
290
     0
176
     1
 90
       13
176
     1
 40
0.0
176
     1
 90
        0
176
     1
290
     0
176
     1
290
     1
176
     1
290
     1
176
     1
290
     0
176
     1
290
     0
176
     1
290
     0
176
     1
290
     0
176
     1
290
     0
176
     1
290
     0
176
     1
 90
       50
176
     1
 40
0.0
176
     1
 40
1.0
176
     1
 90
        0
176
     1
 62
    18
420
        0
176
     1
 90
       50
176
     1
 90
        3
176
     1
 62
     5
420
      255
176
     1
290
     0
176
     1
 90
       50
176
     1
 90
       50
176
     1
 90
       50
176
     1
290
     0
176
     1
 90
       50
176
     1
 62
   256
176
     0
 40
1.0
176
     0
 90
        2
176
     1
  1
strokes_ogs.tif
176
     1
290
     0
176
     1
 40
1.0
176
     1
 40
1.0
176
     1
  0
VISUALSTYLE
  5
2C
102
{ACAD_REACTORS
330
2A
102
}
330
2A
100
AcDbVisualStyle
  2
FlatWithEdges
 70
     1
177
     3
291
     1
 70
    58
 90
        2
176
     1
 90
        1
176
     1
 90
        1
176
     1
 90
        2
176
     1
 40
0.6
176
     1
 40
30.0
176
     1
 62
     7
420
 16777215
176
     1
 90
        1
176
     1
 90
        0
176
     1
 62
     7
176
     1
 62
   257
176
     1
 90
        1
176
     1
 90
        1
176
     1
 40
1.0
176
     1
 90
        0
176
     1
 62
   257
176
     1
 40
1.0
176
     1
 90
        1
176
     1
 90
        6
176
     1
 90
        2
176
     1
 62
     7
176
     1
 90
        5
176
     1
 90
        0
176
     1
 90
        0
176
     1
290
     0
176
     1
 90
       13
176
     1
 40
0.0
176
     1
 90
        0
176
     1
290
     0
176
     1
290
     1
176
     1
290
     1
176
     1
290
     0
176
     1
290
     0
176
     1
290
     0
176
     1
290
     0
176
     1
290
     0
176
     1
290
     0
176
     1
 90
       50
176
     1
 40
0.0
176
     1
 40
1.0
176
     1
 90
        0
176
     1
 62
    18
420
        0
176
     1
 90
       50
176
     1
 90
        3
176
     1
 62
     5
420
      255
176
     1
290
     0
176
     1
 90
       50
176
     1
 90
       50
176
     1
 90
       50
176
     1
290
     0
176
     1
 90
       50
176
     1
 62
   256
176
     0
 40
1.0
176
     0
 90
        2
176
     1
  1
strokes_ogs.tif
176
     1
290
     0
176
     1
 40
1.0
176
     1
 40
1.0
176
     1
  0
VISUALSTYLE
  5
2D
102
{ACAD_REACTORS
330
2A
102
}
330
2A
100
AcDbVisualStyle
  2
Gouraud
 70
     2
177
     3
291
     1
 70
    58
 90
        2
176
     1
 90
        2
176
     1
 90
        1
176
     1
 90
        2
176
     1
 40
0.6
176
     1
 40
30.0
176
     1
 62
     7
420
 16777215
176
     1
 90
        0
176
     1
 90
        0
176
     1
 62
     7
176
     1
 62
   257
176
     1
 90
        1
176
     1
 90
        1
176
     1
 40
1.0
176
     1
 90
        0
176
     1
 62
     7
176
     1
 40
1.0
176
     1
 90
        1
176
     1
 90
        6
176
     1
 90
        2
176
     1
 62
     7
176
     1
 90
        5
176
     1
 90
        0
176
     1
 90
        0
176
     1
290
     0
176
     1
 90
       13
176
     1
 40
0.0
176
     1
 90
        0
176
     1
290
     0
176
     1
290
     1
176
     1
290
     1
176
     1
290
     0
176
     1
290
     0
176
     1
290
     0
176
     1
290
     0
176
     1
290
     0
176
     1
290
     0
176
     1
 90
       50
176
     1
 40
0.0
176
     1
 40
1.0
176
     1
 90
        0
176
     1
 62
    18
420
        0
176
     1
 90
       50
176
     1
 90
        3
176
     1
 62
     5
420
      255
176
     1
290
     0
176
     1
 90
       50
176
     1
 90
       50
176
     1
 90
       50
176
     1
290
     0
176
     1
 90
       50
176
     1
 62
   256
176
     0
 40
1.0
176
     0
 90
        2
176
     1
  1
strokes_ogs.tif
176
     1
290
     0
176
     1
 40
1.0
176
     1
 40
1.0
176
     1
  0
VISUALSTYLE
  5
2E
102
{ACAD_REACTORS
330
2A
102
}
330
2A
100
AcDbVisualStyle
  2
GouraudWithEdges
 70
     3
177
     3
291
     1
 70
    58
 90
        2
176
     1
 90
        2
176
     1
 90
        1
176
     1
 90
        2
176
     1
 40
0.6
176
     1
 40
30.0
176
     1
 62
     7
420
 16777215
176
     1
 90
        1
176
     1
 90
        0
176
     1
 62
     7
176
     1
 62
   257
176
     1
 90
        1
176
     1
 90
        1
176
     1
 40
1.0
176
     1
 90
        0
176
     1
 62
   257
176
     1
 40
1.0
176
     1
 90
        1
176
     1
 90
        6
176
     1
 90
        2
176
     1
 62
     7
176
     1
 90
        5
176
     1
 90
        0
176
     1
 90
        0
176
     1
290
     0
176
     1
 90
       13
176
     1
 40
0.0
176
     1
 90
        0
176
     1
290
     0
176
     1
290
     1
176
     1
290
     1
176
     1
290
     0
176
     1
290
     0
176
     1
290
     0
176
     1
290
     0
176
     1
290
     0
176
     1
290
     0
176
     1
 90
       50
176
     1
 40
0.0
176
     1
 40
1.0
176
     1
 90
        0
176
     1
 62
    18
420
        0
176
     1
 90
       50
176
     1
 90
        3
176
     1
 62
     5
420
      255
176
     1
290
     0
176
     1
 90
       50
176
     1
 90
       50
176
     1
 90
       50
176
     1
290
     0
176
     1
 90
       50
176
     1
 62
   256
176
     0
 40
1.0
176
     0
 90
        2
176
     1
  1
strokes_ogs.tif
176
     1
290
     0
176
     1
 40
1.0
176
     1
 40
1.0
176
     1
  0
VISUALSTYLE
  5
31
102
{ACAD_REACTORS
330
2A
102
}
330
2A
100
AcDbVisualStyle
  2
Hidden
 70
     6
177
     3
291
     0
 70
    58
 90
        1
176
     1
 90
        2
176
     1
 90
        2
176
     1
 90
        0
176
     1
 40
0.6
176
     1
 40
30.0
176
     1
 62
     7
420
 16777215
176
     1
 90
        2
176
     1
 90
        2
176
     1
 62
     7
176
     1
 62
   257
176
     1
 90
        2
176
     1
 90
        1
176
     1
 40
40.0
176
     1
 90
        0
176
     1
 62
   257
176
     1
 40
1.0
176
     1
 90
        1
176
     1
 90
        6
176
     1
 90
        2
176
     1
 62
     7
176
     1
 90
        3
176
     1
 90
        0
176
     1
 90
        0
176
     1
290
     0
176
     1
 90
        1
176
     1
 40
0.0
176
     1
 90
        0
176
     1
290
     0
176
     1
290
     1
176
     1
290
     1
176
     1
290
     0
176
     1
290
     0
176
     1
290
     0
176
     1
290
     0
176
     1
290
     0
176
     1
290
     0
176
     1
 90
       50
176
     1
 40
0.0
176
     1
 40
1.0
176
     1
 90
        0
176
     1
 62
    18
420
        0
176
     1
 90
       50
176
     1
 90
        3
176
     1
 62
     5
420
      255
176
     1
290
     0
176
     1
 90
       50
176
     1
 90
       50
176
     1
 90
       50
176
     1
290
     0
176
     1
 90
       50
176
     1
 62
   256
176
     0
 40
1.0
176
     0
 90
        2
176
     1
  1
strokes_ogs.tif
176
     1
290
     0
176
     1
 40
1.0
176
     1
 40
1.0
176
     1
  0
VISUALSTYLE
  5
3B
102
{ACAD_REACTORS
330
2A
102
}
330
2A
100
AcDbVisualStyle
  2
JitterOff
 70
    20
177
     3
291
     1
 70
    58
 90
        2
176
     0
 90
        2
176
     0
 90
        0
176
     0
 90
        0
176
     0
 40
0.6
176
     0
 40
30.0
176
     0
 62
     7
420
 16777215
176
     0
 90
        1
176
     0
 90
        4
176
     0
 62
     7
176
     0
 62
   257
176
     0
 90
        1
176
     0
 90
        1
176
     0
 40
1.0
176
     0
 90
       10
176
     2
 62
     7
176
     0
 40
1.0
176
     0
 90
        1
176
     0
 90
        6
176
     0
 90
        2
176
     0
 62
     7
176
     0
 90
        5
176
     0
 90
        0
176
     0
 90
        0
176
     0
290
     0
176
     0
 90
        1
176
     0
 40
0.0
176
     0
 90
        0
176
     0
290
     0
176
     0
290
     1
176
     0
290
     1
176
     0
290
     0
176
     0
290
     0
176
     0
290
     0
176
     0
290
     0
176
     0
290
     0
176
     0
290
     0
176
     0
 90
       50
176
     0
 40
0.0
176
     0
 40
1.0
176
     0
 90
        0
176
     0
 62
    18
420
        0
176
     0
 90
       50
176
     0
 90
        3
176
     0
 62
     5
420
      255
176
     0
290
     0
176
     0
 90
       50
176
     0
 90
       50
176
     0
 90
       50
176
     0
290
     0
176
     0
 90
       50
176
     0
 62
   256
176
     0
 40
1.0
176
     0
 90
        2
176
     0
  1
strokes_ogs.tif
176
     0
290
     0
176
     0
 40
1.0
176
     0
 40
1.0
176
     0
  0
VISUALSTYLE
  5
38
102
{ACAD_REACTORS
330
2A
102
}
330
2A
100
AcDbVisualStyle
  2
Linepattern
 70
    14
177
     3
291
     1
 70
    58
 90
        2
176
     1
 90
        2
176
     1
 90
        0
176
     1
 90
        0
176
     1
 40
0.6
176
     1
 40
30.0
176
     1
 62
     7
420
 16777215
176
     1
 90
        1
176
     1
 90
        4
176
     1
 62
     7
176
     1
 62
   257
176
     1
 90
        7
176
     1
 90
        7
176
     1
 40
1.0
176
     1
 90
        8
176
     1
 62
     7
176
     1
 40
1.0
176
     1
 90
        1
176
     1
 90
        6
176
     1
 90
        2
176
     1
 62
     7
176
     1
 90
        5
176
     1
 90
        0
176
     1
 90
        0
176
     1
290
     0
176
     1
 90
        1
176
     1
 40
0.0
176
     1
 90
        0
176
     1
290
     0
176
     1
290
     1
176
     1
290
     1
176
     1
290
     0
176
     1
290
     0
176
     1
290
     0
176
     1
290
     0
176
     1
290
     0
176
     1
290
     0
176
     1
 90
       50
176
     1
 40
0.0
176
     1
 40
1.0
176
     1
 90
        0
176
     1
 62
    18
420
        0
176
     1
 90
       50
176
     1
 90
        3
176
     1
 62
     5
420
      255
176
     1
290
     0
176
     1
 90
       50
176
     1
 90
       50
176
     1
 90
       50
176
     1
290
     0
176
     1
 90
       50
176
     1
 62
   256
176
     0
 40
1.0
176
     0
 90
        2
176
     1
  1
strokes_ogs.tif
176
     1
290
     0
176
     1
 40
1.0
176
     1
 40
1.0
176
     1
  0
VISUALSTYLE
  5
3C
102
{ACAD_REACTORS
330
2A
102
}
330
2A
100
AcDbVisualStyle
  2
OverhangOff
 70
    21
177
     3
291
     1
 70
    58
 90
        2
176
     0
 90
        2
176
     0
 90
        0
176
     0
 90
        0
176
     0
 40
0.6
176
     0
 40
30.0
176
     0
 62
     7
420
 16777215
176
     0
 90
        1
176
     0
 90
        4
176
     0
 62
     7
176
     0
 62
   257
176
     0
 90
        1
176
     0
 90
        1
176
     0
 40
1.0
176
     0
 90
        9
176
     2
 62
     7
176
     0
 40
1.0
176
     0
 90
        1
176
     0
 90
        6
176
     0
 90
        2
176
     0
 62
     7
176
     0
 90
        5
176
     0
 90
        0
176
     0
 90
        0
176
     0
290
     0
176
     0
 90
        1
176
     0
 40
0.0
176
     0
 90
        0
176
     0
290
     0
176
     0
290
     1
176
     0
290
     1
176
     0
290
     0
176
     0
290
     0
176
     0
290
     0
176
     0
290
     0
176
     0
290
     0
176
     0
290
     0
176
     0
 90
       50
176
     0
 40
0.0
176
     0
 40
1.0
176
     0
 90
        0
176
     0
 62
    18
420
        0
176
     0
 90
       50
176
     0
 90
        3
176
     0
 62
     5
420
      255
176
     0
290
     0
176
     0
 90
       50
176
     0
 90
       50
176
     0
 90
       50
176
     0
290
     0
176
     0
 90
       50
176
     0
 62
   256
176
     0
 40
1.0
176
     0
 90
        2
176
     0
  1
strokes_ogs.tif
176
     0
290
     0
176
     0
 40
1.0
176
     0
 40
1.0
176
     0
  0
VISUALSTYLE
  5
33
102
{ACAD_REACTORS
330
2A
102
}
330
2A
100
AcDbVisualStyle
  2
Realistic
 70
     8
177
     3
291
     0
 70
    58
 90
        2
176
     1
 90
        3
176
     1
 90
        0
176
     1
 90
        2
176
     1
 40
0.6
176
     1
 40
30.0
176
     1
 62
     7
420
 16777215
176
     1
 90
        0
176
     1
 90
        0
176
     1
 62
     7
176
     1
 62
   257
176
     1
 90
        1
176
     1
 90
        1
176
     1
 40
1.0
176
     1
 90
        8
176
     1
 62
   257
176
     1
 40
1.0
176
     1
 90
        1
176
     1
 90
        6
176
     1
 90
        2
176
     1
 62
     7
176
     1
 90
        3
176
     1
 90
        0
176
     1
 90
        0
176
     1
290
     0
176
     1
 90
       13
176
     1
 40
0.0
176
     1
 90
        0
176
     1
290
     0
176
     1
290
     1
176
     1
290
     1
176
     1
290
     0
176
     1
290
     0
176
     1
290
     0
176
     1
290
     0
176
     1
290
     0
176
     1
290
     0
176
     1
 90
       50
176
     1
 40
0.0
176
     1
 40
1.0
176
     1
 90
        0
176
     1
 62
    18
420
        0
176
     1
 90
       50
176
     1
 90
        3
176
     1
 62
     5
420
      255
176
     1
290
     0
176
     1
 90
       50
176
     1
 90
       50
176
     1
 90
       50
176
     1
290
     0
176
     1
 90
       50
176
     1
 62
   256
176
     0
 40
1.0
176
     0
 90
        2
176
     1
  1
strokes_ogs.tif
176
     1
290
     0
176
     1
 40
1.0
176
     1
 40
1.0
176
     1
  0
VISUALSTYLE
  5
42
102
{ACAD_REACTORS
330
2A
102
}
330
2A
100
AcDbVisualStyle
  2
Shaded
 70
    27
177
     3
291
     0
 70
    58
 90
        2
176
     1
 90
        2
176
     1
 90
        1
176
     1
 90
        2
176
     1
 40
0.6
176
     1
 40
30.0
176
     1
 62
     7
420
 16777215
176
     1
 90
        0
176
     1
 90
        4
176
     1
 62
     7
176
     1
 62
   257
176
     1
 90
        1
176
     1
 90
        1
176
     1
 40
1.0
176
     1
 90
        8
176
     1
 62
   257
176
     1
 40
1.0
176
     1
 90
        1
176
     1
 90
        6
176
     1
 90
        2
176
     1
 62
     8
420
  7895160
176
     1
 90
        3
176
     1
 90
        0
176
     1
 90
        0
176
     1
290
     0
176
     1
 90
        5
176
     1
 40
0.0
176
     1
 90
        0
176
     1
290
     0
176
     1
290
     1
176
     1
290
     1
176
     1
290
     0
176
     1
290
     0
176
     1
290
     0
176
     1
290
     0
176
     1
290
     0
176
     1
290
     0
176
     1
 90
       50
176
     1
 40
0.0
176
     1
 40
1.0
176
     1
 90
        0
176
     1
 62
    18
420
        0
176
     1
 90
       50
176
     1
 90
        3
176
     1
 62
     5
420
      255
176
     1
290
     0
176
     1
 90
       50
176
     1
 90
       50
176
     1
 90
       50
176
     1
290
     0
176
     1
 90
       50
176
     1
 62
   256
176
     0
 40
1.0
176
     0
 90
        2
176
     1
  1
strokes_ogs.tif
176
     1
290
     0
176
     1
 40
1.0
176
     1
 40
1.0
176
     1
  0
VISUALSTYLE
  5
41
102
{ACAD_REACTORS
330
2A
102
}
330
2A
100
AcDbVisualStyle
  2
Shaded with edges
 70
    26
177
     3
291
     0
 70
    58
 90
        2
176
     1
 90
        2
176
     1
 90
        1
176
     1
 90
        2
176
     1
 40
0.6
176
     1
 40
30.0
176
     1
 62
     7
420
 16777215
176
     1
 90
        1
176
     1
 90
       10
176
     1
 62
     7
176
     1
 62
   257
176
     1
 90
        2
176
     1
 90
        1
176
     1
 40
1.0
176
     1
 90
        8
176
     1
 62
   257
176
     1
 40
1.0
176
     1
 90
        1
176
     1
 90
        6
176
     1
 90
        2
176
     1
 62
     7
176
     1
 90
        3
176
     1
 90
        0
176
     1
 90
        0
176
     1
290
     0
176
     1
 90
        5
176
     1
 40
0.0
176
     1
 90
        0
176
     1
290
     0
176
     1
290
     1
176
     1
290
     1
176
     1
290
     0
176
     1
290
     0
176
     1
290
     0
176
     1
290
     0
176
     1
290
     0
176
     1
290
     0
176
     1
 90
       50
176
     1
 40
0.0
176
     1
 40
1.0
176
     1
 90
        0
176
     1
 62
    18
420
        0
176
     1
 90
       50
176
     1
 90
        3
176
     1
 62
     5
420
      255
176
     1
290
     0
176
     1
 90
       50
176
     1
 90
       50
176
     1
 90
       50
176
     1
290
     0
176
     1
 90
       50
176
     1
 62
   256
176
     0
 40
1.0
176
     0
 90
        2
176
     1
  1
strokes_ogs.tif
176
     1
290
     0
176
     1
 40
1.0
176
     1
 40
1.0
176
     1
  0
VISUALSTYLE
  5
3E
102
{ACAD_REACTORS
330
2A
102
}
330
2A
100
AcDbVisualStyle
  2
Shades of Gray
 70
    23
177
     3
291
     0
 70
    58
 90
        2
176
     1
 90
        2
176
     1
 90
        3
176
     1
 90
        0
176
     1
 40
0.6
176
     1
 40
30.0
176
     1
 62
     7
420
 16777215
176
     1
 90
        2
176
     1
 90
        2
176
     1
 62
     7
176
     1
 62
     7
176
     1
 90
        1
176
     1
 90
        1
176
     1
 40
40.0
176
     1
 90
        8
176
     1
 62
     7
176
     1
 40
1.0
176
     1
 90
        1
176
     1
 90
        6
176
     1
 90
        2
176
     1
 62
     7
176
     1
 90
        3
176
     1
 90
        0
176
     1
 90
        0
176
     1
290
     0
176
     1
 90
        1
176
     1
 40
0.0
176
     1
 90
        0
176
     1
290
     0
176
     1
290
     1
176
     1
290
     1
176
     1
290
     0
176
     1
290
     0
176
     1
290
     0
176
     1
290
     0
176
     1
290
     0
176
     1
290
     0
176
     1
 90
       50
176
     1
 40
0.0
176
     1
 40
1.0
176
     1
 90
        0
176
     1
 62
    18
420
        0
176
     1
 90
       50
176
     1
 90
        3
176
     1
 62
     5
420
      255
176
     1
290
     0
176
     1
 90
       50
176
     1
 90
       50
176
     1
 90
       50
176
     1
290
     0
176
     1
 90
       50
176
     1
 62
   256
176
     0
 40
1.0
176
     0
 90
        2
176
     1
  1
strokes_ogs.tif
176
     1
290
     0
176
     1
 40
1.0
176
     1
 40
1.0
176
     1
  0
VISUALSTYLE
  5
3F
102
{ACAD_REACTORS
330
2A
102
}
330
2A
100
AcDbVisualStyle
  2
Sketchy
 70
    24
177
     3
291
     0
 70
    58
 90
        1
176
     1
 90
        2
176
     1
 90
        2
176
     1
 90
        0
176
     1
 40
0.6
176
     1
 40
30.0
176
     1
 62
     7
420
 16777215
176
     1
 90
        2
176
     1
 90
        2
176
     1
 62
     7
176
     1
 62
     7
176
     1
 90
        1
176
     1
 90
        1
176
     1
 40
40.0
176
     1
 90
       11
176
     1
 62
     7
176
     1
 40
1.0
176
     1
 90
        1
176
     1
 90
        6
176
     1
 90
        2
176
     1
 62
     7
176
     1
 90
        6
176
     1
 90
        0
176
     1
 90
        0
176
     1
290
     0
176
     1
 90
        1
176
     1
 40
0.0
176
     1
 90
        0
176
     1
290
     0
176
     1
290
     1
176
     1
290
     1
176
     1
290
     0
176
     1
290
     0
176
     1
290
     0
176
     1
290
     0
176
     1
290
     0
176
     1
290
     0
176
     1
 90
       50
176
     1
 40
0.0
176
     1
 40
1.0
176
     1
 90
        0
176
     1
 62
    18
420
        0
176
     1
 90
       50
176
     1
 90
        3
176
     1
 62
     5
420
      255
176
     1
290
     0
176
     1
 90
       50
176
     1
 90
       50
176
     1
 90
       50
176
     1
290
     0
176
     1
 90
       50
176
     1
 62
   256
176
     0
 40
1.0
176
     0
 90
        2
176
     1
  1
strokes_ogs.tif
176
     1
290
     0
176
     1
 40
1.0
176
     1
 40
1.0
176
     1
  0
VISUALSTYLE
  5
37
102
{ACAD_REACTORS
330
2A
102
}
330
2A
100
AcDbVisualStyle
  2
Thicken
 70
    13
177
     3
291
     1
 70
    58
 90
        2
176
     1
 90
        2
176
     1
 90
        0
176
     1
 90
        0
176
     1
 40
0.6
176
     1
 40
30.0
176
     1
 62
     7
420
 16777215
176
     1
 90
        1
176
     1
 90
        4
176
     1
 62
     7
176
     1
 62
   257
176
     1
 90
        1
176
     1
 90
        1
176
     1
 40
1.0
176
     1
 90
       12
176
     1
 62
     7
176
     1
 40
1.0
176
     1
 90
        1
176
     1
 90
        6
176
     1
 90
        2
176
     1
 62
     7
176
     1
 90
        5
176
     1
 90
        0
176
     1
 90
        0
176
     1
290
     0
176
     1
 90
        1
176
     1
 40
0.0
176
     1
 90
        0
176
     1
290
     0
176
     1
290
     1
176
     1
290
     1
176
     1
290
     0
176
     1
290
     0
176
     1
290
     0
176
     1
290
     0
176
     1
290
     0
176
     1
290
     0
176
     1
 90
       50
176
     1
 40
0.0
176
     1
 40
1.0
176
     1
 90
        0
176
     1
 62
    18
420
        0
176
     1
 90
       50
176
     1
 90
        3
176
     1
 62
     5
420
      255
176
     1
290
     0
176
     1
 90
       50
176
     1
 90
       50
176
     1
 90
       50
176
     1
290
     0
176
     1
 90
       50
176
     1
 62
   256
176
     0
 40
1.0
176
     0
 90
        2
176
     1
  1
strokes_ogs.tif
176
     1
290
     0
176
     1
 40
1.0
176
     1
 40
1.0
176
     1
  0
VISUALSTYLE
  5
30
102
{ACAD_REACTORS
330
2A
102
}
330
2A
100
AcDbVisualStyle
  2
Wireframe
 70
     5
177
     3
291
     0
 70
    58
 90
        0
176
     1
 90
        2
176
     1
 90
        0
176
     1
 90
        0
176
     1
 40
0.6
176
     1
 40
30.0
176
     1
 62
     7
420
 16777215
176
     1
 90
        1
176
     1
 90
        4
176
     1
 62
     7
176
     1
 62
   257
176
     1
 90
        1
176
     1
 90
        1
176
     1
 40
1.0
176
     1
 90
        0
176
     1
 62
   257
176
     1
 40
1.0
176
     1
 90
        1
176
     1
 90
        6
176
     1
 90
        2
176
     1
 62
     7
176
     1
 90
        3
176
     1
 90
        0
176
     1
 90
        0
176
     1
290
     0
176
     1
 90
        1
176
     1
 40
0.0
176
     1
 90
        0
176
     1
290
     0
176
     1
290
     1
176
     1
290
     1
176
     1
290
     0
176
     1
290
     0
176
     1
290
     0
176
     1
290
     0
176
     1
290
     0
176
     1
290
     0
176
     1
 90
       50
176
     1
 40
0.0
176
     1
 40
1.0
176
     1
 90
        0
176
     1
 62
    18
420
        0
176
     1
 90
       50
176
     1
 90
        3
176
     1
 62
     5
420
      255
176
     1
290
     0
176
     1
 90
       50
176
     1
 90
       50
176
     1
 90
       50
176
     1
290
     0
176
     1
 90
       50
176
     1
 62
   256
176
     0
 40
1.0
176
     0
 90
        2
176
     1
  1
strokes_ogs.tif
176
     1
290
     0
176
     1
 40
1.0
176
     1
 40
1.0
176
     1
  0
VISUALSTYLE
  5
40
102
{ACAD_REACTORS
330
2A
102
}
330
2A
100
AcDbVisualStyle
  2
X-Ray
 70
    25
177
     3
291
     0
 70
    58
 90
        2
176
     1
 90
        2
176
     1
 90
        1
176
     1
 90
        1
176
     1
 40
0.5
176
     1
 40
30.0
176
     1
 62
     7
420
 16777215
176
     1
 90
        1
176
     1
 90
        0
176
     1
 62
     7
176
     1
 62
   257
176
     1
 90
        1
176
     1
 90
        1
176
     1
 40
1.0
176
     1
 90
        8
176
     1
 62
     7
176
     1
 40
1.0
176
     1
 90
        1
176
     1
 90
        6
176
     1
 90
        2
176
     1
 62
     7
176
     1
 90
        3
176
     1
 90
        0
176
     1
 90
        0
176
     1
290
     0
176
     1
 90
       13
176
     1
 40
0.0
176
     1
 90
        0
176
     1
290
     0
176
     1
290
     1
176
     1
290
     1
176
     1
290
     0
176
     1
290
     0
176
     1
290
     0
176
     1
290
     0
176
     1
290
     0
176
     1
290
     0
176
     1
 90
       50
176
     1
 40
0.0
176
     1
 40
1.0
176
     1
 90
        0
176
     1
 62
    18
420
        0
176
     1
 90
       50
176
     1
 90
        3
176
     1
 62
     5
420
      255
176
     1
290
     0
176
     1
 90
       50
176
     1
 90
       50
176
     1
 90
       50
176
     1
290
     0
176
     1
 90
       50
176
     1
 62
   256
176
     0
 40
1.0
176
     0
 90
        2
176
     1
  1
strokes_ogs.tif
176
     1
290
     0
176
     1
 40
1.0
176
     1
 40
1.0
176
     1
  0
DICTIONARYVAR
  5
2DB
102
{ACAD_REACTORS
330
2DA
102
}
330
2DA
100
DictionaryVariables
280
     0
  1
1:1
  0
DICTIONARYVAR
  5
2E0
102
{ACAD_REACTORS
330
2DA
102
}
330
2DA
100
DictionaryVariables
280
     0
  1
Standard
  0
DICTIONARYVAR
  5
2DF
102
{ACAD_REACTORS
330
2DA
102
}
330
2DA
100
DictionaryVariables
280
     0
  1
Standard
  0
DICTIONARY
  5
2DC
330
6A
100
AcDbDictionary
280
     1
281
     1
  3
ACAD_ROUNDTRIP_2008_TABLESTYLE_CELLSTYLEMAP
360
2DD
  0
CELLSTYLEMAP
  5
2DD
102
{ACAD_REACTORS
330
2DC
102
}
330
2DC
100
AcDbCellStyleMap
 90
        3
300
CELLSTYLE
  1
TABLEFORMAT_BEGIN
 90
        5
170
     1
 91
        0
 92
    32768
 62
   257
 93
        1
300
CONTENTFORMAT
  1
CONTENTFORMAT_BEGIN
 90
        0
 91
        0
 92
        4
 93
        0
300

 40
0.0
140
1.0
 94
        5
 62
     0
340
11
144
0.25
309
CONTENTFORMAT_END
171
     1
301
MARGIN
  1
CELLMARGIN_BEGIN
 40
0.06
 40
0.06
 40
0.06
 40
0.06
 40
0.06
 40
0.06
309
CELLMARGIN_END
 94
        6
 95
        1
302
GRIDFORMAT
  1
GRIDFORMAT_BEGIN
 90
        0
 91
        1
 62
     0
 92
       -2
340
14
 93
        0
 40
0.045
309
GRIDFORMAT_END
 95
        2
302
GRIDFORMAT
  1
GRIDFORMAT_BEGIN
 90
        0
 91
        1
 62
     0
 92
       -2
340
14
 93
        0
 40
0.045
309
GRIDFORMAT_END
 95
        4
302
GRIDFORMAT
  1
GRIDFORMAT_BEGIN
 90
        0
 91
        1
 62
     0
 92
       -2
340
14
 93
        0
 40
0.045
309
GRIDFORMAT_END
 95
        8
302
GRIDFORMAT
  1
GRIDFORMAT_BEGIN
 90
        0
 91
        1
 62
     0
 92
       -2
340
14
 93
        0
 40
0.045
309
GRIDFORMAT_END
 95
       16
302
GRIDFORMAT
  1
GRIDFORMAT_BEGIN
 90
        0
 91
        1
 62
     0
 92
       -2
340
14
 93
        0
 40
0.045
309
GRIDFORMAT_END
 95
       32
302
GRIDFORMAT
  1
GRIDFORMAT_BEGIN
 90
        0
 91
        1
 62
     0
 92
       -2
340
14
 93
        0
 40
0.045
309
GRIDFORMAT_END
309
TABLEFORMAT_END
  1
CELLSTYLE_BEGIN
 90
        1
 91
        1
300
_TITLE
309
CELLSTYLE_END
300
CELLSTYLE
  1
TABLEFORMAT_BEGIN
 90
        5
170
     1
 91
        0
 92
        0
 62
   257
 93
        1
300
CONTENTFORMAT
  1
CONTENTFORMAT_BEGIN
 90
        0
 91
        0
 92
        4
 93
        0
300

 40
0.0
140
1.0
 94
        5
 62
     0
340
11
144
0.18
309
CONTENTFORMAT_END
171
     1
301
MARGIN
  1
CELLMARGIN_BEGIN
 40
0.06
 40
0.06
 40
0.06
 40
0.06
 40
0.06
 40
0.06
309
CELLMARGIN_END
 94
        6
 95
        1
302
GRIDFORMAT
  1
GRIDFORMAT_BEGIN
 90
        0
 91
        1
 62
     0
 92
       -2
340
14
 93
        0
 40
0.045
309
GRIDFORMAT_END
 95
        2
302
GRIDFORMAT
  1
GRIDFORMAT_BEGIN
 90
        0
 91
        1
 62
     0
 92
       -2
340
14
 93
        0
 40
0.045
309
GRIDFORMAT_END
 95
        4
302
GRIDFORMAT
  1
GRIDFORMAT_BEGIN
 90
        0
 91
        1
 62
     0
 92
       -2
340
14
 93
        0
 40
0.045
309
GRIDFORMAT_END
 95
        8
302
GRIDFORMAT
  1
GRIDFORMAT_BEGIN
 90
        0
 91
        1
 62
     0
 92
       -2
340
14
 93
        0
 40
0.045
309
GRIDFORMAT_END
 95
       16
302
GRIDFORMAT
  1
GRIDFORMAT_BEGIN
 90
        0
 91
        1
 62
     0
 92
       -2
340
14
 93
        0
 40
0.045
309
GRIDFORMAT_END
 95
       32
302
GRIDFORMAT
  1
GRIDFORMAT_BEGIN
 90
        0
 91
        1
 62
     0
 92
       -2
340
14
 93
        0
 40
0.045
309
GRIDFORMAT_END
309
TABLEFORMAT_END
  1
CELLSTYLE_BEGIN
 90
        2
 91
        1
300
_HEADER
309
CELLSTYLE_END
300
CELLSTYLE
  1
TABLEFORMAT_BEGIN
 90
        5
170
     1
 91
        0
 92
        0
 62
   257
 93
        1
300
CONTENTFORMAT
  1
CONTENTFORMAT_BEGIN
 90
        0
 91
        0
 92
        4
 93
        0
300

 40
0.0
140
1.0
 94
        2
 62
     0
340
11
144
0.18
309
CONTENTFORMAT_END
171
     1
301
MARGIN
  1
CELLMARGIN_BEGIN
 40
0.06
 40
0.06
 40
0.06
 40
0.06
 40
0.06
 40
0.06
309
CELLMARGIN_END
 94
        6
 95
        1
302
GRIDFORMAT
  1
GRIDFORMAT_BEGIN
 90
        0
 91
        1
 62
     0
 92
       -2
340
14
 93
        0
 40
0.045
309
GRIDFORMAT_END
 95
        2
302
GRIDFORMAT
  1
GRIDFORMAT_BEGIN
 90
        0
 91
        1
 62
     0
 92
       -2
340
14
 93
        0
 40
0.045
309
GRIDFORMAT_END
 95
        4
302
GRIDFORMAT
  1
GRIDFORMAT_BEGIN
 90
        0
 91
        1
 62
     0
 92
       -2
340
14
 93
        0
 40
0.045
309
GRIDFORMAT_END
 95
        8
302
GRIDFORMAT
  1
GRIDFORMAT_BEGIN
 90
        0
 91
        1
 62
     0
 92
       -2
340
14
 93
        0
 40
0.045
309
GRIDFORMAT_END
 95
       16
302
GRIDFORMAT
  1
GRIDFORMAT_BEGIN
 90
        0
 91
        1
 62
     0
 92
       -2
340
14
 93
        0
 40
0.045
309
GRIDFORMAT_END
 95
       32
302
GRIDFORMAT
  1
GRIDFORMAT_BEGIN
 90
        0
 91
        1
 62
     0
 92
       -2
340
14
 93
        0
 40
0.045
309
GRIDFORMAT_END
309
TABLEFORMAT_END
  1
CELLSTYLE_BEGIN
 90
        3
 91
        2
300
_DATA
309
CELLSTYLE_END
  0
ENDSEC
  0
EOF
