  0
SECTION
  2
HEADER
  9
$ACADVER
  1
AC1006
  9
$DWGCODEPAGE
  3
ansi_932
  9
$INSBASE
 10
0.0
 20
0.0
 30
0.0
  9
$EXTMIN
 10
-514.8719266778714
 20
92.9659090909091
  9
$EXTMAX
 10
-411.3499999999999
 20
146.25
  9
$LIMMIN
 10
0.0
 20
0.0
  9
$LIMMAX
 10
12.0
 20
9.0
  9
$ORTHOMODE
 70
     0
  9
$REGENMODE
 70
     1
  9
$FILLMODE
 70
     1
  9
$QTEXTMODE
 70
     0
  9
$MIRRTEXT
 70
     1
  9
$DRAGMODE
 70
     2
  9
$LTSCALE
 40
1.0
  9
$OSMODE
 70
    37
  9
$ATTMODE
 70
     1
  9
$TEXTSIZE
 40
0.2
  9
$TRACEWID
 40
0.05
  9
$TEXTSTYLE
  7
STANDARD
  9
$CLAYER
  8
0
  9
$CELTYPE
  6
BYLAYER
  9
$CECOLOR
 62
   256
  9
$DIMSCALE
 40
1.0
  9
$DIMASZ
 40
3.0
  9
$DIMEXO
 40
0.0625
  9
$DIMDLI
 40
0.38
  9
$DIMRND
 40
0.0
  9
$DIMDLE
 40
0.0
  9
$DIMEXE
 40
1.5
  9
$DIMTP
 40
0.0
  9
$DIMTM
 40
0.0
  9
$DIMTXT
 40
3.0
  9
$DIMCEN
 40
0.09
  9
$DIMTSZ
 40
0.0
  9
$DIMTOL
 70
     0
  9
$DIMLIM
 70
     0
  9
$DIMTIH
 70
     1
  9
$DIMTOH
 70
     1
  9
$DIMSE1
 70
     0
  9
$DIMSE2
 70
     0
  9
$DIMTAD
 70
     1
  9
$DIMZIN
 70
     0
  9
$DIMBLK
  1

  9
$DIMASO
 70
     1
  9
$DIMSHO
 70
     1
  9
$DIMPOST
  1

  9
$DIMAPOST
  1

  9
$DIMALT
 70
     0
  9
$DIMALTD
 70
     2
  9
$DIMALTF
 40
25.4
  9
$DIMLFAC
 40
1.0
  9
$DIMTOFL
 70
     0
  9
$DIMTVP
 40
0.0
  9
$DIMTIX
 70
     0
  9
$DIMSOXD
 70
     0
  9
$DIMSAH
 70
     0
  9
$DIMBLK1
  1

  9
$DIMBLK2
  1

  9
$LUNITS
 70
     2
  9
$LUPREC
 70
     4
  9
$SKETCHINC
 40
0.1
  9
$FILLETRAD
 40
0.5
  9
$AUNITS
 70
     0
  9
$AUPREC
 70
     0
  9
$MENU
  1
.
  9
$ELEVATION
 40
0.0
  9
$THICKNESS
 40
0.0
  9
$LIMCHECK
 70
     0
  9
$CHAMFERA
 40
0.0
  9
$CHAMFERB
 40
0.0
  9
$SKPOLY
 70
     0
  9
$TDCREATE
 40
2460426.485498507
  9
$TDUPDATE
 40
2460426.485498657
  9
$TDINDWG
 40
0.0000000116
  9
$TDUSRTIMER
 40
0.0000000116
  9
$USRTIMER
 70
     1
  9
$ANGBASE
 50
0.0
  9
$ANGDIR
 70
     0
  9
$PDMODE
 70
     0
  9
$PDSIZE
 40
0.0
  9
$PLINEWID
 40
0.0
  9
$COORDS
 70
     1
  9
$SPLFRAME
 70
     0
  9
$SPLINETYPE
 70
     6
  9
$SPLINESEGS
 70
     8
  9
$ATTDIA
 70
     0
  9
$ATTREQ
 70
     1
  9
$HANDLING
 70
     1
  9
$HANDSEED
  5
1F7
  9
$SURFTAB1
 70
     6
  9
$SURFTAB2
 70
     6
  9
$SURFTYPE
 70
     6
  9
$SURFU
 70
     6
  9
$SURFV
 70
     6
  9
$UCSNAME
  2

  9
$UCSORG
 10
0.0
 20
0.0
 30
0.0
  9
$UCSXDIR
 10
1.0
 20
0.0
 30
0.0
  9
$UCSYDIR
 10
0.0
 20
1.0
 30
0.0
  9
$USERI1
 70
     0
  9
$USERI2
 70
     0
  9
$USERI3
 70
     0
  9
$USERI4
 70
     0
  9
$USERI5
 70
     0
  9
$USERR1
 40
0.0
  9
$USERR2
 40
0.0
  9
$USERR3
 40
0.0
  9
$USERR4
 40
0.0
  9
$USERR5
 40
0.0
  9
$WORLDVIEW
 70
     1
  0
ENDSEC
  0
SECTION
  2
TABLES
  0
TABLE
  2
VPORT
 70
     1
  0
VPORT
  2
*ACTIVE
 70
     0
 10
0.0
 20
0.0
 11
1.0
 21
1.0
 12
-463.1109633389357
 22
119.6079545454546
 13
0.0
 23
0.0
 14
0.5
 24
0.5
 15
0.5
 25
0.5
 16
0.0
 26
0.0
 36
1.0
 17
0.0
 27
0.0
 37
0.0
 40
53.28409090909093
 41
1.6
 42
50.0
 43
0.0
 44
0.0
 50
0.0
 51
0.0
 71
     0
 72
   100
 73
     1
 74
     3
 75
     0
 76
     0
 77
     0
 78
     0
  0
ENDTAB
  0
TABLE
  2
LTYPE
 70
     2
  0
LTYPE
  2
CONTINUOUS
 70
     0
  3
Solid line
 72
    65
 73
     0
 40
0.0
  0
LTYPE
  2
CENTER
 70
     0
  3

 72
    65
 73
     0
 40
0.0
  0
ENDTAB
  0
TABLE
  2
LAYER
 70
     2
  0
LAYER
  2
0
 70
     0
 62
     7
  6
CONTINUOUS
  0
LAYER
  2
1
 70
     0
 62
     7
  6
CONTINUOUS
  0
ENDTAB
  0
TABLE
  2
STYLE
 70
     2
  0
STYLE
  2
STANDARD
 70
     0
 40
0.0
 41
1.0
 50
0.0
 71
     0
 42
0.2
  3
txt
  4

  0
STYLE
  2
ＭＳ_ゴシック
 70
     0
 40
0.0
 41
1.0
 50
0.0
 71
     0
 42
0.2
  3
ＭＳ ゴシック.shx
  4

  0
ENDTAB
  0
TABLE
  2
VIEW
 70
     0
  0
ENDTAB
  0
TABLE
  2
UCS
 70
     0
  0
ENDTAB
  0
ENDSEC
  0
SECTION
  2
BLOCKS
  0
BLOCK
  8
0
  2
D_FRAME_VIEW_2096
 70
     0
 10
0.0
 20
0.0
 30
0.0
  0
ARC
  5
71
  8
1
  6
CONTINUOUS
 62
     7
 10
-432.6
 20
125.0
 30
0.0
 40
17.30000000000002
 50
18.17242948663812
 51
20.292984423554
  0
ARC
  5
72
  8
1
  6
CONTINUOUS
 62
     7
 10
-432.6
 20
125.0
 30
0.0
 40
17.29999999999996
 50
339.7070155764461
 51
341.0265300630705
  0
ARC
  5
73
  8
1
  6
CONTINUOUS
 62
     7
 10
-432.6
 20
125.0
 30
0.0
 40
17.30000000000003
 50
202.4447217778753
 51
203.8675845782834
  0
ARC
  5
74
  8
1
  6
CONTINUOUS
 62
     7
 10
-432.6
 20
125.0
 30
0.0
 40
18.35
 50
340.9146983064825
 51
342.3496496168007
  0
ARC
  5
75
  8
1
  6
CONTINUOUS
 62
     7
 10
-432.6
 20
125.0
 30
0.0
 40
18.34999999999997
 50
17.29102895476153
 51
19.08530169351753
  0
ARC
  5
76
  8
1
  6
CONTINUOUS
 62
     7
 10
-432.6
 20
125.0
 30
0.0
 40
17.34999999999998
 50
18.12795334781089
 51
20.23194059431779
  0
ARC
  5
77
  8
1
  6
CONTINUOUS
 62
     7
 10
-432.6
 20
125.0
 30
0.0
 40
17.35000000000002
 50
339.7680594056822
 51
341.0934573826869
  0
ARC
  5
78
  8
1
  6
CONTINUOUS
 62
     7
 10
-432.5999999999518
 20
125.75
 30
0.0
 40
17.60000000000006
 50
159.1995909504724
 51
174.1026013701755
  0
ARC
  5
79
  8
1
  6
CONTINUOUS
 62
     7
 10
-432.5999999999518
 20
125.75
 30
0.0
 40
17.60000000000001
 50
203.8921057504633
 51
204.7019331965125
  0
ARC
  5
7A
  8
1
  6
CONTINUOUS
 62
     7
 10
-432.6
 20
125.0
 30
0.0
 40
19.25000000000002
 50
172.6198258305109
 51
183.0955075269011
  0
ARC
  5
7B
  8
1
  6
CONTINUOUS
 62
     7
 10
-432.6
 20
125.0
 30
0.0
 40
19.25
 50
183.0955075269011
 51
199.6970571259223
  0
LINE
  5
7C
  8
1
  6
CONTINUOUS
 62
     7
 10
-451.6905266405961
 20
127.4727095633426
 30
0.0
 11
-451.1825617150286
 21
127.5001800149425
 31
0.0
  0
LINE
  5
7D
  8
1
  6
CONTINUOUS
 62
     7
 10
-450.2020344021361
 20
118.5400553480715
 30
0.0
 11
-450.7236412615076
 21
118.5118471485221
 31
0.0
  0
ARC
  5
7E
  8
1
  6
CONTINUOUS
 62
     7
 10
-432.6
 20
125.0
 30
0.0
 40
19.24999999999996
 50
343.3609926357038
 51
16.61441516675939
  0
LINE
  5
7F
  8
1
  6
CONTINUOUS
 62
     7
 10
-414.1560388149906
 20
119.4879408742436
 30
0.0
 11
-414.6873757607165
 21
119.4592064772092
 31
0.0
  0
LINE
  5
80
  8
1
  6
CONTINUOUS
 62
     7
 10
-414.6675690763604
 20
130.4763510815924
 30
0.0
 11
-414.1536746565353
 21
130.5041421968382
 31
0.0
  0
ARC
  5
81
  8
1
  6
CONTINUOUS
 62
     7
 10
-447.7690835285487
 20
119.1723585470718
 30
0.0
 40
0.500000000000005
 50
273.0955075269014
 51
21.0157206662945
  0
ARC
  5
82
  8
1
  6
CONTINUOUS
 62
     7
 10
-448.709375116949
 20
127.1331979142584
 30
0.0
 40
0.4999999999999197
 50
352.4567982118881
 51
93.09550752690171
  0
ARC
  5
83
  8
1
  6
CONTINUOUS
 62
     7
 10
-432.6
 20
125.0
 30
0.0
 40
15.75
 50
172.4567982118882
 51
201.0157206662944
  0
LINE
  5
84
  8
1
  6
CONTINUOUS
 62
     7
 10
-451.1825617150286
 20
127.5001800149425
 30
0.0
 11
-448.7363753765035
 21
127.6324683680047
 31
0.0
  0
LINE
  5
85
  8
1
  6
CONTINUOUS
 62
     7
 10
-447.7420832689942
 20
118.6730880933256
 30
0.0
 11
-450.2020344021361
 21
118.5400553480715
 31
0.0
  0
ARC
  5
86
  8
1
  6
CONTINUOUS
 62
     7
 10
-432.6
 20
125.0
 30
0.0
 40
15.75000000000001
 50
341.427322871131
 51
17.34554022470559
  0
ARC
  5
87
  8
1
  6
CONTINUOUS
 62
     7
 10
-417.0889827834293
 20
129.8446718059351
 30
0.0
 40
0.500000000000005
 50
93.09550752690126
 51
197.3455402247056
  0
ARC
  5
88
  8
1
  6
CONTINUOUS
 62
     7
 10
-417.1962934080274
 20
119.8242562632607
 30
0.0
 40
0.5000000000000204
 50
161.427322871131
 51
273.0955075269013
  0
LINE
  5
89
  8
1
  6
CONTINUOUS
 62
     7
 10
-414.6873757607165
 20
119.4592064772092
 30
0.0
 11
-417.1692931484729
 21
119.3249858095144
 31
0.0
  0
LINE
  5
8A
  8
1
  6
CONTINUOUS
 62
     7
 10
-417.1159830429838
 20
130.3439422596813
 30
0.0
 11
-414.6675690763604
 21
130.4763510815924
 31
0.0
  0
ARC
  5
8B
  8
1
  6
CONTINUOUS
 62
     7
 10
-432.6
 20
125.0
 30
0.0
 40
19.25000000000004
 50
339.8929252348697
 51
343.3609926357037
  0
ARC
  5
8C
  8
1
  6
CONTINUOUS
 62
     7
 10
-432.6
 20
125.0
 30
0.0
 40
19.25000000000001
 50
339.7164314580508
 51
339.8929252348696
  0
ARC
  5
8D
  8
1
  6
CONTINUOUS
 62
     7
 10
-432.6
 20
125.0
 30
0.0
 40
19.25000000000005
 50
156.6481163048501
 51
172.6198258305109
  0
ARC
  5
8E
  8
1
  6
CONTINUOUS
 62
     7
 10
-432.6
 20
125.0
 30
0.0
 40
19.24999999999998
 50
156.4218215217982
 51
156.64811630485
  0
ARC
  5
8F
  8
1
  6
CONTINUOUS
 62
     7
 10
-432.6
 20
125.0
 30
0.0
 40
19.25000000000001
 50
20.10610791429605
 51
20.28356854194925
  0
ARC
  5
90
  8
1
  6
CONTINUOUS
 62
     7
 10
-432.6
 20
125.0
 30
0.0
 40
19.25000000000003
 50
16.61441516675939
 51
20.10610791429605
  0
ARC
  5
91
  8
1
  6
CONTINUOUS
 62
     7
 10
-432.6
 20
125.0
 30
0.0
 40
19.25000000000004
 50
203.3365947659559
 51
203.5781784782018
  0
ARC
  5
92
  8
1
  6
CONTINUOUS
 62
     7
 10
-432.6
 20
125.0
 30
0.0
 40
19.25000000000002
 50
199.6970571259222
 51
203.3365947659559
  0
ARC
  5
93
  8
1
  6
CONTINUOUS
 62
     7
 10
-432.6
 20
125.0
 30
0.0
 40
17.75
 50
167.2744214518011
 51
171.7232250906662
  0
ARC
  5
94
  8
1
  6
CONTINUOUS
 62
     7
 10
-432.6
 20
125.0
 30
0.0
 40
17.75000000000004
 50
201.1462502476707
 51
203.2264512672664
  0
LINE
  5
95
  8
1
  6
CONTINUOUS
 62
     7
 10
-438.1097932436838
 20
106.5553617977513
 30
0.0
 11
-438.2460418348213
 21
106.5966114098668
 31
0.0
  0
LINE
  5
96
  8
1
  6
CONTINUOUS
 62
     7
 10
-425.0022015102691
 20
107.3128306925772
 30
0.0
 11
-425.1332069836699
 21
107.2571281340567
 31
0.0
  0
ARC
  5
97
  8
1
  6
CONTINUOUS
 62
     7
 10
-432.6
 20
125.0
 30
0.0
 40
13.1
 50
247.5622532444356
 51
292.4377467555644
  0
LINE
  5
98
  8
1
  6
CONTINUOUS
 62
     7
 10
-427.6
 20
112.8917383576336
 30
0.0
 11
-427.6
 21
111.8162979402597
 31
0.0
  0
LINE
  5
99
  8
1
  6
CONTINUOUS
 62
     7
 10
-437.6
 20
111.8162979402597
 30
0.0
 11
-437.6
 21
112.8917383576336
 31
0.0
  0
ARC
  5
9A
  8
1
  6
CONTINUOUS
 62
     7
 10
-432.6
 20
125.0
 30
0.0
 40
13.1
 50
67.5622532444356
 51
112.4377467555644
  0
LINE
  5
9B
  8
1
  6
CONTINUOUS
 62
     7
 10
-437.6
 20
137.1082616423663
 30
0.0
 11
-437.6
 21
138.1837020597402
 31
0.0
  0
LINE
  5
9C
  8
1
  6
CONTINUOUS
 62
     7
 10
-427.6
 20
138.1837020597403
 30
0.0
 11
-427.6
 21
137.1082616423663
 31
0.0
  0
ARC
  5
9D
  8
1
  6
CONTINUOUS
 62
     7
 10
-432.6
 20
125.0
 30
0.0
 40
13.36249999999994
 50
180.0
 51
248.0262677820232
  0
LINE
  5
9E
  8
1
  6
CONTINUOUS
 62
     7
 10
-437.6
 20
138.4640783661563
 30
0.0
 11
-437.6
 21
138.2103658464045
 31
0.0
  0
ARC
  5
9F
  8
1
  6
CONTINUOUS
 62
     7
 10
-432.6
 20
125.0
 30
0.0
 40
13.3625
 50
111.9737322179768
 51
180.0
  0
LINE
  5
A0
  8
1
  6
CONTINUOUS
 62
     7
 10
-437.6
 20
111.7870682629474
 30
0.0
 11
-437.6
 21
111.5359216338436
 31
0.0
  0
ARC
  5
A1
  8
1
  6
CONTINUOUS
 62
     7
 10
-432.6
 20
125.0
 30
0.0
 40
13.3625
 50
291.9737322179768
 51
68.02626778202318
  0
LINE
  5
A2
  8
1
  6
CONTINUOUS
 62
     7
 10
-427.6
 20
111.5359216338436
 30
0.0
 11
-427.6
 21
111.7901605033575
 31
0.0
  0
LINE
  5
A3
  8
1
  6
CONTINUOUS
 62
     7
 10
-427.6
 20
138.2124341954571
 30
0.0
 11
-427.6
 21
138.4640783661563
 31
0.0
  0
ARC
  5
A4
  8
1
  6
CONTINUOUS
 62
     7
 10
-432.6
 20
125.0
 30
0.0
 40
19.25000000000002
 50
20.28356854194919
 51
156.4218215217983
  0
POLYLINE
  5
A5
  8
1
  6
CONTINUOUS
 62
     7
 66
     1
 10
0.0
 20
0.0
 30
0.0
  0
VERTEX
  5
124
  8
1
  6
CONTINUOUS
 62
     7
 10
-414.5437234673861
 20
131.6733333333333
 30
0.0
  0
VERTEX
  5
125
  8
1
  6
CONTINUOUS
 62
     7
 10
-414.5426151636577
 20
131.6703045509551
 30
0.0
  0
VERTEX
  5
126
  8
1
  6
CONTINUOUS
 62
     7
 10
-414.5357980665552
 20
131.6501589107921
 30
0.0
  0
VERTEX
  5
127
  8
1
  6
CONTINUOUS
 62
     7
 10
-414.5298332999456
 20
131.6297023202587
 30
0.0
  0
VERTEX
  5
128
  8
1
  6
CONTINUOUS
 62
     7
 10
-414.5247216539328
 20
131.6089031454871
 30
0.0
  0
VERTEX
  5
129
  8
1
  6
CONTINUOUS
 62
     7
 10
-414.5204915793876
 20
131.5878264343683
 30
0.0
  0
VERTEX
  5
12A
  8
1
  6
CONTINUOUS
 62
     7
 10
-414.5171486634397
 20
131.5664181197917
 30
0.0
  0
VERTEX
  5
12B
  8
1
  6
CONTINUOUS
 62
     7
 10
-414.5147256606041
 20
131.5447656733603
 30
0.0
  0
VERTEX
  5
12C
  8
1
  6
CONTINUOUS
 62
     7
 10
-414.5132393961257
 20
131.5228355179909
 30
0.0
  0
VERTEX
  5
12D
  8
1
  6
CONTINUOUS
 62
     7
 10
-414.512718149223
 20
131.5006972691622
 30
0.0
  0
VERTEX
  5
12E
  8
1
  6
CONTINUOUS
 62
     7
 10
-414.5132396849723
 20
131.4771581649807
 30
0.0
  0
VERTEX
  5
12F
  8
1
  6
CONTINUOUS
 62
     7
 10
-414.5148908699745
 20
131.4534330148308
 30
0.0
  0
VERTEX
  5
130
  8
1
  6
CONTINUOUS
 62
     7
 10
-414.5177190134102
 20
131.4294568439449
 30
0.0
  0
VERTEX
  5
131
  8
1
  6
CONTINUOUS
 62
     7
 10
-414.5217582152616
 20
131.4053489533144
 30
0.0
  0
VERTEX
  5
132
  8
1
  6
CONTINUOUS
 62
     7
 10
-414.527082712096
 20
131.3810096876917
 30
0.0
  0
VERTEX
  5
133
  8
1
  6
CONTINUOUS
 62
     7
 10
-414.5337205243193
 20
131.3566063421943
 30
0.0
  0
VERTEX
  5
134
  8
1
  6
CONTINUOUS
 62
     7
 10
-414.5417560090645
 20
131.332085972932
 30
0.0
  0
VERTEX
  5
135
  8
1
  6
CONTINUOUS
 62
     7
 10
-414.551221628297
 20
131.3075905150001
 30
0.0
  0
VERTEX
  5
136
  8
1
  6
CONTINUOUS
 62
     7
 10
-414.5577148737481
 20
131.292701997747
 30
0.0
  0
VERTEX
  5
137
  8
1
  6
CONTINUOUS
 62
     7
 10
-414.5647708348693
 20
131.2778657182396
 30
0.0
  0
VERTEX
  5
138
  8
1
  6
CONTINUOUS
 62
     7
 10
-414.572050829428
 20
131.2637528413293
 30
0.0
  0
VERTEX
  5
139
  8
1
  6
CONTINUOUS
 62
     7
 10
-414.5798601612835
 20
131.2497313779665
 30
0.0
  0
VERTEX
  5
13A
  8
1
  6
CONTINUOUS
 62
     7
 10
-414.588243748273
 20
131.2357617339244
 30
0.0
  0
VERTEX
  5
13B
  8
1
  6
CONTINUOUS
 62
     7
 10
-414.5971797514233
 20
131.2219204358271
 30
0.0
  0
VERTEX
  5
13C
  8
1
  6
CONTINUOUS
 62
     7
 10
-414.6059389656493
 20
131.2092577538357
 30
0.0
  0
VERTEX
  5
13D
  8
1
  6
CONTINUOUS
 62
     7
 10
-414.6151837594127
 20
131.1967397232275
 30
0.0
  0
VERTEX
  5
13E
  8
1
  6
CONTINUOUS
 62
     7
 10
-414.6249655723122
 20
131.1843288725482
 30
0.0
  0
VERTEX
  5
13F
  8
1
  6
CONTINUOUS
 62
     7
 10
-414.6352472732916
 20
131.1721035150161
 30
0.0
  0
VERTEX
  5
140
  8
1
  6
CONTINUOUS
 62
     7
 10
-414.6452019795879
 20
131.1609834481654
 30
0.0
  0
VERTEX
  5
141
  8
1
  6
CONTINUOUS
 62
     7
 10
-414.6556009776754
 20
131.1500461844252
 30
0.0
  0
VERTEX
  5
142
  8
1
  6
CONTINUOUS
 62
     7
 10
-414.666486218792
 20
131.1392733599446
 30
0.0
  0
VERTEX
  5
143
  8
1
  6
CONTINUOUS
 62
     7
 10
-414.6778063400166
 20
131.1287394369021
 30
0.0
  0
VERTEX
  5
144
  8
1
  6
CONTINUOUS
 62
     7
 10
-414.6896276777023
 20
131.1184076047107
 30
0.0
  0
VERTEX
  5
145
  8
1
  6
CONTINUOUS
 62
     7
 10
-414.7018796191444
 20
131.1083627820698
 30
0.0
  0
VERTEX
  5
146
  8
1
  6
CONTINUOUS
 62
     7
 10
-414.7146323322338
 20
131.0985711326285
 30
0.0
  0
VERTEX
  5
147
  8
1
  6
CONTINUOUS
 62
     7
 10
-414.7278253936832
 20
131.0891029388501
 30
0.0
  0
VERTEX
  5
148
  8
1
  6
CONTINUOUS
 62
     7
 10
-414.7411834548665
 20
131.0801557743728
 30
0.0
  0
VERTEX
  5
149
  8
1
  6
CONTINUOUS
 62
     7
 10
-414.7549419992978
 20
131.071570650885
 30
0.0
  0
VERTEX
  5
14A
  8
1
  6
CONTINUOUS
 62
     7
 10
-414.7691630861925
 20
131.0633296730597
 30
0.0
  0
VERTEX
  5
14B
  8
1
  6
CONTINUOUS
 62
     7
 10
-414.783723606887
 20
131.0555208416052
 30
0.0
  0
VERTEX
  5
14C
  8
1
  6
CONTINUOUS
 62
     7
 10
-414.7987260809566
 20
131.0481068952906
 30
0.0
  0
VERTEX
  5
14D
  8
1
  6
CONTINUOUS
 62
     7
 10
-414.8140190416732
 20
131.0411766594128
 30
0.0
  0
VERTEX
  5
14E
  8
1
  6
CONTINUOUS
 62
     7
 10
-414.8297029718175
 20
131.0346983528964
 30
0.0
  0
VERTEX
  5
14F
  8
1
  6
CONTINUOUS
 62
     7
 10
-414.8456529937393
 20
131.0287363834625
 30
0.0
  0
SEQEND
  5
1F2
  8
1
  6
CONTINUOUS
 62
     7
  0
POLYLINE
  5
A6
  8
1
  6
CONTINUOUS
 62
     7
 66
     1
 10
0.0
 20
0.0
 30
0.0
  0
VERTEX
  5
150
  8
1
  6
CONTINUOUS
 62
     7
 10
-449.9785309765898
 20
132.0391164996545
 30
0.0
  0
VERTEX
  5
151
  8
1
  6
CONTINUOUS
 62
     7
 10
-449.9936768957047
 20
132.0457850328044
 30
0.0
  0
VERTEX
  5
152
  8
1
  6
CONTINUOUS
 62
     7
 10
-450.0085779695075
 20
132.052942698702
 30
0.0
  0
VERTEX
  5
153
  8
1
  6
CONTINUOUS
 62
     7
 10
-450.0233992026402
 20
132.0606810306636
 30
0.0
  0
VERTEX
  5
154
  8
1
  6
CONTINUOUS
 62
     7
 10
-450.0379222309416
 20
132.0688917758337
 30
0.0
  0
VERTEX
  5
155
  8
1
  6
CONTINUOUS
 62
     7
 10
-450.0521058599063
 20
132.0775426537978
 30
0.0
  0
VERTEX
  5
156
  8
1
  6
CONTINUOUS
 62
     7
 10
-450.0659088950287
 20
132.0866013841413
 30
0.0
  0
VERTEX
  5
157
  8
1
  6
CONTINUOUS
 62
     7
 10
-450.0795102988203
 20
132.0961900828638
 30
0.0
  0
VERTEX
  5
158
  8
1
  6
CONTINUOUS
 62
     7
 10
-450.0926945619501
 20
132.1061548477996
 30
0.0
  0
VERTEX
  5
159
  8
1
  6
CONTINUOUS
 62
     7
 10
-450.1050719847859
 20
132.1161571950418
 30
0.0
  0
VERTEX
  5
15A
  8
1
  6
CONTINUOUS
 62
     7
 10
-450.1170299968416
 20
132.1264636232014
 30
0.0
  0
VERTEX
  5
15B
  8
1
  6
CONTINUOUS
 62
     7
 10
-450.1324548311347
 20
132.1407830730298
 30
0.0
  0
VERTEX
  5
15C
  8
1
  6
CONTINUOUS
 62
     7
 10
-450.1470981252173
 20
132.1555633428898
 30
0.0
  0
VERTEX
  5
15D
  8
1
  6
CONTINUOUS
 62
     7
 10
-450.160932654288
 20
132.1707310692072
 30
0.0
  0
VERTEX
  5
15E
  8
1
  6
CONTINUOUS
 62
     7
 10
-450.1708705394856
 20
132.1824461077926
 30
0.0
  0
VERTEX
  5
15F
  8
1
  6
CONTINUOUS
 62
     7
 10
-450.1803496196654
 20
132.1943387175041
 30
0.0
  0
VERTEX
  5
160
  8
1
  6
CONTINUOUS
 62
     7
 10
-450.1913830940788
 20
132.209181676958
 30
0.0
  0
VERTEX
  5
161
  8
1
  6
CONTINUOUS
 62
     7
 10
-450.2017333346707
 20
132.2242303872579
 30
0.0
  0
VERTEX
  5
162
  8
1
  6
CONTINUOUS
 62
     7
 10
-450.2137422682407
 20
132.2433155248552
 30
0.0
  0
VERTEX
  5
163
  8
1
  6
CONTINUOUS
 62
     7
 10
-450.224721691957
 20
132.262630715023
 30
0.0
  0
VERTEX
  5
164
  8
1
  6
CONTINUOUS
 62
     7
 10
-450.234683895913
 20
132.2821067611713
 30
0.0
  0
VERTEX
  5
165
  8
1
  6
CONTINUOUS
 62
     7
 10
-450.2426897954624
 20
132.2994818533812
 30
0.0
  0
VERTEX
  5
166
  8
1
  6
CONTINUOUS
 62
     7
 10
-450.249940599565
 20
132.3169350948437
 30
0.0
  0
VERTEX
  5
167
  8
1
  6
CONTINUOUS
 62
     7
 10
-450.2564499368169
 20
132.3344307512208
 30
0.0
  0
VERTEX
  5
168
  8
1
  6
CONTINUOUS
 62
     7
 10
-450.2643003456209
 20
132.3587768186051
 30
0.0
  0
VERTEX
  5
169
  8
1
  6
CONTINUOUS
 62
     7
 10
-450.2708060283969
 20
132.3831200322869
 30
0.0
  0
VERTEX
  5
16A
  8
1
  6
CONTINUOUS
 62
     7
 10
-450.2760519096516
 20
132.4076266122134
 30
0.0
  0
VERTEX
  5
16B
  8
1
  6
CONTINUOUS
 62
     7
 10
-450.2800189371151
 20
132.4320412616273
 30
0.0
  0
VERTEX
  5
16C
  8
1
  6
CONTINUOUS
 62
     7
 10
-450.2827696292651
 20
132.4565759721202
 30
0.0
  0
VERTEX
  5
16D
  8
1
  6
CONTINUOUS
 62
     7
 10
-450.2842956106589
 20
132.4809444633185
 30
0.0
  0
VERTEX
  5
16E
  8
1
  6
CONTINUOUS
 62
     7
 10
-450.2846307291278
 20
132.5053026887743
 30
0.0
  0
VERTEX
  5
16F
  8
1
  6
CONTINUOUS
 62
     7
 10
-450.2837919123168
 20
132.529431142963
 30
0.0
  0
VERTEX
  5
170
  8
1
  6
CONTINUOUS
 62
     7
 10
-450.282033780893
 20
132.5511681430429
 30
0.0
  0
VERTEX
  5
171
  8
1
  6
CONTINUOUS
 62
     7
 10
-450.2793493197248
 20
132.5726728641459
 30
0.0
  0
VERTEX
  5
172
  8
1
  6
CONTINUOUS
 62
     7
 10
-450.2757376555336
 20
132.5940298163511
 30
0.0
  0
VERTEX
  5
173
  8
1
  6
CONTINUOUS
 62
     7
 10
-450.2712269290014
 20
132.615115204981
 30
0.0
  0
VERTEX
  5
174
  8
1
  6
CONTINUOUS
 62
     7
 10
-450.2657977190473
 20
132.6360345067197
 30
0.0
  0
VERTEX
  5
175
  8
1
  6
CONTINUOUS
 62
     7
 10
-450.259488346499
 20
132.6566427624646
 30
0.0
  0
VERTEX
  5
176
  8
1
  6
CONTINUOUS
 62
     7
 10
-450.2522751955987
 20
132.6770168091426
 30
0.0
  0
VERTEX
  5
177
  8
1
  6
CONTINUOUS
 62
     7
 10
-450.2441969619857
 20
132.6970399178456
 30
0.0
  0
VERTEX
  5
178
  8
1
  6
CONTINUOUS
 62
     7
 10
-450.24291642558
 20
132.7
 30
0.0
  0
SEQEND
  5
1F3
  8
1
  6
CONTINUOUS
 62
     7
  0
ARC
  5
A7
  8
1
  6
CONTINUOUS
 62
     7
 10
-432.6
 20
125.0
 30
0.0
 40
19.25000000000002
 50
203.578178478202
 51
339.7164314580508
  0
POLYLINE
  5
A8
  8
1
  6
CONTINUOUS
 62
     7
 66
     1
 10
0.0
 20
0.0
 30
0.0
  0
VERTEX
  5
179
  8
1
  6
CONTINUOUS
 62
     7
 10
-450.2429164255799
 20
117.3
 30
0.0
  0
VERTEX
  5
17A
  8
1
  6
CONTINUOUS
 62
     7
 10
-450.2441969619857
 20
117.3029600821542
 30
0.0
  0
VERTEX
  5
17B
  8
1
  6
CONTINUOUS
 62
     7
 10
-450.2521605641003
 20
117.3226806468483
 30
0.0
  0
VERTEX
  5
17C
  8
1
  6
CONTINUOUS
 62
     7
 10
-450.2592989908902
 20
117.3427844077979
 30
0.0
  0
VERTEX
  5
17D
  8
1
  6
CONTINUOUS
 62
     7
 10
-450.2655896432343
 20
117.3632316631254
 30
0.0
  0
VERTEX
  5
17E
  8
1
  6
CONTINUOUS
 62
     7
 10
-450.2710323242202
 20
117.3840653222999
 30
0.0
  0
VERTEX
  5
17F
  8
1
  6
CONTINUOUS
 62
     7
 10
-450.2755917363264
 20
117.4052112501544
 30
0.0
  0
VERTEX
  5
180
  8
1
  6
CONTINUOUS
 62
     7
 10
-450.2792588736647
 20
117.4267141036113
 30
0.0
  0
VERTEX
  5
181
  8
1
  6
CONTINUOUS
 62
     7
 10
-450.2819992393578
 20
117.4484971538132
 30
0.0
  0
VERTEX
  5
182
  8
1
  6
CONTINUOUS
 62
     7
 10
-450.2837919123167
 20
117.4705688570369
 30
0.0
  0
VERTEX
  5
183
  8
1
  6
CONTINUOUS
 62
     7
 10
-450.2846240334147
 20
117.4940990291503
 30
0.0
  0
VERTEX
  5
184
  8
1
  6
CONTINUOUS
 62
     7
 10
-450.2843374313251
 20
117.5179254412886
 30
0.0
  0
VERTEX
  5
185
  8
1
  6
CONTINUOUS
 62
     7
 10
-450.2828935083757
 20
117.5419789382449
 30
0.0
  0
VERTEX
  5
186
  8
1
  6
CONTINUOUS
 62
     7
 10
-450.2802375932727
 20
117.5663454237063
 30
0.0
  0
VERTEX
  5
187
  8
1
  6
CONTINUOUS
 62
     7
 10
-450.276329549072
 20
117.5908841551483
 30
0.0
  0
VERTEX
  5
188
  8
1
  6
CONTINUOUS
 62
     7
 10
-450.2710937848502
 20
117.6156765320911
 30
0.0
  0
VERTEX
  5
189
  8
1
  6
CONTINUOUS
 62
     7
 10
-450.2644921549129
 20
117.6405702861038
 30
0.0
  0
VERTEX
  5
18A
  8
1
  6
CONTINUOUS
 62
     7
 10
-450.2564499368168
 20
117.6655692487791
 30
0.0
  0
VERTEX
  5
18B
  8
1
  6
CONTINUOUS
 62
     7
 10
-450.2509583193133
 20
117.6804571859442
 30
0.0
  0
VERTEX
  5
18C
  8
1
  6
CONTINUOUS
 62
     7
 10
-450.2449335484752
 20
117.6953131013131
 30
0.0
  0
VERTEX
  5
18D
  8
1
  6
CONTINUOUS
 62
     7
 10
-450.2383386527001
 20
117.7101775874959
 30
0.0
  0
VERTEX
  5
18E
  8
1
  6
CONTINUOUS
 62
     7
 10
-450.2311839076838
 20
117.7249786174153
 30
0.0
  0
VERTEX
  5
18F
  8
1
  6
CONTINUOUS
 62
     7
 10
-450.2239295120086
 20
117.7388331255307
 30
0.0
  0
VERTEX
  5
190
  8
1
  6
CONTINUOUS
 62
     7
 10
-450.2161602934344
 20
117.7525995042848
 30
0.0
  0
VERTEX
  5
191
  8
1
  6
CONTINUOUS
 62
     7
 10
-450.2078303230325
 20
117.7663191043397
 30
0.0
  0
VERTEX
  5
192
  8
1
  6
CONTINUOUS
 62
     7
 10
-450.1989641275652
 20
117.7799127400158
 30
0.0
  0
VERTEX
  5
193
  8
1
  6
CONTINUOUS
 62
     7
 10
-450.1899175687992
 20
117.7928572617653
 30
0.0
  0
VERTEX
  5
194
  8
1
  6
CONTINUOUS
 62
     7
 10
-450.1803496196654
 20
117.8056612824959
 30
0.0
  0
VERTEX
  5
195
  8
1
  6
CONTINUOUS
 62
     7
 10
-450.1710429557824
 20
117.8173440888777
 30
0.0
  0
VERTEX
  5
196
  8
1
  6
CONTINUOUS
 62
     7
 10
-450.161293665039
 20
117.8288559269402
 30
0.0
  0
VERTEX
  5
197
  8
1
  6
CONTINUOUS
 62
     7
 10
-450.151047215023
 20
117.8402344666813
 30
0.0
  0
VERTEX
  5
198
  8
1
  6
CONTINUOUS
 62
     7
 10
-450.140353031663
 20
117.8513995638293
 30
0.0
  0
VERTEX
  5
199
  8
1
  6
CONTINUOUS
 62
     7
 10
-450.1291429684971
 20
117.8623956277121
 30
0.0
  0
VERTEX
  5
19A
  8
1
  6
CONTINUOUS
 62
     7
 10
-450.1174863610374
 20
117.8731298057602
 30
0.0
  0
VERTEX
  5
19B
  8
1
  6
CONTINUOUS
 62
     7
 10
-450.1053084933222
 20
117.8836452425743
 30
0.0
  0
VERTEX
  5
19C
  8
1
  6
CONTINUOUS
 62
     7
 10
-450.0926945619501
 20
117.8938451522004
 30
0.0
  0
VERTEX
  5
19D
  8
1
  6
CONTINUOUS
 62
     7
 10
-450.079857094699
 20
117.903556489791
 30
0.0
  0
VERTEX
  5
19E
  8
1
  6
CONTINUOUS
 62
     7
 10
-450.0666233497249
 20
117.9129116422747
 30
0.0
  0
VERTEX
  5
19F
  8
1
  6
CONTINUOUS
 62
     7
 10
-450.0529027833876
 20
117.9219537913023
 30
0.0
  0
VERTEX
  5
1A0
  8
1
  6
CONTINUOUS
 62
     7
 10
-450.0388187025432
 20
117.930584222247
 30
0.0
  0
VERTEX
  5
1A1
  8
1
  6
CONTINUOUS
 62
     7
 10
-450.0242632309827
 20
117.9388502233976
 30
0.0
  0
VERTEX
  5
1A2
  8
1
  6
CONTINUOUS
 62
     7
 10
-450.0093897945986
 20
117.946649756828
 30
0.0
  0
VERTEX
  5
1A3
  8
1
  6
CONTINUOUS
 62
     7
 10
-449.9940900854591
 20
117.9540245721153
 30
0.0
  0
VERTEX
  5
1A4
  8
1
  6
CONTINUOUS
 62
     7
 10
-449.9785309765898
 20
117.9608835003455
 30
0.0
  0
SEQEND
  5
1F4
  8
1
  6
CONTINUOUS
 62
     7
  0
POLYLINE
  5
A9
  8
1
  6
CONTINUOUS
 62
     7
 66
     1
 10
0.0
 20
0.0
 30
0.0
  0
VERTEX
  5
1A5
  8
1
  6
CONTINUOUS
 62
     7
 10
-414.8456529937394
 20
118.9712636165375
 30
0.0
  0
VERTEX
  5
1A6
  8
1
  6
CONTINUOUS
 62
     7
 10
-414.8327849509772
 20
118.9665021105314
 30
0.0
  0
VERTEX
  5
1A7
  8
1
  6
CONTINUOUS
 62
     7
 10
-414.820042855885
 20
118.9613853256101
 30
0.0
  0
VERTEX
  5
1A8
  8
1
  6
CONTINUOUS
 62
     7
 10
-414.8076851450289
 20
118.9560280382511
 30
0.0
  0
VERTEX
  5
1A9
  8
1
  6
CONTINUOUS
 62
     7
 10
-414.7955023302976
 20
118.9503526387424
 30
0.0
  0
VERTEX
  5
1AA
  8
1
  6
CONTINUOUS
 62
     7
 10
-414.783442956485
 20
118.9443343549804
 30
0.0
  0
VERTEX
  5
1AB
  8
1
  6
CONTINUOUS
 62
     7
 10
-414.7715913885934
 20
118.9380161181649
 30
0.0
  0
VERTEX
  5
1AC
  8
1
  6
CONTINUOUS
 62
     7
 10
-414.7603373111581
 20
118.9316295718564
 30
0.0
  0
VERTEX
  5
1AD
  8
1
  6
CONTINUOUS
 62
     7
 10
-414.7493019056332
 20
118.924984868849
 30
0.0
  0
VERTEX
  5
1AE
  8
1
  6
CONTINUOUS
 62
     7
 10
-414.7384435419279
 20
118.9180593780533
 30
0.0
  0
VERTEX
  5
1AF
  8
1
  6
CONTINUOUS
 62
     7
 10
-414.7278253936832
 20
118.9108970611499
 30
0.0
  0
VERTEX
  5
1B0
  8
1
  6
CONTINUOUS
 62
     7
 10
-414.7148969032155
 20
118.9016251922109
 30
0.0
  0
VERTEX
  5
1B1
  8
1
  6
CONTINUOUS
 62
     7
 10
-414.7023487775515
 20
118.8920091260693
 30
0.0
  0
VERTEX
  5
1B2
  8
1
  6
CONTINUOUS
 62
     7
 10
-414.6901433689202
 20
118.8820284297483
 30
0.0
  0
VERTEX
  5
1B3
  8
1
  6
CONTINUOUS
 62
     7
 10
-414.6783638143655
 20
118.8717626983407
 30
0.0
  0
VERTEX
  5
1B4
  8
1
  6
CONTINUOUS
 62
     7
 10
-414.6669498588457
 20
118.8611710742316
 30
0.0
  0
VERTEX
  5
1B5
  8
1
  6
CONTINUOUS
 62
     7
 10
-414.6559763871855
 20
118.8503364983881
 30
0.0
  0
VERTEX
  5
1B6
  8
1
  6
CONTINUOUS
 62
     7
 10
-414.645394586833
 20
118.8392252315011
 30
0.0
  0
VERTEX
  5
1B7
  8
1
  6
CONTINUOUS
 62
     7
 10
-414.6352472732916
 20
118.8278964849839
 30
0.0
  0
VERTEX
  5
1B8
  8
1
  6
CONTINUOUS
 62
     7
 10
-414.6262890711274
 20
118.8172899479713
 30
0.0
  0
VERTEX
  5
1B9
  8
1
  6
CONTINUOUS
 62
     7
 10
-414.6177083508108
 20
118.8065414217581
 30
0.0
  0
VERTEX
  5
1BA
  8
1
  6
CONTINUOUS
 62
     7
 10
-414.6094733437035
 20
118.7956247539147
 30
0.0
  0
VERTEX
  5
1BB
  8
1
  6
CONTINUOUS
 62
     7
 10
-414.6016123823386
 20
118.7845917219118
 30
0.0
  0
VERTEX
  5
1BC
  8
1
  6
CONTINUOUS
 62
     7
 10
-414.5940815963445
 20
118.7733931716229
 30
0.0
  0
VERTEX
  5
1BD
  8
1
  6
CONTINUOUS
 62
     7
 10
-414.5869205794604
 20
118.762100827195
 30
0.0
  0
VERTEX
  5
1BE
  8
1
  6
CONTINUOUS
 62
     7
 10
-414.5801051174324
 20
118.7506917889263
 30
0.0
  0
VERTEX
  5
1BF
  8
1
  6
CONTINUOUS
 62
     7
 10
-414.5736518194146
 20
118.7392095001518
 30
0.0
  0
VERTEX
  5
1C0
  8
1
  6
CONTINUOUS
 62
     7
 10
-414.561748371413
 20
118.7159321606682
 30
0.0
  0
VERTEX
  5
1C1
  8
1
  6
CONTINUOUS
 62
     7
 10
-414.551221628297
 20
118.6924094849998
 30
0.0
  0
VERTEX
  5
1C2
  8
1
  6
CONTINUOUS
 62
     7
 10
-414.5419738906127
 20
118.668523887691
 30
0.0
  0
VERTEX
  5
1C3
  8
1
  6
CONTINUOUS
 62
     7
 10
-414.5340445152074
 20
118.6444715111897
 30
0.0
  0
VERTEX
  5
1C4
  8
1
  6
CONTINUOUS
 62
     7
 10
-414.527417475501
 20
118.6203483609201
 30
0.0
  0
VERTEX
  5
1C5
  8
1
  6
CONTINUOUS
 62
     7
 10
-414.5220391450769
 20
118.5960967846034
 30
0.0
  0
VERTEX
  5
1C6
  8
1
  6
CONTINUOUS
 62
     7
 10
-414.5179091171102
 20
118.5718644757608
 30
0.0
  0
VERTEX
  5
1C7
  8
1
  6
CONTINUOUS
 62
     7
 10
-414.5149872376733
 20
118.5475859608059
 30
0.0
  0
VERTEX
  5
1C8
  8
1
  6
CONTINUOUS
 62
     7
 10
-414.5132656136202
 20
118.5234019300895
 30
0.0
  0
VERTEX
  5
1C9
  8
1
  6
CONTINUOUS
 62
     7
 10
-414.512718149223
 20
118.4993027308377
 30
0.0
  0
VERTEX
  5
1CA
  8
1
  6
CONTINUOUS
 62
     7
 10
-414.5136055421091
 20
118.4702159314155
 30
0.0
  0
VERTEX
  5
1CB
  8
1
  6
CONTINUOUS
 62
     7
 10
-414.5161627020736
 20
118.4414067346775
 30
0.0
  0
VERTEX
  5
1CC
  8
1
  6
CONTINUOUS
 62
     7
 10
-414.5203676546259
 20
118.4128709622672
 30
0.0
  0
VERTEX
  5
1CD
  8
1
  6
CONTINUOUS
 62
     7
 10
-414.5261903343689
 20
118.3847127133736
 30
0.0
  0
VERTEX
  5
1CE
  8
1
  6
CONTINUOUS
 62
     7
 10
-414.5336126071716
 20
118.3569673273589
 30
0.0
  0
VERTEX
  5
1CF
  8
1
  6
CONTINUOUS
 62
     7
 10
-414.5426151636576
 20
118.329695449045
 30
0.0
  0
VERTEX
  5
1D0
  8
1
  6
CONTINUOUS
 62
     7
 10
-414.5437234673861
 20
118.3266666666666
 30
0.0
  0
SEQEND
  5
1F5
  8
1
  6
CONTINUOUS
 62
     7
  0
LINE
  5
AA
  8
1
  6
CONTINUOUS
 62
     7
 10
-415.0127176630384
 20
131.0
 30
0.0
 11
-418.254181793986
 21
131.0
 31
0.0
  0
ARC
  5
AB
  8
1
  6
CONTINUOUS
 62
     7
 10
-432.6
 20
125.0
 30
0.0
 40
15.54999999999997
 50
337.3033507568549
 51
22.69664924314509
  0
LINE
  5
AC
  8
1
  6
CONTINUOUS
 62
     7
 10
-418.254181793986
 20
119.0
 30
0.0
 11
-415.0127176630385
 21
119.0
 31
0.0
  0
ARC
  5
AD
  8
1
  6
CONTINUOUS
 62
     7
 10
-432.6
 20
125.0
 30
0.0
 40
15.5499999999999
 50
153.2460006369763
 51
206.7539993630237
  0
LINE
  5
AE
  8
1
  6
CONTINUOUS
 62
     7
 10
-446.4853339895012
 20
132.0
 30
0.0
 11
-449.7846588560844
 21
132.0
 31
0.0
  0
LINE
  5
AF
  8
1
  6
CONTINUOUS
 62
     7
 10
-449.7846588560843
 20
118.0
 30
0.0
 11
-446.4853339895012
 21
118.0
 31
0.0
  0
ARC
  5
B0
  8
1
  6
CONTINUOUS
 62
     7
 10
-415.0127176630384
 20
131.5
 30
0.0
 40
0.5000000000000004
 50
270.0
 51
289.5196021779271
  0
ARC
  5
B1
  8
1
  6
CONTINUOUS
 62
     7
 10
-415.0127176630385
 20
118.5
 30
0.0
 40
0.4999999999999944
 50
70.48039782207333
 51
90.00000000000001
  0
ARC
  5
B2
  8
1
  6
CONTINUOUS
 62
     7
 10
-449.7846588560843
 20
117.5
 30
0.0
 40
0.5000000000000004
 50
90.00000000000001
 51
112.8142121141803
  0
ARC
  5
B3
  8
1
  6
CONTINUOUS
 62
     7
 10
-449.7846588560844
 20
132.5
 30
0.0
 40
0.4999999999999777
 50
247.1857878858197
 51
269.9999999999999
  0
LINE
  5
B4
  8
1
  6
CONTINUOUS
 62
     7
 10
-427.6
 20
111.5359216338436
 30
0.0
 11
-427.6
 21
111.8162979402597
 31
0.0
  0
LINE
  5
B5
  8
1
  6
CONTINUOUS
 62
     7
 10
-437.6
 20
138.1837020597402
 30
0.0
 11
-437.6
 21
138.4640783661563
 31
0.0
  0
LINE
  5
B6
  8
1
  6
CONTINUOUS
 62
     7
 10
-427.6
 20
138.4640783661563
 30
0.0
 11
-427.6
 21
138.1837020597403
 31
0.0
  0
LINE
  5
B7
  8
1
  6
CONTINUOUS
 62
     7
 10
-437.6
 20
111.8162979402597
 30
0.0
 11
-437.6
 21
111.5359216338436
 31
0.0
  0
ARC
  5
B8
  8
1
  6
CONTINUOUS
 62
     7
 10
-432.6
 20
125.0
 30
0.0
 40
17.24999999999997
 50
201.6883300763281
 51
203.9410872663098
  0
ARC
  5
B9
  8
1
  6
CONTINUOUS
 62
     7
 10
-432.6
 20
125.0
 30
0.0
 40
17.24999999999987
 50
156.0589127336901
 51
171.3889977336452
  0
ARC
  5
BA
  8
1
  6
CONTINUOUS
 62
     7
 10
-432.6
 20
125.0
 30
0.0
 40
17.24999999999996
 50
18.21717284181017
 51
20.35440639823719
  0
ARC
  5
BB
  8
1
  6
CONTINUOUS
 62
     7
 10
-432.6
 20
125.0
 30
0.0
 40
17.25000000000004
 50
339.6455936017628
 51
340.9591827719379
  0
LINE
  5
BC
  8
1
  6
CONTINUOUS
 62
     7
 10
-443.1972968369296
 20
132.5
 30
0.0
 11
-443.4872227978488
 21
132.5
 31
0.0
  0
LINE
  5
BD
  8
1
  6
CONTINUOUS
 62
     7
 10
-443.4872227978488
 20
132.5
 30
0.0
 11
-443.6592226783802
 21
132.5
 31
0.0
  0
ARC
  5
BE
  8
1
  6
CONTINUOUS
 62
     7
 10
-443.1972968369296
 20
132.0
 30
0.0
 40
0.4999999999999938
 50
326.5534107186367
 51
90.0
  0
ARC
  5
BF
  8
1
  6
CONTINUOUS
 62
     7
 10
-432.6
 20
125.0
 30
0.0
 40
12.20049999999999
 50
146.5534107186367
 51
213.4465892813632
  0
ARC
  5
C0
  8
1
  6
CONTINUOUS
 62
     7
 10
-443.1972968369296
 20
118.0
 30
0.0
 40
0.5000000000000004
 50
270.0
 51
33.44658928136318
  0
LINE
  5
C1
  8
1
  6
CONTINUOUS
 62
     7
 10
-443.6592226783802
 20
117.5
 30
0.0
 11
-443.4872227978488
 21
117.5
 31
0.0
  0
LINE
  5
C2
  8
1
  6
CONTINUOUS
 62
     7
 10
-443.4872227978488
 20
117.5
 30
0.0
 11
-443.1972968369296
 21
117.5
 31
0.0
  0
LINE
  5
C3
  8
1
  6
CONTINUOUS
 62
     7
 10
-421.5407773216198
 20
117.5
 30
0.0
 11
-421.7127772021512
 21
117.5
 31
0.0
  0
LINE
  5
C4
  8
1
  6
CONTINUOUS
 62
     7
 10
-421.7127772021512
 20
117.5
 30
0.0
 11
-422.0027031630703
 21
117.5
 31
0.0
  0
ARC
  5
C5
  8
1
  6
CONTINUOUS
 62
     7
 10
-432.6
 20
125.0
 30
0.0
 40
12.20049999999999
 50
326.5534107186368
 51
33.44658928136329
  0
ARC
  5
C6
  8
1
  6
CONTINUOUS
 62
     7
 10
-422.0027031630703
 20
132.0
 30
0.0
 40
0.5000000000000004
 50
90.00000000000001
 51
213.4465892813634
  0
LINE
  5
C7
  8
1
  6
CONTINUOUS
 62
     7
 10
-422.0027031630703
 20
132.5
 30
0.0
 11
-421.7127772021512
 21
132.5
 31
0.0
  0
LINE
  5
C8
  8
1
  6
CONTINUOUS
 62
     7
 10
-421.7127772021512
 20
132.5
 30
0.0
 11
-421.5407773216198
 21
132.5
 31
0.0
  0
ARC
  5
C9
  8
1
  6
CONTINUOUS
 62
     7
 10
-422.0027031630703
 20
118.0
 30
0.0
 40
0.4999999999999785
 50
146.5534107186368
 51
270.0
  0
ARC
  5
CA
  8
1
  6
CONTINUOUS
 62
     7
 10
-432.6
 20
125.0
 30
0.0
 40
12.25000000000001
 50
34.44297687468145
 51
90.0
  0
ARC
  5
CB
  8
1
  6
CONTINUOUS
 62
     7
 10
-432.6
 20
125.0
 30
0.0
 40
12.25
 50
214.442976874681
 51
325.5570231253195
  0
ARC
  5
CC
  8
1
  6
CONTINUOUS
 62
     7
 10
-432.6
 20
125.0
 30
0.0
 40
12.25000000000002
 50
90.0
 51
145.5570231253192
  0
CIRCLE
  5
CD
  8
1
  6
CONTINUOUS
 62
     7
 10
-432.6
 20
125.0
 30
0.0
 40
12.05
  0
CIRCLE
  5
CE
  8
1
  6
CONTINUOUS
 62
     7
 10
-432.6
 20
125.0
 30
0.0
 40
10.55
  0
LINE
  5
CF
  8
1
  6
CONTINUOUS
 62
     7
 10
-413.5354740160325
 20
121.1457678829863
 30
0.0
 11
-413.5357062025186
 21
121.1457553264744
 31
0.0
  0
ENDBLK
  8
0
  0
BLOCK
  8
0
  2
D_FRAME_VIEW_2893
 70
     0
 10
0.0
 20
0.0
 30
0.0
  0
LINE
  5
D7
  8
1
  6
CONTINUOUS
 62
     7
 10
-465.0339266778848
 20
143.35
 30
0.0
 11
-465.2339266778715
 21
143.35
 31
0.0
  0
LINE
  5
D8
  8
1
  6
CONTINUOUS
 62
     7
 10
-494.73392667787
 20
143.35
 30
0.0
 11
-495.0339266778847
 21
143.35
 31
0.0
  0
LINE
  5
D9
  8
1
  6
CONTINUOUS
 62
     7
 10
-465.0339266778848
 20
118.3950000010263
 30
0.0
 11
-465.2339266778715
 21
118.3950000010263
 31
0.0
  0
LINE
  5
DA
  8
1
  6
CONTINUOUS
 62
     7
 10
-494.73392667787
 20
118.3950000010263
 30
0.0
 11
-495.0339266778847
 21
118.3950000010263
 31
0.0
  0
LINE
  5
DB
  8
1
  6
CONTINUOUS
 62
     7
 10
-465.0339266778848
 20
132.0
 30
0.0
 11
-465.0339266778848
 21
127.55520268096
 31
0.0
  0
LINE
  5
DC
  8
1
  6
CONTINUOUS
 62
     7
 10
-465.0339266778848
 20
118.5118471485222
 30
0.0
 11
-465.0339266778848
 21
118.3950000010263
 31
0.0
  0
LINE
  5
DD
  8
1
  6
CONTINUOUS
 62
     7
 10
-495.0339266778847
 20
143.35
 30
0.0
 11
-495.0339266778847
 21
118.3950000010263
 31
0.0
  0
LINE
  5
DE
  8
1
  6
CONTINUOUS
 62
     7
 10
-465.0339266778848
 20
118.0
 30
0.0
 11
-465.0339266778848
 21
118.3950000010263
 31
0.0
  0
LINE
  5
DF
  8
1
  6
CONTINUOUS
 62
     7
 10
-495.0339266778847
 20
108.0291391275
 30
0.0
 11
-495.0339266778847
 21
118.3950000010263
 31
0.0
  0
LINE
  5
E0
  8
1
  6
CONTINUOUS
 62
     7
 10
-465.0339266778848
 20
107.0509915267796
 30
0.0
 11
-465.2944189131153
 21
107.0509915267796
 31
0.0
  0
LINE
  5
E1
  8
1
  6
CONTINUOUS
 62
     7
 10
-494.73392667787
 20
107.0509915267796
 30
0.0
 11
-495.0339266778847
 21
107.0509915267796
 31
0.0
  0
LINE
  5
E2
  8
1
  6
CONTINUOUS
 62
     7
 10
-495.0339266778847
 20
107.0509915267796
 30
0.0
 11
-495.0339266778847
 21
106.65
 31
0.0
  0
LINE
  5
E3
  8
1
  6
CONTINUOUS
 62
     7
 10
-465.0339266778848
 20
108.0291391275001
 30
0.0
 11
-465.2339266778715
 21
108.0291391275001
 31
0.0
  0
LINE
  5
E4
  8
1
  6
CONTINUOUS
 62
     7
 10
-494.73392667787
 20
108.0291391275001
 30
0.0
 11
-495.0339266778847
 21
108.0291391275001
 31
0.0
  0
LINE
  5
E5
  8
1
  6
CONTINUOUS
 62
     7
 10
-495.0339266778847
 20
108.0291391275001
 30
0.0
 11
-495.0339266778847
 21
107.0509915267796
 31
0.0
  0
LINE
  5
E6
  8
1
  6
CONTINUOUS
 62
     7
 10
-465.7339266778715
 20
127.4727095633427
 30
0.0
 11
-462.7339266778717
 21
127.4727095633427
 31
0.0
  0
LINE
  5
E7
  8
1
  6
CONTINUOUS
 62
     7
 10
-465.7339266778715
 20
118.5118471485222
 30
0.0
 11
-462.7339266778717
 21
118.5118471485222
 31
0.0
  0
LINE
  5
E8
  8
1
  6
CONTINUOUS
 62
     7
 10
-466.2164742714343
 20
106.5553617977513
 30
0.0
 11
-465.7339266778715
 21
106.5966114098669
 31
0.0
  0
LINE
  5
E9
  8
1
  6
CONTINUOUS
 62
     7
 10
-494.7339266778697
 20
106.4116354951165
 30
0.0
 11
-466.2164742714367
 21
106.5553617977554
 31
0.0
  0
LINE
  5
EA
  8
1
  6
CONTINUOUS
 62
     7
 10
-494.73392667787
 20
106.4116354951145
 30
0.0
 11
-494.73392667787
 21
144.2499999999978
 31
0.0
  0
LINE
  5
EB
  8
1
  6
CONTINUOUS
 62
     7
 10
-465.2339266778715
 20
143.7499999999979
 30
0.0
 11
-465.2339266778715
 21
127.5001800149424
 31
0.0
  0
LINE
  5
EC
  8
1
  6
CONTINUOUS
 62
     7
 10
-465.2339266778715
 20
127.5001800149425
 30
0.0
 11
-465.7339266778715
 21
127.4727095633427
 31
0.0
  0
LINE
  5
ED
  8
1
  6
CONTINUOUS
 62
     7
 10
-462.7339266778717
 20
127.4727095633427
 30
0.0
 11
-462.2339266778718
 21
127.5001800149425
 31
0.0
  0
LINE
  5
EE
  8
1
  6
CONTINUOUS
 62
     7
 10
-462.2339266778718
 20
127.5001800149424
 30
0.0
 11
-462.2339266778718
 21
118.5400553480725
 31
0.0
  0
LINE
  5
EF
  8
1
  6
CONTINUOUS
 62
     7
 10
-462.2339266778718
 20
118.5400553480716
 30
0.0
 11
-462.7339266778717
 21
118.5118471485222
 31
0.0
  0
LINE
  5
F0
  8
1
  6
CONTINUOUS
 62
     7
 10
-465.2339266778715
 20
127.55520268096
 30
0.0
 11
-463.7339266778716
 21
127.55520268096
 31
0.0
  0
LINE
  5
F1
  8
1
  6
CONTINUOUS
 62
     7
 10
-463.7339266778716
 20
127.55520268096
 30
0.0
 11
-463.7339266778716
 21
127.5827598275465
 31
0.0
  0
LINE
  5
F2
  8
1
  6
CONTINUOUS
 62
     9
 10
-462.2339266778718
 20
127.6324683680048
 30
0.0
 11
-463.7339266778717
 21
127.6324683680048
 31
0.0
  0
LINE
  5
F3
  8
1
  6
CONTINUOUS
 62
     7
 10
-462.2339266778718
 20
127.5001800149425
 30
0.0
 11
-462.2339266778718
 21
127.6324683680048
 31
0.0
  0
LINE
  5
F4
  8
1
  6
CONTINUOUS
 62
     7
 10
-465.2339266778715
 20
118.540055348072
 30
0.0
 11
-465.2339266778715
 21
107.4345034137203
 31
0.0
  0
POLYLINE
  5
F5
  8
1
  6
CONTINUOUS
 62
     7
 66
     1
 10
0.0
 20
0.0
 30
0.0
  0
VERTEX
  5
1D3
  8
1
  6
CONTINUOUS
 62
     7
 10
-465.2339266778715
 20
107.4345034137177
 30
0.0
  0
VERTEX
  5
1D4
  8
1
  6
CONTINUOUS
 62
     7
 10
-465.233935827115
 20
107.4295766861448
 30
0.0
  0
VERTEX
  5
1D5
  8
1
  6
CONTINUOUS
 62
     7
 10
-465.2353987008721
 20
107.3722032727166
 30
0.0
  0
VERTEX
  5
1D6
  8
1
  6
CONTINUOUS
 62
     7
 10
-465.2393885771473
 20
107.3149918007597
 30
0.0
  0
VERTEX
  5
1D7
  8
1
  6
CONTINUOUS
 62
     7
 10
-465.2459602631337
 20
107.2580345855894
 30
0.0
  0
VERTEX
  5
1D8
  8
1
  6
CONTINUOUS
 62
     7
 10
-465.2551862032047
 20
107.2014350183397
 30
0.0
  0
VERTEX
  5
1D9
  8
1
  6
CONTINUOUS
 62
     7
 10
-465.2653471015109
 20
107.1529845815311
 30
0.0
  0
VERTEX
  5
1DA
  8
1
  6
CONTINUOUS
 62
     7
 10
-465.2776404218945
 20
107.1049046922785
 30
0.0
  0
VERTEX
  5
1DB
  8
1
  6
CONTINUOUS
 62
     7
 10
-465.2921389052977
 20
107.0573549699012
 30
0.0
  0
VERTEX
  5
1DC
  8
1
  6
CONTINUOUS
 62
     7
 10
-465.3090045701011
 20
107.0102833336299
 30
0.0
  0
VERTEX
  5
1DD
  8
1
  6
CONTINUOUS
 62
     7
 10
-465.3283124416266
 20
106.9639761905548
 30
0.0
  0
VERTEX
  5
1DE
  8
1
  6
CONTINUOUS
 62
     7
 10
-465.3502829549355
 20
106.9184288134216
 30
0.0
  0
VERTEX
  5
1DF
  8
1
  6
CONTINUOUS
 62
     7
 10
-465.3750224451889
 20
106.8739804736781
 30
0.0
  0
VERTEX
  5
1E0
  8
1
  6
CONTINUOUS
 62
     7
 10
-465.4027692586219
 20
106.8307926798788
 30
0.0
  0
VERTEX
  5
1E1
  8
1
  6
CONTINUOUS
 62
     7
 10
-465.4198032698004
 20
106.8071378591856
 30
0.0
  0
VERTEX
  5
1E2
  8
1
  6
CONTINUOUS
 62
     7
 10
-465.4379146480692
 20
106.7840343234213
 30
0.0
  0
VERTEX
  5
1E3
  8
1
  6
CONTINUOUS
 62
     7
 10
-465.4571276684823
 20
106.7615844263488
 30
0.0
  0
VERTEX
  5
1E4
  8
1
  6
CONTINUOUS
 62
     7
 10
-465.4775639965197
 20
106.7397956084186
 30
0.0
  0
VERTEX
  5
1E5
  8
1
  6
CONTINUOUS
 62
     7
 10
-465.499215535437
 20
106.7188376601015
 30
0.0
  0
VERTEX
  5
1E6
  8
1
  6
CONTINUOUS
 62
     7
 10
-465.5222205184528
 20
106.6987521029272
 30
0.0
  0
VERTEX
  5
1E7
  8
1
  6
CONTINUOUS
 62
     7
 10
-465.5465686753136
 20
106.6797386368481
 30
0.0
  0
VERTEX
  5
1E8
  8
1
  6
CONTINUOUS
 62
     7
 10
-465.5723597338676
 20
106.6619217057572
 30
0.0
  0
VERTEX
  5
1E9
  8
1
  6
CONTINUOUS
 62
     7
 10
-465.5901494507245
 20
106.6509371983669
 30
0.0
  0
VERTEX
  5
1EA
  8
1
  6
CONTINUOUS
 62
     7
 10
-465.6085570560199
 20
106.6406360103121
 30
0.0
  0
VERTEX
  5
1EB
  8
1
  6
CONTINUOUS
 62
     7
 10
-465.627702514293
 20
106.6310252414547
 30
0.0
  0
VERTEX
  5
1EC
  8
1
  6
CONTINUOUS
 62
     7
 10
-465.6474822886161
 20
106.622234945905
 30
0.0
  0
VERTEX
  5
1ED
  8
1
  6
CONTINUOUS
 62
     7
 10
-465.6680547690034
 20
106.6142808822378
 30
0.0
  0
VERTEX
  5
1EE
  8
1
  6
CONTINUOUS
 62
     7
 10
-465.6892596372936
 20
106.6073145266616
 30
0.0
  0
VERTEX
  5
1EF
  8
1
  6
CONTINUOUS
 62
     7
 10
-465.7038798762265
 20
106.6032248707532
 30
0.0
  0
VERTEX
  5
1F0
  8
1
  6
CONTINUOUS
 62
     7
 10
-465.7187754264276
 20
106.5996471879417
 30
0.0
  0
VERTEX
  5
1F1
  8
1
  6
CONTINUOUS
 62
     7
 10
-465.7339266778715
 20
106.5966114098669
 30
0.0
  0
SEQEND
  5
1F6
  8
1
  6
CONTINUOUS
 62
     7
  0
LINE
  5
F6
  8
1
  6
CONTINUOUS
 62
     7
 10
-462.2339266778718
 20
127.6331979142584
 30
0.0
 11
-462.2339266778718
 21
127.6324683680047
 31
0.0
  0
LINE
  5
F7
  8
1
  6
CONTINUOUS
 62
     7
 10
-462.0339266778716
 20
143.75
 30
0.0
 11
-462.0339266778716
 21
132.0391164996545
 31
0.0
  0
LINE
  5
F8
  8
1
  6
CONTINUOUS
 62
     7
 10
-462.0339266778716
 20
132.0
 30
0.0
 11
-465.0339266778716
 21
132.0
 31
0.0
  0
LINE
  5
F9
  8
1
  6
CONTINUOUS
 62
     7
 10
-462.0339266778716
 20
132.0391164996545
 30
0.0
 11
-462.0339266778716
 21
132.0
 31
0.0
  0
LINE
  5
FA
  8
1
  6
CONTINUOUS
 62
     7
 10
-465.0339266778716
 20
132.0
 30
0.0
 11
-465.0339266778716
 21
132.7
 31
0.0
  0
LINE
  5
FB
  8
1
  6
CONTINUOUS
 62
     7
 10
-462.0339266778716
 20
117.9608835003455
 30
0.0
 11
-462.0339266778716
 21
106.2500000000001
 31
0.0
  0
LINE
  5
FC
  8
1
  6
CONTINUOUS
 62
     7
 10
-465.0339266778716
 20
118.0
 30
0.0
 11
-462.0339266778716
 21
118.0
 31
0.0
  0
LINE
  5
FD
  8
1
  6
CONTINUOUS
 62
     7
 10
-462.0339266778716
 20
118.0
 30
0.0
 11
-462.0339266778716
 21
117.9608835003455
 31
0.0
  0
LINE
  5
FE
  8
1
  6
CONTINUOUS
 62
     7
 10
-465.0339266778716
 20
117.3
 30
0.0
 11
-465.0339266778716
 21
118.0
 31
0.0
  0
LINE
  5
FF
  8
1
  6
CONTINUOUS
 62
     7
 10
-465.0339266778716
 20
132.7
 30
0.0
 11
-465.0339266778716
 21
144.25
 31
0.0
  0
LINE
  5
100
  8
1
  6
CONTINUOUS
 62
     7
 10
-465.0339266778716
 20
105.7500000000001
 30
0.0
 11
-465.0339266778716
 21
117.3
 31
0.0
  0
LINE
  5
101
  8
1
  6
CONTINUOUS
 62
     7
 10
-463.7339266778716
 20
118.0000000000001
 30
0.0
 11
-463.7339266778716
 21
118.5118471485222
 31
0.0
  0
LINE
  5
102
  8
1
  6
CONTINUOUS
 62
     7
 10
-463.7339266778716
 20
127.55520268096
 30
0.0
 11
-463.7339266778716
 21
132.0
 31
0.0
  0
LINE
  5
103
  8
1
  6
CONTINUOUS
 62
     7
 10
-462.0339266778716
 20
132.0
 30
0.0
 11
-462.0339266778716
 21
118.0000000000001
 31
0.0
  0
LINE
  5
104
  8
1
  6
CONTINUOUS
 62
     7
 10
-510.8719266778715
 20
138.0785
 30
0.0
 11
-510.8719266778715
 21
125.0
 31
0.0
  0
LINE
  5
105
  8
1
  6
CONTINUOUS
 62
     7
 10
-510.8719266778715
 20
125.0
 30
0.0
 11
-510.8719266778715
 21
111.9215
 31
0.0
  0
LINE
  5
106
  8
1
  6
CONTINUOUS
 62
     7
 10
-512.0339266778715
 20
113.0835000000001
 30
0.0
 11
-512.0339266778715
 21
125.0
 31
0.0
  0
LINE
  5
107
  8
1
  6
CONTINUOUS
 62
     7
 10
-512.0339266778715
 20
125.0
 30
0.0
 11
-512.0339266778715
 21
136.9165
 31
0.0
  0
LINE
  5
108
  8
1
  6
CONTINUOUS
 62
     7
 10
-513.0339266778715
 20
113.0835000000001
 30
0.0
 11
-513.0339266778715
 21
136.9165
 31
0.0
  0
LINE
  5
109
  8
1
  6
CONTINUOUS
 62
     7
 10
-495.0339266778847
 20
106.65
 30
0.0
 11
-494.73392667787
 21
106.65
 31
0.0
  0
LINE
  5
10A
  8
1
  6
CONTINUOUS
 62
     7
 10
-465.5918241680027
 20
106.65
 30
0.0
 11
-465.0339266778848
 21
106.65
 31
0.0
  0
LINE
  5
10B
  8
1
  6
CONTINUOUS
 62
     7
 10
-465.7339266778716
 20
144.25
 30
0.0
 11
-494.73392667787
 21
144.25
 31
0.0
  0
ARC
  5
10C
  8
1
  6
CONTINUOUS
 62
     7
 10
-465.7339266778715
 20
143.7499999999989
 30
0.0
 40
0.4999999999999449
 50
0.0000000001176805
 51
90.0
  0
LINE
  5
10D
  8
1
  6
CONTINUOUS
 62
     7
 10
-462.2339266778718
 20
127.6331979142585
 30
0.0
 11
-463.7339266778717
 21
127.6331979142585
 31
0.0
  0
ARC
  5
10E
  8
1
  6
CONTINUOUS
 62
     7
 10
-462.5339266778716
 20
143.75
 30
0.0
 40
0.500000000000056
 50
359.9999999999993
 51
90.0
  0
ARC
  5
10F
  8
1
  6
CONTINUOUS
 62
     7
 10
-462.5339266778716
 20
106.2500000000001
 30
0.0
 40
0.5000000000000004
 50
270.0
 51
0.0000000000007958
  0
LINE
  5
110
  8
1
  6
CONTINUOUS
 62
     7
 10
-462.5339266778716
 20
144.25
 30
0.0
 11
-465.0339266778716
 21
144.25
 31
0.0
  0
LINE
  5
111
  8
1
  6
CONTINUOUS
 62
     7
 10
-465.0339266778716
 20
105.7500000000001
 30
0.0
 11
-462.5339266778716
 21
105.7500000000001
 31
0.0
  0
LINE
  5
112
  8
1
  6
CONTINUOUS
 62
     7
 10
-510.8719266778714
 20
111.9215
 30
0.0
 11
-495.0339266778715
 21
111.9215
 31
0.0
  0
LINE
  5
113
  8
1
  6
CONTINUOUS
 62
     7
 10
-495.0339266778715
 20
138.0785
 30
0.0
 11
-510.8719266778714
 21
138.0785
 31
0.0
  0
LINE
  5
114
  8
1
  6
CONTINUOUS
 62
     7
 10
-510.8719266778715
 20
138.0785
 30
0.0
 11
-511.8919266778715
 21
137.0585
 31
0.0
  0
LINE
  5
115
  8
1
  6
CONTINUOUS
 62
     7
 10
-511.8919266778715
 20
137.0585
 30
0.0
 11
-512.0339266778715
 21
136.9165
 31
0.0
  0
LINE
  5
116
  8
1
  6
CONTINUOUS
 62
     7
 10
-512.0339266778715
 20
113.0835000000001
 30
0.0
 11
-511.8919266778715
 21
112.9415
 31
0.0
  0
LINE
  5
117
  8
1
  6
CONTINUOUS
 62
     7
 10
-511.8919266778715
 20
112.9415
 30
0.0
 11
-510.8719266778715
 21
111.9215
 31
0.0
  0
LINE
  5
118
  8
1
  6
CONTINUOUS
 62
     7
 10
-513.0339266778715
 20
113.0835
 30
0.0
 11
-512.0339266778715
 21
113.0835
 31
0.0
  0
LINE
  5
119
  8
1
  6
CONTINUOUS
 62
     7
 10
-512.0339266778715
 20
136.9165
 30
0.0
 11
-513.0339266778715
 21
136.9165
 31
0.0
  0
ENDBLK
  8
0
  0
ENDSEC
  0
SECTION
  2
ENTITIES
  0
INSERT
  5
D0
  8
1
  6
CONTINUOUS
 62
     7
  2
D_FRAME_VIEW_2096
 10
0.0
 20
0.0
 30
0.0
  0
LINE
  5
D1
  8
1
  6
CENTER
 62
     1
 10
-458.0339266778715
 20
125.0000000000001
 30
0.0
 11
-514.8719266778714
 21
125.0000000000001
 31
0.0
  0
TEXT
  5
D3
  8
1
  6
CONTINUOUS
 62
     7
 10
-483.7656464924347
 20
92.46590909090911
 30
0.0
 40
5.0
  1
ＢＪ－２２Ｘ３
  0
INSERT
  5
11A
  8
1
  6
CONTINUOUS
 62
     7
  2
D_FRAME_VIEW_2893
 10
0.0
 20
0.0
 30
0.0
  0
LINE
  5
11B
  8
1
  6
CENTER
 62
     1
 10
-453.85
 20
125.0
 30
0.0
 11
-411.3499999999999
 21
125.0
 31
0.0
  0
LINE
  5
11C
  8
1
  6
CENTER
 62
     1
 10
-432.6
 20
103.75
 30
0.0
 11
-432.6
 21
146.25
 31
0.0
  0
ENDSEC
  0
EOF
