  0
SECTION
  2
HEADER
  9
$ACADVER
  1
AC1006
  9
$DWGCODEPAGE
  3
ansi_932
  9
$INSBASE
 10
0.0
 20
0.0
 30
0.0
  9
$EXTMIN
 10
-660.8719266778716
 20
92.98863636363637
  9
$EXTMAX
 10
-556.35
 20
146.25
  9
$LIMMIN
 10
0.0
 20
0.0
  9
$LIMMAX
 10
12.0
 20
9.0
  9
$ORTHOMODE
 70
     0
  9
$REGENMODE
 70
     1
  9
$FILLMODE
 70
     1
  9
$QTEXTMODE
 70
     0
  9
$MIRRTEXT
 70
     1
  9
$DRAGMODE
 70
     2
  9
$LTSCALE
 40
1.0
  9
$OSMODE
 70
    37
  9
$ATTMODE
 70
     1
  9
$TEXTSIZE
 40
0.2
  9
$TRACEWID
 40
0.05
  9
$TEXTSTYLE
  7
STANDARD
  9
$CLAYER
  8
0
  9
$CELTYPE
  6
BYLAYER
  9
$CECOLOR
 62
   256
  9
$DIMSCALE
 40
1.0
  9
$DIMASZ
 40
3.0
  9
$DIMEXO
 40
0.0625
  9
$DIMDLI
 40
0.38
  9
$DIMRND
 40
0.0
  9
$DIMDLE
 40
0.0
  9
$DIMEXE
 40
1.5
  9
$DIMTP
 40
0.0
  9
$DIMTM
 40
0.0
  9
$DIMTXT
 40
3.0
  9
$DIMCEN
 40
0.09
  9
$DIMTSZ
 40
0.0
  9
$DIMTOL
 70
     0
  9
$DIMLIM
 70
     0
  9
$DIMTIH
 70
     1
  9
$DIMTOH
 70
     1
  9
$DIMSE1
 70
     0
  9
$DIMSE2
 70
     0
  9
$DIMTAD
 70
     1
  9
$DIMZIN
 70
     0
  9
$DIMBLK
  1

  9
$DIMASO
 70
     1
  9
$DIMSHO
 70
     1
  9
$DIMPOST
  1

  9
$DIMAPOST
  1

  9
$DIMALT
 70
     0
  9
$DIMALTD
 70
     2
  9
$DIMALTF
 40
25.4
  9
$DIMLFAC
 40
1.0
  9
$DIMTOFL
 70
     0
  9
$DIMTVP
 40
0.0
  9
$DIMTIX
 70
     0
  9
$DIMSOXD
 70
     0
  9
$DIMSAH
 70
     0
  9
$DIMBLK1
  1

  9
$DIMBLK2
  1

  9
$LUNITS
 70
     2
  9
$LUPREC
 70
     4
  9
$SKETCHINC
 40
0.1
  9
$FILLETRAD
 40
0.5
  9
$AUNITS
 70
     0
  9
$AUPREC
 70
     0
  9
$MENU
  1
.
  9
$ELEVATION
 40
0.0
  9
$THICKNESS
 40
0.0
  9
$LIMCHECK
 70
     0
  9
$CHAMFERA
 40
0.0
  9
$CHAMFERB
 40
0.0
  9
$SKPOLY
 70
     0
  9
$TDCREATE
 40
2460426.481220752
  9
$TDUPDATE
 40
2460426.481221377
  9
$TDINDWG
 40
0.0000000116
  9
$TDUSRTIMER
 40
0.0000000116
  9
$USRTIMER
 70
     1
  9
$ANGBASE
 50
0.0
  9
$ANGDIR
 70
     0
  9
$PDMODE
 70
     0
  9
$PDSIZE
 40
0.0
  9
$PLINEWID
 40
0.0
  9
$COORDS
 70
     1
  9
$SPLFRAME
 70
     0
  9
$SPLINETYPE
 70
     6
  9
$SPLINESEGS
 70
     8
  9
$ATTDIA
 70
     0
  9
$ATTREQ
 70
     1
  9
$HANDLING
 70
     1
  9
$HANDSEED
  5
1AC
  9
$SURFTAB1
 70
     6
  9
$SURFTAB2
 70
     6
  9
$SURFTYPE
 70
     6
  9
$SURFU
 70
     6
  9
$SURFV
 70
     6
  9
$UCSNAME
  2

  9
$UCSORG
 10
0.0
 20
0.0
 30
0.0
  9
$UCSXDIR
 10
1.0
 20
0.0
 30
0.0
  9
$UCSYDIR
 10
0.0
 20
1.0
 30
0.0
  9
$USERI1
 70
     0
  9
$USERI2
 70
     0
  9
$USERI3
 70
     0
  9
$USERI4
 70
     0
  9
$USERI5
 70
     0
  9
$USERR1
 40
0.0
  9
$USERR2
 40
0.0
  9
$USERR3
 40
0.0
  9
$USERR4
 40
0.0
  9
$USERR5
 40
0.0
  9
$WORLDVIEW
 70
     1
  0
ENDSEC
  0
SECTION
  2
TABLES
  0
TABLE
  2
VPORT
 70
     1
  0
VPORT
  2
*ACTIVE
 70
     0
 10
0.0
 20
0.0
 11
1.0
 21
1.0
 12
-608.6109633389358
 22
119.6193181818182
 13
0.0
 23
0.0
 14
0.5
 24
0.5
 15
0.5
 25
0.5
 16
0.0
 26
0.0
 36
1.0
 17
0.0
 27
0.0
 37
0.0
 40
53.26136363636363
 41
1.6
 42
50.0
 43
0.0
 44
0.0
 50
0.0
 51
0.0
 71
     0
 72
   100
 73
     1
 74
     3
 75
     0
 76
     0
 77
     0
 78
     0
  0
ENDTAB
  0
TABLE
  2
LTYPE
 70
     2
  0
LTYPE
  2
CONTINUOUS
 70
     0
  3
Solid line
 72
    65
 73
     0
 40
0.0
  0
LTYPE
  2
CENTER
 70
     0
  3

 72
    65
 73
     0
 40
0.0
  0
ENDTAB
  0
TABLE
  2
LAYER
 70
     2
  0
LAYER
  2
0
 70
     0
 62
     7
  6
CONTINUOUS
  0
LAYER
  2
1
 70
     0
 62
     7
  6
CONTINUOUS
  0
ENDTAB
  0
TABLE
  2
STYLE
 70
     2
  0
STYLE
  2
STANDARD
 70
     0
 40
0.0
 41
1.0
 50
0.0
 71
     0
 42
0.2
  3
txt
  4

  0
STYLE
  2
ＭＳ_ゴシック
 70
     0
 40
0.0
 41
1.0
 50
0.0
 71
     0
 42
0.2
  3
ＭＳ ゴシック.shx
  4

  0
ENDTAB
  0
TABLE
  2
VIEW
 70
     0
  0
ENDTAB
  0
TABLE
  2
UCS
 70
     0
  0
ENDTAB
  0
ENDSEC
  0
SECTION
  2
BLOCKS
  0
BLOCK
  8
0
  2
D_FRAME_VIEW_2085
 70
     0
 10
0.0
 20
0.0
 30
0.0
  0
LINE
  5
71
  8
1
  6
CONTINUOUS
 62
     7
 10
-639.5339266778726
 20
107.6952771561782
 30
0.0
 11
-640.033926678004
 21
107.6952771561782
 31
0.0
  0
LINE
  5
72
  8
1
  6
CONTINUOUS
 62
     7
 10
-640.033926678004
 20
107.695277156178
 30
0.0
 11
-640.033926678004
 21
142.2952771561791
 31
0.0
  0
LINE
  5
73
  8
1
  6
CONTINUOUS
 62
     7
 10
-610.5339266778717
 20
128.5
 30
0.0
 11
-607.5339266778717
 21
128.5
 31
0.0
  0
LINE
  5
74
  8
1
  6
CONTINUOUS
 62
     7
 10
-610.5339266778717
 20
119.5
 30
0.0
 11
-607.5339266778717
 21
119.5
 31
0.0
  0
LINE
  5
75
  8
1
  6
CONTINUOUS
 62
     7
 10
-611.0164742714345
 20
106.8798059264972
 30
0.0
 11
-610.5339266778716
 21
106.928352846262
 31
0.0
  0
LINE
  5
76
  8
1
  6
CONTINUOUS
 62
     7
 10
-639.533926677874
 20
106.7089502761596
 30
0.0
 11
-611.0164742714355
 21
106.8798059264972
 31
0.0
  0
LINE
  5
77
  8
1
  6
CONTINUOUS
 62
     7
 10
-639.5339266778717
 20
106.7089502761596
 30
0.0
 11
-639.5339266778717
 21
144.25
 31
0.0
  0
LINE
  5
78
  8
1
  6
CONTINUOUS
 62
     7
 10
-607.5339266778717
 20
128.5
 30
0.0
 11
-607.0339266778717
 21
128.5
 31
0.0
  0
LINE
  5
79
  8
1
  6
CONTINUOUS
 62
     7
 10
-607.0339266778717
 20
128.5
 30
0.0
 11
-607.0339266778717
 21
119.5
 31
0.0
  0
LINE
  5
7A
  8
1
  6
CONTINUOUS
 62
     7
 10
-607.0339266778717
 20
119.5
 30
0.0
 11
-607.5339266778717
 21
119.5
 31
0.0
  0
LINE
  5
7B
  8
1
  6
CONTINUOUS
 62
     7
 10
-610.0339266778717
 20
131.0
 30
0.0
 11
-610.0339266778717
 21
128.5
 31
0.0
  0
LINE
  5
7C
  8
1
  6
CONTINUOUS
 62
     7
 10
-610.0339266778717
 20
119.5
 30
0.0
 11
-610.0339266778717
 21
119.0
 31
0.0
  0
ARC
  5
7D
  8
1
  6
CONTINUOUS
 62
     7
 10
-611.2902751381944
 20
107.8003691241787
 30
0.0
 40
1.256425730614425
 50
335.1516316439626
 51
0.6354446407103183
  0
POLYLINE
  5
7E
  8
1
  6
CONTINUOUS
 62
     7
 66
     1
 10
0.0
 20
0.0
 30
0.0
  0
VERTEX
  5
10E
  8
1
  6
CONTINUOUS
 62
     7
 10
-610.1501654582042
 20
107.272396081171
 30
0.0
  0
VERTEX
  5
10F
  8
1
  6
CONTINUOUS
 62
     7
 10
-610.2027692586221
 20
107.1796402929608
 30
0.0
  0
VERTEX
  5
110
  8
1
  6
CONTINUOUS
 62
     7
 10
-610.2774161858416
 20
107.0833640582596
 30
0.0
  0
VERTEX
  5
111
  8
1
  6
CONTINUOUS
 62
     7
 10
-610.3723597338678
 20
107.0000393214818
 30
0.0
  0
VERTEX
  5
112
  8
1
  6
CONTINUOUS
 62
     7
 10
-610.4680057959292
 20
106.9483135575866
 30
0.0
  0
VERTEX
  5
113
  8
1
  6
CONTINUOUS
 62
     7
 10
-610.5339266778716
 20
106.928352846262
 30
0.0
  0
SEQEND
  5
1A7
  8
1
  6
CONTINUOUS
 62
     7
  0
LINE
  5
7F
  8
1
  6
CONTINUOUS
 62
     7
 10
-607.0339266778717
 20
118.9712636165375
 30
0.0
 11
-607.0339266778717
 21
106.25
 31
0.0
  0
LINE
  5
80
  8
1
  6
CONTINUOUS
 62
     7
 10
-610.0339266778717
 20
119.0
 30
0.0
 11
-607.0339266778717
 21
119.0
 31
0.0
  0
LINE
  5
81
  8
1
  6
CONTINUOUS
 62
     7
 10
-607.0339266778717
 20
119.0
 30
0.0
 11
-607.0339266778717
 21
118.9712636165375
 31
0.0
  0
LINE
  5
82
  8
1
  6
CONTINUOUS
 62
     7
 10
-610.0339266778717
 20
118.3266666666667
 30
0.0
 11
-610.0339266778717
 21
118.9712636165375
 31
0.0
  0
LINE
  5
83
  8
1
  6
CONTINUOUS
 62
     7
 10
-607.0339266778717
 20
143.75
 30
0.0
 11
-607.0339266778717
 21
131.0287363834625
 31
0.0
  0
LINE
  5
84
  8
1
  6
CONTINUOUS
 62
     7
 10
-607.0339266778717
 20
131.0
 30
0.0
 11
-610.0339266778717
 21
131.0
 31
0.0
  0
LINE
  5
85
  8
1
  6
CONTINUOUS
 62
     7
 10
-607.0339266778717
 20
131.0287363834625
 30
0.0
 11
-607.0339266778717
 21
131.0
 31
0.0
  0
LINE
  5
86
  8
1
  6
CONTINUOUS
 62
     7
 10
-610.0339266778717
 20
131.0287363834625
 30
0.0
 11
-610.0339266778717
 21
131.6733333333333
 31
0.0
  0
LINE
  5
87
  8
1
  6
CONTINUOUS
 62
     7
 10
-610.0339266778717
 20
105.75
 30
0.0
 11
-610.0339266778717
 21
118.3266666666667
 31
0.0
  0
LINE
  5
88
  8
1
  6
CONTINUOUS
 62
     7
 10
-610.0339266778717
 20
131.6733333333333
 30
0.0
 11
-610.0339266778717
 21
144.25
 31
0.0
  0
LINE
  5
89
  8
1
  6
CONTINUOUS
 62
     7
 10
-608.7339266778718
 20
119.0
 30
0.0
 11
-608.7339266778718
 21
119.5
 31
0.0
  0
LINE
  5
8A
  8
1
  6
CONTINUOUS
 62
     7
 10
-608.7339266778718
 20
128.5
 30
0.0
 11
-608.7339266778718
 21
130.9999999999999
 31
0.0
  0
LINE
  5
8B
  8
1
  6
CONTINUOUS
 62
     7
 10
-607.0339266778717
 20
130.9999999999999
 30
0.0
 11
-607.0339266778717
 21
128.5
 31
0.0
  0
LINE
  5
8C
  8
1
  6
CONTINUOUS
 62
     7
 10
-607.0339266778717
 20
119.5
 30
0.0
 11
-607.0339266778717
 21
119.0
 31
0.0
  0
LINE
  5
8D
  8
1
  6
CONTINUOUS
 62
     7
 10
-657.0339266778716
 20
113.0835
 30
0.0
 11
-657.0339266778716
 21
136.9165
 31
0.0
  0
LINE
  5
8E
  8
1
  6
CONTINUOUS
 62
     7
 10
-655.8719266778717
 20
138.0785
 30
0.0
 11
-655.8719266778717
 21
111.9215
 31
0.0
  0
LINE
  5
8F
  8
1
  6
CONTINUOUS
 62
     7
 10
-658.0339266778716
 20
113.0835
 30
0.0
 11
-658.0339266778716
 21
136.9165
 31
0.0
  0
LINE
  5
90
  8
1
  6
CONTINUOUS
 62
     7
 10
-639.5339266778726
 20
142.2952771561789
 30
0.0
 11
-640.033926678004
 21
142.2952771561789
 31
0.0
  0
LINE
  5
91
  8
1
  6
CONTINUOUS
 62
     7
 10
-610.5339266778717
 20
144.25
 30
0.0
 11
-639.5339266778717
 21
144.25
 31
0.0
  0
ARC
  5
92
  8
1
  6
CONTINUOUS
 62
     7
 10
-610.5339266778717
 20
143.75
 30
0.0
 40
0.500000000000056
 50
0.0
 51
90.0
  0
ARC
  5
93
  8
1
  6
CONTINUOUS
 62
     7
 10
-607.5339266778717
 20
106.25
 30
0.0
 40
0.5000000000000004
 50
270.0
 51
0.0000000000007958
  0
ARC
  5
94
  8
1
  6
CONTINUOUS
 62
     7
 10
-607.5339266778717
 20
143.75
 30
0.0
 40
0.500000000000056
 50
359.9999999999993
 51
90.0
  0
LINE
  5
95
  8
1
  6
CONTINUOUS
 62
     7
 10
-610.0339266778717
 20
105.75
 30
0.0
 11
-607.5339266778717
 21
105.75
 31
0.0
  0
LINE
  5
96
  8
1
  6
CONTINUOUS
 62
     7
 10
-607.5339266778717
 20
144.25
 30
0.0
 11
-610.0339266778717
 21
144.25
 31
0.0
  0
LINE
  5
97
  8
1
  6
CONTINUOUS
 62
     7
 10
-655.8719266778717
 20
138.0785
 30
0.0
 11
-656.8919266778717
 21
137.0585
 31
0.0
  0
LINE
  5
98
  8
1
  6
CONTINUOUS
 62
     7
 10
-656.8919266778717
 20
137.0585
 30
0.0
 11
-657.0339266778716
 21
136.9165
 31
0.0
  0
LINE
  5
99
  8
1
  6
CONTINUOUS
 62
     7
 10
-657.0339266778716
 20
113.0835
 30
0.0
 11
-656.8919266778717
 21
112.9415
 31
0.0
  0
LINE
  5
9A
  8
1
  6
CONTINUOUS
 62
     7
 10
-656.8919266778717
 20
112.9415
 30
0.0
 11
-655.8719266778717
 21
111.9215
 31
0.0
  0
LINE
  5
9B
  8
1
  6
CONTINUOUS
 62
     7
 10
-655.8719266778716
 20
111.9215
 30
0.0
 11
-640.0339266778716
 21
111.9215
 31
0.0
  0
LINE
  5
9C
  8
1
  6
CONTINUOUS
 62
     7
 10
-640.0339266778716
 20
138.0785
 30
0.0
 11
-655.8719266778716
 21
138.0785
 31
0.0
  0
LINE
  5
9D
  8
1
  6
CONTINUOUS
 62
     7
 10
-658.0339266778716
 20
113.0835
 30
0.0
 11
-657.0339266778716
 21
113.0835
 31
0.0
  0
LINE
  5
9E
  8
1
  6
CONTINUOUS
 62
     7
 10
-657.0339266778716
 20
136.9165
 30
0.0
 11
-658.0339266778716
 21
136.9165
 31
0.0
  0
ENDBLK
  8
0
  0
BLOCK
  8
0
  2
D_FRAME_VIEW_1435
 70
     0
 10
0.0
 20
0.0
 30
0.0
  0
ARC
  5
A6
  8
1
  6
CONTINUOUS
 62
     7
 10
-577.6
 20
125.0
 30
0.0
 40
19.25
 50
169.5243183036101
 51
180.0
  0
ARC
  5
A7
  8
1
  6
CONTINUOUS
 62
     7
 10
-577.6
 20
125.0
 30
0.0
 40
19.25
 50
180.0
 51
196.6015495990202
  0
LINE
  5
A8
  8
1
  6
CONTINUOUS
 62
     7
 10
-596.5291441961859
 20
128.5
 30
0.0
 11
-596.0204370197887
 21
128.5
 31
0.0
  0
LINE
  5
A9
  8
1
  6
CONTINUOUS
 62
     7
 10
-595.5251917702433
 20
119.5
 30
0.0
 11
-596.0475608143732
 21
119.5
 31
0.0
  0
ARC
  5
AA
  8
1
  6
CONTINUOUS
 62
     7
 10
-577.6
 20
125.0
 30
0.0
 40
19.25
 50
340.2654851088036
 51
13.5189076398575
  0
LINE
  5
AB
  8
1
  6
CONTINUOUS
 62
     7
 10
-559.4806043147129
 20
118.5
 30
0.0
 11
-560.0127176630384
 21
118.5
 31
0.0
  0
LINE
  5
AC
  8
1
  6
CONTINUOUS
 62
     7
 10
-559.3980083507327
 20
129.5
 30
0.0
 11
-558.8833630157552
 21
129.5
 31
0.0
  0
ARC
  5
AD
  8
1
  6
CONTINUOUS
 62
     7
 10
-593.0616460960663
 20
120.0
 30
0.0
 40
0.5000000000000004
 50
270.0000000000002
 51
17.92021313939233
  0
ARC
  5
AE
  8
1
  6
CONTINUOUS
 62
     7
 10
-593.5706762536845
 20
128.0
 30
0.0
 40
0.5
 50
349.3612906849875
 51
90.0000000000008
  0
ARC
  5
AF
  8
1
  6
CONTINUOUS
 62
     7
 10
-577.6
 20
125.0
 30
0.0
 40
15.75
 50
169.3612906849876
 51
197.9202131393924
  0
LINE
  5
B0
  8
1
  6
CONTINUOUS
 62
     7
 10
-596.0204370197887
 20
128.5
 30
0.0
 11
-593.5706762536845
 21
128.5
 31
0.0
  0
LINE
  5
B1
  8
1
  6
CONTINUOUS
 62
     7
 10
-593.0616460960663
 20
119.5
 30
0.0
 11
-595.5251917702433
 21
119.5
 31
0.0
  0
ARC
  5
B2
  8
1
  6
CONTINUOUS
 62
     7
 10
-577.6
 20
125.0
 30
0.0
 40
15.75
 50
338.3318153442308
 51
14.25003269780359
  0
ARC
  5
B3
  8
1
  6
CONTINUOUS
 62
     7
 10
-561.8499999999999
 20
129.0
 30
0.0
 40
0.5000000000000004
 50
89.99999999999999
 51
194.2500326978036
  0
ARC
  5
B4
  8
1
  6
CONTINUOUS
 62
     7
 10
-562.4982616894611
 20
119.0
 30
0.0
 40
0.4999999999999997
 50
158.3318153442308
 51
270.0
  0
LINE
  5
B5
  8
1
  6
CONTINUOUS
 62
     7
 10
-560.0127176630385
 20
118.5
 30
0.0
 11
-562.4982616894612
 21
118.5
 31
0.0
  0
LINE
  5
B6
  8
1
  6
CONTINUOUS
 62
     7
 10
-561.8499999999999
 20
129.5
 30
0.0
 11
-559.3980083507327
 21
129.5
 31
0.0
  0
ARC
  5
B7
  8
1
  6
CONTINUOUS
 62
     7
 10
-577.6
 20
125.0
 30
0.0
 40
19.25
 50
336.4218215217982
 51
340.2654851088036
  0
ARC
  5
B8
  8
1
  6
CONTINUOUS
 62
     7
 10
-577.6
 20
125.0
 30
0.0
 40
19.25000000000001
 50
159.7164314580509
 51
169.5243183036101
  0
ARC
  5
B9
  8
1
  6
CONTINUOUS
 62
     7
 10
-577.6
 20
125.0
 30
0.0
 40
19.25
 50
13.51890763985739
 51
23.57817847820183
  0
ARC
  5
BA
  8
1
  6
CONTINUOUS
 62
     7
 10
-577.6
 20
125.0
 30
0.0
 40
19.25
 50
196.6015495990202
 51
200.2835685419492
  0
ARC
  5
BB
  8
1
  6
CONTINUOUS
 62
     7
 10
-577.6
 20
125.0
 30
0.0
 40
17.75
 50
14.68597262629001
 51
23.22645126726513
  0
ARC
  5
BC
  8
1
  6
CONTINUOUS
 62
     7
 10
-577.6
 20
125.0
 30
0.0
 40
17.75
 50
160.2432150753923
 51
168.6277175637657
  0
ARC
  5
BD
  8
1
  6
CONTINUOUS
 62
     7
 10
-577.6
 20
125.0
 30
0.0
 40
17.75
 50
198.0507427207686
 51
199.7567849246076
  0
LINE
  5
BE
  8
1
  6
CONTINUOUS
 62
     7
 10
-584.0977739833418
 20
106.8798059264972
 30
0.0
 11
-584.2315962747134
 21
106.928352846262
 31
0.0
  0
LINE
  5
BF
  8
1
  6
CONTINUOUS
 62
     7
 10
-570.9684037252863
 20
106.9283528462621
 30
0.0
 11
-571.1022260166583
 21
106.8798059264972
 31
0.0
  0
ARC
  5
C0
  8
1
  6
CONTINUOUS
 62
     7
 10
-577.6
 20
125.0
 30
0.0
 40
17.75
 50
336.7735487327348
 51
338.5187220194373
  0
POLYLINE
  5
C1
  8
1
  6
CONTINUOUS
 62
     7
 10
0.0
 20
0.0
 30
0.0
 66
     1
 70
     9
  0
VERTEX
  5
C2
  8
1
  6
CONTINUOUS
 62
     7
 10
-558.2891284377478
 20
122.6777727272727
 30
0.0
 70
    32
  0
VERTEX
  5
C3
  8
1
  6
CONTINUOUS
 62
     7
 10
-558.2891284377478
 20
122.6777727272727
 30
0.0
 70
    32
  0
VERTEX
  5
C4
  8
1
  6
CONTINUOUS
 62
     7
 10
-558.2891284377478
 20
122.6777727272727
 30
0.0
 70
    32
  0
VERTEX
  5
C5
  8
1
  6
CONTINUOUS
 62
     7
 10
-558.2891284377478
 20
122.6777727272727
 30
0.0
 70
    32
  0
SEQEND
  5
C6
  8
1
  6
CONTINUOUS
 62
     7
  0
LINE
  5
C7
  8
1
  6
CONTINUOUS
 62
     7
 10
-572.6
 20
138.1837020597403
 30
0.0
 11
-572.6
 21
137.1082616423663
 31
0.0
  0
ARC
  5
C8
  8
1
  6
CONTINUOUS
 62
     7
 10
-577.6
 20
125.0
 30
0.0
 40
13.1
 50
67.56225324443555
 51
112.4377467555644
  0
LINE
  5
C9
  8
1
  6
CONTINUOUS
 62
     7
 10
-582.6
 20
137.1082616423663
 30
0.0
 11
-582.6
 21
138.1837020597403
 31
0.0
  0
ARC
  5
CA
  8
1
  6
CONTINUOUS
 62
     7
 10
-577.6
 20
125.0
 30
0.0
 40
13.1
 50
247.5622532444356
 51
292.4377467555644
  0
LINE
  5
CB
  8
1
  6
CONTINUOUS
 62
     7
 10
-572.6
 20
112.8917383576337
 30
0.0
 11
-572.6
 21
111.8162979402597
 31
0.0
  0
LINE
  5
CC
  8
1
  6
CONTINUOUS
 62
     7
 10
-582.6
 20
111.8162979402597
 30
0.0
 11
-582.6
 21
112.8917383576337
 31
0.0
  0
LINE
  5
CD
  8
1
  6
CONTINUOUS
 62
     7
 10
-582.6
 20
138.4640783661564
 30
0.0
 11
-582.6
 21
138.183694789642
 31
0.0
  0
LINE
  5
CE
  8
1
  6
CONTINUOUS
 62
     7
 10
-582.6
 20
138.183694789642
 30
0.0
 11
-582.6
 21
138.1336762750871
 31
0.0
  0
ARC
  5
CF
  8
1
  6
CONTINUOUS
 62
     7
 10
-577.6
 20
125.0
 30
0.0
 40
13.3625
 50
111.9737322179768
 51
248.0262677820232
  0
LINE
  5
D0
  8
1
  6
CONTINUOUS
 62
     7
 10
-582.6
 20
111.7163390697348
 30
0.0
 11
-582.6
 21
111.5359216338436
 31
0.0
  0
ARC
  5
D1
  8
1
  6
CONTINUOUS
 62
     7
 10
-577.6
 20
125.0
 30
0.0
 40
13.3625
 50
0.0
 51
68.02626778202318
  0
LINE
  5
D2
  8
1
  6
CONTINUOUS
 62
     7
 10
-572.6
 20
111.5359216338436
 30
0.0
 11
-572.6
 21
111.7939087377372
 31
0.0
  0
LINE
  5
D3
  8
1
  6
CONTINUOUS
 62
     7
 10
-572.6
 20
111.7939087377372
 30
0.0
 11
-572.6
 21
111.866323724913
 31
0.0
  0
ARC
  5
D4
  8
1
  6
CONTINUOUS
 62
     7
 10
-577.6
 20
125.0
 30
0.0
 40
13.3625
 50
291.9737322179768
 51
0.0
  0
LINE
  5
D5
  8
1
  6
CONTINUOUS
 62
     7
 10
-572.6
 20
138.2836609302652
 30
0.0
 11
-572.6
 21
138.4640783661564
 31
0.0
  0
ARC
  5
D6
  8
1
  6
CONTINUOUS
 62
     7
 10
-577.6
 20
125.0
 30
0.0
 40
19.25
 50
200.2835685419492
 51
336.4218215217982
  0
POLYLINE
  5
D7
  8
1
  6
CONTINUOUS
 62
     7
 66
     1
 10
0.0
 20
0.0
 30
0.0
  0
VERTEX
  5
116
  8
1
  6
CONTINUOUS
 62
     7
 10
-595.6562765326139
 20
118.3266666666667
 30
0.0
  0
VERTEX
  5
117
  8
1
  6
CONTINUOUS
 62
     7
 10
-595.6573848363422
 20
118.3296954490449
 30
0.0
  0
VERTEX
  5
118
  8
1
  6
CONTINUOUS
 62
     7
 10
-595.666279219865
 20
118.3566058439279
 30
0.0
  0
VERTEX
  5
119
  8
1
  6
CONTINUOUS
 62
     7
 10
-595.6736485040358
 20
118.3840350964211
 30
0.0
  0
VERTEX
  5
11A
  8
1
  6
CONTINUOUS
 62
     7
 10
-595.6794626165175
 20
118.4119172410948
 30
0.0
  0
VERTEX
  5
11B
  8
1
  6
CONTINUOUS
 62
     7
 10
-595.6837496286388
 20
118.4406692981557
 30
0.0
  0
VERTEX
  5
11C
  8
1
  6
CONTINUOUS
 62
     7
 10
-595.6863707755659
 20
118.4698227583628
 30
0.0
  0
VERTEX
  5
11D
  8
1
  6
CONTINUOUS
 62
     7
 10
-595.687281850777
 20
118.4993027308377
 30
0.0
  0
VERTEX
  5
11E
  8
1
  6
CONTINUOUS
 62
     7
 10
-595.6863395785168
 20
118.5306874732173
 30
0.0
  0
VERTEX
  5
11F
  8
1
  6
CONTINUOUS
 62
     7
 10
-595.6833797079721
 20
118.5623484403067
 30
0.0
  0
VERTEX
  5
120
  8
1
  6
CONTINUOUS
 62
     7
 10
-595.6783332288855
 20
118.594175482694
 30
0.0
  0
VERTEX
  5
121
  8
1
  6
CONTINUOUS
 62
     7
 10
-595.6729784477332
 20
118.618738523911
 30
0.0
  0
VERTEX
  5
122
  8
1
  6
CONTINUOUS
 62
     7
 10
-595.6662925881267
 20
118.643347536369
 30
0.0
  0
VERTEX
  5
123
  8
1
  6
CONTINUOUS
 62
     7
 10
-595.658238334604
 20
118.667929022566
 30
0.0
  0
VERTEX
  5
124
  8
1
  6
CONTINUOUS
 62
     7
 10
-595.6487783717031
 20
118.6924094849999
 30
0.0
  0
VERTEX
  5
125
  8
1
  6
CONTINUOUS
 62
     7
 10
-595.6385017602062
 20
118.7154077352917
 30
0.0
  0
VERTEX
  5
126
  8
1
  6
CONTINUOUS
 62
     7
 10
-595.6268747657169
 20
118.7382393637677
 30
0.0
  0
VERTEX
  5
127
  8
1
  6
CONTINUOUS
 62
     7
 10
-595.6138707213174
 20
118.7608109474938
 30
0.0
  0
VERTEX
  5
128
  8
1
  6
CONTINUOUS
 62
     7
 10
-595.602898467278
 20
118.7779604805598
 30
0.0
  0
VERTEX
  5
129
  8
1
  6
CONTINUOUS
 62
     7
 10
-595.5910552859981
 20
118.7948988148998
 30
0.0
  0
VERTEX
  5
12A
  8
1
  6
CONTINUOUS
 62
     7
 10
-595.5783403237256
 20
118.8115645999092
 30
0.0
  0
VERTEX
  5
12B
  8
1
  6
CONTINUOUS
 62
     7
 10
-595.5647527267084
 20
118.8278964849839
 30
0.0
  0
VERTEX
  5
12C
  8
1
  6
CONTINUOUS
 62
     7
 10
-595.5514153794753
 20
118.8426460219257
 30
0.0
  0
VERTEX
  5
12D
  8
1
  6
CONTINUOUS
 62
     7
 10
-595.537307472045
 20
118.8570456284765
 30
0.0
  0
VERTEX
  5
12E
  8
1
  6
CONTINUOUS
 62
     7
 10
-595.522446966371
 20
118.8710319005084
 30
0.0
  0
VERTEX
  5
12F
  8
1
  6
CONTINUOUS
 62
     7
 10
-595.5105315100361
 20
118.8814562318452
 30
0.0
  0
VERTEX
  5
130
  8
1
  6
CONTINUOUS
 62
     7
 10
-595.4981675112313
 20
118.8915972802454
 30
0.0
  0
VERTEX
  5
131
  8
1
  6
CONTINUOUS
 62
     7
 10
-595.4853751499828
 20
118.9014219289375
 30
0.0
  0
VERTEX
  5
132
  8
1
  6
CONTINUOUS
 62
     7
 10
-595.4721746063167
 20
118.9108970611499
 30
0.0
  0
VERTEX
  5
133
  8
1
  6
CONTINUOUS
 62
     7
 10
-595.4588634226893
 20
118.9198120777686
 30
0.0
  0
VERTEX
  5
134
  8
1
  6
CONTINUOUS
 62
     7
 10
-595.4451672721675
 20
118.9283604032547
 30
0.0
  0
VERTEX
  5
135
  8
1
  6
CONTINUOUS
 62
     7
 10
-595.43111961397
 20
118.9365109974108
 30
0.0
  0
VERTEX
  5
136
  8
1
  6
CONTINUOUS
 62
     7
 10
-595.4167539073154
 20
118.9442328200394
 30
0.0
  0
VERTEX
  5
137
  8
1
  6
CONTINUOUS
 62
     7
 10
-595.4015746966688
 20
118.9517483675076
 30
0.0
  0
VERTEX
  5
138
  8
1
  6
CONTINUOUS
 62
     7
 10
-595.3860794706305
 20
118.9587764079006
 30
0.0
  0
VERTEX
  5
139
  8
1
  6
CONTINUOUS
 62
     7
 10
-595.370319737671
 20
118.9652903534875
 30
0.0
  0
VERTEX
  5
13A
  8
1
  6
CONTINUOUS
 62
     7
 10
-595.3543470062607
 20
118.9712636165375
 30
0.0
  0
SEQEND
  5
1A8
  8
1
  6
CONTINUOUS
 62
     7
  0
POLYLINE
  5
D8
  8
1
  6
CONTINUOUS
 62
     7
 66
     1
 10
0.0
 20
0.0
 30
0.0
  0
VERTEX
  5
13B
  8
1
  6
CONTINUOUS
 62
     7
 10
-560.2214690234101
 20
117.9608835003455
 30
0.0
  0
VERTEX
  5
13C
  8
1
  6
CONTINUOUS
 62
     7
 10
-560.2063821614993
 20
117.9542402677958
 30
0.0
  0
VERTEX
  5
13D
  8
1
  6
CONTINUOUS
 62
     7
 10
-560.1915224724919
 20
117.9471037717719
 30
0.0
  0
VERTEX
  5
13E
  8
1
  6
CONTINUOUS
 62
     7
 10
-560.1769352171667
 20
117.9395005019432
 30
0.0
  0
VERTEX
  5
13F
  8
1
  6
CONTINUOUS
 62
     7
 10
-560.1626656563019
 20
117.9314569479788
 30
0.0
  0
VERTEX
  5
140
  8
1
  6
CONTINUOUS
 62
     7
 10
-560.1482455579684
 20
117.9226797660826
 30
0.0
  0
VERTEX
  5
141
  8
1
  6
CONTINUOUS
 62
     7
 10
-560.134188629961
 20
117.9134611543804
 30
0.0
  0
VERTEX
  5
142
  8
1
  6
CONTINUOUS
 62
     7
 10
-560.1205301605611
 20
117.9038374905328
 30
0.0
  0
VERTEX
  5
143
  8
1
  6
CONTINUOUS
 62
     7
 10
-560.1073054380498
 20
117.8938451522004
 30
0.0
  0
VERTEX
  5
144
  8
1
  6
CONTINUOUS
 62
     7
 10
-560.0949604807843
 20
117.8838687470617
 30
0.0
  0
VERTEX
  5
145
  8
1
  6
CONTINUOUS
 62
     7
 10
-560.083023397057
 20
117.8735814563086
 30
0.0
  0
VERTEX
  5
146
  8
1
  6
CONTINUOUS
 62
     7
 10
-560.0715113360925
 20
117.8630152099798
 30
0.0
  0
VERTEX
  5
147
  8
1
  6
CONTINUOUS
 62
     7
 10
-560.0604414471156
 20
117.8522019381141
 30
0.0
  0
VERTEX
  5
148
  8
1
  6
CONTINUOUS
 62
     7
 10
-560.0460271254142
 20
117.8370552532212
 30
0.0
  0
VERTEX
  5
149
  8
1
  6
CONTINUOUS
 62
     7
 10
-560.0324248999956
 20
117.8215186312879
 30
0.0
  0
VERTEX
  5
14A
  8
1
  6
CONTINUOUS
 62
     7
 10
-560.0196503803345
 20
117.8056612824959
 30
0.0
  0
VERTEX
  5
14B
  8
1
  6
CONTINUOUS
 62
     7
 10
-560.0073437390704
 20
117.7890278002602
 30
0.0
  0
VERTEX
  5
14C
  8
1
  6
CONTINUOUS
 62
     7
 10
-559.9958818747097
 20
117.7721249998814
 30
0.0
  0
VERTEX
  5
14D
  8
1
  6
CONTINUOUS
 62
     7
 10
-559.985260941273
 20
117.7550096568256
 30
0.0
  0
VERTEX
  5
14E
  8
1
  6
CONTINUOUS
 62
     7
 10
-559.9754770927814
 20
117.7377385465591
 30
0.0
  0
VERTEX
  5
14F
  8
1
  6
CONTINUOUS
 62
     7
 10
-559.9633783873182
 20
117.7138436326804
 30
0.0
  0
VERTEX
  5
150
  8
1
  6
CONTINUOUS
 62
     7
 10
-559.9527475374151
 20
117.6897539059474
 30
0.0
  0
VERTEX
  5
151
  8
1
  6
CONTINUOUS
 62
     7
 10
-559.9435500631831
 20
117.6655692487791
 30
0.0
  0
VERTEX
  5
152
  8
1
  6
CONTINUOUS
 62
     7
 10
-559.9357051858191
 20
117.6412412043856
 30
0.0
  0
VERTEX
  5
153
  8
1
  6
CONTINUOUS
 62
     7
 10
-559.9291978185463
 20
117.6168933706855
 30
0.0
  0
VERTEX
  5
154
  8
1
  6
CONTINUOUS
 62
     7
 10
-559.9239896080783
 20
117.5925918898348
 30
0.0
  0
VERTEX
  5
155
  8
1
  6
CONTINUOUS
 62
     7
 10
-559.920042201128
 20
117.5684029039895
 30
0.0
  0
VERTEX
  5
156
  8
1
  6
CONTINUOUS
 62
     7
 10
-559.9165999787225
 20
117.5354566087125
 30
0.0
  0
VERTEX
  5
157
  8
1
  6
CONTINUOUS
 62
     7
 10
-559.9153491912411
 20
117.5028068204042
 30
0.0
  0
VERTEX
  5
158
  8
1
  6
CONTINUOUS
 62
     7
 10
-559.9162080876832
 20
117.470568857037
 30
0.0
  0
VERTEX
  5
159
  8
1
  6
CONTINUOUS
 62
     7
 10
-559.9187579688598
 20
117.4416468525863
 30
0.0
  0
VERTEX
  5
15A
  8
1
  6
CONTINUOUS
 62
     7
 10
-559.9229445008688
 20
117.4131354149857
 30
0.0
  0
VERTEX
  5
15B
  8
1
  6
CONTINUOUS
 62
     7
 10
-559.9287213804955
 20
117.3851034994051
 30
0.0
  0
VERTEX
  5
15C
  8
1
  6
CONTINUOUS
 62
     7
 10
-559.9361838933572
 20
117.3571426209988
 30
0.0
  0
VERTEX
  5
15D
  8
1
  6
CONTINUOUS
 62
     7
 10
-559.9452229614125
 20
117.3297390663397
 30
0.0
  0
VERTEX
  5
15E
  8
1
  6
CONTINUOUS
 62
     7
 10
-559.9558030380143
 20
117.3029600821543
 30
0.0
  0
VERTEX
  5
15F
  8
1
  6
CONTINUOUS
 62
     7
 10
-559.95708357442
 20
117.3
 30
0.0
  0
SEQEND
  5
1A9
  8
1
  6
CONTINUOUS
 62
     7
  0
ARC
  5
D9
  8
1
  6
CONTINUOUS
 62
     7
 10
-577.6
 20
125.0
 30
0.0
 40
19.24999999999999
 50
23.57817847820183
 51
159.7164314580507
  0
POLYLINE
  5
DA
  8
1
  6
CONTINUOUS
 62
     7
 66
     1
 10
0.0
 20
0.0
 30
0.0
  0
VERTEX
  5
160
  8
1
  6
CONTINUOUS
 62
     7
 10
-559.95708357442
 20
132.7
 30
0.0
  0
VERTEX
  5
161
  8
1
  6
CONTINUOUS
 62
     7
 10
-559.9558030380143
 20
132.6970399178457
 30
0.0
  0
VERTEX
  5
162
  8
1
  6
CONTINUOUS
 62
     7
 10
-559.945376811574
 20
132.6706851609065
 30
0.0
  0
VERTEX
  5
163
  8
1
  6
CONTINUOUS
 62
     7
 10
-559.9364433450413
 20
132.6437247562879
 30
0.0
  0
VERTEX
  5
164
  8
1
  6
CONTINUOUS
 62
     7
 10
-559.9290364520901
 20
132.6162228321312
 30
0.0
  0
VERTEX
  5
165
  8
1
  6
CONTINUOUS
 62
     7
 10
-559.9231041415903
 20
132.5877646707307
 30
0.0
  0
VERTEX
  5
166
  8
1
  6
CONTINUOUS
 62
     7
 10
-559.9188118743062
 20
132.5588100321589
 30
0.0
  0
VERTEX
  5
167
  8
1
  6
CONTINUOUS
 62
     7
 10
-559.9162080876832
 20
132.529431142963
 30
0.0
  0
VERTEX
  5
168
  8
1
  6
CONTINUOUS
 62
     7
 10
-559.915345118037
 20
132.4980441199338
 30
0.0
  0
VERTEX
  5
169
  8
1
  6
CONTINUOUS
 62
     7
 10
-559.9164805373803
 20
132.4662653771394
 30
0.0
  0
VERTEX
  5
16A
  8
1
  6
CONTINUOUS
 62
     7
 10
-559.9196895722109
 20
132.4342009159129
 30
0.0
  0
VERTEX
  5
16B
  8
1
  6
CONTINUOUS
 62
     7
 10
-559.9236238624885
 20
132.4093707319621
 30
0.0
  0
VERTEX
  5
16C
  8
1
  6
CONTINUOUS
 62
     7
 10
-559.928884389278
 20
132.3844181555273
 30
0.0
  0
VERTEX
  5
16D
  8
1
  6
CONTINUOUS
 62
     7
 10
-559.9355126302771
 20
132.3594144181123
 30
0.0
  0
VERTEX
  5
16E
  8
1
  6
CONTINUOUS
 62
     7
 10
-559.9435500631831
 20
132.3344307512208
 30
0.0
  0
VERTEX
  5
16F
  8
1
  6
CONTINUOUS
 62
     7
 10
-559.9524879778432
 20
132.3108799138287
 30
0.0
  0
VERTEX
  5
170
  8
1
  6
CONTINUOUS
 62
     7
 10
-559.9627836193936
 20
132.2874178162074
 30
0.0
  0
VERTEX
  5
171
  8
1
  6
CONTINUOUS
 62
     7
 10
-559.9744689797039
 20
132.2641361943339
 30
0.0
  0
VERTEX
  5
172
  8
1
  6
CONTINUOUS
 62
     7
 10
-559.9844375135804
 20
132.2463844289163
 30
0.0
  0
VERTEX
  5
173
  8
1
  6
CONTINUOUS
 62
     7
 10
-559.9952876728663
 20
132.2287934608783
 30
0.0
  0
VERTEX
  5
174
  8
1
  6
CONTINUOUS
 62
     7
 10
-560.0070238357287
 20
132.2114244903608
 30
0.0
  0
VERTEX
  5
175
  8
1
  6
CONTINUOUS
 62
     7
 10
-560.0196503803345
 20
132.1943387175041
 30
0.0
  0
VERTEX
  5
176
  8
1
  6
CONTINUOUS
 62
     7
 10
-560.0321180264809
 20
132.1788470594009
 30
0.0
  0
VERTEX
  5
177
  8
1
  6
CONTINUOUS
 62
     7
 10
-560.0453750698011
 20
132.1636604691555
 30
0.0
  0
VERTEX
  5
178
  8
1
  6
CONTINUOUS
 62
     7
 10
-560.0594072218711
 20
132.1488432783785
 30
0.0
  0
VERTEX
  5
179
  8
1
  6
CONTINUOUS
 62
     7
 10
-560.070703897216
 20
132.1377513935234
 30
0.0
  0
VERTEX
  5
17A
  8
1
  6
CONTINUOUS
 62
     7
 10
-560.0824646539934
 20
132.1269165456183
 30
0.0
  0
VERTEX
  5
17B
  8
1
  6
CONTINUOUS
 62
     7
 10
-560.0946712487543
 20
132.1163729564486
 30
0.0
  0
VERTEX
  5
17C
  8
1
  6
CONTINUOUS
 62
     7
 10
-560.1073054380498
 20
132.1061548477996
 30
0.0
  0
VERTEX
  5
17D
  8
1
  6
CONTINUOUS
 62
     7
 10
-560.1200822743482
 20
132.09648957051
 30
0.0
  0
VERTEX
  5
17E
  8
1
  6
CONTINUOUS
 62
     7
 10
-560.133264515057
 20
132.087168254207
 30
0.0
  0
VERTEX
  5
17F
  8
1
  6
CONTINUOUS
 62
     7
 10
-560.1468205401421
 20
132.0782238106903
 30
0.0
  0
VERTEX
  5
180
  8
1
  6
CONTINUOUS
 62
     7
 10
-560.1607187295689
 20
132.06968915176
 30
0.0
  0
VERTEX
  5
181
  8
1
  6
CONTINUOUS
 62
     7
 10
-560.1754409331061
 20
132.0613136749017
 30
0.0
  0
VERTEX
  5
182
  8
1
  6
CONTINUOUS
 62
     7
 10
-560.190506646818
 20
132.0534067379415
 30
0.0
  0
VERTEX
  5
183
  8
1
  6
CONTINUOUS
 62
     7
 10
-560.2058659753657
 20
132.0459978448642
 30
0.0
  0
VERTEX
  5
184
  8
1
  6
CONTINUOUS
 62
     7
 10
-560.2214690234101
 20
132.0391164996545
 30
0.0
  0
SEQEND
  5
1AA
  8
1
  6
CONTINUOUS
 62
     7
  0
POLYLINE
  5
DB
  8
1
  6
CONTINUOUS
 62
     7
 66
     1
 10
0.0
 20
0.0
 30
0.0
  0
VERTEX
  5
185
  8
1
  6
CONTINUOUS
 62
     7
 10
-595.3543470062607
 20
131.0287363834625
 30
0.0
  0
VERTEX
  5
186
  8
1
  6
CONTINUOUS
 62
     7
 10
-595.3722266263326
 20
131.0354755210104
 30
0.0
  0
VERTEX
  5
187
  8
1
  6
CONTINUOUS
 62
     7
 10
-595.3898624402588
 20
131.042915567925
 30
0.0
  0
VERTEX
  5
188
  8
1
  6
CONTINUOUS
 62
     7
 10
-595.4071913105711
 20
131.051012909802
 30
0.0
  0
VERTEX
  5
189
  8
1
  6
CONTINUOUS
 62
     7
 10
-595.4241500998011
 20
131.0597239322373
 30
0.0
  0
VERTEX
  5
18A
  8
1
  6
CONTINUOUS
 62
     7
 10
-595.4406756704808
 20
131.0690050208266
 30
0.0
  0
VERTEX
  5
18B
  8
1
  6
CONTINUOUS
 62
     7
 10
-595.4567048851421
 20
131.0788125611656
 30
0.0
  0
VERTEX
  5
18C
  8
1
  6
CONTINUOUS
 62
     7
 10
-595.4721746063167
 20
131.0891029388501
 30
0.0
  0
VERTEX
  5
18D
  8
1
  6
CONTINUOUS
 62
     7
 10
-595.489449772939
 20
131.1016438238346
 30
0.0
  0
VERTEX
  5
18E
  8
1
  6
CONTINUOUS
 62
     7
 10
-595.5060292143258
 20
131.1147963230578
 30
0.0
  0
VERTEX
  5
18F
  8
1
  6
CONTINUOUS
 62
     7
 10
-595.5218810804365
 20
131.1284894891536
 30
0.0
  0
VERTEX
  5
190
  8
1
  6
CONTINUOUS
 62
     7
 10
-595.5369735212308
 20
131.1426523747559
 30
0.0
  0
VERTEX
  5
191
  8
1
  6
CONTINUOUS
 62
     7
 10
-595.5512746866682
 20
131.1572140324988
 30
0.0
  0
VERTEX
  5
192
  8
1
  6
CONTINUOUS
 62
     7
 10
-595.5647527267084
 20
131.1721035150161
 30
0.0
  0
VERTEX
  5
193
  8
1
  6
CONTINUOUS
 62
     7
 10
-595.5799804603746
 20
131.1905105083901
 30
0.0
  0
VERTEX
  5
194
  8
1
  6
CONTINUOUS
 62
     7
 10
-595.594116280419
 20
131.2093571723315
 30
0.0
  0
VERTEX
  5
195
  8
1
  6
CONTINUOUS
 62
     7
 10
-595.6071705209955
 20
131.2285693629675
 30
0.0
  0
VERTEX
  5
196
  8
1
  6
CONTINUOUS
 62
     7
 10
-595.6191535162582
 20
131.2480729364253
 30
0.0
  0
VERTEX
  5
197
  8
1
  6
CONTINUOUS
 62
     7
 10
-595.6300756003609
 20
131.2677937488318
 30
0.0
  0
VERTEX
  5
198
  8
1
  6
CONTINUOUS
 62
     7
 10
-595.6399471074579
 20
131.2876576563144
 30
0.0
  0
VERTEX
  5
199
  8
1
  6
CONTINUOUS
 62
     7
 10
-595.6487783717031
 20
131.3075905150002
 30
0.0
  0
VERTEX
  5
19A
  8
1
  6
CONTINUOUS
 62
     7
 10
-595.6593254538287
 20
131.3351513222588
 30
0.0
  0
VERTEX
  5
19B
  8
1
  6
CONTINUOUS
 62
     7
 10
-595.6681071201547
 20
131.3628666260035
 30
0.0
  0
VERTEX
  5
19C
  8
1
  6
CONTINUOUS
 62
     7
 10
-595.6751733031379
 20
131.3906489027242
 30
0.0
  0
VERTEX
  5
19D
  8
1
  6
CONTINUOUS
 62
     7
 10
-595.6805739352349
 20
131.4184106289107
 30
0.0
  0
VERTEX
  5
19E
  8
1
  6
CONTINUOUS
 62
     7
 10
-595.6843589489026
 20
131.4460642810527
 30
0.0
  0
VERTEX
  5
19F
  8
1
  6
CONTINUOUS
 62
     7
 10
-595.6865782765977
 20
131.4735223356399
 30
0.0
  0
VERTEX
  5
1A0
  8
1
  6
CONTINUOUS
 62
     7
 10
-595.687281850777
 20
131.5006972691623
 30
0.0
  0
VERTEX
  5
1A1
  8
1
  6
CONTINUOUS
 62
     7
 10
-595.686004199511
 20
131.535721018878
 30
0.0
  0
VERTEX
  5
1A2
  8
1
  6
CONTINUOUS
 62
     7
 10
-595.6823119199208
 20
131.5703141267684
 30
0.0
  0
VERTEX
  5
1A3
  8
1
  6
CONTINUOUS
 62
     7
 10
-595.6762687645202
 20
131.6043560879802
 30
0.0
  0
VERTEX
  5
1A4
  8
1
  6
CONTINUOUS
 62
     7
 10
-595.6679384858228
 20
131.6377263976602
 30
0.0
  0
VERTEX
  5
1A5
  8
1
  6
CONTINUOUS
 62
     7
 10
-595.6573848363423
 20
131.6703045509549
 30
0.0
  0
VERTEX
  5
1A6
  8
1
  6
CONTINUOUS
 62
     7
 10
-595.6562765326139
 20
131.6733333333333
 30
0.0
  0
SEQEND
  5
1AB
  8
1
  6
CONTINUOUS
 62
     7
  0
LINE
  5
DC
  8
1
  6
CONTINUOUS
 62
     7
 10
-560.4153411439156
 20
132.0
 30
0.0
 11
-563.7146660104988
 21
131.9999999999999
 31
0.0
  0
ARC
  5
DD
  8
1
  6
CONTINUOUS
 62
     7
 10
-577.6000000000001
 20
125.0
 30
0.0
 40
15.54999999999996
 50
333.2460006369763
 51
26.75399936302363
  0
LINE
  5
DE
  8
1
  6
CONTINUOUS
 62
     7
 10
-563.7146660104988
 20
118.0
 30
0.0
 11
-560.4153411439156
 21
118.0
 31
0.0
  0
LINE
  5
DF
  8
1
  6
CONTINUOUS
 62
     7
 10
-595.1872823369616
 20
119.0
 30
0.0
 11
-591.945818206014
 21
119.0
 31
0.0
  0
ARC
  5
E0
  8
1
  6
CONTINUOUS
 62
     7
 10
-577.6000000000001
 20
125.0
 30
0.0
 40
15.54999999999996
 50
157.3033507568549
 51
202.6966492431451
  0
LINE
  5
E1
  8
1
  6
CONTINUOUS
 62
     7
 10
-591.945818206014
 20
131.0
 30
0.0
 11
-595.1872823369616
 21
131.0
 31
0.0
  0
ARC
  5
E2
  8
1
  6
CONTINUOUS
 62
     7
 10
-560.4153411439156
 20
132.5
 30
0.0
 40
0.5000000000000004
 50
270.0
 51
292.8142121141802
  0
ARC
  5
E3
  8
1
  6
CONTINUOUS
 62
     7
 10
-595.1872823369616
 20
118.5
 30
0.0
 40
0.4999999999999996
 50
89.99999999999999
 51
109.5196021779271
  0
ARC
  5
E4
  8
1
  6
CONTINUOUS
 62
     7
 10
-595.1872823369616
 20
131.5
 30
0.0
 40
0.5000000000000002
 50
250.4803978220733
 51
270.0
  0
ARC
  5
E5
  8
1
  6
CONTINUOUS
 62
     7
 10
-560.4153411439156
 20
117.5
 30
0.0
 40
0.4999999999999999
 50
67.18578788581969
 51
89.99999999999996
  0
LINE
  5
E6
  8
1
  6
CONTINUOUS
 62
     7
 10
-572.6
 20
111.8162979402597
 30
0.0
 11
-572.6
 21
111.5359216338436
 31
0.0
  0
LINE
  5
E7
  8
1
  6
CONTINUOUS
 62
     7
 10
-582.6
 20
138.4640783661564
 30
0.0
 11
-582.6
 21
138.1837020597403
 31
0.0
  0
LINE
  5
E8
  8
1
  6
CONTINUOUS
 62
     7
 10
-572.6
 20
138.1837020597403
 30
0.0
 11
-572.6
 21
138.4640783661564
 31
0.0
  0
LINE
  5
E9
  8
1
  6
CONTINUOUS
 62
     7
 10
-582.6
 20
111.5359216338436
 30
0.0
 11
-582.6
 21
111.8162979402597
 31
0.0
  0
ARC
  5
EA
  8
1
  6
CONTINUOUS
 62
     7
 10
-577.6000000000001
 20
125.0
 30
0.0
 40
17.24999999999996
 50
198.5928225494265
 51
200.3544063982372
  0
ARC
  5
EB
  8
1
  6
CONTINUOUS
 62
     7
 10
-577.6000000000001
 20
125.0
 30
0.0
 40
17.24999999999996
 50
159.6455936017627
 51
168.2934902067437
  0
ARC
  5
EC
  8
1
  6
CONTINUOUS
 62
     7
 10
-577.6000000000001
 20
125.0
 30
0.0
 40
17.24999999999996
 50
15.12166531490914
 51
23.94108726630975
  0
ARC
  5
ED
  8
1
  6
CONTINUOUS
 62
     7
 10
-577.6000000000001
 20
125.0
 30
0.0
 40
17.24999999999996
 50
336.0589127336903
 51
337.863675245037
  0
ARC
  5
EE
  8
1
  6
CONTINUOUS
 62
     7
 10
-577.6
 20
125.0
 30
0.0
 40
12.2005
 50
146.5534107186367
 51
213.4465892813633
  0
ARC
  5
EF
  8
1
  6
CONTINUOUS
 62
     7
 10
-588.1972968369297
 20
118.0
 30
0.0
 40
0.4999999999999996
 50
270.0
 51
33.44658928136346
  0
LINE
  5
F0
  8
1
  6
CONTINUOUS
 62
     7
 10
-588.1972968369297
 20
117.5
 30
0.0
 11
-588.4872227978489
 21
117.5
 31
0.0
  0
LINE
  5
F1
  8
1
  6
CONTINUOUS
 62
     7
 10
-588.4872227978489
 20
117.5
 30
0.0
 11
-588.6592226783802
 21
117.5
 31
0.0
  0
LINE
  5
F2
  8
1
  6
CONTINUOUS
 62
     7
 10
-588.6592226783802
 20
132.5
 30
0.0
 11
-588.4872227978489
 21
132.5
 31
0.0
  0
LINE
  5
F3
  8
1
  6
CONTINUOUS
 62
     7
 10
-588.487222797849
 20
132.5
 30
0.0
 11
-588.1972968369298
 21
132.5
 31
0.0
  0
ARC
  5
F4
  8
1
  6
CONTINUOUS
 62
     7
 10
-588.1972968369297
 20
132.0
 30
0.0
 40
0.4999999999999978
 50
326.5534107186368
 51
89.99999999999994
  0
LINE
  5
F5
  8
1
  6
CONTINUOUS
 62
     7
 10
-567.0027031630704
 20
117.5
 30
0.0
 11
-566.7127772021512
 21
117.5
 31
0.0
  0
LINE
  5
F6
  8
1
  6
CONTINUOUS
 62
     7
 10
-566.7127772021512
 20
117.5
 30
0.0
 11
-566.5407773216198
 21
117.5
 31
0.0
  0
ARC
  5
F7
  8
1
  6
CONTINUOUS
 62
     7
 10
-567.0027031630704
 20
118.0
 30
0.0
 40
0.5000000000000002
 50
146.5534107186366
 51
270.0
  0
ARC
  5
F8
  8
1
  6
CONTINUOUS
 62
     7
 10
-577.6
 20
125.0
 30
0.0
 40
12.2005
 50
326.5534107186367
 51
33.44658928136323
  0
ARC
  5
F9
  8
1
  6
CONTINUOUS
 62
     7
 10
-567.0027031630704
 20
132.0
 30
0.0
 40
0.4999999999999996
 50
89.99999999999999
 51
213.4465892813631
  0
LINE
  5
FA
  8
1
  6
CONTINUOUS
 62
     7
 10
-566.5407773216198
 20
132.5
 30
0.0
 11
-566.7127772021512
 21
132.5
 31
0.0
  0
LINE
  5
FB
  8
1
  6
CONTINUOUS
 62
     7
 10
-566.7127772021512
 20
132.5
 30
0.0
 11
-567.0027031630704
 21
132.5
 31
0.0
  0
ARC
  5
FC
  8
1
  6
CONTINUOUS
 62
     7
 10
-577.6
 20
125.0
 30
0.0
 40
12.25000000000001
 50
214.4429768746809
 51
270.0
  0
ARC
  5
FD
  8
1
  6
CONTINUOUS
 62
     7
 10
-577.6
 20
125.0
 30
0.0
 40
12.25000000000001
 50
34.44297687468122
 51
145.5570231253189
  0
ARC
  5
FE
  8
1
  6
CONTINUOUS
 62
     7
 10
-577.6
 20
125.0
 30
0.0
 40
12.25000000000001
 50
270.0
 51
325.5570231253196
  0
CIRCLE
  5
FF
  8
1
  6
CONTINUOUS
 62
     7
 10
-577.6
 20
125.0
 30
0.0
 40
12.05000000000001
  0
CIRCLE
  5
100
  8
1
  6
CONTINUOUS
 62
     7
 10
-577.6
 20
125.0
 30
0.0
 40
10.55000000000001
  0
LINE
  5
101
  8
1
  6
CONTINUOUS
 62
     7
 10
-558.6539333651526
 20
120.5857484416984
 30
0.0
 11
-558.6576052866178
 21
120.5857484416984
 31
0.0
  0
LINE
  5
102
  8
1
  6
CONTINUOUS
 62
     7
 10
-558.7408702309488
 20
120.239925139444
 30
0.0
 11
-558.7414691101903
 21
120.239925139444
 31
0.0
  0
LINE
  5
103
  8
1
  6
CONTINUOUS
 62
     7
 10
-558.7714046926473
 20
120.1218972644911
 30
0.0
 11
-558.7716539839043
 21
120.1218972644911
 31
0.0
  0
ENDBLK
  8
0
  0
ENDSEC
  0
SECTION
  2
ENTITIES
  0
INSERT
  5
9F
  8
1
  6
CONTINUOUS
 62
     7
  2
D_FRAME_VIEW_2085
 10
0.0
 20
0.0
 30
0.0
  0
TEXT
  5
A0
  8
1
  6
CONTINUOUS
 62
     7
 10
-623.8906464924346
 20
92.48863636363637
 30
0.0
 40
5.0
  1
ＢＪ－２２ＸＰ
  0
LINE
  5
A1
  8
1
  6
CENTER
 62
     1
 10
-603.0339266778716
 20
125.0
 30
0.0
 11
-660.8719266778716
 21
125.0
 31
0.0
  0
INSERT
  5
104
  8
1
  6
CONTINUOUS
 62
     7
  2
D_FRAME_VIEW_1435
 10
0.0
 20
0.0
 30
0.0
  0
LINE
  5
105
  8
1
  6
CENTER
 62
     1
 10
-577.6
 20
103.75
 30
0.0
 11
-577.6
 21
146.25
 31
0.0
  0
LINE
  5
106
  8
1
  6
CENTER
 62
     1
 10
-598.85
 20
125.0
 30
0.0
 11
-556.35
 21
125.0
 31
0.0
  0
ENDSEC
  0
EOF
