  0
SECTION
  2
HEADER
  9
$ACADVER
  1
AC1006
  9
$DWGCODEPAGE
  3
ansi_932
  9
$INSBASE
 10
0.0
 20
0.0
 30
0.0
  9
$EXTMIN
 10
-241.0
 20
37.486195
  9
$EXTMAX
 10
-54.99999999999999
 20
178.2930008224961
  9
$LIMMIN
 10
0.0
 20
0.0
  9
$LIMMAX
 10
12.0
 20
9.0
  9
$ORTHOMODE
 70
     0
  9
$REGENMODE
 70
     1
  9
$FILLMODE
 70
     1
  9
$QTEXTMODE
 70
     0
  9
$MIRRTEXT
 70
     1
  9
$DRAGMODE
 70
     2
  9
$LTSCALE
 40
1.0
  9
$OSMODE
 70
    37
  9
$ATTMODE
 70
     1
  9
$TEXTSIZE
 40
0.2
  9
$TRACEWID
 40
0.05
  9
$TEXTSTYLE
  7
STANDARD
  9
$CLAYER
  8
0
  9
$CELTYPE
  6
BYLAYER
  9
$CECOLOR
 62
   256
  9
$DIMSCALE
 40
1.0
  9
$DIMASZ
 40
0.9
  9
$DIMEXO
 40
0.0625
  9
$DIMDLI
 40
0.38
  9
$DIMRND
 40
0.0
  9
$DIMDLE
 40
0.0
  9
$DIMEXE
 40
0.45
  9
$DIMTP
 40
0.0
  9
$DIMTM
 40
0.0
  9
$DIMTXT
 40
3.0
  9
$DIMCEN
 40
0.09
  9
$DIMTSZ
 40
0.0
  9
$DIMTOL
 70
     0
  9
$DIMLIM
 70
     0
  9
$DIMTIH
 70
     1
  9
$DIMTOH
 70
     1
  9
$DIMSE1
 70
     0
  9
$DIMSE2
 70
     0
  9
$DIMTAD
 70
     1
  9
$DIMZIN
 70
     0
  9
$DIMBLK
  1

  9
$DIMASO
 70
     1
  9
$DIMSHO
 70
     1
  9
$DIMPOST
  1

  9
$DIMAPOST
  1

  9
$DIMALT
 70
     0
  9
$DIMALTD
 70
     2
  9
$DIMALTF
 40
25.4
  9
$DIMLFAC
 40
1.0
  9
$DIMTOFL
 70
     0
  9
$DIMTVP
 40
0.0
  9
$DIMTIX
 70
     0
  9
$DIMSOXD
 70
     0
  9
$DIMSAH
 70
     0
  9
$DIMBLK1
  1

  9
$DIMBLK2
  1

  9
$LUNITS
 70
     2
  9
$LUPREC
 70
     4
  9
$SKETCHINC
 40
0.1
  9
$FILLETRAD
 40
0.5
  9
$AUNITS
 70
     0
  9
$AUPREC
 70
     0
  9
$MENU
  1
.
  9
$ELEVATION
 40
0.0
  9
$THICKNESS
 40
0.0
  9
$LIMCHECK
 70
     0
  9
$CHAMFERA
 40
0.0
  9
$CHAMFERB
 40
0.0
  9
$SKPOLY
 70
     0
  9
$TDCREATE
 40
2459125.611932049
  9
$TDUPDATE
 40
2459125.611938738
  9
$TDINDWG
 40
0.0000000116
  9
$TDUSRTIMER
 40
0.0000000116
  9
$USRTIMER
 70
     1
  9
$ANGBASE
 50
0.0
  9
$ANGDIR
 70
     0
  9
$PDMODE
 70
     0
  9
$PDSIZE
 40
0.0
  9
$PLINEWID
 40
0.0
  9
$COORDS
 70
     1
  9
$SPLFRAME
 70
     0
  9
$SPLINETYPE
 70
     6
  9
$SPLINESEGS
 70
     8
  9
$ATTDIA
 70
     0
  9
$ATTREQ
 70
     1
  9
$HANDLING
 70
     1
  9
$HANDSEED
  5
556
  9
$SURFTAB1
 70
     6
  9
$SURFTAB2
 70
     6
  9
$SURFTYPE
 70
     6
  9
$SURFU
 70
     6
  9
$SURFV
 70
     6
  9
$UCSNAME
  2

  9
$UCSORG
 10
0.0
 20
0.0
 30
0.0
  9
$UCSXDIR
 10
1.0
 20
0.0
 30
0.0
  9
$UCSYDIR
 10
0.0
 20
1.0
 30
0.0
  9
$USERI1
 70
     0
  9
$USERI2
 70
     0
  9
$USERI3
 70
     0
  9
$USERI4
 70
     0
  9
$USERI5
 70
     0
  9
$USERR1
 40
0.0
  9
$USERR2
 40
0.0
  9
$USERR3
 40
0.0
  9
$USERR4
 40
0.0
  9
$USERR5
 40
0.0
  9
$WORLDVIEW
 70
     1
  0
ENDSEC
  0
SECTION
  2
TABLES
  0
TABLE
  2
VPORT
 70
     1
  0
VPORT
  2
*ACTIVE
 70
     0
 10
0.0
 20
0.0
 11
1.0
 21
1.0
 12
-148.0
 22
107.8895979112481
 13
0.0
 23
0.0
 14
0.5
 24
0.5
 15
0.5
 25
0.5
 16
0.0
 26
0.0
 36
1.0
 17
0.0
 27
0.0
 37
0.0
 40
140.8068058224961
 41
1.6
 42
50.0
 43
0.0
 44
0.0
 50
0.0
 51
0.0
 71
     0
 72
   100
 73
     1
 74
     3
 75
     0
 76
     0
 77
     0
 78
     0
  0
ENDTAB
  0
TABLE
  2
LTYPE
 70
     2
  0
LTYPE
  2
CONTINUOUS
 70
     0
  3
Solid line
 72
    65
 73
     0
 40
0.0
  0
LTYPE
  2
CENTER
 70
     0
  3

 72
    65
 73
     0
 40
0.0
  0
ENDTAB
  0
TABLE
  2
LAYER
 70
     2
  0
LAYER
  2
0
 70
     0
 62
     7
  6
CONTINUOUS
  0
LAYER
  2
1
 70
     0
 62
     7
  6
CONTINUOUS
  0
ENDTAB
  0
TABLE
  2
STYLE
 70
     2
  0
STYLE
  2
STANDARD
 70
     0
 40
0.0
 41
1.0
 50
0.0
 71
     0
 42
0.2
  3
txt
  4

  0
STYLE
  2
ＭＳ_ゴシック
 70
     0
 40
0.0
 41
1.0
 50
0.0
 71
     0
 42
0.2
  3
ＭＳ ゴシック.shx
  4

  0
ENDTAB
  0
TABLE
  2
VIEW
 70
     0
  0
ENDTAB
  0
TABLE
  2
UCS
 70
     0
  0
ENDTAB
  0
ENDSEC
  0
SECTION
  2
BLOCKS
  0
ENDSEC
  0
SECTION
  2
ENTITIES
  0
LINE
  5
70
  8
1
  6
CONTINUOUS
 62
     7
 10
-107.5
 20
163.193
 30
0.0
 11
-89.13154455520491
 21
163.193
 31
0.0
  0
LINE
  5
71
  8
1
  6
CONTINUOUS
 62
     7
 10
-88.45874314461872
 20
172.393
 30
0.0
 11
-107.5
 21
172.393
 31
0.0
  0
LINE
  5
72
  8
1
  6
CONTINUOUS
 62
     7
 10
-107.5
 20
90.4
 30
0.0
 11
-88.99014198811307
 21
90.4
 31
0.0
  0
LINE
  5
73
  8
1
  6
CONTINUOUS
 62
     7
 10
-62.0
 20
172.393
 30
0.0
 11
-67.36277409468566
 21
172.393
 31
0.0
  0
LINE
  5
74
  8
1
  6
CONTINUOUS
 62
     7
 10
-89.19017777777776
 20
99.6
 30
0.0
 11
-107.5
 21
99.6
 31
0.0
  0
TEXT
  5
75
  8
1
  6
CONTINUOUS
 62
     7
 10
-97.16570588742891
 20
37.1202859090909
 30
0.0
 40
3.5
  1
ＢＫＨ－５ＭＴ１６
 41
0.609191
 51
15.0
  0
LINE
  5
76
  8
0
  6
CONTINUOUS
 62
     7
 10
-88.67003888888887
 20
135.8412157470526
 30
0.0
 11
-88.74954683957158
 21
129.9246896323763
 31
0.0
  0
LINE
  5
77
  8
0
  6
CONTINUOUS
 62
     7
 10
-69.17003888888887
 20
136.58886437316
 30
0.0
 11
-69.17003888888887
 21
135.3032891537869
 31
0.0
  0
ARC
  5
78
  8
0
  6
CONTINUOUS
 62
     7
 10
-81.1349495264253
 20
135.7214833392921
 30
0.0
 40
5.306557972807358
 50
104.133293725505
 51
170.5925322342218
  0
ARC
  5
79
  8
0
  6
CONTINUOUS
 62
     7
 10
-77.87687327483025
 20
129.4103415436565
 30
0.0
 40
12.32890125406528
 50
53.52643135540893
 51
111.6762568123025
  0
ARC
  5
7A
  8
0
  6
CONTINUOUS
 62
     7
 10
-72.95095461700488
 20
136.3991958085286
 30
0.0
 40
3.785670073781444
 50
2.871819159078938
 51
50.59726333654611
  0
ARC
  5
7B
  8
1
  6
CONTINUOUS
 62
     7
 10
-151.234524
 20
157.791982
 30
0.0
 40
0.498982
 50
179.883069
 51
269.89735
  0
LINE
  5
7C
  8
0
  6
CONTINUOUS
 62
     7
 10
-88.74954683957158
 20
129.9246896323763
 30
0.0
 11
-89.1901236856463
 21
110.73278556044
 31
0.0
  0
LINE
  5
7D
  8
0
  6
CONTINUOUS
 62
     7
 10
-89.19017777777776
 20
110.7280723406591
 30
0.0
 11
-89.19017777777776
 21
92.59107590807794
 31
0.0
  0
ARC
  5
7E
  8
1
  6
CONTINUOUS
 62
     7
 10
-140.760102
 20
157.796042
 30
0.0
 40
0.506201
 50
263.595586
 51
359.6556909999999
  0
LINE
  5
7F
  8
1
  6
CONTINUOUS
 62
     7
 10
-111.5
 20
174.793
 30
0.0
 11
-111.5
 21
175.793
 31
0.0
  0
LINE
  5
80
  8
1
  6
CONTINUOUS
 62
     7
 10
-111.5
 20
175.793
 30
0.0
 11
-110.0
 21
175.793
 31
0.0
  0
POLYLINE
  5
81
  8
0
  6
CONTINUOUS
 62
     7
 66
     1
 10
0.0
 20
0.0
 30
0.0
  0
VERTEX
  5
286
  8
0
  6
CONTINUOUS
 62
     7
 10
-88.67003888888888
 20
51.03527618041007
 30
0.0
  0
VERTEX
  5
287
  8
0
  6
CONTINUOUS
 62
     7
 10
-88.64771854114825
 20
50.81748963632646
 30
0.0
  0
VERTEX
  5
288
  8
0
  6
CONTINUOUS
 62
     7
 10
-88.58162396676978
 20
50.60815749703816
 30
0.0
  0
VERTEX
  5
289
  8
0
  6
CONTINUOUS
 62
     7
 10
-88.47432093623725
 20
50.41540597001889
 30
0.0
  0
VERTEX
  5
28A
  8
0
  6
CONTINUOUS
 62
     7
 10
-88.3299749192756
 20
50.2467176086155
 30
0.0
  0
VERTEX
  5
28B
  8
0
  6
CONTINUOUS
 62
     7
 10
-88.15418938263306
 20
50.10864084169242
 30
0.0
  0
VERTEX
  5
28C
  8
0
  6
CONTINUOUS
 62
     7
 10
-87.95378826527332
 20
50.0065357656932
 30
0.0
  0
VERTEX
  5
28D
  8
0
  6
CONTINUOUS
 62
     7
 10
-87.73655107522207
 20
49.94436606739097
 30
0.0
  0
VERTEX
  5
28E
  8
0
  6
CONTINUOUS
 62
     7
 10
-87.51091089152473
 20
49.92454515482093
 30
0.0
  0
VERTEX
  5
28F
  8
0
  6
CONTINUOUS
 62
     7
 10
-87.28562699478375
 20
49.94784246954332
 30
0.0
  0
VERTEX
  5
290
  8
0
  6
CONTINUOUS
 62
     7
 10
-87.06944483465456
 20
50.01335361716529
 30
0.0
  0
VERTEX
  5
291
  8
0
  6
CONTINUOUS
 62
     7
 10
-86.8707565342545
 20
50.11853547564536
 30
0.0
  0
VERTEX
  5
292
  8
0
  6
CONTINUOUS
 62
     7
 10
-86.69727511059635
 20
50.25930491848708
 30
0.0
  0
VERTEX
  5
293
  8
0
  6
CONTINUOUS
 62
     7
 10
-86.55573505770612
 20
50.43019732041897
 30
0.0
  0
VERTEX
  5
294
  8
0
  6
CONTINUOUS
 62
     7
 10
-86.45163091569378
 20
50.62457869242
 30
0.0
  0
VERTEX
  5
295
  8
0
  6
CONTINUOUS
 62
     7
 10
-86.38900397444317
 20
50.83490321107636
 30
0.0
  0
VERTEX
  5
296
  8
0
  6
CONTINUOUS
 62
     7
 10
-86.37028539201619
 20
51.05300614506096
 30
0.0
  0
SEQEND
  5
50C
  8
0
  6
CONTINUOUS
 62
     7
  0
LINE
  5
82
  8
1
  6
CONTINUOUS
 62
     7
 10
-140.25091
 20
176.853641
 30
0.0
 11
-140.25091
 21
177.793
 31
0.0
  0
LINE
  5
83
  8
0
  6
CONTINUOUS
 62
     7
 10
-88.67003888888887
 20
136.5888643731599
 30
0.0
 11
-88.67003888888887
 21
135.8412157470526
 31
0.0
  0
ARC
  5
84
  8
0
  6
CONTINUOUS
 62
     7
 10
-80.2337955458124
 20
100.1482359158757
 30
0.0
 40
1.991374999489115
 50
357.3434222229865
 51
49.51739203066739
  0
ARC
  5
85
  8
0
  6
CONTINUOUS
 62
     7
 10
-79.57692626708152
 20
100.6496542211445
 30
0.0
 40
1.196278605852476
 50
57.88502353804198
 51
107.6676253403273
  0
POLYLINE
  5
86
  8
0
  6
CONTINUOUS
 62
     7
 66
     1
 10
0.0
 20
0.0
 30
0.0
  0
VERTEX
  5
297
  8
0
  6
CONTINUOUS
 62
     7
 10
-79.93999050327463
 20
101.789508099156
 30
0.0
  0
VERTEX
  5
298
  8
0
  6
CONTINUOUS
 62
     7
 10
-80.06458845778465
 20
101.7420013457909
 30
0.0
  0
VERTEX
  5
299
  8
0
  6
CONTINUOUS
 62
     7
 10
-80.16926106333376
 20
101.687879969786
 30
0.0
  0
VERTEX
  5
29A
  8
0
  6
CONTINUOUS
 62
     7
 10
-80.2686676717634
 20
101.6218312016785
 30
0.0
  0
VERTEX
  5
29B
  8
0
  6
CONTINUOUS
 62
     7
 10
-80.36688612761324
 20
101.5398155238064
 30
0.0
  0
VERTEX
  5
29C
  8
0
  6
CONTINUOUS
 62
     7
 10
-80.44322737699802
 20
101.4618504827758
 30
0.0
  0
VERTEX
  5
29D
  8
0
  6
CONTINUOUS
 62
     7
 10
-80.52264947513683
 20
101.3630938870555
 30
0.0
  0
VERTEX
  5
29E
  8
0
  6
CONTINUOUS
 62
     7
 10
-80.58768717706266
 20
101.2632089407943
 30
0.0
  0
VERTEX
  5
29F
  8
0
  6
CONTINUOUS
 62
     7
 10
-80.66582512165569
 20
101.1076028984281
 30
0.0
  0
VERTEX
  5
2A0
  8
0
  6
CONTINUOUS
 62
     7
 10
-80.70733940677425
 20
101.000879678384
 30
0.0
  0
VERTEX
  5
2A1
  8
0
  6
CONTINUOUS
 62
     7
 10
-80.725076338887
 20
100.948305836794
 30
0.0
  0
SEQEND
  5
50D
  8
0
  6
CONTINUOUS
 62
     7
  0
ARC
  5
87
  8
0
  6
CONTINUOUS
 62
     7
 10
-79.05416110493876
 20
99.74112905193647
 30
0.0
 40
3.147169401558242
 50
359.8665206975981
 51
34.0111564573217
  0
POLYLINE
  5
88
  8
0
  6
CONTINUOUS
 62
     7
 66
     1
 10
0.0
 20
0.0
 30
0.0
  0
VERTEX
  5
2A2
  8
0
  6
CONTINUOUS
 62
     7
 10
-76.44538215069889
 20
101.5015118540621
 30
0.0
  0
VERTEX
  5
2A3
  8
0
  6
CONTINUOUS
 62
     7
 10
-76.5493617893399
 20
101.5964611592975
 30
0.0
  0
VERTEX
  5
2A4
  8
0
  6
CONTINUOUS
 62
     7
 10
-76.64307731215388
 20
101.6643621340503
 30
0.0
  0
VERTEX
  5
2A5
  8
0
  6
CONTINUOUS
 62
     7
 10
-76.75643408408101
 20
101.7283287796644
 30
0.0
  0
SEQEND
  5
50E
  8
0
  6
CONTINUOUS
 62
     7
  0
ARC
  5
89
  8
0
  6
CONTINUOUS
 62
     7
 10
-77.27399501627184
 20
100.6416132187463
 30
0.0
 40
1.203669401817493
 50
64.53333145152014
 51
118.624176113356
  0
POLYLINE
  5
8A
  8
0
  6
CONTINUOUS
 62
     7
 66
     1
 10
0.0
 20
0.0
 30
0.0
  0
VERTEX
  5
2A6
  8
0
  6
CONTINUOUS
 62
     7
 10
-77.85062762748818
 20
101.6981712439174
 30
0.0
  0
VERTEX
  5
2A7
  8
0
  6
CONTINUOUS
 62
     7
 10
-77.98015272023842
 20
101.6124438256721
 30
0.0
  0
VERTEX
  5
2A8
  8
0
  6
CONTINUOUS
 62
     7
 10
-78.06515532651905
 20
101.5404713707797
 30
0.0
  0
VERTEX
  5
2A9
  8
0
  6
CONTINUOUS
 62
     7
 10
-78.13669336172828
 20
101.4680382127338
 30
0.0
  0
SEQEND
  5
50F
  8
0
  6
CONTINUOUS
 62
     7
  0
ARC
  5
8B
  8
0
  6
CONTINUOUS
 62
     7
 10
-77.11961567534377
 20
100.5528501459425
 30
0.0
 40
1.368216436730105
 50
138.0184478651554
 51
162.4859356496584
  0
LINE
  5
8C
  8
1
  6
CONTINUOUS
 62
     7
 10
-151.73738
 20
159.793
 30
0.0
 11
-151.73738
 21
157.793
 31
0.0
  0
CIRCLE
  5
8D
  8
1
  6
CONTINUOUS
 62
     7
 10
-114.0
 20
167.793
 30
0.0
 40
3.412511
  0
LINE
  5
8E
  8
0
  6
CONTINUOUS
 62
     7
 10
-86.37013888888887
 20
135.8412157470526
 30
0.0
 11
-86.37013888888887
 21
136.5888643731599
 31
0.0
  0
ARC
  5
8F
  8
0
  6
CONTINUOUS
 62
     7
 10
-98.89871500484176
 20
94.68453131362125
 30
0.0
 40
30.24571920097675
 50
0.76578849252673
 51
12.63248874211637
  0
POLYLINE
  5
90
  8
0
  6
CONTINUOUS
 62
     7
 66
     1
 10
0.0
 20
0.0
 30
0.0
  0
VERTEX
  5
2AA
  8
0
  6
CONTINUOUS
 62
     7
 10
-69.38515664807045
 20
101.2991668368975
 30
0.0
  0
VERTEX
  5
2AB
  8
0
  6
CONTINUOUS
 62
     7
 10
-69.46297691445841
 20
101.4078093384851
 30
0.0
  0
VERTEX
  5
2AC
  8
0
  6
CONTINUOUS
 62
     7
 10
-69.53581568363236
 20
101.4914462829371
 30
0.0
  0
VERTEX
  5
2AD
  8
0
  6
CONTINUOUS
 62
     7
 10
-69.6316747029672
 20
101.5815346590179
 30
0.0
  0
VERTEX
  5
2AE
  8
0
  6
CONTINUOUS
 62
     7
 10
-69.74693925662912
 20
101.6664668749381
 30
0.0
  0
VERTEX
  5
2AF
  8
0
  6
CONTINUOUS
 62
     7
 10
-69.83570991636498
 20
101.7176000212361
 30
0.0
  0
SEQEND
  5
510
  8
0
  6
CONTINUOUS
 62
     7
  0
ARC
  5
91
  8
0
  6
CONTINUOUS
 62
     7
 10
-70.37662878647082
 20
100.6340452829239
 30
0.0
 40
1.211067337085441
 50
63.47127663002336
 51
106.8401935211667
  0
POLYLINE
  5
92
  8
0
  6
CONTINUOUS
 62
     7
 66
     1
 10
0.0
 20
0.0
 30
0.0
  0
VERTEX
  5
2B0
  8
0
  6
CONTINUOUS
 62
     7
 10
-70.72747898362492
 20
101.7931778181037
 30
0.0
  0
VERTEX
  5
2B1
  8
0
  6
CONTINUOUS
 62
     7
 10
-70.86437377326584
 20
101.7417757497364
 30
0.0
  0
VERTEX
  5
2B2
  8
0
  6
CONTINUOUS
 62
     7
 10
-70.95666071176316
 20
101.6947304594263
 30
0.0
  0
VERTEX
  5
2B3
  8
0
  6
CONTINUOUS
 62
     7
 10
-71.07714269842074
 20
101.6147808300993
 30
0.0
  0
VERTEX
  5
2B4
  8
0
  6
CONTINUOUS
 62
     7
 10
-71.16580478716843
 20
101.5399188840675
 30
0.0
  0
VERTEX
  5
2B5
  8
0
  6
CONTINUOUS
 62
     7
 10
-71.23965339512667
 20
101.4648135983166
 30
0.0
  0
SEQEND
  5
511
  8
0
  6
CONTINUOUS
 62
     7
  0
ARC
  5
93
  8
0
  6
CONTINUOUS
 62
     7
 10
-70.19853278151453
 20
100.5382842332473
 30
0.0
 40
1.393696091844944
 50
138.3330050476587
 51
162.7035908213668
  0
ARC
  5
94
  8
0
  6
CONTINUOUS
 62
     7
 10
-107.6062286923701
 20
93.8756651387746
 30
0.0
 40
41.27154630974362
 50
1.561066130789165
 51
10.02438767327375
  0
ARC
  5
95
  8
0
  6
CONTINUOUS
 62
     7
 10
-68.14970261899732
 20
100.6203969257353
 30
0.0
 40
1.263767458695511
 50
20.34112009873442
 51
43.81415599009654
  0
POLYLINE
  5
96
  8
0
  6
CONTINUOUS
 62
     7
 66
     1
 10
0.0
 20
0.0
 30
0.0
  0
VERTEX
  5
2B6
  8
0
  6
CONTINUOUS
 62
     7
 10
-67.23778167050095
 20
101.4953302793979
 30
0.0
  0
VERTEX
  5
2B7
  8
0
  6
CONTINUOUS
 62
     7
 10
-67.333866253161
 20
101.5844860369319
 30
0.0
  0
VERTEX
  5
2B8
  8
0
  6
CONTINUOUS
 62
     7
 10
-67.42760036205334
 20
101.6545079279708
 30
0.0
  0
VERTEX
  5
2B9
  8
0
  6
CONTINUOUS
 62
     7
 10
-67.54257929733504
 20
101.7215884321971
 30
0.0
  0
SEQEND
  5
512
  8
0
  6
CONTINUOUS
 62
     7
  0
ARC
  5
97
  8
0
  6
CONTINUOUS
 62
     7
 10
-68.07398296008196
 20
100.6426688123489
 30
0.0
 40
1.202687573260022
 50
63.77822589096115
 51
119.6733951372016
  0
POLYLINE
  5
98
  8
0
  6
CONTINUOUS
 62
     7
 66
     1
 10
0.0
 20
0.0
 30
0.0
  0
VERTEX
  5
2BA
  8
0
  6
CONTINUOUS
 62
     7
 10
-68.66937978444864
 20
101.6876377211726
 30
0.0
  0
VERTEX
  5
2BB
  8
0
  6
CONTINUOUS
 62
     7
 10
-68.77716446598208
 20
101.6149903126407
 30
0.0
  0
VERTEX
  5
2BC
  8
0
  6
CONTINUOUS
 62
     7
 10
-68.85627581755446
 20
101.5485894862916
 30
0.0
  0
VERTEX
  5
2BD
  8
0
  6
CONTINUOUS
 62
     7
 10
-68.93951448712153
 20
101.4637795310664
 30
0.0
  0
VERTEX
  5
2BE
  8
0
  6
CONTINUOUS
 62
     7
 10
-69.02424077222037
 20
101.3565521151866
 30
0.0
  0
SEQEND
  5
513
  8
0
  6
CONTINUOUS
 62
     7
  0
ARC
  5
99
  8
0
  6
CONTINUOUS
 62
     7
 10
-67.80091984465373
 20
100.5191900441803
 30
0.0
 40
1.482460566012613
 50
145.6083950092842
 51
163.1548361812183
  0
LINE
  5
9A
  8
0
  6
CONTINUOUS
 62
     7
 10
-68.70742652358092
 20
95.89127582098139
 30
0.0
 11
-68.64989999999999
 21
95.0
 31
0.0
  0
LINE
  5
9B
  8
0
  6
CONTINUOUS
 62
     7
 10
-68.64989950673306
 20
94.99849871543178
 30
0.0
 11
-68.64989997817607
 21
92.38628695821171
 31
0.0
  0
ARC
  5
9C
  8
0
  6
CONTINUOUS
 62
     7
 10
329.5390254330592
 20
130.5816019615891
 30
0.0
 40
402.0571652429185
 50
184.340765760993
 51
185.9280568486237
  0
POLYLINE
  5
9D
  8
0
  6
CONTINUOUS
 62
     7
 66
     1
 10
0.0
 20
0.0
 30
0.0
  0
VERTEX
  5
2BF
  8
0
  6
CONTINUOUS
 62
     7
 10
-70.36808361819385
 20
89.05729277479382
 30
0.0
  0
VERTEX
  5
2C0
  8
0
  6
CONTINUOUS
 62
     7
 10
-70.25274875350159
 20
88.79176042236935
 30
0.0
  0
VERTEX
  5
2C1
  8
0
  6
CONTINUOUS
 62
     7
 10
-70.1602662775668
 20
88.63868291555838
 30
0.0
  0
VERTEX
  5
2C2
  8
0
  6
CONTINUOUS
 62
     7
 10
-70.04633404183153
 20
88.49712173968524
 30
0.0
  0
VERTEX
  5
2C3
  8
0
  6
CONTINUOUS
 62
     7
 10
-69.94425276341559
 20
88.40167697254006
 30
0.0
  0
VERTEX
  5
2C4
  8
0
  6
CONTINUOUS
 62
     7
 10
-69.82611567988259
 20
88.3175983840592
 30
0.0
  0
VERTEX
  5
2C5
  8
0
  6
CONTINUOUS
 62
     7
 10
-69.71785308398196
 20
88.2599447976056
 30
0.0
  0
VERTEX
  5
2C6
  8
0
  6
CONTINUOUS
 62
     7
 10
-69.61289094770699
 20
88.218102459164
 30
0.0
  0
VERTEX
  5
2C7
  8
0
  6
CONTINUOUS
 62
     7
 10
-69.49290252596444
 20
88.18434470838449
 30
0.0
  0
VERTEX
  5
2C8
  8
0
  6
CONTINUOUS
 62
     7
 10
-69.35041204068688
 20
88.16122042093683
 30
0.0
  0
SEQEND
  5
514
  8
0
  6
CONTINUOUS
 62
     7
  0
ARC
  5
9E
  8
0
  6
CONTINUOUS
 62
     7
 10
-69.22336586716324
 20
89.34481646390086
 30
0.0
 40
1.190395028184808
 50
263.873378497035
 51
298.8161007303282
  0
LINE
  5
9F
  8
0
  6
CONTINUOUS
 62
     7
 10
-88.67003888888888
 20
51.03527618041007
 30
0.0
 11
-88.67003888888888
 21
48.70590477448739
 31
0.0
  0
LINE
  5
A0
  8
0
  6
CONTINUOUS
 62
     7
 10
-79.75815020157586
 20
89.93833909940263
 30
0.0
 11
-79.7552622477411
 21
89.94104922667157
 31
0.0
  0
LINE
  5
A1
  8
0
  6
CONTINUOUS
 62
     7
 10
-78.24055456265954
 20
100.0873241130402
 30
0.0
 11
-78.2374143445229
 21
99.9832235122319
 31
0.0
  0
ARC
  5
A2
  8
0
  6
CONTINUOUS
 62
     7
 10
154.3180575866368
 20
115.1537097582117
 30
0.0
 40
233.0497611628552
 50
183.7323353981466
 51
186.44581137225
  0
ARC
  5
A3
  8
0
  6
CONTINUOUS
 62
     7
 10
-75.96917152449734
 20
89.44309506532072
 30
0.0
 40
1.366356721517778
 50
199.3337829098743
 51
218.5215625842505
  0
POLYLINE
  5
A4
  8
0
  6
CONTINUOUS
 62
     7
 66
     1
 10
0.0
 20
0.0
 30
0.0
  0
VERTEX
  5
2C9
  8
0
  6
CONTINUOUS
 62
     7
 10
-77.03817325966484
 20
88.5921156409833
 30
0.0
  0
VERTEX
  5
2CA
  8
0
  6
CONTINUOUS
 62
     7
 10
-76.94727086281385
 20
88.49044957605781
 30
0.0
  0
VERTEX
  5
2CB
  8
0
  6
CONTINUOUS
 62
     7
 10
-76.84464417151425
 20
88.3988336859001
 30
0.0
  0
VERTEX
  5
2CC
  8
0
  6
CONTINUOUS
 62
     7
 10
-76.72705356534496
 20
88.31729346893299
 30
0.0
  0
VERTEX
  5
2CD
  8
0
  6
CONTINUOUS
 62
     7
 10
-76.62947849431369
 20
88.26525891342499
 30
0.0
  0
SEQEND
  5
515
  8
0
  6
CONTINUOUS
 62
     7
  0
ARC
  5
A5
  8
0
  6
CONTINUOUS
 62
     7
 10
-76.12371560211716
 20
89.36876984568705
 30
0.0
 40
1.213891461682186
 50
245.3769909469988
 51
289.1585505037944
  0
POLYLINE
  5
A6
  8
0
  6
CONTINUOUS
 62
     7
 66
     1
 10
0.0
 20
0.0
 30
0.0
  0
VERTEX
  5
2CE
  8
0
  6
CONTINUOUS
 62
     7
 10
-75.7253366109561
 20
88.22211093382772
 30
0.0
  0
VERTEX
  5
2CF
  8
0
  6
CONTINUOUS
 62
     7
 10
-75.5961580196138
 20
88.27666151103521
 30
0.0
  0
VERTEX
  5
2D0
  8
0
  6
CONTINUOUS
 62
     7
 10
-75.47764837999698
 20
88.3454695060406
 30
0.0
  0
VERTEX
  5
2D1
  8
0
  6
CONTINUOUS
 62
     7
 10
-75.38488903447941
 20
88.41465583575416
 30
0.0
  0
VERTEX
  5
2D2
  8
0
  6
CONTINUOUS
 62
     7
 10
-75.29515219555776
 20
88.49712817983341
 30
0.0
  0
VERTEX
  5
2D3
  8
0
  6
CONTINUOUS
 62
     7
 10
-75.22395356200272
 20
88.57623482764531
 30
0.0
  0
VERTEX
  5
2D4
  8
0
  6
CONTINUOUS
 62
     7
 10
-75.16242723090535
 20
88.65742072444516
 30
0.0
  0
VERTEX
  5
2D5
  8
0
  6
CONTINUOUS
 62
     7
 10
-75.09011118494011
 20
88.77424952666793
 30
0.0
  0
VERTEX
  5
2D6
  8
0
  6
CONTINUOUS
 62
     7
 10
-74.99625495420811
 20
88.98290035467079
 30
0.0
  0
VERTEX
  5
2D7
  8
0
  6
CONTINUOUS
 62
     7
 10
-74.96910642878396
 20
89.06248971356436
 30
0.0
  0
SEQEND
  5
516
  8
0
  6
CONTINUOUS
 62
     7
  0
ARC
  5
A7
  8
0
  6
CONTINUOUS
 62
     7
 10
236.3857832757531
 20
123.7778583652576
 30
0.0
 40
322.4170753463236
 50
184.2027171903864
 51
186.1900923458273
  0
ARC
  5
A8
  8
0
  6
CONTINUOUS
 62
     7
 10
-82.6662708001424
 20
89.54186991769159
 30
0.0
 40
1.576747002091607
 50
199.6192312390603
 51
220.3203844508523
  0
POLYLINE
  5
A9
  8
0
  6
CONTINUOUS
 62
     7
 66
     1
 10
0.0
 20
0.0
 30
0.0
  0
VERTEX
  5
2D8
  8
0
  6
CONTINUOUS
 62
     7
 10
-83.8684428978538
 20
88.52161830358403
 30
0.0
  0
VERTEX
  5
2D9
  8
0
  6
CONTINUOUS
 62
     7
 10
-83.7768931754512
 20
88.42999865451725
 30
0.0
  0
VERTEX
  5
2DA
  8
0
  6
CONTINUOUS
 62
     7
 10
-83.67815620679303
 20
88.35203899887512
 30
0.0
  0
VERTEX
  5
2DB
  8
0
  6
CONTINUOUS
 62
     7
 10
-83.57376997189591
 20
88.28810428098902
 30
0.0
  0
VERTEX
  5
2DC
  8
0
  6
CONTINUOUS
 62
     7
 10
-83.47377730967153
 20
88.24124694560884
 30
0.0
  0
VERTEX
  5
2DD
  8
0
  6
CONTINUOUS
 62
     7
 10
-83.36506558544907
 20
88.20334209997709
 30
0.0
  0
VERTEX
  5
2DE
  8
0
  6
CONTINUOUS
 62
     7
 10
-83.22788065073118
 20
88.17196902689567
 30
0.0
  0
SEQEND
  5
517
  8
0
  6
CONTINUOUS
 62
     7
  0
ARC
  5
AA
  8
0
  6
CONTINUOUS
 62
     7
 10
-83.0255141058382
 20
89.38031868261913
 30
0.0
 40
1.225177990733983
 50
260.4927050040947
 51
287.4083984828595
  0
POLYLINE
  5
AB
  8
0
  6
CONTINUOUS
 62
     7
 66
     1
 10
0.0
 20
0.0
 30
0.0
  0
VERTEX
  5
2DF
  8
0
  6
CONTINUOUS
 62
     7
 10
-82.65896454262717
 20
88.21125815095759
 30
0.0
  0
VERTEX
  5
2E0
  8
0
  6
CONTINUOUS
 62
     7
 10
-82.51800764441819
 20
88.26659432056464
 30
0.0
  0
VERTEX
  5
2E1
  8
0
  6
CONTINUOUS
 62
     7
 10
-82.42742092373936
 20
88.31477078863642
 30
0.0
  0
VERTEX
  5
2E2
  8
0
  6
CONTINUOUS
 62
     7
 10
-82.29920328936527
 20
88.40390318911842
 30
0.0
  0
VERTEX
  5
2E3
  8
0
  6
CONTINUOUS
 62
     7
 10
-82.21537617260717
 20
88.4781025762186
 30
0.0
  0
SEQEND
  5
518
  8
0
  6
CONTINUOUS
 62
     7
  0
ARC
  5
AC
  8
0
  6
CONTINUOUS
 62
     7
 10
-83.142629202883
 20
89.42177685817884
 30
0.0
 40
1.322996346400425
 50
314.4971240997552
 51
335.8288918335829
  0
LINE
  5
AD
  8
0
  6
CONTINUOUS
 62
     7
 10
-81.93562430278108
 20
88.8800587546242
 30
0.0
 11
-81.86964396662681
 21
89.05280272962123
 31
0.0
  0
LINE
  5
AE
  8
0
  6
CONTINUOUS
 62
     7
 10
-68.64989999999999
 20
92.38636356592392
 30
0.0
 11
-68.64989999999999
 21
75.01196138001157
 31
0.0
  0
LINE
  5
AF
  8
0
  6
CONTINUOUS
 62
     7
 10
-66.35
 20
74.98803861998852
 30
0.0
 11
-66.35
 21
95.0
 31
0.0
  0
POLYLINE
  5
B0
  8
0
  6
CONTINUOUS
 62
     9
 66
     1
 10
0.0
 20
0.0
 30
0.0
  0
VERTEX
  5
2E4
  8
0
  6
CONTINUOUS
 62
     9
 10
-69.16989238576157
 20
49.02467617267757
 30
0.0
  0
VERTEX
  5
2E5
  8
0
  6
CONTINUOUS
 62
     9
 10
-69.15117294810082
 20
48.80656873443323
 30
0.0
  0
VERTEX
  5
2E6
  8
0
  6
CONTINUOUS
 62
     9
 10
-69.08854335620141
 20
48.59624021031981
 30
0.0
  0
VERTEX
  5
2E7
  8
0
  6
CONTINUOUS
 62
     9
 10
-68.98443497227537
 20
48.40185582719148
 30
0.0
  0
VERTEX
  5
2E8
  8
0
  6
CONTINUOUS
 62
     9
 10
-68.8428894191875
 20
48.2309618396128
 30
0.0
  0
VERTEX
  5
2E9
  8
0
  6
CONTINUOUS
 62
     9
 10
-68.66940167939934
 20
48.09019257444211
 30
0.0
  0
VERTEX
  5
2EA
  8
0
  6
CONTINUOUS
 62
     9
 10
-68.47070677260334
 20
47.98501287763435
 30
0.0
  0
VERTEX
  5
2EB
  8
0
  6
CONTINUOUS
 62
     9
 10
-68.25451829349903
 20
47.91950596181375
 30
0.0
  0
VERTEX
  5
2EC
  8
0
  6
CONTINUOUS
 62
     9
 10
-68.02922896001465
 20
47.89621489064912
 30
0.0
  0
VERTEX
  5
2ED
  8
0
  6
CONTINUOUS
 62
     9
 10
-67.80358479708181
 20
47.91604385381488
 30
0.0
  0
VERTEX
  5
2EE
  8
0
  6
CONTINUOUS
 62
     9
 10
-67.58634560457281
 20
47.97822306517186
 30
0.0
  0
VERTEX
  5
2EF
  8
0
  6
CONTINUOUS
 62
     9
 10
-67.38594489047678
 20
48.08033864686645
 30
0.0
  0
VERTEX
  5
2F0
  8
0
  6
CONTINUOUS
 62
     9
 10
-67.21016247115118
 20
48.21842633920824
 30
0.0
  0
VERTEX
  5
2F1
  8
0
  6
CONTINUOUS
 62
     9
 10
-67.0658224487325
 20
48.38712539838708
 30
0.0
  0
VERTEX
  5
2F2
  8
0
  6
CONTINUOUS
 62
     9
 10
-66.95852829061612
 20
48.5798867075198
 30
0.0
  0
VERTEX
  5
2F3
  8
0
  6
CONTINUOUS
 62
     9
 10
-66.89244529556424
 20
48.78922702188527
 30
0.0
  0
VERTEX
  5
2F4
  8
0
  6
CONTINUOUS
 62
     9
 10
-66.8701388913907
 20
49.00701947821696
 30
0.0
  0
SEQEND
  5
519
  8
0
  6
CONTINUOUS
 62
     9
  0
LINE
  5
B1
  8
0
  6
CONTINUOUS
 62
     7
 10
-66.79057685777835
 20
53.81211488164186
 30
0.0
 11
-66.35
 21
74.98803861998843
 31
0.0
  0
LINE
  5
B2
  8
0
  6
CONTINUOUS
 62
     7
 10
-69.08997923915636
 20
53.85995522563219
 30
0.0
 11
-69.17003888888887
 21
49.00694620802668
 31
0.0
  0
LINE
  5
B3
  8
0
  6
CONTINUOUS
 62
     7
 10
-66.87013888888887
 20
135.3032891537869
 30
0.0
 11
-66.87013888888887
 21
136.58886437316
 31
0.0
  0
POLYLINE
  5
B4
  8
0
  6
CONTINUOUS
 62
     7
 66
     1
 10
0.0
 20
0.0
 30
0.0
  0
VERTEX
  5
2F5
  8
0
  6
CONTINUOUS
 62
     7
 10
-66.87013888888887
 20
135.3032891537869
 30
0.0
  0
VERTEX
  5
2F6
  8
0
  6
CONTINUOUS
 62
     7
 10
-66.8924592366295
 20
135.4760085980141
 30
0.0
  0
VERTEX
  5
2F7
  8
0
  6
CONTINUOUS
 62
     7
 10
-66.95855381100797
 20
135.6420231280159
 30
0.0
  0
VERTEX
  5
2F8
  8
0
  6
CONTINUOUS
 62
     7
 10
-67.06585684154051
 20
135.7948881122177
 30
0.0
  0
VERTEX
  5
2F9
  8
0
  6
CONTINUOUS
 62
     7
 10
-67.21020285850216
 20
135.928669380256
 30
0.0
  0
VERTEX
  5
2FA
  8
0
  6
CONTINUOUS
 62
     7
 10
-67.38598839514468
 20
136.0381735855961
 30
0.0
  0
VERTEX
  5
2FB
  8
0
  6
CONTINUOUS
 62
     7
 10
-67.58638951250443
 20
136.1191498096028
 30
0.0
  0
VERTEX
  5
2FC
  8
0
  6
CONTINUOUS
 62
     7
 10
-67.80362670255568
 20
136.1684545808582
 30
0.0
  0
VERTEX
  5
2FD
  8
0
  6
CONTINUOUS
 62
     7
 10
-68.02926688625301
 20
136.1841739037281
 30
0.0
  0
VERTEX
  5
2FE
  8
0
  6
CONTINUOUS
 62
     7
 10
-68.25455078299399
 20
136.1656975590679
 30
0.0
  0
VERTEX
  5
2FF
  8
0
  6
CONTINUOUS
 62
     7
 10
-68.47073294312318
 20
136.1137427927367
 30
0.0
  0
VERTEX
  5
300
  8
0
  6
CONTINUOUS
 62
     7
 10
-68.66942124352325
 20
136.0303264723396
 30
0.0
  0
VERTEX
  5
301
  8
0
  6
CONTINUOUS
 62
     7
 10
-68.84290266718139
 20
135.9186867930651
 30
0.0
  0
VERTEX
  5
302
  8
0
  6
CONTINUOUS
 62
     7
 10
-68.98444272007163
 20
135.7831575719715
 30
0.0
  0
VERTEX
  5
303
  8
0
  6
CONTINUOUS
 62
     7
 10
-69.08854686208396
 20
135.6290000105785
 30
0.0
  0
VERTEX
  5
304
  8
0
  6
CONTINUOUS
 62
     7
 10
-69.15117380333459
 20
135.4621984566876
 30
0.0
  0
VERTEX
  5
305
  8
0
  6
CONTINUOUS
 62
     7
 10
-69.16989238576157
 20
135.289228093892
 30
0.0
  0
SEQEND
  5
51A
  8
0
  6
CONTINUOUS
 62
     7
  0
LINE
  5
B5
  8
0
  6
CONTINUOUS
 62
     7
 10
-86.89027777777777
 20
94.95916793786289
 30
0.0
 11
-86.89027777777775
 21
110.7040340366734
 31
0.0
  0
LINE
  5
B6
  8
0
  6
CONTINUOUS
 62
     7
 10
-86.89033186990925
 20
110.701677737182
 30
0.0
 11
-86.4502526190492
 21
129.8719061361647
 31
0.0
  0
LINE
  5
B7
  8
0
  6
CONTINUOUS
 62
     7
 10
-75.91456657152791
 20
100.0128048956175
 30
0.0
 11
-75.92162251434449
 21
99.88625677949211
 31
0.0
  0
ARC
  5
B8
  8
0
  6
CONTINUOUS
 62
     7
 10
185.3587117355817
 20
117.48482361773
 30
0.0
 40
261.8723403120556
 50
183.8533436547915
 51
186.2336788725284
  0
POLYLINE
  5
B9
  8
0
  6
CONTINUOUS
 62
     7
 66
     1
 10
0.0
 20
0.0
 30
0.0
  0
VERTEX
  5
306
  8
0
  6
CONTINUOUS
 62
     7
 10
-74.96525845868562
 20
89.04975437555481
 30
0.0
  0
VERTEX
  5
307
  8
0
  6
CONTINUOUS
 62
     7
 10
-74.90013422065881
 20
88.8732112251561
 30
0.0
  0
VERTEX
  5
308
  8
0
  6
CONTINUOUS
 62
     7
 10
-74.83032253866129
 20
88.73084983080817
 30
0.0
  0
VERTEX
  5
309
  8
0
  6
CONTINUOUS
 62
     7
 10
-74.7561306625586
 20
88.61610122393753
 30
0.0
  0
VERTEX
  5
30A
  8
0
  6
CONTINUOUS
 62
     7
 10
-74.6905526141648
 20
88.53554391525809
 30
0.0
  0
VERTEX
  5
30B
  8
0
  6
CONTINUOUS
 62
     7
 10
-74.61933105112081
 20
88.46277453333757
 30
0.0
  0
VERTEX
  5
30C
  8
0
  6
CONTINUOUS
 62
     7
 10
-74.52350566264066
 20
88.3821502375145
 30
0.0
  0
VERTEX
  5
30D
  8
0
  6
CONTINUOUS
 62
     7
 10
-74.42843212151128
 20
88.31795828277397
 30
0.0
  0
VERTEX
  5
30E
  8
0
  6
CONTINUOUS
 62
     7
 10
-74.30462793602175
 20
88.25396594326668
 30
0.0
  0
VERTEX
  5
30F
  8
0
  6
CONTINUOUS
 62
     7
 10
-74.16764261842897
 20
88.20407857449469
 30
0.0
  0
VERTEX
  5
310
  8
0
  6
CONTINUOUS
 62
     7
 10
-74.05691460497825
 20
88.17723219678952
 30
0.0
  0
VERTEX
  5
311
  8
0
  6
CONTINUOUS
 62
     7
 10
-73.94929496323576
 20
88.1614691991704
 30
0.0
  0
SEQEND
  5
51B
  8
0
  6
CONTINUOUS
 62
     7
  0
ARC
  5
BA
  8
0
  6
CONTINUOUS
 62
     7
 10
-73.81903816136332
 20
89.31381457049442
 30
0.0
 40
1.159683874702903
 50
263.5508741022823
 51
314.2677485744678
  0
ARC
  5
BB
  8
0
  6
CONTINUOUS
 62
     7
 10
-73.99557493299913
 20
89.46268461248529
 30
0.0
 40
1.38969462599418
 50
315.1955392454823
 51
342.0597949088399
  0
LINE
  5
BC
  8
0
  6
CONTINUOUS
 62
     7
 10
-69.17003888888887
 20
49.00694620802668
 30
0.0
 11
-69.17003888888887
 21
48.70590477448741
 31
0.0
  0
LINE
  5
BD
  8
0
  6
CONTINUOUS
 62
     7
 10
-66.87013888888887
 20
48.70590477448741
 30
0.0
 11
-66.87013888888887
 21
49.00694620802668
 31
0.0
  0
LINE
  5
BE
  8
1
  6
CONTINUOUS
 62
     7
 10
-125.2
 20
165.543
 30
0.0
 11
-125.2
 21
170.043
 31
0.0
  0
LINE
  5
BF
  8
1
  6
CONTINUOUS
 62
     7
 10
-126.9
 20
159.493
 30
0.0
 11
-126.8
 21
159.593
 31
0.0
  0
LINE
  5
C0
  8
0
  6
CONTINUOUS
 62
     7
 10
-86.37013888888889
 20
48.70590477448739
 30
0.0
 11
-86.37013888888889
 21
51.03527618041007
 31
0.0
  0
ARC
  5
C1
  8
0
  6
CONTINUOUS
 62
     7
 10
-97.32951657131463
 20
95.71540198863728
 30
0.0
 40
24.01602245777271
 50
0.708871248355576
 51
13.29672804078143
  0
POLYLINE
  5
C2
  8
0
  6
CONTINUOUS
 62
     7
 66
     1
 10
0.0
 20
0.0
 30
0.0
  0
VERTEX
  5
312
  8
0
  6
CONTINUOUS
 62
     7
 10
-73.95731543905342
 20
101.238946948658
 30
0.0
  0
VERTEX
  5
313
  8
0
  6
CONTINUOUS
 62
     7
 10
-74.04242426570033
 20
101.3732120779995
 30
0.0
  0
VERTEX
  5
314
  8
0
  6
CONTINUOUS
 62
     7
 10
-74.13673418456322
 20
101.4887794200069
 30
0.0
  0
VERTEX
  5
315
  8
0
  6
CONTINUOUS
 62
     7
 10
-74.21169154611657
 20
101.562995869723
 30
0.0
  0
VERTEX
  5
316
  8
0
  6
CONTINUOUS
 62
     7
 10
-74.30972610587003
 20
101.6415654670894
 30
0.0
  0
VERTEX
  5
317
  8
0
  6
CONTINUOUS
 62
     7
 10
-74.39697817819997
 20
101.6970665494894
 30
0.0
  0
VERTEX
  5
318
  8
0
  6
CONTINUOUS
 62
     7
 10
-74.50088016737716
 20
101.7487428574116
 30
0.0
  0
VERTEX
  5
319
  8
0
  6
CONTINUOUS
 62
     7
 10
-74.61014715219359
 20
101.7894171708944
 30
0.0
  0
VERTEX
  5
31A
  8
0
  6
CONTINUOUS
 62
     7
 10
-74.71609288345942
 20
101.8174713070261
 30
0.0
  0
VERTEX
  5
31B
  8
0
  6
CONTINUOUS
 62
     7
 10
-74.84412473870731
 20
101.8380101281617
 30
0.0
  0
VERTEX
  5
31C
  8
0
  6
CONTINUOUS
 62
     7
 10
-74.99369243718084
 20
101.8447724389574
 30
0.0
  0
VERTEX
  5
31D
  8
0
  6
CONTINUOUS
 62
     7
 10
-75.10437811341447
 20
101.8381024260838
 30
0.0
  0
VERTEX
  5
31E
  8
0
  6
CONTINUOUS
 62
     7
 10
-75.2346954613306
 20
101.8171742629494
 30
0.0
  0
VERTEX
  5
31F
  8
0
  6
CONTINUOUS
 62
     7
 10
-75.34597061667425
 20
101.7872870861799
 30
0.0
  0
VERTEX
  5
320
  8
0
  6
CONTINUOUS
 62
     7
 10
-75.44835659053626
 20
101.748663325823
 30
0.0
  0
VERTEX
  5
321
  8
0
  6
CONTINUOUS
 62
     7
 10
-75.55442850064838
 20
101.6950719769111
 30
0.0
  0
VERTEX
  5
322
  8
0
  6
CONTINUOUS
 62
     7
 10
-75.66249806199484
 20
101.6222621359227
 30
0.0
  0
VERTEX
  5
323
  8
0
  6
CONTINUOUS
 62
     7
 10
-75.76066780299065
 20
101.535539283467
 30
0.0
  0
VERTEX
  5
324
  8
0
  6
CONTINUOUS
 62
     7
 10
-75.84935185675256
 20
101.4350060167672
 30
0.0
  0
SEQEND
  5
51C
  8
0
  6
CONTINUOUS
 62
     7
  0
ARC
  5
C3
  8
0
  6
CONTINUOUS
 62
     7
 10
-74.39520603905315
 20
100.3560258851152
 30
0.0
 40
1.810728633349681
 50
143.4244849845599
 51
161.8415604314777
  0
POLYLINE
  5
C4
  8
0
  6
CONTINUOUS
 62
     9
 66
     1
 10
0.0
 20
0.0
 30
0.0
  0
VERTEX
  5
325
  8
0
  6
CONTINUOUS
 62
     9
 10
-88.67003888888888
 20
48.70590477448739
 30
0.0
  0
VERTEX
  5
326
  8
0
  6
CONTINUOUS
 62
     9
 10
-88.64771854114825
 20
48.48811823040378
 30
0.0
  0
VERTEX
  5
327
  8
0
  6
CONTINUOUS
 62
     9
 10
-88.58162396676978
 20
48.27878609111549
 30
0.0
  0
VERTEX
  5
328
  8
0
  6
CONTINUOUS
 62
     9
 10
-88.47432093623725
 20
48.08603456409621
 30
0.0
  0
VERTEX
  5
329
  8
0
  6
CONTINUOUS
 62
     9
 10
-88.3299749192756
 20
47.91734620269282
 30
0.0
  0
VERTEX
  5
32A
  8
0
  6
CONTINUOUS
 62
     9
 10
-88.15418938263306
 20
47.77926943576974
 30
0.0
  0
VERTEX
  5
32B
  8
0
  6
CONTINUOUS
 62
     9
 10
-87.95378826527332
 20
47.67716435977052
 30
0.0
  0
VERTEX
  5
32C
  8
0
  6
CONTINUOUS
 62
     9
 10
-87.73655107522207
 20
47.61499466146829
 30
0.0
  0
VERTEX
  5
32D
  8
0
  6
CONTINUOUS
 62
     9
 10
-87.51091089152473
 20
47.59517374889825
 30
0.0
  0
VERTEX
  5
32E
  8
0
  6
CONTINUOUS
 62
     9
 10
-87.28562699478375
 20
47.61847106362064
 30
0.0
  0
VERTEX
  5
32F
  8
0
  6
CONTINUOUS
 62
     9
 10
-87.06944483465456
 20
47.68398221124261
 30
0.0
  0
VERTEX
  5
330
  8
0
  6
CONTINUOUS
 62
     9
 10
-86.8707565342545
 20
47.78916406972268
 30
0.0
  0
VERTEX
  5
331
  8
0
  6
CONTINUOUS
 62
     9
 10
-86.69727511059635
 20
47.9299335125644
 30
0.0
  0
VERTEX
  5
332
  8
0
  6
CONTINUOUS
 62
     9
 10
-86.55573505770612
 20
48.10082591449629
 30
0.0
  0
VERTEX
  5
333
  8
0
  6
CONTINUOUS
 62
     9
 10
-86.45163091569378
 20
48.29520728649732
 30
0.0
  0
VERTEX
  5
334
  8
0
  6
CONTINUOUS
 62
     9
 10
-86.38900397444317
 20
48.50553180515368
 30
0.0
  0
VERTEX
  5
335
  8
0
  6
CONTINUOUS
 62
     9
 10
-86.37028539201619
 20
48.72363473913828
 30
0.0
  0
SEQEND
  5
51D
  8
0
  6
CONTINUOUS
 62
     9
  0
ARC
  5
C5
  8
1
  6
CONTINUOUS
 62
     7
 10
-140.754005
 20
177.792908
 30
0.0
 40
0.500094
 50
0.010567
 51
89.82307500000002
  0
LINE
  5
C6
  8
1
  6
CONTINUOUS
 62
     7
 10
-151.73738
 20
177.793
 30
0.0
 11
-151.73738
 21
175.793
 31
0.0
  0
POLYLINE
  5
C7
  8
0
  6
CONTINUOUS
 62
     7
 66
     1
 10
0.0
 20
0.0
 30
0.0
  0
VERTEX
  5
336
  8
0
  6
CONTINUOUS
 62
     7
 10
-69.16989238576157
 20
135.289228093892
 30
0.0
  0
VERTEX
  5
337
  8
0
  6
CONTINUOUS
 62
     7
 10
-69.14445946343585
 20
135.1185218168364
 30
0.0
  0
VERTEX
  5
338
  8
0
  6
CONTINUOUS
 62
     7
 10
-69.0762541948976
 20
134.9548443011907
 30
0.0
  0
VERTEX
  5
339
  8
0
  6
CONTINUOUS
 62
     7
 10
-68.96787118678765
 20
134.8044220273741
 30
0.0
  0
VERTEX
  5
33A
  8
0
  6
CONTINUOUS
 62
     7
 10
-68.8234334530405
 20
134.6729772312042
 30
0.0
  0
VERTEX
  5
33B
  8
0
  6
CONTINUOUS
 62
     7
 10
-68.6484355707056
 20
134.5655102234831
 30
0.0
  0
VERTEX
  5
33C
  8
0
  6
CONTINUOUS
 62
     7
 10
-68.44953465993457
 20
134.48610917244
 30
0.0
  0
VERTEX
  5
33D
  8
0
  6
CONTINUOUS
 62
     7
 10
-68.23429713949544
 20
134.4377945851228
 30
0.0
  0
VERTEX
  5
33E
  8
0
  6
CONTINUOUS
 62
     7
 10
-68.01091089152472
 20
134.4224044038457
 30
0.0
  0
VERTEX
  5
33F
  8
0
  6
CONTINUOUS
 62
     7
 10
-67.78787378510012
 20
134.4405240887558
 30
0.0
  0
VERTEX
  5
340
  8
0
  6
CONTINUOUS
 62
     7
 10
-67.57367040755446
 20
134.4914643462572
 30
0.0
  0
VERTEX
  5
341
  8
0
  6
CONTINUOUS
 62
     7
 10
-67.37644930104254
 20
134.5732873505306
 30
0.0
  0
VERTEX
  5
342
  8
0
  6
CONTINUOUS
 62
     7
 10
-67.20371298265177
 20
134.6828804606495
 30
0.0
  0
VERTEX
  5
343
  8
0
  6
CONTINUOUS
 62
     7
 10
-67.0620325400475
 20
134.8160746290109
 30
0.0
  0
VERTEX
  5
344
  8
0
  6
CONTINUOUS
 62
     7
 10
-66.95679765976175
 20
134.9678029966881
 30
0.0
  0
VERTEX
  5
345
  8
0
  6
CONTINUOUS
 62
     7
 10
-66.89201159733595
 20
135.1322936425553
 30
0.0
  0
VERTEX
  5
346
  8
0
  6
CONTINUOUS
 62
     7
 10
-66.87013888888887
 20
135.3032891537869
 30
0.0
  0
SEQEND
  5
51E
  8
0
  6
CONTINUOUS
 62
     7
  0
LINE
  5
C8
  8
0
  6
CONTINUOUS
 62
     7
 10
-86.4502526190492
 20
129.8719061361647
 30
0.0
 11
-86.37013888888887
 21
135.8412157470526
 31
0.0
  0
ARC
  5
C9
  8
0
  6
CONTINUOUS
 62
     7
 10
250.0496627114754
 20
124.0714570331756
 30
0.0
 40
331.476864733432
 50
184.1378099871111
 51
186.0708748428751
  0
ARC
  5
CA
  8
0
  6
CONTINUOUS
 62
     7
 10
-78.23434906871502
 20
89.46776765963412
 30
0.0
 40
1.408647913290937
 50
198.7520062998907
 51
218.9942189554852
  0
POLYLINE
  5
CB
  8
0
  6
CONTINUOUS
 62
     7
 66
     1
 10
0.0
 20
0.0
 30
0.0
  0
VERTEX
  5
347
  8
0
  6
CONTINUOUS
 62
     7
 10
-79.32916354545702
 20
88.58138726435507
 30
0.0
  0
VERTEX
  5
348
  8
0
  6
CONTINUOUS
 62
     7
 10
-79.22642582464843
 20
88.47026699260893
 30
0.0
  0
VERTEX
  5
349
  8
0
  6
CONTINUOUS
 62
     7
 10
-79.14366513715002
 20
88.39812977085585
 30
0.0
  0
VERTEX
  5
34A
  8
0
  6
CONTINUOUS
 62
     7
 10
-79.04705907286389
 20
88.32955873214252
 30
0.0
  0
SEQEND
  5
51F
  8
0
  6
CONTINUOUS
 62
     7
  0
ARC
  5
CC
  8
0
  6
CONTINUOUS
 62
     7
 10
-78.42328960828388
 20
89.34969893026451
 30
0.0
 40
1.195731729430475
 50
238.5561054747208
 51
287.4923838943635
  0
LINE
  5
CD
  8
0
  6
CONTINUOUS
 62
     7
 10
-78.06387773333586
 20
88.20926152605807
 30
0.0
 11
-77.9399728501743
 21
88.25616773428796
 31
0.0
  0
ARC
  5
CE
  8
0
  6
CONTINUOUS
 62
     7
 10
-78.49509000497773
 20
89.39963404036827
 30
0.0
 40
1.27109018118228
 50
295.8951240018274
 51
343.7280422746294
  0
ARC
  5
CF
  8
0
  6
CONTINUOUS
 62
     7
 10
-73.9672672196335
 20
136.01454846416
 30
0.0
 40
7.120327893179402
 50
4.626424930955181
 51
71.1020127531319
  0
ARC
  5
D0
  8
0
  6
CONTINUOUS
 62
     7
 10
-77.65806286167974
 20
129.3190841112961
 30
0.0
 40
14.70991748414506
 50
65.94074383573178
 51
126.5286465338718
  0
ARC
  5
D1
  8
0
  6
CONTINUOUS
 62
     7
 10
-82.61171656878732
 20
136.4195956716392
 30
0.0
 40
6.060686531042115
 50
128.8534190541883
 51
178.3995800760605
  0
ARC
  5
D2
  8
0
  6
CONTINUOUS
 62
     7
 10
-101.7867609543853
 20
95.81793102781944
 30
0.0
 40
21.58062920671217
 50
0.1444900105395397
 51
14.91051259549868
  0
POLYLINE
  5
D3
  8
0
  6
CONTINUOUS
 62
     7
 66
     1
 10
0.0
 20
0.0
 30
0.0
  0
VERTEX
  5
34B
  8
0
  6
CONTINUOUS
 62
     7
 10
-80.93277560661151
 20
101.3708448640349
 30
0.0
  0
VERTEX
  5
34C
  8
0
  6
CONTINUOUS
 62
     7
 10
-81.00155318522589
 20
101.455925774487
 30
0.0
  0
VERTEX
  5
34D
  8
0
  6
CONTINUOUS
 62
     7
 10
-81.08332570744554
 20
101.5397681075327
 30
0.0
  0
VERTEX
  5
34E
  8
0
  6
CONTINUOUS
 62
     7
 10
-81.16477104627434
 20
101.6089673092212
 30
0.0
  0
VERTEX
  5
34F
  8
0
  6
CONTINUOUS
 62
     7
 10
-81.2649348988141
 20
101.6780939472999
 30
0.0
  0
VERTEX
  5
350
  8
0
  6
CONTINUOUS
 62
     7
 10
-81.38586624566373
 20
101.7418973926299
 30
0.0
  0
SEQEND
  5
520
  8
0
  6
CONTINUOUS
 62
     7
  0
ARC
  5
D4
  8
0
  6
CONTINUOUS
 62
     7
 10
-81.87432146464141
 20
100.6352296844188
 30
0.0
 40
1.209670168824463
 50
66.18454597358188
 51
116.7301430188094
  0
POLYLINE
  5
D5
  8
0
  6
CONTINUOUS
 62
     7
 66
     1
 10
0.0
 20
0.0
 30
0.0
  0
VERTEX
  5
351
  8
0
  6
CONTINUOUS
 62
     7
 10
-82.41841772105465
 20
101.7156283058085
 30
0.0
  0
VERTEX
  5
352
  8
0
  6
CONTINUOUS
 62
     7
 10
-82.53230939820692
 20
101.6473577736683
 30
0.0
  0
VERTEX
  5
353
  8
0
  6
CONTINUOUS
 62
     7
 10
-82.63185385363705
 20
101.5703507352858
 30
0.0
  0
VERTEX
  5
354
  8
0
  6
CONTINUOUS
 62
     7
 10
-82.71163172077998
 20
101.4941769907526
 30
0.0
  0
VERTEX
  5
355
  8
0
  6
CONTINUOUS
 62
     7
 10
-82.78700769404152
 20
101.4069176466648
 30
0.0
  0
SEQEND
  5
521
  8
0
  6
CONTINUOUS
 62
     7
  0
ARC
  5
D6
  8
0
  6
CONTINUOUS
 62
     7
 10
-81.65686360860416
 20
100.5446257414411
 30
0.0
 40
1.421538949049025
 50
142.6566258020819
 51
163.4645031075232
  0
LINE
  5
D7
  8
0
  6
CONTINUOUS
 62
     7
 10
-68.64989999999999
 20
75.01196138001154
 30
0.0
 11
-69.08997923915636
 21
53.85995522563216
 31
0.0
  0
LINE
  5
D8
  8
1
  6
CONTINUOUS
 62
     7
 10
-140.25091
 20
157.793
 30
0.0
 11
-140.25091
 21
158.73236
 31
0.0
  0
ARC
  5
D9
  8
1
  6
CONTINUOUS
 62
     7
 10
-151.234384
 20
177.793879
 30
0.0
 40
0.4991220000000001
 50
90.118716
 51
180.100865
  0
LINE
  5
DA
  8
0
  6
CONTINUOUS
 62
     7
 10
-66.87013888888887
 20
49.00694620802668
 30
0.0
 11
-66.79057685777836
 21
53.81211488164186
 31
0.0
  0
LINE
  5
DB
  8
1
  6
CONTINUOUS
 62
     7
 10
-126.9
 20
176.093
 30
0.0
 11
-126.8
 21
175.993
 31
0.0
  0
ARC
  5
DC
  8
1
  6
CONTINUOUS
 62
     7
 10
-259.339212
 20
150.441098
 30
0.0
 40
193.195368
 50
3.672357
 51
6.985627
  0
POLYLINE
  5
DD
  8
0
  6
CONTINUOUS
 62
     9
 66
     1
 10
0.0
 20
0.0
 30
0.0
  0
VERTEX
  5
356
  8
0
  6
CONTINUOUS
 62
     9
 10
-86.37028539201617
 20
135.8271546871577
 30
0.0
  0
VERTEX
  5
357
  8
0
  6
CONTINUOUS
 62
     9
 10
-86.38900685983741
 20
136.000137101477
 30
0.0
  0
VERTEX
  5
358
  8
0
  6
CONTINUOUS
 62
     9
 10
-86.45164274384263
 20
136.1669493722352
 30
0.0
  0
VERTEX
  5
359
  8
0
  6
CONTINUOUS
 62
     9
 10
-86.55576119717405
 20
136.3211149899532
 30
0.0
  0
VERTEX
  5
35A
  8
0
  6
CONTINUOUS
 62
     9
 10
-86.69731980648356
 20
136.456648453205
 30
0.0
  0
VERTEX
  5
35B
  8
0
  6
CONTINUOUS
 62
     9
 10
-86.87082253919002
 20
136.5682876565385
 30
0.0
  0
VERTEX
  5
35C
  8
0
  6
CONTINUOUS
 62
     9
 10
-87.06953312770409
 20
136.6516981924466
 30
0.0
  0
VERTEX
  5
35D
  8
0
  6
CONTINUOUS
 62
     9
 10
-87.28573660594904
 20
136.7036416353388
 30
0.0
  0
VERTEX
  5
35E
  8
0
  6
CONTINUOUS
 62
     9
 10
-87.51103884398538
 20
136.722101273862
 30
0.0
  0
VERTEX
  5
35F
  8
0
  6
CONTINUOUS
 62
     9
 10
-87.73669245126652
 20
136.7063604099979
 30
0.0
  0
VERTEX
  5
360
  8
0
  6
CONTINUOUS
 62
     9
 10
-87.95393639528642
 20
136.6570301849627
 30
0.0
  0
VERTEX
  5
361
  8
0
  6
CONTINUOUS
 62
     9
 10
-88.15433614987796
 20
136.5760258515648
 30
0.0
  0
VERTEX
  5
362
  8
0
  6
CONTINUOUS
 62
     9
 10
-88.33011116685789
 20
136.4664924142497
 30
0.0
  0
VERTEX
  5
363
  8
0
  6
CONTINUOUS
 62
     9
 10
-88.47443695688574
 20
136.3326825238673
 30
0.0
  0
VERTEX
  5
364
  8
0
  6
CONTINUOUS
 62
     9
 10
-88.58171005120633
 20
136.1797913679151
 30
0.0
  0
VERTEX
  5
365
  8
0
  6
CONTINUOUS
 62
     9
 10
-88.64776555709894
 20
136.0137549666646
 30
0.0
  0
VERTEX
  5
366
  8
0
  6
CONTINUOUS
 62
     9
 10
-88.6700388604131
 20
135.841019706354
 30
0.0
  0
SEQEND
  5
522
  8
0
  6
CONTINUOUS
 62
     9
  0
LINE
  5
DE
  8
1
  6
CONTINUOUS
 62
     7
 10
-126.4
 20
165.543
 30
0.0
 11
-126.4
 21
170.043
 31
0.0
  0
POLYLINE
  5
DF
  8
0
  6
CONTINUOUS
 62
     7
 66
     1
 10
0.0
 20
0.0
 30
0.0
  0
VERTEX
  5
367
  8
0
  6
CONTINUOUS
 62
     7
 10
-86.37028539201619
 20
51.05300614506096
 30
0.0
  0
VERTEX
  5
368
  8
0
  6
CONTINUOUS
 62
     7
 10
-86.39571831434192
 20
51.26825423307831
 30
0.0
  0
VERTEX
  5
369
  8
0
  6
CONTINUOUS
 62
     7
 10
-86.46392358288016
 20
51.47463956876629
 30
0.0
  0
VERTEX
  5
36A
  8
0
  6
CONTINUOUS
 62
     7
 10
-86.57230659099012
 20
51.66431101724903
 30
0.0
  0
VERTEX
  5
36B
  8
0
  6
CONTINUOUS
 62
     7
 10
-86.71674432473728
 20
51.83005325908932
 30
0.0
  0
VERTEX
  5
36C
  8
0
  6
CONTINUOUS
 62
     7
 10
-86.89174220707217
 20
51.96556126931542
 30
0.0
  0
VERTEX
  5
36D
  8
0
  6
CONTINUOUS
 62
     7
 10
-87.0906431178432
 20
52.06568016780224
 30
0.0
  0
VERTEX
  5
36E
  8
0
  6
CONTINUOUS
 62
     7
 10
-87.30588063828233
 20
52.12660131682354
 30
0.0
  0
VERTEX
  5
36F
  8
0
  6
CONTINUOUS
 62
     7
 10
-87.52926688625305
 20
52.1460072059992
 30
0.0
  0
VERTEX
  5
370
  8
0
  6
CONTINUOUS
 62
     7
 10
-87.75230399267765
 20
52.1231596130481
 30
0.0
  0
VERTEX
  5
371
  8
0
  6
CONTINUOUS
 62
     7
 10
-87.96650737022331
 20
52.05892768661032
 30
0.0
  0
VERTEX
  5
372
  8
0
  6
CONTINUOUS
 62
     7
 10
-88.16372847673523
 20
51.95575488283608
 30
0.0
  0
VERTEX
  5
373
  8
0
  6
CONTINUOUS
 62
     7
 10
-88.336464795126
 20
51.81756601351132
 30
0.0
  0
VERTEX
  5
374
  8
0
  6
CONTINUOUS
 62
     7
 10
-88.47814523773026
 20
51.64961794171595
 30
0.0
  0
VERTEX
  5
375
  8
0
  6
CONTINUOUS
 62
     7
 10
-88.58338011801602
 20
51.45829960472312
 30
0.0
  0
VERTEX
  5
376
  8
0
  6
CONTINUOUS
 62
     7
 10
-88.6481661804418
 20
51.25088897149778
 30
0.0
  0
VERTEX
  5
377
  8
0
  6
CONTINUOUS
 62
     7
 10
-88.67003888888888
 20
51.03527618041007
 30
0.0
  0
SEQEND
  5
523
  8
0
  6
CONTINUOUS
 62
     7
  0
POLYLINE
  5
E0
  8
0
  6
CONTINUOUS
 62
     9
 66
     1
 10
0.0
 20
0.0
 30
0.0
  0
VERTEX
  5
378
  8
0
  6
CONTINUOUS
 62
     9
 10
-69.16989238576157
 20
48.72363473913828
 30
0.0
  0
VERTEX
  5
379
  8
0
  6
CONTINUOUS
 62
     9
 10
-69.15117380333459
 20
48.50553180515368
 30
0.0
  0
VERTEX
  5
37A
  8
0
  6
CONTINUOUS
 62
     9
 10
-69.08854686208397
 20
48.29520728649733
 30
0.0
  0
VERTEX
  5
37B
  8
0
  6
CONTINUOUS
 62
     9
 10
-68.98444272007163
 20
48.1008259144963
 30
0.0
  0
VERTEX
  5
37C
  8
0
  6
CONTINUOUS
 62
     9
 10
-68.84290266718139
 20
47.92993351256442
 30
0.0
  0
VERTEX
  5
37D
  8
0
  6
CONTINUOUS
 62
     9
 10
-68.66942124352325
 20
47.7891640697227
 30
0.0
  0
VERTEX
  5
37E
  8
0
  6
CONTINUOUS
 62
     9
 10
-68.47073294312318
 20
47.68398221124264
 30
0.0
  0
VERTEX
  5
37F
  8
0
  6
CONTINUOUS
 62
     9
 10
-68.25455078299399
 20
47.61847106362067
 30
0.0
  0
VERTEX
  5
380
  8
0
  6
CONTINUOUS
 62
     9
 10
-68.02926688625301
 20
47.59517374889828
 30
0.0
  0
VERTEX
  5
381
  8
0
  6
CONTINUOUS
 62
     9
 10
-67.80362670255568
 20
47.61499466146832
 30
0.0
  0
VERTEX
  5
382
  8
0
  6
CONTINUOUS
 62
     9
 10
-67.58638951250443
 20
47.67716435977055
 30
0.0
  0
VERTEX
  5
383
  8
0
  6
CONTINUOUS
 62
     9
 10
-67.38598839514468
 20
47.77926943576978
 30
0.0
  0
VERTEX
  5
384
  8
0
  6
CONTINUOUS
 62
     9
 10
-67.21020285850216
 20
47.91734620269285
 30
0.0
  0
VERTEX
  5
385
  8
0
  6
CONTINUOUS
 62
     9
 10
-67.06585684154051
 20
48.08603456409624
 30
0.0
  0
VERTEX
  5
386
  8
0
  6
CONTINUOUS
 62
     9
 10
-66.95855381100797
 20
48.27878609111551
 30
0.0
  0
VERTEX
  5
387
  8
0
  6
CONTINUOUS
 62
     9
 10
-66.8924592366295
 20
48.48811823040381
 30
0.0
  0
VERTEX
  5
388
  8
0
  6
CONTINUOUS
 62
     9
 10
-66.87013888888887
 20
48.70590477448741
 30
0.0
  0
SEQEND
  5
524
  8
0
  6
CONTINUOUS
 62
     9
  0
LINE
  5
E1
  8
0
  6
CONTINUOUS
 62
     7
 10
-89.18371687676022
 20
154.1233533651209
 30
0.0
 11
-88.74314026616258
 21
145.1740263049908
 31
0.0
  0
LINE
  5
E2
  8
0
  6
CONTINUOUS
 62
     7
 10
-86.88495929990736
 20
154.2031370704478
 30
0.0
 11
-86.88495929990738
 21
161.5225090121455
 31
0.0
  0
ARC
  5
E3
  8
0
  6
CONTINUOUS
 62
     7
 10
-84.41393583497512
 20
172.6153057632515
 30
0.0
 40
3.303052625474718
 50
5.123090307313771
 51
25.35531035734004
  0
POLYLINE
  5
E4
  8
0
  6
CONTINUOUS
 62
     7
 66
     1
 10
0.0
 20
0.0
 30
0.0
  0
VERTEX
  5
389
  8
0
  6
CONTINUOUS
 62
     7
 10
-81.42906765792426
 20
174.0297733706164
 30
0.0
  0
VERTEX
  5
38A
  8
0
  6
CONTINUOUS
 62
     7
 10
-81.52277543913316
 20
174.1776415367608
 30
0.0
  0
VERTEX
  5
38B
  8
0
  6
CONTINUOUS
 62
     7
 10
-81.63853644054359
 20
174.3140294040679
 30
0.0
  0
VERTEX
  5
38C
  8
0
  6
CONTINUOUS
 62
     7
 10
-81.7263857445254
 20
174.3932828095454
 30
0.0
  0
VERTEX
  5
38D
  8
0
  6
CONTINUOUS
 62
     7
 10
-81.8310087696751
 20
174.4679537305664
 30
0.0
  0
VERTEX
  5
38E
  8
0
  6
CONTINUOUS
 62
     7
 10
-81.95419311568244
 20
174.5340775654968
 30
0.0
  0
VERTEX
  5
38F
  8
0
  6
CONTINUOUS
 62
     7
 10
-82.07992223985772
 20
174.5823308749539
 30
0.0
  0
SEQEND
  5
525
  8
0
  6
CONTINUOUS
 62
     7
  0
ARC
  5
E5
  8
0
  6
CONTINUOUS
 62
     7
 10
-82.4450755337623
 20
173.4132465817444
 30
0.0
 40
1.224783659541
 50
72.65426023383354
 51
104.339738645757
  0
POLYLINE
  5
E6
  8
0
  6
CONTINUOUS
 62
     7
 66
     1
 10
0.0
 20
0.0
 30
0.0
  0
VERTEX
  5
390
  8
0
  6
CONTINUOUS
 62
     7
 10
-82.74841896878436
 20
174.5998711108637
 30
0.0
  0
VERTEX
  5
391
  8
0
  6
CONTINUOUS
 62
     7
 10
-82.8893871260657
 20
174.5537913296141
 30
0.0
  0
VERTEX
  5
392
  8
0
  6
CONTINUOUS
 62
     7
 10
-83.0157571929009
 20
174.4937053416288
 30
0.0
  0
VERTEX
  5
393
  8
0
  6
CONTINUOUS
 62
     7
 10
-83.10785515565699
 20
174.4361884475567
 30
0.0
  0
VERTEX
  5
394
  8
0
  6
CONTINUOUS
 62
     7
 10
-83.18820681603563
 20
174.3747641229557
 30
0.0
  0
VERTEX
  5
395
  8
0
  6
CONTINUOUS
 62
     7
 10
-83.28866544866419
 20
174.2802910985381
 30
0.0
  0
SEQEND
  5
526
  8
0
  6
CONTINUOUS
 62
     7
  0
ARC
  5
E7
  8
0
  6
CONTINUOUS
 62
     7
 10
-82.30059002867716
 20
173.3526740323436
 30
0.0
 40
1.355273572780712
 50
136.8076278761056
 51
162.4510129195764
  0
ARC
  5
E8
  8
0
  6
CONTINUOUS
 62
     7
 10
-85.10362719761876
 20
145.2294134236184
 30
0.0
 40
3.639934492406575
 50
180.8718757496126
 51
193.0029503314416
  0
POLYLINE
  5
E9
  8
0
  6
CONTINUOUS
 62
     7
 66
     1
 10
0.0
 20
0.0
 30
0.0
  0
VERTEX
  5
396
  8
0
  6
CONTINUOUS
 62
     7
 10
-88.65022823726478
 20
144.4104236956041
 30
0.0
  0
VERTEX
  5
397
  8
0
  6
CONTINUOUS
 62
     7
 10
-88.6045640791836
 20
144.2928163737645
 30
0.0
  0
VERTEX
  5
398
  8
0
  6
CONTINUOUS
 62
     7
 10
-88.5540718549885
 20
144.1937915775066
 30
0.0
  0
VERTEX
  5
399
  8
0
  6
CONTINUOUS
 62
     7
 10
-88.47869728748259
 20
144.0784241058689
 30
0.0
  0
SEQEND
  5
527
  8
0
  6
CONTINUOUS
 62
     7
  0
ARC
  5
EA
  8
0
  6
CONTINUOUS
 62
     7
 10
-87.55328530314947
 20
144.7640461716294
 30
0.0
 40
1.151722604538548
 50
216.534120391254
 51
318.0846304255019
  0
LINE
  5
EB
  8
0
  6
CONTINUOUS
 62
     7
 10
-86.69625122772304
 20
143.9946583946515
 30
0.0
 11
-86.60467013986339
 21
144.11078690484
 31
0.0
  0
ARC
  5
EC
  8
0
  6
CONTINUOUS
 62
     7
 10
-92.1782396166024
 20
145.8898609354299
 30
0.0
 40
5.850622284710934
 50
342.2970041612741
 51
6.464820113805672
  0
ARC
  5
ED
  8
0
  6
CONTINUOUS
 62
     7
 10
-81.66802428414127
 20
172.6133218346611
 30
0.0
 40
2.890445576258156
 50
358.5705720363057
 51
35.80410197451988
  0
POLYLINE
  5
EE
  8
0
  6
CONTINUOUS
 62
     7
 66
     1
 10
0.0
 20
0.0
 30
0.0
  0
VERTEX
  5
39A
  8
0
  6
CONTINUOUS
 62
     7
 10
-79.32380951103133
 20
174.3042779922368
 30
0.0
  0
VERTEX
  5
39B
  8
0
  6
CONTINUOUS
 62
     7
 10
-79.4197699392696
 20
174.3903857122948
 30
0.0
  0
VERTEX
  5
39C
  8
0
  6
CONTINUOUS
 62
     7
 10
-79.51990769414111
 20
174.4620654084073
 30
0.0
  0
SEQEND
  5
528
  8
0
  6
CONTINUOUS
 62
     7
  0
ARC
  5
EF
  8
0
  6
CONTINUOUS
 62
     7
 10
-80.14577772661171
 20
173.4395755140585
 30
0.0
 40
1.198832299193734
 50
58.52903782129579
 51
117.7254381392417
  0
POLYLINE
  5
F0
  8
0
  6
CONTINUOUS
 62
     7
 66
     1
 10
0.0
 20
0.0
 30
0.0
  0
VERTEX
  5
39D
  8
0
  6
CONTINUOUS
 62
     7
 10
-80.7035165868066
 20
174.5007664702104
 30
0.0
  0
VERTEX
  5
39E
  8
0
  6
CONTINUOUS
 62
     7
 10
-80.83540427890523
 20
174.4167456483324
 30
0.0
  0
VERTEX
  5
39F
  8
0
  6
CONTINUOUS
 62
     7
 10
-80.92219237799472
 20
174.3455446940706
 30
0.0
  0
VERTEX
  5
3A0
  8
0
  6
CONTINUOUS
 62
     7
 10
-80.99541016724082
 20
174.2734545872674
 30
0.0
  0
SEQEND
  5
529
  8
0
  6
CONTINUOUS
 62
     7
  0
ARC
  5
F1
  8
0
  6
CONTINUOUS
 62
     7
 10
-79.98842682991594
 20
173.3444875173851
 30
0.0
 40
1.370034765462395
 50
137.3076962394152
 51
163.4480019326355
  0
ARC
  5
F2
  8
0
  6
CONTINUOUS
 62
     7
 10
-72.08509771886185
 20
172.8352836380667
 30
0.0
 40
2.462619489182086
 50
2.001346391631436
 51
34.5850771910741
  0
ARC
  5
F3
  8
0
  6
CONTINUOUS
 62
     7
 10
-70.92749926845454
 20
173.4983602003612
 30
0.0
 40
1.138646776940436
 50
40.18881395078334
 51
68.69124264301331
  0
POLYLINE
  5
F4
  8
0
  6
CONTINUOUS
 62
     7
 66
     1
 10
0.0
 20
0.0
 30
0.0
  0
VERTEX
  5
3A1
  8
0
  6
CONTINUOUS
 62
     7
 10
-70.51372228254384
 20
174.5591641825217
 30
0.0
  0
VERTEX
  5
3A2
  8
0
  6
CONTINUOUS
 62
     7
 10
-70.65302165673367
 20
174.6029100594792
 30
0.0
  0
VERTEX
  5
3A3
  8
0
  6
CONTINUOUS
 62
     7
 10
-70.79217048677897
 20
174.6286183106108
 30
0.0
  0
VERTEX
  5
3A4
  8
0
  6
CONTINUOUS
 62
     7
 10
-70.92568499161912
 20
174.6379383432996
 30
0.0
  0
VERTEX
  5
3A5
  8
0
  6
CONTINUOUS
 62
     7
 10
-71.07357436159741
 20
174.6313709629354
 30
0.0
  0
VERTEX
  5
3A6
  8
0
  6
CONTINUOUS
 62
     7
 10
-71.21627569289097
 20
174.6077690853302
 30
0.0
  0
VERTEX
  5
3A7
  8
0
  6
CONTINUOUS
 62
     7
 10
-71.35137963793073
 20
174.568349597398
 30
0.0
  0
VERTEX
  5
3A8
  8
0
  6
CONTINUOUS
 62
     7
 10
-71.48216708599017
 20
174.5118398446984
 30
0.0
  0
SEQEND
  5
52A
  8
0
  6
CONTINUOUS
 62
     7
  0
ARC
  5
F5
  8
0
  6
CONTINUOUS
 62
     7
 10
-70.9613210704578
 20
173.5026079267577
 30
0.0
 40
1.135706668152541
 50
117.2974258382263
 51
145.4194056261358
  0
POLYLINE
  5
F6
  8
0
  6
CONTINUOUS
 62
     7
 66
     1
 10
0.0
 20
0.0
 30
0.0
  0
VERTEX
  5
3A9
  8
0
  6
CONTINUOUS
 62
     7
 10
-71.89638090322404
 20
174.1471951941105
 30
0.0
  0
VERTEX
  5
3AA
  8
0
  6
CONTINUOUS
 62
     7
 10
-71.97330132830093
 20
174.021279195304
 30
0.0
  0
VERTEX
  5
3AB
  8
0
  6
CONTINUOUS
 62
     7
 10
-72.04971682749891
 20
173.8524447394434
 30
0.0
  0
VERTEX
  5
3AC
  8
0
  6
CONTINUOUS
 62
     7
 10
-72.08312490119799
 20
173.7573285319999
 30
0.0
  0
VERTEX
  5
3AD
  8
0
  6
CONTINUOUS
 62
     7
 10
-72.08914648538315
 20
173.7383561495835
 30
0.0
  0
SEQEND
  5
52B
  8
0
  6
CONTINUOUS
 62
     7
  0
ARC
  5
F7
  8
0
  6
CONTINUOUS
 62
     7
 10
-93.59699613521418
 20
168.5704221995615
 30
0.0
 40
22.02068359894272
 50
0.2752038082054051
 51
14.69028569549634
  0
POLYLINE
  5
F8
  8
0
  6
CONTINUOUS
 62
     7
 66
     1
 10
0.0
 20
0.0
 30
0.0
  0
VERTEX
  5
3AE
  8
0
  6
CONTINUOUS
 62
     7
 10
-72.29615188862023
 20
174.154734202583
 30
0.0
  0
VERTEX
  5
3AF
  8
0
  6
CONTINUOUS
 62
     7
 10
-72.38935791236565
 20
174.2684682000333
 30
0.0
  0
VERTEX
  5
3B0
  8
0
  6
CONTINUOUS
 62
     7
 10
-72.46840247089706
 20
174.3466297412949
 30
0.0
  0
VERTEX
  5
3B1
  8
0
  6
CONTINUOUS
 62
     7
 10
-72.56695971096077
 20
174.426141177769
 30
0.0
  0
VERTEX
  5
3B2
  8
0
  6
CONTINUOUS
 62
     7
 10
-72.68658469432373
 20
174.5009530347173
 30
0.0
  0
SEQEND
  5
52C
  8
0
  6
CONTINUOUS
 62
     7
  0
ARC
  5
F9
  8
0
  6
CONTINUOUS
 62
     7
 10
-73.24609609080308
 20
173.429180659766
 30
0.0
 40
1.209028133046984
 50
62.43349946684305
 51
105.2680504406431
  0
POLYLINE
  5
FA
  8
0
  6
CONTINUOUS
 62
     7
 66
     1
 10
0.0
 20
0.0
 30
0.0
  0
VERTEX
  5
3B3
  8
0
  6
CONTINUOUS
 62
     7
 10
-73.5644756927109
 20
174.5955354323751
 30
0.0
  0
VERTEX
  5
3B4
  8
0
  6
CONTINUOUS
 62
     7
 10
-73.70390361264654
 20
174.5477766798717
 30
0.0
  0
VERTEX
  5
3B5
  8
0
  6
CONTINUOUS
 62
     7
 10
-73.79854344357157
 20
174.5029920076173
 30
0.0
  0
VERTEX
  5
3B6
  8
0
  6
CONTINUOUS
 62
     7
 10
-73.92287939095806
 20
174.4254377655071
 30
0.0
  0
VERTEX
  5
3B7
  8
0
  6
CONTINUOUS
 62
     7
 10
-74.01473280777861
 20
174.3517375354274
 30
0.0
  0
VERTEX
  5
3B8
  8
0
  6
CONTINUOUS
 62
     7
 10
-74.0915179143312
 20
174.2770699320001
 30
0.0
  0
VERTEX
  5
3B9
  8
0
  6
CONTINUOUS
 62
     7
 10
-74.18288351935354
 20
174.1684538598979
 30
0.0
  0
VERTEX
  5
3BA
  8
0
  6
CONTINUOUS
 62
     7
 10
-74.2517504012459
 20
174.0674244159445
 30
0.0
  0
VERTEX
  5
3BB
  8
0
  6
CONTINUOUS
 62
     7
 10
-74.31856487442984
 20
173.9459775121173
 30
0.0
  0
VERTEX
  5
3BC
  8
0
  6
CONTINUOUS
 62
     7
 10
-74.38054379836818
 20
173.798774357049
 30
0.0
  0
VERTEX
  5
3BD
  8
0
  6
CONTINUOUS
 62
     7
 10
-74.39827470390668
 20
173.7476746590152
 30
0.0
  0
SEQEND
  5
52D
  8
0
  6
CONTINUOUS
 62
     7
  0
ARC
  5
FB
  8
0
  6
CONTINUOUS
 62
     7
 10
-97.18558008634018
 20
168.714449430615
 30
0.0
 40
21.00262889316048
 50
0.166683974777332
 51
14.98188973213361
  0
POLYLINE
  5
FC
  8
0
  6
CONTINUOUS
 62
     7
 66
     1
 10
0.0
 20
0.0
 30
0.0
  0
VERTEX
  5
3BE
  8
0
  6
CONTINUOUS
 62
     7
 10
-76.89688123819231
 20
174.1439171276349
 30
0.0
  0
VERTEX
  5
3BF
  8
0
  6
CONTINUOUS
 62
     7
 10
-76.97173337780146
 20
174.2429275082142
 30
0.0
  0
VERTEX
  5
3C0
  8
0
  6
CONTINUOUS
 62
     7
 10
-77.05577153790176
 20
174.3327972356991
 30
0.0
  0
VERTEX
  5
3C1
  8
0
  6
CONTINUOUS
 62
     7
 10
-77.16115076946114
 20
174.4216999625508
 30
0.0
  0
VERTEX
  5
3C2
  8
0
  6
CONTINUOUS
 62
     7
 10
-77.24699269008106
 20
174.4789079292874
 30
0.0
  0
VERTEX
  5
3C3
  8
0
  6
CONTINUOUS
 62
     7
 10
-77.3396557636702
 20
174.5281778899831
 30
0.0
  0
VERTEX
  5
3C4
  8
0
  6
CONTINUOUS
 62
     7
 10
-77.44995398932846
 20
174.5729786466742
 30
0.0
  0
VERTEX
  5
3C5
  8
0
  6
CONTINUOUS
 62
     7
 10
-77.58422741293438
 20
174.6105935567452
 30
0.0
  0
SEQEND
  5
52E
  8
0
  6
CONTINUOUS
 62
     7
  0
ARC
  5
FD
  8
0
  6
CONTINUOUS
 62
     7
 10
-77.843752142966
 20
173.4236922620302
 30
0.0
 40
1.214943524981296
 50
77.66597709515479
 51
112.7249182599265
  0
POLYLINE
  5
FE
  8
0
  6
CONTINUOUS
 62
     7
 66
     1
 10
0.0
 20
0.0
 30
0.0
  0
VERTEX
  5
3C6
  8
0
  6
CONTINUOUS
 62
     7
 10
-78.31309360204627
 20
174.5443199270833
 30
0.0
  0
VERTEX
  5
3C7
  8
0
  6
CONTINUOUS
 62
     7
 10
-78.41496967346005
 20
174.4935962263937
 30
0.0
  0
VERTEX
  5
3C8
  8
0
  6
CONTINUOUS
 62
     7
 10
-78.52340095566811
 20
174.4213099791349
 30
0.0
  0
VERTEX
  5
3C9
  8
0
  6
CONTINUOUS
 62
     7
 10
-78.60927967944976
 20
174.3469110137765
 30
0.0
  0
VERTEX
  5
3CA
  8
0
  6
CONTINUOUS
 62
     7
 10
-78.69366055233367
 20
174.2550060542692
 30
0.0
  0
VERTEX
  5
3CB
  8
0
  6
CONTINUOUS
 62
     7
 10
-78.77581372113158
 20
174.1427266864941
 30
0.0
  0
VERTEX
  5
3CC
  8
0
  6
CONTINUOUS
 62
     7
 10
-78.8851896173368
 20
173.9464346494173
 30
0.0
  0
VERTEX
  5
3CD
  8
0
  6
CONTINUOUS
 62
     7
 10
-78.94498486223118
 20
173.808942404701
 30
0.0
  0
VERTEX
  5
3CE
  8
0
  6
CONTINUOUS
 62
     7
 10
-78.9833388905604
 20
173.7055300206869
 30
0.0
  0
SEQEND
  5
52F
  8
0
  6
CONTINUOUS
 62
     7
  0
LINE
  5
FF
  8
0
  6
CONTINUOUS
 62
     7
 10
-66.5606546473738
 20
162.8814794523935
 30
0.0
 11
-66.55552935793929
 21
163.0103351408528
 31
0.0
  0
ARC
  5
100
  8
0
  6
CONTINUOUS
 62
     7
 10
-328.5840081424007
 20
145.1925732444123
 30
0.0
 40
262.6335780761805
 50
3.890086388071564
 51
6.243959842382873
  0
ARC
  5
101
  8
0
  6
CONTINUOUS
 62
     7
 10
-69.04343163763613
 20
173.2379234842297
 30
0.0
 40
1.620446457047818
 50
18.68834850217728
 51
36.43245869304064
  0
POLYLINE
  5
102
  8
0
  6
CONTINUOUS
 62
     7
 66
     1
 10
0.0
 20
0.0
 30
0.0
  0
VERTEX
  5
3CF
  8
0
  6
CONTINUOUS
 62
     7
 10
-67.73968930371811
 20
174.2002657554143
 30
0.0
  0
VERTEX
  5
3D0
  8
0
  6
CONTINUOUS
 62
     7
 10
-67.82717533073131
 20
174.3025395918399
 30
0.0
  0
VERTEX
  5
3D1
  8
0
  6
CONTINUOUS
 62
     7
 10
-67.93685527513608
 20
174.401858887676
 30
0.0
  0
VERTEX
  5
3D2
  8
0
  6
CONTINUOUS
 62
     7
 10
-68.02446697627997
 20
174.4640996217237
 30
0.0
  0
VERTEX
  5
3D3
  8
0
  6
CONTINUOUS
 62
     7
 10
-68.12491406078293
 20
174.5205268627209
 30
0.0
  0
VERTEX
  5
3D4
  8
0
  6
CONTINUOUS
 62
     7
 10
-68.23875101397444
 20
174.5687488218595
 30
0.0
  0
VERTEX
  5
3D5
  8
0
  6
CONTINUOUS
 62
     7
 10
-68.36590600345619
 20
174.6063225556779
 30
0.0
  0
SEQEND
  5
530
  8
0
  6
CONTINUOUS
 62
     7
  0
ARC
  5
103
  8
0
  6
CONTINUOUS
 62
     7
 10
-68.64463668672349
 20
173.4101896150521
 30
0.0
 40
1.228179467930002
 50
76.88265087307806
 51
103.9135492551994
  0
POLYLINE
  5
104
  8
0
  6
CONTINUOUS
 62
     7
 66
     1
 10
0.0
 20
0.0
 30
0.0
  0
VERTEX
  5
3D6
  8
0
  6
CONTINUOUS
 62
     7
 10
-68.93996176158588
 20
174.6023338620299
 30
0.0
  0
VERTEX
  5
3D7
  8
0
  6
CONTINUOUS
 62
     7
 10
-69.08710811214353
 20
174.5549857554039
 30
0.0
  0
VERTEX
  5
3D8
  8
0
  6
CONTINUOUS
 62
     7
 10
-69.18324872592115
 20
174.5113344198929
 30
0.0
  0
VERTEX
  5
3D9
  8
0
  6
CONTINUOUS
 62
     7
 10
-69.30889313540848
 20
174.4356595873118
 30
0.0
  0
VERTEX
  5
3DA
  8
0
  6
CONTINUOUS
 62
     7
 10
-69.41247101525647
 20
174.3540124194274
 30
0.0
  0
VERTEX
  5
3DB
  8
0
  6
CONTINUOUS
 62
     7
 10
-69.48722201657581
 20
174.2818593472447
 30
0.0
  0
SEQEND
  5
531
  8
0
  6
CONTINUOUS
 62
     7
  0
ARC
  5
105
  8
0
  6
CONTINUOUS
 62
     7
 10
-68.49756663431789
 20
173.3511712424704
 30
0.0
 40
1.358527925366407
 50
136.7588076659624
 51
162.5161707828748
  0
LINE
  5
106
  8
0
  6
CONTINUOUS
 62
     7
 10
-86.89185374428673
 20
92.56564116350266
 30
0.0
 11
-86.89027777777778
 21
92.59107590807803
 31
0.0
  0
ARC
  5
107
  8
0
  6
CONTINUOUS
 62
     7
 10
237.8939836014285
 20
194.529801133854
 30
0.0
 40
308.274510795475
 50
184.0191129742498
 51
186.0515963661065
  0
ARC
  5
108
  8
0
  6
CONTINUOUS
 62
     7
 10
-66.6654293267162
 20
162.6332013462209
 30
0.0
 40
2.086221989575414
 50
196.7986252870461
 51
215.5397480190792
  0
POLYLINE
  5
109
  8
0
  6
CONTINUOUS
 62
     7
 66
     1
 10
0.0
 20
0.0
 30
0.0
  0
VERTEX
  5
3DC
  8
0
  6
CONTINUOUS
 62
     7
 10
-68.36301417318388
 20
161.4205481069017
 30
0.0
  0
VERTEX
  5
3DD
  8
0
  6
CONTINUOUS
 62
     7
 10
-68.23946578280986
 20
161.2748512105063
 30
0.0
  0
VERTEX
  5
3DE
  8
0
  6
CONTINUOUS
 62
     7
 10
-68.09112586305073
 20
161.1455084079664
 30
0.0
  0
VERTEX
  5
3DF
  8
0
  6
CONTINUOUS
 62
     7
 10
-67.97666025653783
 20
161.0725250186777
 30
0.0
  0
VERTEX
  5
3E0
  8
0
  6
CONTINUOUS
 62
     7
 10
-67.85045873056869
 20
161.0138565841569
 30
0.0
  0
VERTEX
  5
3E1
  8
0
  6
CONTINUOUS
 62
     7
 10
-67.71443978497636
 20
160.9725115712153
 30
0.0
  0
VERTEX
  5
3E2
  8
0
  6
CONTINUOUS
 62
     7
 10
-67.56998525775907
 20
160.950749289478
 30
0.0
  0
VERTEX
  5
3E3
  8
0
  6
CONTINUOUS
 62
     7
 10
-67.49463152212958
 20
160.9478989224058
 30
0.0
  0
SEQEND
  5
532
  8
0
  6
CONTINUOUS
 62
     7
  0
LINE
  5
10A
  8
0
  6
CONTINUOUS
 62
     7
 10
-86.79040355691991
 20
152.2824489334618
 30
0.0
 11
-86.88610172305452
 21
154.2263428379332
 31
0.0
  0
ARC
  5
10B
  8
0
  6
CONTINUOUS
 62
     7
 10
152.1259206777812
 20
188.1137548859145
 30
0.0
 40
229.1601926414612
 50
183.8058602304794
 51
186.6090824754087
  0
ARC
  5
10C
  8
0
  6
CONTINUOUS
 62
     7
 10
-74.31317574223613
 20
162.1953650571798
 30
0.0
 40
1.282310114644561
 50
200.8649059876224
 51
237.301671261258
  0
ARC
  5
10D
  8
0
  6
CONTINUOUS
 62
     7
 10
-74.39271515746337
 20
162.1473632337635
 30
0.0
 40
1.199647795490187
 50
239.2603854891908
 51
288.2648202932901
  0
POLYLINE
  5
10E
  8
0
  6
CONTINUOUS
 62
     7
 66
     1
 10
0.0
 20
0.0
 30
0.0
  0
VERTEX
  5
3E4
  8
0
  6
CONTINUOUS
 62
     7
 10
-74.01673420414667
 20
161.0081559848542
 30
0.0
  0
VERTEX
  5
3E5
  8
0
  6
CONTINUOUS
 62
     7
 10
-73.88181142035485
 20
161.0624429116727
 30
0.0
  0
VERTEX
  5
3E6
  8
0
  6
CONTINUOUS
 62
     7
 10
-73.76673037364404
 20
161.126719395278
 30
0.0
  0
VERTEX
  5
3E7
  8
0
  6
CONTINUOUS
 62
     7
 10
-73.67035981581695
 20
161.196360998733
 30
0.0
  0
VERTEX
  5
3E8
  8
0
  6
CONTINUOUS
 62
     7
 10
-73.58288874378785
 20
161.2748851669102
 30
0.0
  0
VERTEX
  5
3E9
  8
0
  6
CONTINUOUS
 62
     7
 10
-73.51286728145206
 20
161.3511333750035
 30
0.0
  0
VERTEX
  5
3EA
  8
0
  6
CONTINUOUS
 62
     7
 10
-73.39786956628494
 20
161.5120337465735
 30
0.0
  0
VERTEX
  5
3EB
  8
0
  6
CONTINUOUS
 62
     7
 10
-73.3069528642694
 20
161.6876022627691
 30
0.0
  0
VERTEX
  5
3EC
  8
0
  6
CONTINUOUS
 62
     7
 10
-73.2453786339429
 20
161.8471616216393
 30
0.0
  0
VERTEX
  5
3ED
  8
0
  6
CONTINUOUS
 62
     7
 10
-73.23818435156589
 20
161.8688484744748
 30
0.0
  0
SEQEND
  5
533
  8
0
  6
CONTINUOUS
 62
     7
  0
ARC
  5
10F
  8
0
  6
CONTINUOUS
 62
     7
 10
-75.46412373183273
 20
92.73712507103879
 30
0.0
 40
13.72644613390179
 50
180.6689365909715
 51
197.3349133453531
  0
POLYLINE
  5
110
  8
0
  6
CONTINUOUS
 62
     7
 66
     1
 10
0.0
 20
0.0
 30
0.0
  0
VERTEX
  5
3EE
  8
0
  6
CONTINUOUS
 62
     7
 10
-88.56710666659059
 20
88.6472397818954
 30
0.0
  0
VERTEX
  5
3EF
  8
0
  6
CONTINUOUS
 62
     7
 10
-88.49042193175251
 20
88.53818372505137
 30
0.0
  0
VERTEX
  5
3F0
  8
0
  6
CONTINUOUS
 62
     7
 10
-88.42150683717558
 20
88.46476346051843
 30
0.0
  0
VERTEX
  5
3F1
  8
0
  6
CONTINUOUS
 62
     7
 10
-88.3354204223334
 20
88.3910370729801
 30
0.0
  0
VERTEX
  5
3F2
  8
0
  6
CONTINUOUS
 62
     7
 10
-88.2383875550955
 20
88.32378444335198
 30
0.0
  0
VERTEX
  5
3F3
  8
0
  6
CONTINUOUS
 62
     7
 10
-88.11759945161283
 20
88.25949797746834
 30
0.0
  0
VERTEX
  5
3F4
  8
0
  6
CONTINUOUS
 62
     7
 10
-88.00315926173643
 20
88.21486308815693
 30
0.0
  0
VERTEX
  5
3F5
  8
0
  6
CONTINUOUS
 62
     7
 10
-87.9038259106237
 20
88.18694547255032
 30
0.0
  0
VERTEX
  5
3F6
  8
0
  6
CONTINUOUS
 62
     7
 10
-87.79268431371294
 20
88.16633749771479
 30
0.0
  0
SEQEND
  5
534
  8
0
  6
CONTINUOUS
 62
     7
  0
ARC
  5
111
  8
0
  6
CONTINUOUS
 62
     7
 10
-87.62443259722968
 20
89.35329007314024
 30
0.0
 40
1.19881819155728
 50
261.9320169192777
 51
298.2939864086198
  0
POLYLINE
  5
112
  8
0
  6
CONTINUOUS
 62
     7
 66
     1
 10
0.0
 20
0.0
 30
0.0
  0
VERTEX
  5
3F7
  8
0
  6
CONTINUOUS
 62
     7
 10
-87.0561978164195
 20
88.29769815848465
 30
0.0
  0
VERTEX
  5
3F8
  8
0
  6
CONTINUOUS
 62
     7
 10
-86.93374486687271
 20
88.37660005034911
 30
0.0
  0
VERTEX
  5
3F9
  8
0
  6
CONTINUOUS
 62
     7
 10
-86.84369837478073
 20
88.45077097806508
 30
0.0
  0
VERTEX
  5
3FA
  8
0
  6
CONTINUOUS
 62
     7
 10
-86.7687921551338
 20
88.52522621553923
 30
0.0
  0
SEQEND
  5
535
  8
0
  6
CONTINUOUS
 62
     7
  0
ARC
  5
113
  8
0
  6
CONTINUOUS
 62
     7
 10
-87.81402703347712
 20
89.4713252482078
 30
0.0
 40
1.409829539526597
 50
317.850039352211
 51
341.9744428075645
  0
LINE
  5
114
  8
0
  6
CONTINUOUS
 62
     7
 10
-88.67003888888888
 20
48.70590477448736
 30
0.0
 11
-88.66816010261046
 21
48.62360742736044
 31
0.0
  0
LINE
  5
115
  8
0
  6
CONTINUOUS
 62
     7
 10
-66.87018801710295
 20
48.69259454439973
 30
0.0
 11
-66.87013888888887
 21
48.70590477448741
 31
0.0
  0
POLYLINE
  5
116
  8
0
  6
CONTINUOUS
 62
     7
 66
     1
 10
0.0
 20
0.0
 30
0.0
  0
VERTEX
  5
3FB
  8
0
  6
CONTINUOUS
 62
     7
 10
-69.16457390789118
 20
145.9193235175383
 30
0.0
  0
VERTEX
  5
3FC
  8
0
  6
CONTINUOUS
 62
     7
 10
-69.1458553254642
 20
145.7741841499119
 30
0.0
  0
VERTEX
  5
3FD
  8
0
  6
CONTINUOUS
 62
     7
 10
-69.08322838421358
 20
145.6342210275623
 30
0.0
  0
VERTEX
  5
3FE
  8
0
  6
CONTINUOUS
 62
     7
 10
-68.97912424220124
 20
145.5048674746542
 30
0.0
  0
VERTEX
  5
3FF
  8
0
  6
CONTINUOUS
 62
     7
 10
-68.837584189311
 20
145.3911449552209
 30
0.0
  0
VERTEX
  5
400
  8
0
  6
CONTINUOUS
 62
     7
 10
-68.66410276565286
 20
145.2974681415169
 30
0.0
  0
VERTEX
  5
401
  8
0
  6
CONTINUOUS
 62
     7
 10
-68.46541446525279
 20
145.2274735378375
 30
0.0
  0
VERTEX
  5
402
  8
0
  6
CONTINUOUS
 62
     7
 10
-68.2492323051236
 20
145.183878312571
 30
0.0
  0
VERTEX
  5
403
  8
0
  6
CONTINUOUS
 62
     7
 10
-68.02394840838262
 20
145.1683748185812
 30
0.0
  0
VERTEX
  5
404
  8
0
  6
CONTINUOUS
 62
     7
 10
-67.79830822468529
 20
145.1815648966037
 30
0.0
  0
VERTEX
  5
405
  8
0
  6
CONTINUOUS
 62
     7
 10
-67.58107103463404
 20
145.2229365119793
 30
0.0
  0
VERTEX
  5
406
  8
0
  6
CONTINUOUS
 62
     7
 10
-67.38066991727429
 20
145.2908836316775
 30
0.0
  0
VERTEX
  5
407
  8
0
  6
CONTINUOUS
 62
     7
 10
-67.20488438063177
 20
145.3827685699907
 30
0.0
  0
VERTEX
  5
408
  8
0
  6
CONTINUOUS
 62
     7
 10
-67.06053836367012
 20
145.4950243826601
 30
0.0
  0
VERTEX
  5
409
  8
0
  6
CONTINUOUS
 62
     7
 10
-66.95323533313758
 20
145.6232933345238
 30
0.0
  0
VERTEX
  5
40A
  8
0
  6
CONTINUOUS
 62
     7
 10
-66.88714075875912
 20
145.7625960654184
 30
0.0
  0
VERTEX
  5
40B
  8
0
  6
CONTINUOUS
 62
     7
 10
-66.86482041101848
 20
145.9075248873665
 30
0.0
  0
SEQEND
  5
536
  8
0
  6
CONTINUOUS
 62
     7
  0
ARC
  5
117
  8
0
  6
CONTINUOUS
 62
     7
 10
-75.6758883761569
 20
146.826214796991
 30
0.0
 40
8.832393616160878
 50
3.982327688545229
 51
76.6177710262288
  0
ARC
  5
118
  8
0
  6
CONTINUOUS
 62
     7
 10
-77.73089469077134
 20
143.6736548367705
 30
0.0
 40
12.43992992059965
 50
70.76023736066755
 51
140.4540875910407
  0
ARC
  5
119
  8
0
  6
CONTINUOUS
 62
     7
 10
-81.38768474294652
 20
147.3840829707644
 30
0.0
 40
7.277247541787714
 50
144.6535200217534
 51
179.5627864112741
  0
POLYLINE
  5
11A
  8
0
  6
CONTINUOUS
 62
     7
 66
     1
 10
0.0
 20
0.0
 30
0.0
  0
VERTEX
  5
40C
  8
0
  6
CONTINUOUS
 62
     7
 10
-86.88495929990734
 20
157.9804429717441
 30
0.0
  0
VERTEX
  5
40D
  8
0
  6
CONTINUOUS
 62
     7
 10
-86.70519403162426
 20
158.0180913084797
 30
0.0
  0
VERTEX
  5
40E
  8
0
  6
CONTINUOUS
 62
     7
 10
-86.55816649946992
 20
158.0642871735735
 30
0.0
  0
VERTEX
  5
40F
  8
0
  6
CONTINUOUS
 62
     7
 10
-86.44982221849861
 20
158.1171624936972
 30
0.0
  0
VERTEX
  5
410
  8
0
  6
CONTINUOUS
 62
     7
 10
-86.38454242632028
 20
158.1745790910062
 30
0.0
  0
VERTEX
  5
411
  8
0
  6
CONTINUOUS
 62
     7
 10
-86.36496691414578
 20
158.2342151470037
 30
0.0
  0
SEQEND
  5
537
  8
0
  6
CONTINUOUS
 62
     7
  0
LINE
  5
11B
  8
0
  6
CONTINUOUS
 62
     7
 10
-69.16872688740447
 20
48.86358932776005
 30
0.0
 11
-69.3016183613207
 21
48.76109691490579
 31
0.0
  0
ARC
  5
11C
  8
0
  6
CONTINUOUS
 62
     7
 10
-77.5203983984711
 20
70.03367194440283
 30
0.0
 40
22.80506070337553
 50
261.9134425380634
 51
291.1243221300613
  0
ARC
  5
11D
  8
0
  6
CONTINUOUS
 62
     7
 10
-80.79039225443219
 20
59.21678693011273
 30
0.0
 40
11.76158143255616
 50
241.6705967704762
 51
270.3021758497985
  0
POLYLINE
  5
11E
  8
0
  6
CONTINUOUS
 62
     9
 66
     1
 10
0.0
 20
0.0
 30
0.0
  0
VERTEX
  5
412
  8
0
  6
CONTINUOUS
 62
     9
 10
-68.86562878857
 20
161.4179900569733
 30
0.0
  0
VERTEX
  5
413
  8
0
  6
CONTINUOUS
 62
     9
 10
-68.72252149765517
 20
161.2553952452329
 30
0.0
  0
VERTEX
  5
414
  8
0
  6
CONTINUOUS
 62
     9
 10
-68.55146709365725
 20
161.122529298429
 30
0.0
  0
VERTEX
  5
415
  8
0
  6
CONTINUOUS
 62
     9
 10
-68.3585355459433
 20
161.0241070453423
 30
0.0
  0
VERTEX
  5
416
  8
0
  6
CONTINUOUS
 62
     9
 10
-68.15057314760595
 20
160.9636210593723
 30
0.0
  0
VERTEX
  5
417
  8
0
  6
CONTINUOUS
 62
     9
 10
-67.93495957059696
 20
160.94321772245
 30
0.0
  0
SEQEND
  5
538
  8
0
  6
CONTINUOUS
 62
     9
  0
LINE
  5
11F
  8
0
  6
CONTINUOUS
 62
     7
 10
-66.86482041101847
 20
145.9075248873665
 30
0.0
 11
-66.86482041101847
 21
147.4396137736045
 31
0.0
  0
LINE
  5
120
  8
0
  6
CONTINUOUS
 62
     7
 10
-86.8877453098776
 20
92.55744567944366
 30
0.0
 11
-86.88059596042211
 21
92.45747483168998
 31
0.0
  0
ARC
  5
121
  8
0
  6
CONTINUOUS
 62
     7
 10
190.7001850748531
 20
191.7668228609122
 30
0.0
 40
274.7692500009005
 50
183.9325632722127
 51
186.2638159227375
  0
POLYLINE
  5
122
  8
0
  6
CONTINUOUS
 62
     7
 66
     1
 10
0.0
 20
0.0
 30
0.0
  0
VERTEX
  5
418
  8
0
  6
CONTINUOUS
 62
     7
 10
-82.42870840978932
 20
161.7876919543604
 30
0.0
  0
VERTEX
  5
419
  8
0
  6
CONTINUOUS
 62
     7
 10
-82.35162834261762
 20
161.6140757321829
 30
0.0
  0
VERTEX
  5
41A
  8
0
  6
CONTINUOUS
 62
     7
 10
-82.24569339085988
 20
161.4393757444483
 30
0.0
  0
VERTEX
  5
41B
  8
0
  6
CONTINUOUS
 62
     7
 10
-82.17936238891177
 20
161.3537268469937
 30
0.0
  0
SEQEND
  5
539
  8
0
  6
CONTINUOUS
 62
     7
  0
ARC
  5
123
  8
0
  6
CONTINUOUS
 62
     7
 10
-81.29435252792273
 20
162.1097849162437
 30
0.0
 40
1.163987224210832
 50
220.5070458449677
 51
286.5763169513741
  0
POLYLINE
  5
124
  8
0
  6
CONTINUOUS
 62
     7
 66
     1
 10
0.0
 20
0.0
 30
0.0
  0
VERTEX
  5
41C
  8
0
  6
CONTINUOUS
 62
     7
 10
-80.96227602508951
 20
160.9941723247084
 30
0.0
  0
VERTEX
  5
41D
  8
0
  6
CONTINUOUS
 62
     7
 10
-80.82539050819761
 20
161.0426951474193
 30
0.0
  0
VERTEX
  5
41E
  8
0
  6
CONTINUOUS
 62
     7
 10
-80.73255204564138
 20
161.0877066080177
 30
0.0
  0
VERTEX
  5
41F
  8
0
  6
CONTINUOUS
 62
     7
 10
-80.61064693037719
 20
161.1650817432912
 30
0.0
  0
VERTEX
  5
420
  8
0
  6
CONTINUOUS
 62
     7
 10
-80.52050838366313
 20
161.2382613198787
 30
0.0
  0
VERTEX
  5
421
  8
0
  6
CONTINUOUS
 62
     7
 10
-80.44507778711252
 20
161.3122204847489
 30
0.0
  0
VERTEX
  5
422
  8
0
  6
CONTINUOUS
 62
     7
 10
-80.35518972342453
 20
161.4196321767381
 30
0.0
  0
VERTEX
  5
423
  8
0
  6
CONTINUOUS
 62
     7
 10
-80.28730009469754
 20
161.5194428377919
 30
0.0
  0
VERTEX
  5
424
  8
0
  6
CONTINUOUS
 62
     7
 10
-80.23029561355834
 20
161.6212005256214
 30
0.0
  0
VERTEX
  5
425
  8
0
  6
CONTINUOUS
 62
     7
 10
-80.15307968763472
 20
161.8029254973467
 30
0.0
  0
VERTEX
  5
426
  8
0
  6
CONTINUOUS
 62
     7
 10
-80.13934739516095
 20
161.8429708916142
 30
0.0
  0
SEQEND
  5
53A
  8
0
  6
CONTINUOUS
 62
     7
  0
LINE
  5
125
  8
0
  6
CONTINUOUS
 62
     7
 10
-82.62357457711603
 20
162.7045604505053
 30
0.0
 11
-82.621739389765
 21
162.7059931565777
 31
0.0
  0
ARC
  5
126
  8
0
  6
CONTINUOUS
 62
     7
 10
-76.22129138128234
 20
172.9542491579238
 30
0.0
 40
2.000014301963486
 50
358.9874479797999
 51
47.13246750012053
  0
POLYLINE
  5
127
  8
0
  6
CONTINUOUS
 62
     7
 66
     1
 10
0.0
 20
0.0
 30
0.0
  0
VERTEX
  5
427
  8
0
  6
CONTINUOUS
 62
     7
 10
-74.86067034471579
 20
174.4201166836269
 30
0.0
  0
VERTEX
  5
428
  8
0
  6
CONTINUOUS
 62
     7
 10
-74.963394221699
 20
174.4876352717469
 30
0.0
  0
VERTEX
  5
429
  8
0
  6
CONTINUOUS
 62
     7
 10
-75.0778808972267
 20
174.5447583490427
 30
0.0
  0
VERTEX
  5
42A
  8
0
  6
CONTINUOUS
 62
     7
 10
-75.20383739100674
 20
174.5898486684999
 30
0.0
  0
SEQEND
  5
53B
  8
0
  6
CONTINUOUS
 62
     7
  0
ARC
  5
128
  8
0
  6
CONTINUOUS
 62
     7
 10
-75.54441421695559
 20
173.4137046664003
 30
0.0
 40
1.224462040264249
 50
73.8505332482628
 51
106.0080904027974
  0
POLYLINE
  5
129
  8
0
  6
CONTINUOUS
 62
     7
 66
     1
 10
0.0
 20
0.0
 30
0.0
  0
VERTEX
  5
42B
  8
0
  6
CONTINUOUS
 62
     7
 10
-75.88208789398946
 20
174.5906854546405
 30
0.0
  0
VERTEX
  5
42C
  8
0
  6
CONTINUOUS
 62
     7
 10
-76.01984418091368
 20
174.5410419937246
 30
0.0
  0
VERTEX
  5
42D
  8
0
  6
CONTINUOUS
 62
     7
 10
-76.15198743581674
 20
174.4724964339332
 30
0.0
  0
VERTEX
  5
42E
  8
0
  6
CONTINUOUS
 62
     7
 10
-76.24010206644016
 20
174.4127200825793
 30
0.0
  0
VERTEX
  5
42F
  8
0
  6
CONTINUOUS
 62
     7
 10
-76.35170860468644
 20
174.3173117499963
 30
0.0
  0
SEQEND
  5
53C
  8
0
  6
CONTINUOUS
 62
     7
  0
ARC
  5
12A
  8
0
  6
CONTINUOUS
 62
     7
 10
-75.36873040551625
 20
173.3279509225675
 30
0.0
 40
1.39466160300431
 50
134.8145874619167
 51
162.8923958107921
  0
ARC
  5
12B
  8
0
  6
CONTINUOUS
 62
     7
 10
259.9542165463426
 20
196.7033307816114
 30
0.0
 40
335.0213789858565
 50
184.0714360956409
 51
185.9593558624766
  0
ARC
  5
12C
  8
0
  6
CONTINUOUS
 62
     7
 10
-71.51503148395894
 20
162.4518054529958
 30
0.0
 40
1.820868204294304
 50
196.9674899493803
 51
217.9087056303385
  0
POLYLINE
  5
12D
  8
0
  6
CONTINUOUS
 62
     7
 66
     1
 10
0.0
 20
0.0
 30
0.0
  0
VERTEX
  5
430
  8
0
  6
CONTINUOUS
 62
     7
 10
-72.95167963601348
 20
161.3330547637856
 30
0.0
  0
VERTEX
  5
431
  8
0
  6
CONTINUOUS
 62
     7
 10
-72.86317990398722
 20
161.2393699268551
 30
0.0
  0
VERTEX
  5
432
  8
0
  6
CONTINUOUS
 62
     7
 10
-72.76022104233122
 20
161.1541552644535
 30
0.0
  0
VERTEX
  5
433
  8
0
  6
CONTINUOUS
 62
     7
 10
-72.65775346344374
 20
161.0889230239397
 30
0.0
  0
VERTEX
  5
434
  8
0
  6
CONTINUOUS
 62
     7
 10
-72.54023782103886
 20
161.0329684091811
 30
0.0
  0
VERTEX
  5
435
  8
0
  6
CONTINUOUS
 62
     7
 10
-72.44055534667686
 20
160.9981529599543
 30
0.0
  0
VERTEX
  5
436
  8
0
  6
CONTINUOUS
 62
     7
 10
-72.32418036341939
 20
160.9698801733039
 30
0.0
  0
SEQEND
  5
53D
  8
0
  6
CONTINUOUS
 62
     7
  0
ARC
  5
12E
  8
0
  6
CONTINUOUS
 62
     7
 10
-72.09526551787424
 20
162.1652002057999
 30
0.0
 40
1.217042310931498
 50
259.15859521942
 51
291.5515864575327
  0
POLYLINE
  5
12F
  8
0
  6
CONTINUOUS
 62
     7
 66
     1
 10
0.0
 20
0.0
 30
0.0
  0
VERTEX
  5
437
  8
0
  6
CONTINUOUS
 62
     7
 10
-71.64819867675284
 20
161.0332447180854
 30
0.0
  0
VERTEX
  5
438
  8
0
  6
CONTINUOUS
 62
     7
 10
-71.51437748854954
 20
161.0976853212851
 30
0.0
  0
VERTEX
  5
439
  8
0
  6
CONTINUOUS
 62
     7
 10
-71.3984536704723
 20
161.1737717684049
 30
0.0
  0
VERTEX
  5
43A
  8
0
  6
CONTINUOUS
 62
     7
 10
-71.30151797534943
 20
161.255187464686
 30
0.0
  0
VERTEX
  5
43B
  8
0
  6
CONTINUOUS
 62
     7
 10
-71.21132928014306
 20
161.3492592198201
 30
0.0
  0
VERTEX
  5
43C
  8
0
  6
CONTINUOUS
 62
     7
 10
-71.14002200361789
 20
161.4400689225914
 30
0.0
  0
VERTEX
  5
43D
  8
0
  6
CONTINUOUS
 62
     7
 10
-71.06367005990089
 20
161.560397503146
 30
0.0
  0
VERTEX
  5
43E
  8
0
  6
CONTINUOUS
 62
     7
 10
-70.99890211754479
 20
161.6922257403098
 30
0.0
  0
VERTEX
  5
43F
  8
0
  6
CONTINUOUS
 62
     7
 10
-70.95975241027332
 20
161.7919370500765
 30
0.0
  0
VERTEX
  5
440
  8
0
  6
CONTINUOUS
 62
     7
 10
-70.94547989455756
 20
161.8332704350879
 30
0.0
  0
SEQEND
  5
53E
  8
0
  6
CONTINUOUS
 62
     7
  0
LINE
  5
130
  8
0
  6
CONTINUOUS
 62
     7
 10
-89.18485929990737
 20
154.1697930038986
 30
0.0
 11
-89.1837168767602
 21
154.1233533651209
 31
0.0
  0
ARC
  5
131
  8
0
  6
CONTINUOUS
 62
     7
 10
-97.30316684936017
 20
95.42819988476624
 30
0.0
 40
26.29986583438344
 50
1.006600871694583
 51
12.73508039120933
  0
POLYLINE
  5
132
  8
0
  6
CONTINUOUS
 62
     7
 66
     1
 10
0.0
 20
0.0
 30
0.0
  0
VERTEX
  5
441
  8
0
  6
CONTINUOUS
 62
     7
 10
-71.65028412547758
 20
101.2258330968016
 30
0.0
  0
VERTEX
  5
442
  8
0
  6
CONTINUOUS
 62
     7
 10
-71.7285135454258
 20
101.3522777699154
 30
0.0
  0
VERTEX
  5
443
  8
0
  6
CONTINUOUS
 62
     7
 10
-71.82271521192737
 20
101.4729161079304
 30
0.0
  0
VERTEX
  5
444
  8
0
  6
CONTINUOUS
 62
     7
 10
-71.94077097494404
 20
101.5877567831124
 30
0.0
  0
VERTEX
  5
445
  8
0
  6
CONTINUOUS
 62
     7
 10
-72.03334735158315
 20
101.6571313337886
 30
0.0
  0
VERTEX
  5
446
  8
0
  6
CONTINUOUS
 62
     7
 10
-72.14061931978084
 20
101.7199722471711
 30
0.0
  0
VERTEX
  5
447
  8
0
  6
CONTINUOUS
 62
     7
 10
-72.26340585340049
 20
101.7732852463743
 30
0.0
  0
SEQEND
  5
53F
  8
0
  6
CONTINUOUS
 62
     7
  0
ARC
  5
133
  8
0
  6
CONTINUOUS
 62
     7
 10
-72.67327422553797
 20
100.6361575573338
 30
0.0
 40
1.208739617809129
 50
70.17871680073388
 51
118.0216634116219
  0
POLYLINE
  5
134
  8
0
  6
CONTINUOUS
 62
     7
 66
     1
 10
0.0
 20
0.0
 30
0.0
  0
VERTEX
  5
448
  8
0
  6
CONTINUOUS
 62
     7
 10
-73.24114658869398
 20
101.7031966582223
 30
0.0
  0
VERTEX
  5
449
  8
0
  6
CONTINUOUS
 62
     7
 10
-73.36335495109562
 20
101.6249028694297
 30
0.0
  0
VERTEX
  5
44A
  8
0
  6
CONTINUOUS
 62
     7
 10
-73.46434575149685
 20
101.5410890830135
 30
0.0
  0
VERTEX
  5
44B
  8
0
  6
CONTINUOUS
 62
     7
 10
-73.5374630565387
 20
101.4670808629707
 30
0.0
  0
VERTEX
  5
44C
  8
0
  6
CONTINUOUS
 62
     7
 10
-73.6253703385294
 20
101.3589288130823
 30
0.0
  0
VERTEX
  5
44D
  8
0
  6
CONTINUOUS
 62
     7
 10
-73.69440231605113
 20
101.2540201833197
 30
0.0
  0
VERTEX
  5
44E
  8
0
  6
CONTINUOUS
 62
     7
 10
-73.74830730019387
 20
101.1541569012072
 30
0.0
  0
VERTEX
  5
44F
  8
0
  6
CONTINUOUS
 62
     7
 10
-73.81276997168742
 20
101.000970624235
 30
0.0
  0
VERTEX
  5
450
  8
0
  6
CONTINUOUS
 62
     7
 10
-73.8314450993471
 20
100.9469696004872
 30
0.0
  0
SEQEND
  5
540
  8
0
  6
CONTINUOUS
 62
     7
  0
ARC
  5
135
  8
0
  6
CONTINUOUS
 62
     7
 10
292.8254003289123
 20
200.1619622484182
 30
0.0
 40
365.7750640263005
 50
184.2650618573612
 51
186.0208927192452
  0
ARC
  5
136
  8
0
  6
CONTINUOUS
 62
     7
 10
-69.61901138092772
 20
162.2476850233337
 30
0.0
 40
1.388647667116415
 50
199.007599159596
 51
221.087073212498
  0
POLYLINE
  5
137
  8
0
  6
CONTINUOUS
 62
     7
 66
     1
 10
0.0
 20
0.0
 30
0.0
  0
VERTEX
  5
451
  8
0
  6
CONTINUOUS
 62
     7
 10
-70.66565135653626
 20
161.3350585362942
 30
0.0
  0
VERTEX
  5
452
  8
0
  6
CONTINUOUS
 62
     7
 10
-70.56655677456759
 20
161.2354973184893
 30
0.0
  0
VERTEX
  5
453
  8
0
  6
CONTINUOUS
 62
     7
 10
-70.47397623538049
 20
161.1610242676128
 30
0.0
  0
VERTEX
  5
454
  8
0
  6
CONTINUOUS
 62
     7
 10
-70.36763651998372
 20
161.0932417406093
 30
0.0
  0
VERTEX
  5
455
  8
0
  6
CONTINUOUS
 62
     7
 10
-70.24700392471635
 20
161.0353118697052
 30
0.0
  0
SEQEND
  5
541
  8
0
  6
CONTINUOUS
 62
     7
  0
ARC
  5
138
  8
0
  6
CONTINUOUS
 62
     7
 10
-69.79415492747775
 20
162.165660836785
 30
0.0
 40
1.217686742014761
 50
248.1675980831121
 51
280.3763565597044
  0
ARC
  5
139
  8
0
  6
CONTINUOUS
 62
     7
 10
-69.76818973886479
 20
162.0688760087091
 30
0.0
 40
1.117837477650679
 50
279.9607535508756
 51
304.1541342150391
  0
POLYLINE
  5
13A
  8
0
  6
CONTINUOUS
 62
     7
 66
     1
 10
0.0
 20
0.0
 30
0.0
  0
VERTEX
  5
456
  8
0
  6
CONTINUOUS
 62
     7
 10
-69.14061217866232
 20
161.1438316679498
 30
0.0
  0
VERTEX
  5
457
  8
0
  6
CONTINUOUS
 62
     7
 10
-69.04541944837484
 20
161.2172970776534
 30
0.0
  0
VERTEX
  5
458
  8
0
  6
CONTINUOUS
 62
     7
 10
-68.94501364949102
 20
161.3166259904896
 30
0.0
  0
SEQEND
  5
542
  8
0
  6
CONTINUOUS
 62
     7
  0
ARC
  5
13B
  8
0
  6
CONTINUOUS
 62
     7
 10
-70.14905057651978
 20
162.332991087256
 30
0.0
 40
1.5756595227313
 50
319.8312455414807
 51
344.512792825403
  0
LINE
  5
13C
  8
0
  6
CONTINUOUS
 62
     7
 10
-78.78245315960969
 20
172.7993144639367
 30
0.0
 11
-78.7923843920403
 21
172.6966194619054
 31
0.0
  0
ARC
  5
13D
  8
0
  6
CONTINUOUS
 62
     7
 10
169.9188976688136
 20
189.3478537365143
 30
0.0
 40
249.2680593803015
 50
183.8302397003222
 51
186.3415117490478
  0
ARC
  5
13E
  8
0
  6
CONTINUOUS
 62
     7
 10
-76.68748072877578
 20
162.1165528939886
 30
0.0
 40
1.175760331860716
 50
194.8562557564498
 51
243.2355176966342
  0
POLYLINE
  5
13F
  8
0
  6
CONTINUOUS
 62
     7
 66
     1
 10
0.0
 20
0.0
 30
0.0
  0
VERTEX
  5
459
  8
0
  6
CONTINUOUS
 62
     7
 10
-77.2169539884516
 20
161.0667574733158
 30
0.0
  0
VERTEX
  5
45A
  8
0
  6
CONTINUOUS
 62
     7
 10
-77.10594029247125
 20
161.0195543927522
 30
0.0
  0
VERTEX
  5
45B
  8
0
  6
CONTINUOUS
 62
     7
 10
-76.9754228423244
 20
160.9806163558611
 30
0.0
  0
VERTEX
  5
45C
  8
0
  6
CONTINUOUS
 62
     7
 10
-76.86536500287313
 20
160.9599650461923
 30
0.0
  0
VERTEX
  5
45D
  8
0
  6
CONTINUOUS
 62
     7
 10
-76.74514739429544
 20
160.9491038308129
 30
0.0
  0
SEQEND
  5
543
  8
0
  6
CONTINUOUS
 62
     7
  0
ARC
  5
140
  8
0
  6
CONTINUOUS
 62
     7
 10
-76.68713540164823
 20
162.1098142157485
 30
0.0
 40
1.162159192618736
 50
267.1387532150505
 51
307.0856980003393
  0
LINE
  5
141
  8
0
  6
CONTINUOUS
 62
     7
 10
-75.98634309031495
 20
161.1827197624352
 30
0.0
 11
-75.87876274089487
 21
161.2768004129839
 31
0.0
  0
ARC
  5
142
  8
0
  6
CONTINUOUS
 62
     7
 10
-76.86481955883049
 20
162.2543965102336
 30
0.0
 40
1.388525180742265
 50
315.2468667366875
 51
342.088860690543
  0
ARC
  5
143
  8
0
  6
CONTINUOUS
 62
     7
 10
180.8093825485708
 20
191.0207844553704
 30
0.0
 40
262.5559723795067
 50
183.9529333024702
 51
186.399436223783
  0
POLYLINE
  5
144
  8
0
  6
CONTINUOUS
 62
     7
 66
     1
 10
0.0
 20
0.0
 30
0.0
  0
VERTEX
  5
45E
  8
0
  6
CONTINUOUS
 62
     7
 10
-80.11060775193212
 20
161.7565179562127
 30
0.0
  0
VERTEX
  5
45F
  8
0
  6
CONTINUOUS
 62
     7
 10
-80.06202944556773
 20
161.640832475446
 30
0.0
  0
VERTEX
  5
460
  8
0
  6
CONTINUOUS
 62
     7
 10
-80.00175989672027
 20
161.5264879057386
 30
0.0
  0
VERTEX
  5
461
  8
0
  6
CONTINUOUS
 62
     7
 10
-79.94209395956963
 20
161.4343042036516
 30
0.0
  0
VERTEX
  5
462
  8
0
  6
CONTINUOUS
 62
     7
 10
-79.85887894437033
 20
161.3294963165891
 30
0.0
  0
VERTEX
  5
463
  8
0
  6
CONTINUOUS
 62
     7
 10
-79.7576493075709
 20
161.228427342627
 30
0.0
  0
VERTEX
  5
464
  8
0
  6
CONTINUOUS
 62
     7
 10
-79.65330145149358
 20
161.1466994823209
 30
0.0
  0
VERTEX
  5
465
  8
0
  6
CONTINUOUS
 62
     7
 10
-79.54187320013149
 20
161.0792910173993
 30
0.0
  0
SEQEND
  5
544
  8
0
  6
CONTINUOUS
 62
     7
  0
ARC
  5
145
  8
0
  6
CONTINUOUS
 62
     7
 10
-78.99357240348905
 20
162.1555773014259
 30
0.0
 40
1.207901456569381
 50
243.0039921018436
 51
290.7249581457133
  0
POLYLINE
  5
146
  8
0
  6
CONTINUOUS
 62
     7
 66
     1
 10
0.0
 20
0.0
 30
0.0
  0
VERTEX
  5
466
  8
0
  6
CONTINUOUS
 62
     7
 10
-78.5661174683121
 20
161.0258391870051
 30
0.0
  0
VERTEX
  5
467
  8
0
  6
CONTINUOUS
 62
     7
 10
-78.4394637986206
 20
161.0834487877332
 30
0.0
  0
VERTEX
  5
468
  8
0
  6
CONTINUOUS
 62
     7
 10
-78.33752725093947
 20
161.145298317894
 30
0.0
  0
VERTEX
  5
469
  8
0
  6
CONTINUOUS
 62
     7
 10
-78.23978434962294
 20
161.2203121674487
 30
0.0
  0
VERTEX
  5
46A
  8
0
  6
CONTINUOUS
 62
     7
 10
-78.16075545543775
 20
161.294483650191
 30
0.0
  0
VERTEX
  5
46B
  8
0
  6
CONTINUOUS
 62
     7
 10
-78.08725605056738
 20
161.3774257923448
 30
0.0
  0
VERTEX
  5
46C
  8
0
  6
CONTINUOUS
 62
     7
 10
-78.00659866080491
 20
161.4907238414026
 30
0.0
  0
VERTEX
  5
46D
  8
0
  6
CONTINUOUS
 62
     7
 10
-77.93926516478122
 20
161.6124652197943
 30
0.0
  0
VERTEX
  5
46E
  8
0
  6
CONTINUOUS
 62
     7
 10
-77.87415542192437
 20
161.7657673318844
 30
0.0
  0
VERTEX
  5
46F
  8
0
  6
CONTINUOUS
 62
     7
 10
-77.83978445753411
 20
161.8660363239788
 30
0.0
  0
SEQEND
  5
545
  8
0
  6
CONTINUOUS
 62
     7
  0
ARC
  5
147
  8
0
  6
CONTINUOUS
 62
     7
 10
402.7293173349337
 20
211.044880811313
 30
0.0
 40
489.948746113551
 50
184.4582528579559
 51
185.7665482034543
  0
ARC
  5
148
  8
0
  6
CONTINUOUS
 62
     7
 10
-83.39858926525774
 20
162.2611450363086
 30
0.0
 40
1.413064794967597
 50
198.3162708499736
 51
219.6461066571642
  0
POLYLINE
  5
149
  8
0
  6
CONTINUOUS
 62
     7
 66
     1
 10
0.0
 20
0.0
 30
0.0
  0
VERTEX
  5
470
  8
0
  6
CONTINUOUS
 62
     7
 10
-84.48664922803371
 20
161.3595477691317
 30
0.0
  0
VERTEX
  5
471
  8
0
  6
CONTINUOUS
 62
     7
 10
-84.39085315271518
 20
161.258100780167
 30
0.0
  0
VERTEX
  5
472
  8
0
  6
CONTINUOUS
 62
     7
 10
-84.27322466196685
 20
161.1608101941925
 30
0.0
  0
VERTEX
  5
473
  8
0
  6
CONTINUOUS
 62
     7
 10
-84.15307265785972
 20
161.0855903954351
 30
0.0
  0
VERTEX
  5
474
  8
0
  6
CONTINUOUS
 62
     7
 10
-84.0258433945046
 20
161.0272417173726
 30
0.0
  0
SEQEND
  5
546
  8
0
  6
CONTINUOUS
 62
     7
  0
ARC
  5
14A
  8
0
  6
CONTINUOUS
 62
     7
 10
-83.59732665064031
 20
162.1398255199004
 30
0.0
 40
1.192253881276739
 50
248.935581502929
 51
305.0987582284903
  0
POLYLINE
  5
14B
  8
0
  6
CONTINUOUS
 62
     7
 66
     1
 10
0.0
 20
0.0
 30
0.0
  0
VERTEX
  5
475
  8
0
  6
CONTINUOUS
 62
     7
 10
-82.91179554805788
 20
161.1643684860894
 30
0.0
  0
VERTEX
  5
476
  8
0
  6
CONTINUOUS
 62
     7
 10
-82.79838600471868
 20
161.260529933299
 30
0.0
  0
VERTEX
  5
477
  8
0
  6
CONTINUOUS
 62
     7
 10
-82.72744015134329
 20
161.3367564141263
 30
0.0
  0
VERTEX
  5
478
  8
0
  6
CONTINUOUS
 62
     7
 10
-82.66360208523716
 20
161.4188656615647
 30
0.0
  0
VERTEX
  5
479
  8
0
  6
CONTINUOUS
 62
     7
 10
-82.58397655924051
 20
161.5450327278694
 30
0.0
  0
VERTEX
  5
47A
  8
0
  6
CONTINUOUS
 62
     7
 10
-82.49747685661035
 20
161.7253069266012
 30
0.0
  0
VERTEX
  5
47B
  8
0
  6
CONTINUOUS
 62
     7
 10
-82.45060253835373
 20
161.8507948892716
 30
0.0
  0
SEQEND
  5
547
  8
0
  6
CONTINUOUS
 62
     7
  0
POLYLINE
  5
14C
  8
0
  6
CONTINUOUS
 62
     7
 66
     1
 10
0.0
 20
0.0
 30
0.0
  0
VERTEX
  5
47C
  8
0
  6
CONTINUOUS
 62
     7
 10
-66.61371871476491
 20
162.832341334209
 30
0.0
  0
VERTEX
  5
47D
  8
0
  6
CONTINUOUS
 62
     7
 10
-66.58231484846168
 20
162.7932129277386
 30
0.0
  0
VERTEX
  5
47E
  8
0
  6
CONTINUOUS
 62
     7
 10
-66.55264762879946
 20
162.7527519454319
 30
0.0
  0
VERTEX
  5
47F
  8
0
  6
CONTINUOUS
 62
     7
 10
-66.52477352901705
 20
162.7110354070684
 30
0.0
  0
VERTEX
  5
480
  8
0
  6
CONTINUOUS
 62
     7
 10
-66.49874560904767
 20
162.66814272245
 30
0.0
  0
VERTEX
  5
481
  8
0
  6
CONTINUOUS
 62
     7
 10
-66.47001856963918
 20
162.6152340976254
 30
0.0
  0
VERTEX
  5
482
  8
0
  6
CONTINUOUS
 62
     7
 10
-66.44409992311348
 20
162.560894525155
 30
0.0
  0
VERTEX
  5
483
  8
0
  6
CONTINUOUS
 62
     7
 10
-66.42106071067913
 20
162.5052729460296
 30
0.0
  0
VERTEX
  5
484
  8
0
  6
CONTINUOUS
 62
     7
 10
-66.40096408121597
 20
162.4485218151314
 30
0.0
  0
VERTEX
  5
485
  8
0
  6
CONTINUOUS
 62
     7
 10
-66.38386511818847
 20
162.3907966833656
 30
0.0
  0
VERTEX
  5
486
  8
0
  6
CONTINUOUS
 62
     7
 10
-66.36981068866575
 20
162.3322557713059
 30
0.0
  0
VERTEX
  5
487
  8
0
  6
CONTINUOUS
 62
     7
 10
-66.35883931486221
 20
162.273059535523
 30
0.0
  0
VERTEX
  5
488
  8
0
  6
CONTINUOUS
 62
     7
 10
-66.35098106855085
 20
162.2133702287846
 30
0.0
  0
VERTEX
  5
489
  8
0
  6
CONTINUOUS
 62
     7
 10
-66.34625748863857
 20
162.1533514553316
 30
0.0
  0
VERTEX
  5
48A
  8
0
  6
CONTINUOUS
 62
     7
 10
-66.34468152212959
 20
162.0931677224499
 30
0.0
  0
SEQEND
  5
548
  8
0
  6
CONTINUOUS
 62
     7
  0
LINE
  5
14D
  8
0
  6
CONTINUOUS
 62
     7
 10
-88.66472041101846
 20
147.4396137736045
 30
0.0
 11
-88.66472041101846
 21
146.5486008374429
 31
0.0
  0
ARC
  5
14E
  8
0
  6
CONTINUOUS
 62
     7
 10
-85.81768875508617
 20
49.06841388566196
 30
0.0
 40
2.884967883426731
 50
188.8692844621465
 51
261.3239535655603
  0
ARC
  5
14F
  8
0
  6
CONTINUOUS
 62
     7
 10
-77.84366105663447
 20
75.45137116937447
 30
0.0
 40
30.42030673715159
 50
253.9524890814284
 51
287.1016062401455
  0
ARC
  5
150
  8
0
  6
CONTINUOUS
 62
     7
 10
-69.51724552866283
 20
48.96399372137994
 30
0.0
 40
2.660934231199843
 50
283.4560194095512
 51
354.1459977614545
  0
POLYLINE
  5
151
  8
0
  6
CONTINUOUS
 62
     7
 66
     1
 10
0.0
 20
0.0
 30
0.0
  0
VERTEX
  5
48B
  8
0
  6
CONTINUOUS
 62
     7
 10
-86.36496691414578
 20
158.2342151470037
 30
0.0
  0
VERTEX
  5
48C
  8
0
  6
CONTINUOUS
 62
     7
 10
-86.39032650253571
 20
158.2918021538311
 30
0.0
  0
VERTEX
  5
48D
  8
0
  6
CONTINUOUS
 62
     7
 10
-86.45832850958199
 20
158.3470251193403
 30
0.0
  0
VERTEX
  5
48E
  8
0
  6
CONTINUOUS
 62
     7
 10
-86.5663940871695
 20
158.3977898165123
 30
0.0
  0
VERTEX
  5
48F
  8
0
  6
CONTINUOUS
 62
     7
 10
-86.71042505168316
 20
158.4421710897626
 30
0.0
  0
VERTEX
  5
490
  8
0
  6
CONTINUOUS
 62
     7
 10
-86.88495929990738
 20
158.4784858628434
 30
0.0
  0
SEQEND
  5
549
  8
0
  6
CONTINUOUS
 62
     7
  0
LINE
  5
152
  8
0
  6
CONTINUOUS
 62
     7
 10
-86.89027779073112
 20
92.59250855273551
 30
0.0
 11
-86.89106322363781
 21
92.59813628648402
 31
0.0
  0
LINE
  5
153
  8
0
  6
CONTINUOUS
 62
     7
 10
-89.17390820742823
 20
162.770703616685
 30
0.0
 11
-89.18485929990737
 21
162.6272133363411
 31
0.0
  0
ARC
  5
154
  8
0
  6
CONTINUOUS
 62
     7
 10
-85.1987115990008
 20
100.0356084883729
 30
0.0
 40
2.360028885867852
 50
359.5211990345134
 51
38.99640086407368
  0
LINE
  5
155
  8
0
  6
CONTINUOUS
 62
     7
 10
-83.36453138867712
 20
101.520707575366
 30
0.0
 11
-83.46644662640453
 21
101.609647011228
 31
0.0
  0
ARC
  5
156
  8
0
  6
CONTINUOUS
 62
     7
 10
-84.17728160878588
 20
100.6575042444137
 30
0.0
 40
1.188218086284631
 50
53.25632649255782
 51
107.2761929788726
  0
POLYLINE
  5
157
  8
0
  6
CONTINUOUS
 62
     7
 66
     1
 10
0.0
 20
0.0
 30
0.0
  0
VERTEX
  5
491
  8
0
  6
CONTINUOUS
 62
     7
 10
-84.53015639990006
 20
101.7921150157225
 30
0.0
  0
VERTEX
  5
492
  8
0
  6
CONTINUOUS
 62
     7
 10
-84.66677590241264
 20
101.740420224953
 30
0.0
  0
VERTEX
  5
493
  8
0
  6
CONTINUOUS
 62
     7
 10
-84.79678595362398
 20
101.6703315058176
 30
0.0
  0
VERTEX
  5
494
  8
0
  6
CONTINUOUS
 62
     7
 10
-84.91071668568298
 20
101.5879025733365
 30
0.0
  0
VERTEX
  5
495
  8
0
  6
CONTINUOUS
 62
     7
 10
-84.9941879726214
 20
101.5122789572185
 30
0.0
  0
VERTEX
  5
496
  8
0
  6
CONTINUOUS
 62
     7
 10
-85.06343623693901
 20
101.4374235808799
 30
0.0
  0
SEQEND
  5
54A
  8
0
  6
CONTINUOUS
 62
     7
  0
ARC
  5
158
  8
0
  6
CONTINUOUS
 62
     7
 10
-83.98878185576805
 20
100.5328124159669
 30
0.0
 40
1.404707584750364
 50
139.9103537767754
 51
162.5457984223001
  0
LINE
  5
159
  8
0
  6
CONTINUOUS
 62
     7
 10
-73.63471237676349
 20
100.0645421240741
 30
0.0
 11
-73.65021072866908
 21
100.0750744122344
 31
0.0
  0
LINE
  5
15A
  8
0
  6
CONTINUOUS
 62
     7
 10
-86.36482041101847
 20
146.5486008374429
 30
0.0
 11
-86.36482041101847
 21
147.4396137736045
 31
0.0
  0
POLYLINE
  5
15B
  8
0
  6
CONTINUOUS
 62
     9
 66
     1
 10
0.0
 20
0.0
 30
0.0
  0
VERTEX
  5
497
  8
0
  6
CONTINUOUS
 62
     9
 10
-88.66935023308177
 20
145.5912182229207
 30
0.0
  0
VERTEX
  5
498
  8
0
  6
CONTINUOUS
 62
     9
 10
-88.72973907258637
 20
145.3858351634763
 30
0.0
  0
VERTEX
  5
499
  8
0
  6
CONTINUOUS
 62
     9
 10
-88.74314021169972
 20
145.1740251987132
 30
0.0
  0
SEQEND
  5
54B
  8
0
  6
CONTINUOUS
 62
     9
  0
POLYLINE
  5
15C
  8
0
  6
CONTINUOUS
 62
     7
 66
     1
 10
0.0
 20
0.0
 30
0.0
  0
VERTEX
  5
49A
  8
0
  6
CONTINUOUS
 62
     7
 10
-66.34468152212959
 20
162.0931677224499
 30
0.0
  0
VERTEX
  5
49B
  8
0
  6
CONTINUOUS
 62
     7
 10
-66.34577601972153
 20
162.0430076079492
 30
0.0
  0
VERTEX
  5
49C
  8
0
  6
CONTINUOUS
 62
     7
 10
-66.34905742905899
 20
161.9929429760773
 30
0.0
  0
VERTEX
  5
49D
  8
0
  6
CONTINUOUS
 62
     7
 10
-66.35451950379277
 20
161.9430691277065
 30
0.0
  0
VERTEX
  5
49E
  8
0
  6
CONTINUOUS
 62
     7
 10
-66.36215184655319
 20
161.8934810005419
 30
0.0
  0
VERTEX
  5
49F
  8
0
  6
CONTINUOUS
 62
     7
 10
-66.37193992874202
 20
161.8442729884018
 30
0.0
  0
VERTEX
  5
4A0
  8
0
  6
CONTINUOUS
 62
     7
 10
-66.38386511818847
 20
161.7955387615343
 30
0.0
  0
VERTEX
  5
4A1
  8
0
  6
CONTINUOUS
 62
     7
 10
-66.40096408121597
 20
161.7378136297685
 30
0.0
  0
VERTEX
  5
4A2
  8
0
  6
CONTINUOUS
 62
     7
 10
-66.42106071067913
 20
161.6810624988703
 30
0.0
  0
VERTEX
  5
4A3
  8
0
  6
CONTINUOUS
 62
     7
 10
-66.44409992311348
 20
161.6254409197449
 30
0.0
  0
VERTEX
  5
4A4
  8
0
  6
CONTINUOUS
 62
     7
 10
-66.47001856963918
 20
161.5711013472745
 30
0.0
  0
VERTEX
  5
4A5
  8
0
  6
CONTINUOUS
 62
     7
 10
-66.49874560904767
 20
161.51819272245
 30
0.0
  0
VERTEX
  5
4A6
  8
0
  6
CONTINUOUS
 62
     7
 10
-66.53020230252075
 20
161.4668600641344
 30
0.0
  0
VERTEX
  5
4A7
  8
0
  6
CONTINUOUS
 62
     7
 10
-66.56430242944812
 20
161.4172440715763
 30
0.0
  0
VERTEX
  5
4A8
  8
0
  6
CONTINUOUS
 62
     7
 10
-66.60095252375214
 20
161.3694807387622
 30
0.0
  0
VERTEX
  5
4A9
  8
0
  6
CONTINUOUS
 62
     7
 10
-66.64005213007187
 20
161.3237009816676
 30
0.0
  0
VERTEX
  5
4AA
  8
0
  6
CONTINUOUS
 62
     7
 10
-66.68149407910411
 20
161.2800302794245
 30
0.0
  0
VERTEX
  5
4AB
  8
0
  6
CONTINUOUS
 62
     7
 10
-66.71773656288197
 20
161.2453356489852
 30
0.0
  0
VERTEX
  5
4AC
  8
0
  6
CONTINUOUS
 62
     7
 10
-66.75545791037055
 20
161.2122549150853
 30
0.0
  0
VERTEX
  5
4AD
  8
0
  6
CONTINUOUS
 62
     7
 10
-66.79458631684102
 20
161.1808510487821
 30
0.0
  0
VERTEX
  5
4AE
  8
0
  6
CONTINUOUS
 62
     7
 10
-66.8350472991477
 20
161.1511838291198
 30
0.0
  0
VERTEX
  5
4AF
  8
0
  6
CONTINUOUS
 62
     7
 10
-66.87676383751116
 20
161.1233097293374
 30
0.0
  0
VERTEX
  5
4B0
  8
0
  6
CONTINUOUS
 62
     7
 10
-66.9196565221296
 20
161.0972818093681
 30
0.0
  0
SEQEND
  5
54C
  8
0
  6
CONTINUOUS
 62
     7
  0
LINE
  5
15D
  8
0
  6
CONTINUOUS
 62
     7
 10
-66.9196565221296
 20
161.0972818093681
 30
0.0
 11
-67.49457024536548
 21
160.9432177240826
 31
0.0
  0
LINE
  5
15E
  8
0
  6
CONTINUOUS
 62
     7
 10
-89.18485929990737
 20
162.6272133363411
 30
0.0
 11
-89.18485929990737
 21
154.1697930038986
 31
0.0
  0
LINE
  5
15F
  8
0
  6
CONTINUOUS
 62
     7
 10
-86.88028280572743
 20
161.5110509797426
 30
0.0
 11
-87.0629765146613
 21
161.9534540994057
 31
0.0
  0
ARC
  5
160
  8
0
  6
CONTINUOUS
 62
     7
 10
-85.7253980478344
 20
172.8765341125144
 30
0.0
 40
2.302048105305634
 50
1.082930784358294
 51
37.72558714948873
  0
POLYLINE
  5
161
  8
0
  6
CONTINUOUS
 62
     7
 66
     1
 10
0.0
 20
0.0
 30
0.0
  0
VERTEX
  5
4B1
  8
0
  6
CONTINUOUS
 62
     7
 10
-83.90459227405067
 20
174.2851120526004
 30
0.0
  0
VERTEX
  5
4B2
  8
0
  6
CONTINUOUS
 62
     7
 10
-84.01535963499146
 20
174.3869007145659
 30
0.0
  0
VERTEX
  5
4B3
  8
0
  6
CONTINUOUS
 62
     7
 10
-84.10308525305126
 20
174.4510839552563
 30
0.0
  0
VERTEX
  5
4B4
  8
0
  6
CONTINUOUS
 62
     7
 10
-84.19335088469755
 20
174.5045642504494
 30
0.0
  0
VERTEX
  5
4B5
  8
0
  6
CONTINUOUS
 62
     7
 10
-84.32541480024781
 20
174.5636679124982
 30
0.0
  0
VERTEX
  5
4B6
  8
0
  6
CONTINUOUS
 62
     7
 10
-84.4255244218664
 20
174.5958047117576
 30
0.0
  0
VERTEX
  5
4B7
  8
0
  6
CONTINUOUS
 62
     7
 10
-84.56258174312681
 20
174.6245253105964
 30
0.0
  0
VERTEX
  5
4B8
  8
0
  6
CONTINUOUS
 62
     7
 10
-84.69262420931048
 20
174.6369107612571
 30
0.0
  0
VERTEX
  5
4B9
  8
0
  6
CONTINUOUS
 62
     7
 10
-84.80421565790601
 20
174.6365593110863
 30
0.0
  0
VERTEX
  5
4BA
  8
0
  6
CONTINUOUS
 62
     7
 10
-84.93541900148385
 20
174.6231445315294
 30
0.0
  0
VERTEX
  5
4BB
  8
0
  6
CONTINUOUS
 62
     7
 10
-85.07302222017547
 20
174.5931572034548
 30
0.0
  0
VERTEX
  5
4BC
  8
0
  6
CONTINUOUS
 62
     7
 10
-85.17319417243421
 20
174.5600294006348
 30
0.0
  0
VERTEX
  5
4BD
  8
0
  6
CONTINUOUS
 62
     7
 10
-85.28583565289073
 20
174.5096774692152
 30
0.0
  0
VERTEX
  5
4BE
  8
0
  6
CONTINUOUS
 62
     7
 10
-85.40122556650704
 20
174.4408027485964
 30
0.0
  0
VERTEX
  5
4BF
  8
0
  6
CONTINUOUS
 62
     7
 10
-85.4932806710802
 20
174.3705726005585
 30
0.0
  0
VERTEX
  5
4C0
  8
0
  6
CONTINUOUS
 62
     7
 10
-85.58181620266275
 20
174.2870372587822
 30
0.0
  0
VERTEX
  5
4C1
  8
0
  6
CONTINUOUS
 62
     7
 10
-85.66419244038102
 20
174.1907617468982
 30
0.0
  0
VERTEX
  5
4C2
  8
0
  6
CONTINUOUS
 62
     7
 10
-85.75270039673856
 20
174.0579819033236
 30
0.0
  0
VERTEX
  5
4C3
  8
0
  6
CONTINUOUS
 62
     7
 10
-85.81416177505423
 20
173.937760006248
 30
0.0
  0
VERTEX
  5
4C4
  8
0
  6
CONTINUOUS
 62
     7
 10
-85.86300832369865
 20
173.8163896171177
 30
0.0
  0
VERTEX
  5
4C5
  8
0
  6
CONTINUOUS
 62
     7
 10
-85.88868089441283
 20
173.7397189324265
 30
0.0
  0
SEQEND
  5
54D
  8
0
  6
CONTINUOUS
 62
     7
  0
LINE
  5
162
  8
0
  6
CONTINUOUS
 62
     7
 10
-86.89106322363781
 20
92.59813628648402
 30
0.0
 11
-86.89027786546905
 21
94.95911734452794
 31
0.0
  0
ARC
  5
163
  8
0
  6
CONTINUOUS
 62
     7
 10
-108.3579845501177
 20
168.5676979342352
 30
0.0
 40
22.97632159920211
 50
0.4996104129064285
 51
13.92820691635919
  0
POLYLINE
  5
164
  8
0
  6
CONTINUOUS
 62
     7
 66
     1
 10
0.0
 20
0.0
 30
0.0
  0
VERTEX
  5
4C6
  8
0
  6
CONTINUOUS
 62
     7
 10
-86.05721048784586
 20
174.0982341156071
 30
0.0
  0
VERTEX
  5
4C7
  8
0
  6
CONTINUOUS
 62
     7
 10
-86.13346440790188
 20
174.2037612884078
 30
0.0
  0
VERTEX
  5
4C8
  8
0
  6
CONTINUOUS
 62
     7
 10
-86.21934159375272
 20
174.3001047291363
 30
0.0
  0
VERTEX
  5
4C9
  8
0
  6
CONTINUOUS
 62
     7
 10
-86.32359575029753
 20
174.3936548831142
 30
0.0
  0
VERTEX
  5
4CA
  8
0
  6
CONTINUOUS
 62
     7
 10
-86.43533596825405
 20
174.4718481543176
 30
0.0
  0
SEQEND
  5
54E
  8
0
  6
CONTINUOUS
 62
     7
  0
ARC
  5
165
  8
0
  6
CONTINUOUS
 62
     7
 10
-87.04116629765038
 20
173.4600376582039
 30
0.0
 40
1.179317967327868
 50
59.0885674745323
 51
135.9374840062844
  0
ARC
  5
166
  8
0
  6
CONTINUOUS
 62
     7
 10
-78.4269633188445
 20
170.3919983835417
 30
0.0
 40
10.22939949077557
 50
157.6601668213696
 51
183.3650231676422
  0
ARC
  5
167
  8
0
  6
CONTINUOUS
 62
     7
 10
-239.8327683746097
 20
177.7659220782787
 30
0.0
 40
151.4041905581411
 50
354.3158726828455
 51
356.9808722411349
  0
LINE
  5
168
  8
0
  6
CONTINUOUS
 62
     7
 10
-86.88832318901142
 20
92.56556732473115
 30
0.0
 11
-86.8877453098776
 21
92.55744567944366
 31
0.0
  0
ARC
  5
169
  8
0
  6
CONTINUOUS
 62
     7
 10
338.9246310264682
 20
130.3103563744111
 30
0.0
 40
422.8402619846177
 50
184.0995097312259
 51
185.5840465352884
  0
POLYLINE
  5
16A
  8
0
  6
CONTINUOUS
 62
     7
 66
     1
 10
0.0
 20
0.0
 30
0.0
  0
VERTEX
  5
4CB
  8
0
  6
CONTINUOUS
 62
     7
 10
-81.90905620845743
 20
89.16555301509277
 30
0.0
  0
VERTEX
  5
4CC
  8
0
  6
CONTINUOUS
 62
     7
 10
-81.82906174509695
 20
88.93765635634182
 30
0.0
  0
VERTEX
  5
4CD
  8
0
  6
CONTINUOUS
 62
     7
 10
-81.74115323347586
 20
88.7574339161562
 30
0.0
  0
VERTEX
  5
4CE
  8
0
  6
CONTINUOUS
 62
     7
 10
-81.68849273339282
 20
88.67164445082123
 30
0.0
  0
VERTEX
  5
4CF
  8
0
  6
CONTINUOUS
 62
     7
 10
-81.59232273950477
 20
88.54404231569762
 30
0.0
  0
VERTEX
  5
4D0
  8
0
  6
CONTINUOUS
 62
     7
 10
-81.51536509653663
 20
88.46229763255583
 30
0.0
  0
VERTEX
  5
4D1
  8
0
  6
CONTINUOUS
 62
     7
 10
-81.43735258825419
 20
88.39385121432888
 30
0.0
  0
VERTEX
  5
4D2
  8
0
  6
CONTINUOUS
 62
     7
 10
-81.33785686538401
 20
88.323619213656
 30
0.0
  0
VERTEX
  5
4D3
  8
0
  6
CONTINUOUS
 62
     7
 10
-81.23610958326233
 20
88.26799333478957
 30
0.0
  0
VERTEX
  5
4D4
  8
0
  6
CONTINUOUS
 62
     7
 10
-81.11956258036024
 20
88.22029757251804
 30
0.0
  0
VERTEX
  5
4D5
  8
0
  6
CONTINUOUS
 62
     7
 10
-81.00470096480974
 20
88.18710276036722
 30
0.0
  0
VERTEX
  5
4D6
  8
0
  6
CONTINUOUS
 62
     7
 10
-80.8699839538292
 20
88.16345020100793
 30
0.0
  0
VERTEX
  5
4D7
  8
0
  6
CONTINUOUS
 62
     7
 10
-80.72355752336384
 20
88.15495149435806
 30
0.0
  0
VERTEX
  5
4D8
  8
0
  6
CONTINUOUS
 62
     7
 10
-80.61599663541554
 20
88.15978120352253
 30
0.0
  0
VERTEX
  5
4D9
  8
0
  6
CONTINUOUS
 62
     7
 10
-80.5003604874764
 20
88.17561690116132
 30
0.0
  0
VERTEX
  5
4DA
  8
0
  6
CONTINUOUS
 62
     7
 10
-80.36274606341397
 20
88.20978975497948
 30
0.0
  0
VERTEX
  5
4DB
  8
0
  6
CONTINUOUS
 62
     7
 10
-80.23785751583549
 20
88.25711621615257
 30
0.0
  0
VERTEX
  5
4DC
  8
0
  6
CONTINUOUS
 62
     7
 10
-80.14490659108483
 20
88.30431606519923
 30
0.0
  0
VERTEX
  5
4DD
  8
0
  6
CONTINUOUS
 62
     7
 10
-80.04018957137207
 20
88.37260634683871
 30
0.0
  0
VERTEX
  5
4DE
  8
0
  6
CONTINUOUS
 62
     7
 10
-79.95524116394975
 20
88.44244971874853
 30
0.0
  0
VERTEX
  5
4DF
  8
0
  6
CONTINUOUS
 62
     7
 10
-79.85542548120179
 20
88.54676065631786
 30
0.0
  0
SEQEND
  5
54F
  8
0
  6
CONTINUOUS
 62
     7
  0
ARC
  5
16B
  8
0
  6
CONTINUOUS
 62
     7
 10
-81.10781045955453
 20
89.54637102314508
 30
0.0
 40
1.602401017059102
 50
321.4043432741373
 51
342.2540047990425
  0
ARC
  5
16C
  8
0
  6
CONTINUOUS
 62
     7
 10
-76.89475449429595
 20
92.16643138107769
 30
0.0
 40
9.990081885387575
 50
178.3305521062993
 51
201.1630981614877
  0
POLYLINE
  5
16D
  8
0
  6
CONTINUOUS
 62
     7
 66
     1
 10
0.0
 20
0.0
 30
0.0
  0
VERTEX
  5
4E0
  8
0
  6
CONTINUOUS
 62
     7
 10
-86.21107044427497
 20
88.55977181897379
 30
0.0
  0
VERTEX
  5
4E1
  8
0
  6
CONTINUOUS
 62
     7
 10
-86.10699702421411
 20
88.45226061458683
 30
0.0
  0
VERTEX
  5
4E2
  8
0
  6
CONTINUOUS
 62
     7
 10
-86.0222282372297
 20
88.38181877418124
 30
0.0
  0
VERTEX
  5
4E3
  8
0
  6
CONTINUOUS
 62
     7
 10
-85.93432241873674
 20
88.32194547707702
 30
0.0
  0
VERTEX
  5
4E4
  8
0
  6
CONTINUOUS
 62
     7
 10
-85.79945134093713
 20
88.25188148915875
 30
0.0
  0
SEQEND
  5
550
  8
0
  6
CONTINUOUS
 62
     7
  0
ARC
  5
16E
  8
0
  6
CONTINUOUS
 62
     7
 10
-85.32398124825937
 20
89.36901152978496
 30
0.0
 40
1.214105158831195
 50
246.9445474575321
 51
285.1745467755756
  0
POLYLINE
  5
16F
  8
0
  6
CONTINUOUS
 62
     7
 66
     1
 10
0.0
 20
0.0
 30
0.0
  0
VERTEX
  5
4E5
  8
0
  6
CONTINUOUS
 62
     7
 10
-85.00617653386792
 20
88.1972387274845
 30
0.0
  0
VERTEX
  5
4E6
  8
0
  6
CONTINUOUS
 62
     7
 10
-84.88290287112846
 20
88.23829390386034
 30
0.0
  0
VERTEX
  5
4E7
  8
0
  6
CONTINUOUS
 62
     7
 10
-84.77361590023654
 20
88.28885950345325
 30
0.0
  0
VERTEX
  5
4E8
  8
0
  6
CONTINUOUS
 62
     7
 10
-84.66065359586267
 20
88.35836792411264
 30
0.0
  0
VERTEX
  5
4E9
  8
0
  6
CONTINUOUS
 62
     7
 10
-84.55896770808913
 20
88.43950231279216
 30
0.0
  0
SEQEND
  5
551
  8
0
  6
CONTINUOUS
 62
     7
  0
ARC
  5
170
  8
0
  6
CONTINUOUS
 62
     7
 10
-85.54535976582754
 20
89.47674499619082
 30
0.0
 40
1.431377544826481
 50
313.5605538513331
 51
343.6259236923196
  0
LINE
  5
171
  8
0
  6
CONTINUOUS
 62
     7
 10
-86.89067708679316
 20
92.59871184716164
 30
0.0
 11
-86.88832318901142
 21
92.56556732473115
 31
0.0
  0
LINE
  5
172
  8
0
  6
CONTINUOUS
 62
     7
 10
-86.79841988514056
 20
90.13468127090185
 30
0.0
 11
-86.87470279869734
 21
92.3763244919027
 31
0.0
  0
ARC
  5
173
  8
0
  6
CONTINUOUS
 62
     7
 10
-79.65779007077506
 20
146.687398298659
 30
0.0
 40
6.749080241462021
 50
100.4487524828413
 51
173.6008311397715
  0
ARC
  5
174
  8
0
  6
CONTINUOUS
 62
     7
 10
-77.76669946085408
 20
143.7202729031437
 30
0.0
 40
10.09683476527236
 50
40.63326557691244
 51
107.9700691464237
  0
ARC
  5
175
  8
0
  6
CONTINUOUS
 62
     7
 10
-74.13478960888848
 20
147.386988117027
 30
0.0
 40
4.970347803861059
 50
0.6066545993144246
 51
35.81494328299584
  0
ARC
  5
176
  8
0
  6
CONTINUOUS
 62
     7
 10
-109.1862674696994
 20
95.60679594251512
 30
0.0
 40
24.37872662888025
 50
0.7478419895645432
 51
13.42518067305411
  0
POLYLINE
  5
177
  8
0
  6
CONTINUOUS
 62
     7
 66
     1
 10
0.0
 20
0.0
 30
0.0
  0
VERTEX
  5
4EA
  8
0
  6
CONTINUOUS
 62
     7
 10
-85.4737155241834
 20
101.2669366012693
 30
0.0
  0
VERTEX
  5
4EB
  8
0
  6
CONTINUOUS
 62
     7
 10
-85.54394160085685
 20
101.3744530787551
 30
0.0
  0
VERTEX
  5
4EC
  8
0
  6
CONTINUOUS
 62
     7
 10
-85.62620231018697
 20
101.4772456246998
 30
0.0
  0
VERTEX
  5
4ED
  8
0
  6
CONTINUOUS
 62
     7
 10
-85.72632818530994
 20
101.5758761238376
 30
0.0
  0
VERTEX
  5
4EE
  8
0
  6
CONTINUOUS
 62
     7
 10
-85.81648989344008
 20
101.6460185918167
 30
0.0
  0
VERTEX
  5
4EF
  8
0
  6
CONTINUOUS
 62
     7
 10
-85.92112727254197
 20
101.710137394038
 30
0.0
  0
VERTEX
  5
4F0
  8
0
  6
CONTINUOUS
 62
     7
 10
-86.04120630821686
 20
101.7652326190225
 30
0.0
  0
VERTEX
  5
4F1
  8
0
  6
CONTINUOUS
 62
     7
 10
-86.17679286096309
 20
101.8083491987904
 30
0.0
  0
SEQEND
  5
552
  8
0
  6
CONTINUOUS
 62
     7
  0
ARC
  5
178
  8
0
  6
CONTINUOUS
 62
     7
 10
-86.47396703438271
 20
100.6238411814916
 30
0.0
 40
1.221217315792994
 50
75.91609345505508
 51
109.940147978599
  0
LINE
  5
179
  8
0
  6
CONTINUOUS
 62
     7
 10
-69.16472041101846
 20
147.4396137736045
 30
0.0
 11
-69.16472041101846
 21
145.9075248873665
 31
0.0
  0
LINE
  5
17A
  8
0
  6
CONTINUOUS
 62
     7
 10
-88.66472041101846
 20
146.5486008374429
 30
0.0
 11
-88.68647707441934
 21
144.9272726359673
 31
0.0
  0
ARC
  5
17B
  8
0
  6
CONTINUOUS
 62
     7
 10
149.9238364937215
 20
114.6691122400332
 30
0.0
 40
224.0498617083237
 50
183.7347454704033
 51
186.5901974541665
  0
ARC
  5
17C
  8
0
  6
CONTINUOUS
 62
     7
 10
-71.52631751742727
 20
89.33460780515485
 30
0.0
 40
1.181727579597564
 50
198.7098656176999
 51
287.0143275820271
  0
POLYLINE
  5
17D
  8
0
  6
CONTINUOUS
 62
     7
 66
     1
 10
0.0
 20
0.0
 30
0.0
  0
VERTEX
  5
4F2
  8
0
  6
CONTINUOUS
 62
     7
 10
-71.18053122660325
 20
88.20460253372481
 30
0.0
  0
VERTEX
  5
4F3
  8
0
  6
CONTINUOUS
 62
     7
 10
-71.06000556696796
 20
88.24781536548687
 30
0.0
  0
VERTEX
  5
4F4
  8
0
  6
CONTINUOUS
 62
     7
 10
-70.95346120409397
 20
88.30001423048562
 30
0.0
  0
VERTEX
  5
4F5
  8
0
  6
CONTINUOUS
 62
     7
 10
-70.84361020268331
 20
88.37082652445253
 30
0.0
  0
VERTEX
  5
4F6
  8
0
  6
CONTINUOUS
 62
     7
 10
-70.72834627600844
 20
88.46834475234353
 30
0.0
  0
VERTEX
  5
4F7
  8
0
  6
CONTINUOUS
 62
     7
 10
-70.64119569906732
 20
88.56305005595851
 30
0.0
  0
VERTEX
  5
4F8
  8
0
  6
CONTINUOUS
 62
     7
 10
-70.56811142704991
 20
88.6613088376827
 30
0.0
  0
VERTEX
  5
4F9
  8
0
  6
CONTINUOUS
 62
     7
 10
-70.48799404328422
 20
88.79610347089215
 30
0.0
  0
VERTEX
  5
4FA
  8
0
  6
CONTINUOUS
 62
     7
 10
-70.4081025343648
 20
88.97279733448777
 30
0.0
  0
VERTEX
  5
4FB
  8
0
  6
CONTINUOUS
 62
     7
 10
-70.37164145405929
 20
89.07435256179879
 30
0.0
  0
SEQEND
  5
553
  8
0
  6
CONTINUOUS
 62
     7
  0
ARC
  5
17E
  8
0
  6
CONTINUOUS
 62
     7
 10
-77.76453441338298
 20
166.281598388069
 30
0.0
 40
8.909043730703036
 50
65.0535005771153
 51
115.7285475804549
  0
LINE
  5
17F
  8
0
  6
CONTINUOUS
 62
     7
 10
-85.6174022493101
 20
174.2520457498486
 30
0.0
 11
-85.95206202043516
 21
173.8993405681223
 31
0.0
  0
LINE
  5
180
  8
0
  6
CONTINUOUS
 62
     7
 10
-86.36482041101848
 20
158.2294644172937
 30
0.0
 11
-86.36482041101848
 21
161.0433622482551
 31
0.0
  0
ARC
  5
181
  8
0
  6
CONTINUOUS
 62
     7
 10
-77.76715962565966
 20
166.3532355540982
 30
0.0
 40
11.13739567591887
 50
43.45618285615223
 51
133.9444169577987
  0
LINE
  5
182
  8
0
  6
CONTINUOUS
 62
     7
 10
-67.93495957059697
 20
160.94321772245
 30
0.0
 11
-67.49463152212958
 21
160.94321772245
 31
0.0
  0
ARC
  5
183
  8
0
  6
CONTINUOUS
 62
     7
 10
821.0465795328796
 20
243.9021241694562
 30
0.0
 40
911.8344430021854
 50
184.4651510533541
 51
185.1459970263078
  0
ARC
  5
184
  8
0
  6
CONTINUOUS
 62
     7
 10
-85.27310866064812
 20
162.4927946678935
 30
0.0
 40
1.877661411224431
 50
191.5717160211599
 51
219.0279010449981
  0
POLYLINE
  5
185
  8
0
  6
CONTINUOUS
 62
     7
 66
     1
 10
0.0
 20
0.0
 30
0.0
  0
VERTEX
  5
4FC
  8
0
  6
CONTINUOUS
 62
     7
 10
-86.73175004776265
 20
161.3104336067121
 30
0.0
  0
VERTEX
  5
4FD
  8
0
  6
CONTINUOUS
 62
     7
 10
-86.642927772187
 20
161.2211230082969
 30
0.0
  0
VERTEX
  5
4FE
  8
0
  6
CONTINUOUS
 62
     7
 10
-86.5509023036326
 20
161.1476964677359
 30
0.0
  0
VERTEX
  5
4FF
  8
0
  6
CONTINUOUS
 62
     7
 10
-86.45702807428319
 20
161.0886411785146
 30
0.0
  0
VERTEX
  5
500
  8
0
  6
CONTINUOUS
 62
     7
 10
-86.3394057927884
 20
161.0326700983688
 30
0.0
  0
VERTEX
  5
501
  8
0
  6
CONTINUOUS
 62
     7
 10
-86.23965327358854
 20
160.997872956325
 30
0.0
  0
VERTEX
  5
502
  8
0
  6
CONTINUOUS
 62
     7
 10
-86.1232205370628
 20
160.9696496813739
 30
0.0
  0
SEQEND
  5
554
  8
0
  6
CONTINUOUS
 62
     7
  0
ARC
  5
186
  8
0
  6
CONTINUOUS
 62
     7
 10
-85.8949549844358
 20
162.1652936758927
 30
0.0
 40
1.217238565008948
 50
259.1914803396344
 51
291.4195874033634
  0
POLYLINE
  5
187
  8
0
  6
CONTINUOUS
 62
     7
 66
     1
 10
0.0
 20
0.0
 30
0.0
  0
VERTEX
  5
503
  8
0
  6
CONTINUOUS
 62
     7
 10
-85.45042547595521
 20
161.0321285333671
 30
0.0
  0
VERTEX
  5
504
  8
0
  6
CONTINUOUS
 62
     7
 10
-85.31802894096947
 20
161.0953565004286
 30
0.0
  0
VERTEX
  5
505
  8
0
  6
CONTINUOUS
 62
     7
 10
-85.19825486153911
 20
161.1736279106576
 30
0.0
  0
VERTEX
  5
506
  8
0
  6
CONTINUOUS
 62
     7
 10
-85.09045512977552
 20
161.2653738168232
 30
0.0
  0
VERTEX
  5
507
  8
0
  6
CONTINUOUS
 62
     7
 10
-85.00364439991858
 20
161.3579775370081
 30
0.0
  0
VERTEX
  5
508
  8
0
  6
CONTINUOUS
 62
     7
 10
-84.92755119314099
 20
161.4576655258914
 30
0.0
  0
VERTEX
  5
509
  8
0
  6
CONTINUOUS
 62
     7
 10
-84.86979142976037
 20
161.5496742103687
 30
0.0
  0
VERTEX
  5
50A
  8
0
  6
CONTINUOUS
 62
     7
 10
-84.80094755242287
 20
161.6881479738383
 30
0.0
  0
VERTEX
  5
50B
  8
0
  6
CONTINUOUS
 62
     7
 10
-84.74544999669652
 20
161.8344658715179
 30
0.0
  0
SEQEND
  5
555
  8
0
  6
CONTINUOUS
 62
     7
  0
ARC
  5
188
  8
1
  6
CONTINUOUS
 62
     7
 10
-164.103372
 20
116.536894
 30
0.0
 40
20.0
 50
48.770292
 51
62.0
  0
LINE
  5
189
  8
1
  6
CONTINUOUS
 62
     7
 10
-164.026422
 20
50.85262
 30
0.0
 11
-154.71394
 21
55.804155
 31
0.0
  0
LINE
  5
18A
  8
1
  6
CONTINUOUS
 62
     7
 10
-117.412511
 20
107.2
 30
0.0
 11
-117.375683
 21
107.2
 31
0.0
  0
LINE
  5
18B
  8
1
  6
CONTINUOUS
 62
     7
 10
-113.5
 20
108.54594
 30
0.0
 11
-114.5
 21
108.54594
 31
0.0
  0
LINE
  5
18C
  8
1
  6
CONTINUOUS
 62
     7
 10
-120.0
 20
90.4
 30
0.0
 11
-118.0
 21
90.4
 31
0.0
  0
LINE
  5
18D
  8
1
  6
CONTINUOUS
 62
     7
 10
-144.330708
 20
126.472921
 30
0.0
 11
-128.420711
 21
107.512125
 31
0.0
  0
ARC
  5
18E
  8
1
  6
CONTINUOUS
 62
     7
 10
-164.103372
 20
73.463106
 30
0.0
 40
21.5
 50
298.0
 51
311.493219
  0
ARC
  5
18F
  8
1
  6
CONTINUOUS
 62
     7
 10
-187.5
 20
95.0
 30
0.0
 40
53.3
 50
324.0411770000001
 51
334.9999999999999
  0
LINE
  5
190
  8
1
  6
CONTINUOUS
 62
     7
 10
-110.634879
 20
107.319415
 30
0.0
 11
-110.624317
 21
107.2
 31
0.0
  0
LINE
  5
191
  8
1
  6
CONTINUOUS
 62
     7
 10
-120.0
 20
99.6
 30
0.0
 11
-121.0
 21
98.6
 31
0.0
  0
LINE
  5
192
  8
1
  6
CONTINUOUS
 62
     7
 10
-121.0
 20
91.4
 30
0.0
 11
-120.0
 21
90.4
 31
0.0
  0
LINE
  5
193
  8
1
  6
CONTINUOUS
 62
     7
 10
-66.35
 20
90.4
 30
0.0
 11
-62.0
 21
90.4
 31
0.0
  0
ARC
  5
194
  8
1
  6
CONTINUOUS
 62
     7
 10
-187.5
 20
95.0
 30
0.0
 40
50.0
 50
62.0
 51
298.0
  0
LINE
  5
195
  8
1
  6
CONTINUOUS
 62
     7
 10
-126.9
 20
65.0
 30
0.0
 11
-128.4
 21
65.0
 31
0.0
  0
LINE
  5
196
  8
1
  6
CONTINUOUS
 62
     7
 10
-126.9
 20
103.334006
 30
0.0
 11
-126.9
 21
102.0
 31
0.0
  0
LINE
  5
197
  8
1
  6
CONTINUOUS
 62
     7
 10
-134.0
 20
88.0
 30
0.0
 11
-134.0
 21
87.270538
 31
0.0
  0
LINE
  5
198
  8
1
  6
CONTINUOUS
 62
     7
 10
-154.009733
 20
54.479733
 30
0.0
 11
-163.322215
 21
49.528199
 31
0.0
  0
LINE
  5
199
  8
1
  6
CONTINUOUS
 62
     7
 10
-129.569778
 20
106.547944
 30
0.0
 11
-144.322384
 21
124.129416
 31
0.0
  0
ARC
  5
19A
  8
1
  6
CONTINUOUS
 62
     7
 10
-187.5
 20
95.0
 30
0.0
 40
51.8
 50
327.603794
 51
350.369927
  0
ARC
  5
19B
  8
1
  6
CONTINUOUS
 62
     7
 10
-164.103372
 20
116.536894
 30
0.0
 40
21.5
 50
48.507843
 51
62.0
  0
ARC
  5
19C
  8
1
  6
CONTINUOUS
 62
     7
 10
-187.5
 20
95.0
 30
0.0
 40
51.5
 50
62.0
 51
298.0
  0
LINE
  5
19D
  8
1
  6
CONTINUOUS
 62
     7
 10
-140.553257
 20
73.108374
 30
0.0
 11
-136.905383
 21
80.931264
 31
0.0
  0
ARC
  5
19E
  8
1
  6
CONTINUOUS
 62
     7
 10
-133.4
 20
103.334006
 30
0.0
 40
6.5
 50
0.0
 51
40.0
  0
ARC
  5
19F
  8
1
  6
CONTINUOUS
 62
     7
 10
-150.5
 20
87.270538
 30
0.0
 40
16.5
 50
334.9999999999999
 51
0.0
  0
LINE
  5
1A0
  8
1
  6
CONTINUOUS
 62
     7
 10
-135.5
 20
87.270538
 30
0.0
 11
-135.5
 21
87.707023
 31
0.0
  0
LINE
  5
1A1
  8
1
  6
CONTINUOUS
 62
     7
 10
-135.545922
 20
80.297336
 30
0.0
 11
-139.193795
 21
72.474447
 31
0.0
  0
LINE
  5
1A2
  8
1
  6
CONTINUOUS
 62
     7
 10
-128.4
 20
65.0
 30
0.0
 11
-128.4
 21
88.0
 31
0.0
  0
ARC
  5
1A3
  8
1
  6
CONTINUOUS
 62
     7
 10
-164.103372
 20
73.463106
 30
0.0
 40
20.0
 50
298.0
 51
311.228802
  0
ARC
  5
1A4
  8
1
  6
CONTINUOUS
 62
     7
 10
-150.5
 20
87.270538
 30
0.0
 40
15.0
 50
334.9999999999999
 51
0.0
  0
LINE
  5
1A5
  8
1
  6
CONTINUOUS
 62
     7
 10
-110.5
 20
106.2
 30
0.0
 11
-117.5
 21
106.2
 31
0.0
  0
LINE
  5
1A6
  8
1
  6
CONTINUOUS
 62
     7
 10
-117.375683
 20
107.2
 30
0.0
 11
-117.365121
 21
107.319415
 31
0.0
  0
LINE
  5
1A7
  8
1
  6
CONTINUOUS
 62
     7
 10
-126.9
 20
88.0
 30
0.0
 11
-126.9
 21
65.0
 31
0.0
  0
LINE
  5
1A8
  8
1
  6
CONTINUOUS
 62
     7
 10
-114.5
 20
108.54594
 30
0.0
 11
-114.5
 21
108.691569
 31
0.0
  0
ARC
  5
1A9
  8
1
  6
CONTINUOUS
 62
     7
 10
-133.4
 20
103.334006
 30
0.0
 40
5.0
 50
0.0
 51
40.0
  0
LINE
  5
1AA
  8
1
  6
CONTINUOUS
 62
     7
 10
-114.5
 20
108.691569
 30
0.0
 11
-115.3
 21
108.691569
 31
0.0
  0
LINE
  5
1AB
  8
1
  6
CONTINUOUS
 62
     7
 10
-112.7
 20
108.691569
 30
0.0
 11
-113.5
 21
108.691569
 31
0.0
  0
ARC
  5
1AC
  8
1
  6
CONTINUOUS
 62
     7
 10
-114.0
 20
99.8
 30
0.0
 40
8.9861
 50
74.433701
 51
81.681953
  0
LINE
  5
1AD
  8
1
  6
CONTINUOUS
 62
     7
 10
-62.0
 20
90.4
 30
0.0
 11
-62.0
 21
99.6
 31
0.0
  0
LINE
  5
1AE
  8
1
  6
CONTINUOUS
 62
     7
 10
-61.0
 20
98.6
 30
0.0
 11
-61.0
 21
91.4
 31
0.0
  0
LINE
  5
1AF
  8
1
  6
CONTINUOUS
 62
     7
 10
-110.5
 20
106.2
 30
0.0
 11
-110.5982171624
 21
107.3226229858
 31
0.0
  0
ARC
  5
1B0
  8
1
  6
CONTINUOUS
 62
     7
 10
-116.069412
 20
107.201165
 30
0.0
 40
1.301094
 50
105.241287
 51
174.785446
  0
LINE
  5
1B1
  8
1
  6
CONTINUOUS
 62
     7
 10
-154.71394
 20
134.195845
 30
0.0
 11
-164.026422
 21
139.14738
 31
0.0
  0
LINE
  5
1B2
  8
1
  6
CONTINUOUS
 62
     7
 10
-117.4017828376
 20
107.3226229858
 30
0.0
 11
-117.5
 21
106.2
 31
0.0
  0
LINE
  5
1B3
  8
1
  6
CONTINUOUS
 62
     7
 10
-113.5
 20
108.691569
 30
0.0
 11
-113.5
 21
108.54594
 31
0.0
  0
LINE
  5
1B4
  8
1
  6
CONTINUOUS
 62
     7
 10
-163.322215
 20
140.471801
 30
0.0
 11
-154.009733
 21
135.520267
 31
0.0
  0
LINE
  5
1B5
  8
1
  6
CONTINUOUS
 62
     7
 10
-62.0
 20
99.6
 30
0.0
 11
-66.694997
 21
99.6
 31
0.0
  0
LINE
  5
1B6
  8
1
  6
CONTINUOUS
 62
     7
 10
-118.0
 20
99.6
 30
0.0
 11
-120.0
 21
99.6
 31
0.0
  0
ARC
  5
1B7
  8
1
  6
CONTINUOUS
 62
     7
 10
-114.0
 20
99.8
 30
0.0
 40
8.9861
 50
98.318047
 51
105.566299
  0
LINE
  5
1B8
  8
1
  6
CONTINUOUS
 62
     7
 10
-120.0
 20
99.6
 30
0.0
 11
-120.0
 21
90.4
 31
0.0
  0
LINE
  5
1B9
  8
1
  6
CONTINUOUS
 62
     7
 10
-62.0
 20
90.4
 30
0.0
 11
-61.0
 21
91.4
 31
0.0
  0
LINE
  5
1BA
  8
1
  6
CONTINUOUS
 62
     7
 10
-61.0
 20
98.6
 30
0.0
 11
-62.0
 21
99.6
 31
0.0
  0
ARC
  5
1BB
  8
1
  6
CONTINUOUS
 62
     7
 10
-111.931739
 20
107.200199
 30
0.0
 40
1.302328
 50
5.252239
 51
74.721027
  0
LINE
  5
1BC
  8
1
  6
CONTINUOUS
 62
     7
 10
-110.624317
 20
107.2
 30
0.0
 11
-110.587489
 21
107.2
 31
0.0
  0
LINE
  5
1BD
  8
1
  6
CONTINUOUS
 62
     7
 10
-128.4
 20
102.0
 30
0.0
 11
-128.4
 21
103.334006
 31
0.0
  0
LINE
  5
1BE
  8
1
  6
CONTINUOUS
 62
     7
 10
-239.0
 20
175.793
 30
0.0
 11
-126.9
 21
175.793
 31
0.0
  0
ARC
  5
1BF
  8
1
  6
CONTINUOUS
 62
     7
 10
-114.0
 20
167.793
 30
0.0
 40
2.12333
 50
76.38013199999999
 51
103.619868
  0
LINE
  5
1C0
  8
1
  6
CONTINUOUS
 62
     7
 10
-113.5
 20
166.493
 30
0.0
 11
-113.5
 21
165.729379
 31
0.0
  0
LINE
  5
1C1
  8
1
  6
CONTINUOUS
 62
     7
 10
-66.581607
 20
163.193
 30
0.0
 11
-62.0
 21
163.193
 31
0.0
  0
LINE
  5
1C2
  8
1
  6
CONTINUOUS
 62
     7
 10
-110.634879
 20
167.293
 30
0.0
 11
-112.7
 21
167.293
 31
0.0
  0
ARC
  5
1C3
  8
1
  6
CONTINUOUS
 62
     7
 10
-112.699993
 20
169.093007
 30
0.0
 40
0.800007
 50
180.000478
 51
269.999522
  0
LINE
  5
1C4
  8
1
  6
CONTINUOUS
 62
     7
 10
-114.5
 20
169.093
 30
0.0
 11
-114.5
 21
169.856621
 31
0.0
  0
LINE
  5
1C5
  8
1
  6
CONTINUOUS
 62
     7
 10
-62.0
 20
163.193
 30
0.0
 11
-61.0
 21
164.193
 31
0.0
  0
LINE
  5
1C6
  8
1
  6
CONTINUOUS
 62
     7
 10
-239.0
 20
175.793
 30
0.0
 11
-239.0
 21
159.793
 31
0.0
  0
LINE
  5
1C7
  8
1
  6
CONTINUOUS
 62
     7
 10
-62.0
 20
163.193
 30
0.0
 11
-62.0
 21
172.393
 31
0.0
  0
LINE
  5
1C8
  8
1
  6
CONTINUOUS
 62
     7
 10
-126.9
 20
175.793
 30
0.0
 11
-126.9
 21
159.793
 31
0.0
  0
LINE
  5
1C9
  8
1
  6
CENTER
 62
     1
 10
-239.5
 20
95.0
 30
0.0
 11
-54.99999999999999
 21
95.0
 31
0.0
  0
LINE
  5
1CB
  8
1
  6
CONTINUOUS
 62
     7
 10
-117.365121
 20
168.293
 30
0.0
 11
-115.3
 21
168.293
 31
0.0
  0
ARC
  5
1CC
  8
1
  6
CONTINUOUS
 62
     7
 10
-112.699993
 20
166.492993
 30
0.0
 40
0.800007
 50
90.000478
 51
179.999522
  0
LINE
  5
1CD
  8
1
  6
CENTER
 62
     1
 10
-187.5
 20
43.0
 30
0.0
 11
-187.5
 21
147.0
 31
0.0
  0
LINE
  5
1CE
  8
1
  6
CONTINUOUS
 62
     7
 10
-239.0
 20
159.793
 30
0.0
 11
-126.9
 21
159.793
 31
0.0
  0
LINE
  5
1CF
  8
1
  6
CONTINUOUS
 62
     7
 10
-112.7
 20
168.293
 30
0.0
 11
-110.634879
 21
168.293
 31
0.0
  0
LINE
  5
1D0
  8
1
  6
CONTINUOUS
 62
     7
 10
-61.0
 20
171.393
 30
0.0
 11
-62.0
 21
172.393
 31
0.0
  0
ARC
  5
1D1
  8
1
  6
CONTINUOUS
 62
     7
 10
-115.300007
 20
166.492993
 30
0.0
 40
0.800007
 50
0.000478
 51
89.99952200000001
  0
LINE
  5
1D2
  8
1
  6
CENTER
 62
     1
 10
-241.0
 20
167.793
 30
0.0
 11
-55.00000000000002
 21
167.793
 31
0.0
  0
LINE
  5
1D3
  8
1
  6
CONTINUOUS
 62
     7
 10
-114.5
 20
165.729379
 30
0.0
 11
-114.5
 21
166.493
 31
0.0
  0
ARC
  5
1D4
  8
1
  6
CONTINUOUS
 62
     7
 10
-114.0
 20
167.793
 30
0.0
 40
2.12333
 50
256.380132
 51
283.619868
  0
LINE
  5
1D5
  8
1
  6
CONTINUOUS
 62
     7
 10
-113.5
 20
169.856621
 30
0.0
 11
-113.5
 21
169.093
 31
0.0
  0
ARC
  5
1D6
  8
1
  6
CONTINUOUS
 62
     7
 10
-115.300007
 20
169.093007
 30
0.0
 40
0.800007
 50
270.000478
 51
0.0
  0
LINE
  5
1D7
  8
1
  6
CONTINUOUS
 62
     7
 10
-115.3
 20
167.293
 30
0.0
 11
-117.365121
 21
167.293
 31
0.0
  0
LINE
  5
1D8
  8
1
  6
CONTINUOUS
 62
     7
 10
-61.0
 20
171.393
 30
0.0
 11
-61.0
 21
164.193
 31
0.0
  0
ARC
  5
1D9
  8
1
  6
CONTINUOUS
 62
     7
 10
-187.5
 20
95.0
 30
0.0
 40
51.8
 50
9.630072999999998
 51
32.257798
  0
LINE
  5
1DA
  8
1
  6
CONTINUOUS
 62
     7
 10
-140.767334
 20
52.750054
 30
0.0
 11
-141.878995
 21
51.552055
 31
0.0
  0
ARC
  5
1DB
  8
1
  6
CONTINUOUS
 62
     7
 10
-142.96521
 20
137.41347
 30
0.0
 40
1.5
 50
43.602403
 51
135.0
  0
ARC
  5
1DC
  8
1
  6
CONTINUOUS
 62
     7
 10
-139.466785
 20
64.684158
 30
0.0
 40
5.0
 50
147.742202
 51
205.0
  0
LINE
  5
1DD
  8
1
  6
CONTINUOUS
 62
     7
 10
-117.29287
 20
89.0
 30
0.0
 11
-117.29287
 21
101.0
 31
0.0
  0
LINE
  5
1DE
  8
1
  6
CONTINUOUS
 62
     7
 10
-110.0
 20
90.3
 30
0.0
 11
-114.0
 21
90.3
 31
0.0
  0
LINE
  5
1DF
  8
1
  6
CONTINUOUS
 62
     7
 10
-132.3
 20
102.0
 30
0.0
 11
-132.3
 21
105.0
 31
0.0
  0
ARC
  5
1E0
  8
1
  6
CONTINUOUS
 62
     7
 10
-134.45813
 20
86.0
 30
0.0
 40
2.0
 50
90.0
 51
170.369927
  0
LINE
  5
1E1
  8
1
  6
CONTINUOUS
 62
     7
 10
-136.429946
 20
103.665428
 30
0.0
 11
-136.436513
 21
103.664313
 31
0.0
  0
LINE
  5
1E2
  8
1
  6
CONTINUOUS
 62
     7
 10
-110.0
 20
90.3
 30
0.0
 11
-110.0
 21
99.7
 31
0.0
  0
LINE
  5
1E3
  8
1
  6
CONTINUOUS
 62
     7
 10
-126.4
 20
84.982548
 30
0.0
 11
-125.2
 21
84.982548
 31
0.0
  0
LINE
  5
1E4
  8
1
  6
CONTINUOUS
 62
     7
 10
-133.5
 20
105.0
 30
0.0
 11
-132.3
 21
105.0
 31
0.0
  0
ARC
  5
1E5
  8
1
  6
CONTINUOUS
 62
     7
 10
-118.116198
 20
88.807746
 30
0.0
 40
0.845476
 50
287.181352
 51
13.14351499999998
  0
LINE
  5
1E6
  8
1
  6
CONTINUOUS
 62
     7
 10
-125.2
 20
88.0
 30
0.0
 11
-125.2
 21
84.0
 31
0.0
  0
LINE
  5
1E7
  8
1
  6
CONTINUOUS
 62
     7
 10
-151.444487
 20
131.055513
 30
0.0
 11
-144.02587
 21
138.47413
 31
0.0
  0
ARC
  5
1E8
  8
1
  6
CONTINUOUS
 62
     7
 10
-118.074161
 20
101.216365
 30
0.0
 40
0.810697
 50
344.520866
 51
75.15426700000002
  0
ARC
  5
1E9
  8
1
  6
CONTINUOUS
 62
     7
 10
-134.45813
 20
104.0
 30
0.0
 40
2.0
 50
189.630073
 51
270.0
  0
LINE
  5
1EA
  8
1
  6
CONTINUOUS
 62
     7
 10
-107.5
 20
101.0
 30
0.0
 11
-107.5
 21
89.0
 31
0.0
  0
ARC
  5
1EB
  8
1
  6
CONTINUOUS
 62
     7
 10
-120.499976
 20
99.199976
 30
0.0
 40
0.500024
 50
90.002792
 51
179.997208
  0
LINE
  5
1EC
  8
1
  6
CONTINUOUS
 62
     7
 10
-123.52239
 20
88.0
 30
0.0
 11
-123.52239
 21
102.0
 31
0.0
  0
LINE
  5
1ED
  8
1
  6
CONTINUOUS
 62
     7
 10
-118.0
 20
99.7
 30
0.0
 11
-120.5
 21
99.7
 31
0.0
  0
LINE
  5
1EE
  8
1
  6
CONTINUOUS
 62
     7
 10
-144.02587
 20
51.52587
 30
0.0
 11
-151.444487
 21
58.944487
 31
0.0
  0
LINE
  5
1EF
  8
1
  6
CONTINUOUS
 62
     7
 10
-120.5
 20
90.3
 30
0.0
 11
-118.0
 21
90.3
 31
0.0
  0
LINE
  5
1F0
  8
1
  6
CONTINUOUS
 62
     7
 10
-140.438295
 20
135.063441
 30
0.0
 11
-143.998324
 21
127.428933
 31
0.0
  0
LINE
  5
1F1
  8
1
  6
CONTINUOUS
 62
     7
 10
-108.5
 20
88.0
 30
0.0
 11
-134.45813
 21
88.0
 31
0.0
  0
ARC
  5
1F2
  8
1
  6
CONTINUOUS
 62
     7
 10
-142.25091
 20
135.908678
 30
0.0
 40
2.0
 50
334.9999999999999
 51
42.11602099999998
  0
LINE
  5
1F3
  8
1
  6
CONTINUOUS
 62
     7
 10
-141.878995
 20
138.447945
 30
0.0
 11
-140.767334
 21
137.249946
 31
0.0
  0
ARC
  5
1F4
  8
1
  6
CONTINUOUS
 62
     7
 10
-187.5
 20
95.0
 30
0.0
 40
50.0
 50
316.123519
 51
43.87648100000001
  0
ARC
  5
1F5
  8
1
  6
CONTINUOUS
 62
     7
 10
-150.73738
 20
130.348406
 30
0.0
 40
1.0
 50
135.0
 51
223.876481
  0
ARC
  5
1F6
  8
1
  6
CONTINUOUS
 62
     7
 10
-139.466785
 20
125.315842
 30
0.0
 40
5.0
 50
155.0
 51
212.257798
  0
ARC
  5
1F7
  8
1
  6
CONTINUOUS
 62
     7
 10
-150.73738
 20
59.651594
 30
0.0
 40
1.0
 50
136.123519
 51
225.0
  0
ARC
  5
1F8
  8
1
  6
CONTINUOUS
 62
     7
 10
-142.96521
 20
52.58653
 30
0.0
 40
1.5
 50
225.0
 51
316.3975970000001
  0
ARC
  5
1F9
  8
1
  6
CONTINUOUS
 62
     7
 10
-120.499893
 20
90.800107
 30
0.0
 40
0.500107
 50
180.012265
 51
269.987735
  0
ARC
  5
1FA
  8
1
  6
CONTINUOUS
 62
     7
 10
-142.25091
 20
54.091322
 30
0.0
 40
2.0
 50
317.883979
 51
25.0
  0
LINE
  5
1FB
  8
1
  6
CONTINUOUS
 62
     7
 10
-134.45813
 20
102.0
 30
0.0
 11
-108.5
 21
102.0
 31
0.0
  0
ARC
  5
1FC
  8
1
  6
CONTINUOUS
 62
     7
 10
-108.5
 20
89.0
 30
0.0
 40
1.0
 50
270.0
 51
0.0
  0
LINE
  5
1FD
  8
1
  6
CONTINUOUS
 62
     7
 10
-114.0
 20
90.3
 30
0.0
 11
-114.0
 21
99.7
 31
0.0
  0
LINE
  5
1FE
  8
1
  6
CONTINUOUS
 62
     7
 10
-114.0
 20
99.7
 30
0.0
 11
-110.0
 21
99.7
 31
0.0
  0
LINE
  5
1FF
  8
1
  6
CONTINUOUS
 62
     7
 10
-143.998324
 20
62.57106699999999
 30
0.0
 11
-140.438295
 21
54.936559
 31
0.0
  0
LINE
  5
200
  8
1
  6
CONTINUOUS
 62
     7
 10
-133.5
 20
105.0
 30
0.0
 11
-133.5
 21
102.0
 31
0.0
  0
LINE
  5
201
  8
1
  6
CONTINUOUS
 62
     7
 10
-118.0
 20
99.7
 30
0.0
 11
-118.0
 21
90.3
 31
0.0
  0
LINE
  5
202
  8
1
  6
CONTINUOUS
 62
     7
 10
-132.3
 20
104.017452
 30
0.0
 11
-133.5
 21
104.017452
 31
0.0
  0
LINE
  5
203
  8
1
  6
CONTINUOUS
 62
     7
 10
-126.4
 20
84.0
 30
0.0
 11
-126.4
 21
88.0
 31
0.0
  0
ARC
  5
204
  8
1
  6
CONTINUOUS
 62
     7
 10
-108.5
 20
101.0
 30
0.0
 40
1.0
 50
0.0
 51
90.0
  0
LINE
  5
205
  8
1
  6
CONTINUOUS
 62
     7
 10
-121.0
 20
99.2
 30
0.0
 11
-121.0
 21
90.8
 31
0.0
  0
LINE
  5
206
  8
1
  6
CONTINUOUS
 62
     7
 10
-125.2
 20
84.0
 30
0.0
 11
-126.4
 21
84.0
 31
0.0
  0
LINE
  5
207
  8
1
  6
CONTINUOUS
 62
     7
 10
-66.35
 20
79.988453
 30
0.0
 11
-66.35
 21
95.0
 31
0.0
  0
LINE
  5
208
  8
1
  6
CONTINUOUS
 62
     7
 10
-150.871869
 20
159.767482
 30
0.0
 11
-150.871869
 21
159.793
 31
0.0
  0
ARC
  5
209
  8
1
  6
CONTINUOUS
 62
     7
 10
-150.280311
 20
159.833669
 30
0.0
 40
0.643685
 50
220.699367
 51
233.92793
  0
ARC
  5
20A
  8
1
  6
CONTINUOUS
 62
     7
 10
-150.479112
 20
159.662678
 30
0.0
 40
0.381464
 50
192.300216
 51
220.699367
  0
ARC
  5
20B
  8
1
  6
CONTINUOUS
 62
     7
 10
-149.998444
 20
159.767482
 30
0.0
 40
0.873425
 50
180.0
 51
192.300216
  0
ARC
  5
20C
  8
1
  6
CONTINUOUS
 62
     7
 10
-109.424382
 20
102.5
 30
0.0
 40
0.5
 50
185.0
 51
270.0
  0
ARC
  5
20D
  8
1
  6
CONTINUOUS
 62
     7
 10
-149.998444
 20
175.818518
 30
0.0
 40
0.873425
 50
167.699784
 51
180.0
  0
ARC
  5
20E
  8
1
  6
CONTINUOUS
 62
     7
 10
-117.291834
 20
105.7
 30
0.0
 40
0.5
 50
90.0
 51
175.0
  0
ARC
  5
20F
  8
1
  6
CONTINUOUS
 62
     7
 10
-150.479112
 20
175.923322
 30
0.0
 40
0.381464
 50
139.300633
 51
167.699784
  0
LINE
  5
210
  8
1
  6
CONTINUOUS
 62
     7
 10
-140.767334
 20
157.793
 30
0.0
 11
-140.767334
 21
158.706033
 31
0.0
  0
ARC
  5
211
  8
1
  6
CONTINUOUS
 62
     7
 10
-141.225085
 20
157.744992
 30
0.0
 40
0.460262
 50
280.8776770000001
 51
5.987136000000022
  0
LINE
  5
212
  8
1
  6
CONTINUOUS
 62
     7
 10
-140.25091
 20
158.732343
 30
0.0
 11
-140.438295
 21
158.768649
 31
0.0
  0
LINE
  5
213
  8
1
  6
CONTINUOUS
 62
     7
 10
-144.02587
 20
176.800397
 30
0.0
 11
-144.02587
 21
177.793
 31
0.0
  0
LINE
  5
214
  8
1
  6
CONTINUOUS
 62
     7
 10
-144.02587
 20
157.793
 30
0.0
 11
-144.02587
 21
158.785603
 31
0.0
  0
ARC
  5
215
  8
1
  6
CONTINUOUS
 62
     7
 10
-143.571018
 20
157.739628
 30
0.0
 40
0.457972
 50
173.307603
 51
257.221176
  0
LINE
  5
216
  8
1
  6
CONTINUOUS
 62
     7
 10
-140.25091
 20
176.853657
 30
0.0
 11
-141.87611707
 21
176.9364556267
 31
0.0
  0
ARC
  5
217
  8
1
  6
CONTINUOUS
 62
     7
 10
-118.575618
 20
102.5
 30
0.0
 40
0.5
 50
270.0
 51
355.0
  0
LINE
  5
218
  8
1
  6
CONTINUOUS
 62
     7
 10
-123.52239
 20
157.293
 30
0.0
 11
-151.234257
 21
157.293
 31
0.0
  0
LINE
  5
219
  8
1
  6
CONTINUOUS
 62
     7
 10
-144.02587
 20
158.785603
 30
0.0
 11
-141.878995
 21
158.706033
 31
0.0
  0
LINE
  5
21A
  8
1
  6
CONTINUOUS
 62
     7
 10
-109.922479
 20
102.456422
 30
0.0
 11
-110.210068
 21
105.743578
 31
0.0
  0
LINE
  5
21B
  8
1
  6
CONTINUOUS
 62
     7
 10
-141.878995
 20
177.793
 30
0.0
 11
-141.878995
 21
176.879967
 31
0.0
  0
LINE
  5
21C
  8
1
  6
CONTINUOUS
 62
     7
 10
-141.8848590743
 20
158.6269199974
 30
0.0
 11
-150.536819
 21
159.268168
 31
0.0
  0
LINE
  5
21D
  8
1
  6
CONTINUOUS
 62
     7
 10
-141.878995
 20
176.879967
 30
0.0
 11
-144.02587
 21
176.800397
 31
0.0
  0
LINE
  5
21E
  8
1
  6
CONTINUOUS
 62
     7
 10
-141.878995
 20
158.706033
 30
0.0
 11
-141.878995
 21
157.793
 31
0.0
  0
LINE
  5
21F
  8
1
  6
CONTINUOUS
 62
     7
 10
-140.438295
 20
176.817351
 30
0.0
 11
-140.25091
 21
176.853657
 31
0.0
  0
LINE
  5
220
  8
1
  6
CONTINUOUS
 62
     7
 10
-150.536819
 20
176.317832
 30
0.0
 11
-141.8848590743
 21
176.9590800026
 31
0.0
  0
LINE
  5
221
  8
1
  6
CONTINUOUS
 62
     7
 10
-140.2492110397
 20
176.8383563572
 30
0.0
 11
-143.998324
 21
176.421867
 31
0.0
  0
LINE
  5
222
  8
1
  6
CONTINUOUS
 62
     7
 10
-144.415586
 20
176.317832
 30
0.0
 11
-144.466785
 21
176.336992
 31
0.0
  0
ARC
  5
223
  8
1
  6
CONTINUOUS
 62
     7
 10
-110.708166
 20
105.7
 30
0.0
 40
0.5
 50
5.0
 51
90.0
  0
LINE
  5
224
  8
1
  6
CONTINUOUS
 62
     7
 10
-143.998324
 20
159.164133
 30
0.0
 11
-144.466785
 21
159.249008
 31
0.0
  0
ARC
  5
225
  8
1
  6
CONTINUOUS
 62
     7
 10
-150.280311
 20
175.752331
 30
0.0
 40
0.643685
 50
126.07207
 51
139.300633
  0
LINE
  5
226
  8
1
  6
CONTINUOUS
 62
     7
 10
-150.871869
 20
175.793
 30
0.0
 11
-150.871869
 21
175.818518
 31
0.0
  0
ARC
  5
227
  8
1
  6
CONTINUOUS
 62
     7
 10
-150.518315
 20
159.50695
 30
0.0
 40
0.239467
 50
233.92793
 51
265.568926
  0
ARC
  5
228
  8
1
  6
CONTINUOUS
 62
     7
 10
-142.335158
 20
157.742231
 30
0.0
 40
0.458979
 50
281.82955
 51
6.350626999999974
  0
LINE
  5
229
  8
1
  6
CONTINUOUS
 62
     7
 10
-117.789932
 20
105.743578
 30
0.0
 11
-118.077521
 21
102.456422
 31
0.0
  0
ARC
  5
22A
  8
1
  6
CONTINUOUS
 62
     7
 10
-142.329174
 20
177.848102
 30
0.0
 40
0.453539
 50
353.021727
 51
78.79809499999999
  0
LINE
  5
22B
  8
1
  6
CONTINUOUS
 62
     7
 10
-151.235418
 20
178.293
 30
0.0
 11
-123.52239
 21
178.293
 31
0.0
  0
ARC
  5
22C
  8
1
  6
CONTINUOUS
 62
     7
 10
-143.57746
 20
177.850927
 30
0.0
 40
0.452136
 50
102.110381
 51
187.36084
  0
LINE
  5
22D
  8
1
  6
CONTINUOUS
 62
     7
 10
-140.767334
 20
158.706033
 30
0.0
 11
-140.25091
 21
158.732343
 31
0.0
  0
LINE
  5
22E
  8
1
  6
CONTINUOUS
 62
     7
 10
-141.878995
 20
158.706033
 30
0.0
 11
-140.25091
 21
158.706033
 31
0.0
  0
LINE
  5
22F
  8
1
  6
CONTINUOUS
 62
     7
 10
-141.878995
 20
176.879967
 30
0.0
 11
-140.767334
 21
176.879967
 31
0.0
  0
ARC
  5
230
  8
1
  6
CONTINUOUS
 62
     7
 10
-150.518315
 20
176.07905
 30
0.0
 40
0.239467
 50
94.43107399999998
 51
126.07207
  0
LINE
  5
231
  8
1
  6
CONTINUOUS
 62
     7
 10
-143.998324
 20
159.164133
 30
0.0
 11
-140.438295
 21
158.768649
 31
0.0
  0
ARC
  5
232
  8
1
  6
CONTINUOUS
 62
     7
 10
-108.5
 20
161.793
 30
0.0
 40
1.0
 50
270.0
 51
0.0
  0
LINE
  5
233
  8
1
  6
CONTINUOUS
 62
     7
 10
-107.5
 20
173.688881
 30
0.0
 11
-107.5
 21
161.793
 31
0.0
  0
LINE
  5
234
  8
1
  6
CONTINUOUS
 62
     7
 10
-123.922777
 20
159.43932
 30
0.0
 11
-124.551265
 21
159.343
 31
0.0
  0
LINE
  5
235
  8
1
  6
CONTINUOUS
 62
     7
 10
-126.9
 20
173.543
 30
0.0
 11
-123.1
 21
173.543
 31
0.0
  0
ARC
  5
236
  8
1
  6
CONTINUOUS
 62
     7
 10
-128.299997
 20
159.443003
 30
0.0
 40
0.099989
 50
202.475709
 51
224.991662
  0
ARC
  5
237
  8
1
  6
CONTINUOUS
 62
     7
 10
-128.299997
 20
176.142997
 30
0.0
 40
0.099989
 50
135.008338
 51
157.524291
  0
LINE
  5
238
  8
1
  6
CONTINUOUS
 62
     7
 10
-128.3
 20
159.493
 30
0.0
 11
-128.4
 21
159.593
 31
0.0
  0
LINE
  5
239
  8
1
  6
CONTINUOUS
 62
     7
 10
-128.3
 20
159.493
 30
0.0
 11
-128.3
 21
159.343
 31
0.0
  0
LINE
  5
23A
  8
1
  6
CONTINUOUS
 62
     7
 10
-143.695061
 20
175.818518
 30
0.0
 11
-150.871869
 21
175.818518
 31
0.0
  0
ARC
  5
23B
  8
1
  6
CONTINUOUS
 62
     7
 10
-123.2
 20
161.143
 30
0.0
 40
0.1
 50
270.0
 51
0.0
  0
LINE
  5
23C
  8
1
  6
CONTINUOUS
 62
     7
 10
-123.1
 20
162.043
 30
0.0
 11
-123.1
 21
161.143
 31
0.0
  0
LINE
  5
23D
  8
1
  6
CONTINUOUS
 62
     7
 10
-124.551265
 20
159.343
 30
0.0
 11
-125.990874
 21
159.404466
 31
0.0
  0
LINE
  5
23E
  8
1
  6
CONTINUOUS
 62
     7
 10
-125.892393
 20
174.543
 30
0.0
 11
-125.892393
 21
176.081604
 31
0.0
  0
LINE
  5
23F
  8
1
  6
CONTINUOUS
 62
     7
 10
-128.4
 20
159.44307
 30
0.0
 11
-128.4
 21
159.793
 31
0.0
  0
LINE
  5
240
  8
1
  6
CONTINUOUS
 62
     7
 10
-125.990874
 20
159.404466
 30
0.0
 11
-126.407176
 21
159.493002
 31
0.0
  0
LINE
  5
241
  8
1
  6
CONTINUOUS
 62
     7
 10
-150.871869
 20
159.767482
 30
0.0
 11
-143.695061
 21
159.767482
 31
0.0
  0
LINE
  5
242
  8
1
  6
CONTINUOUS
 62
     7
 10
-144.415586
 20
176.317832
 30
0.0
 11
-143.695061
 21
175.818518
 31
0.0
  0
LINE
  5
243
  8
1
  6
CONTINUOUS
 62
     7
 10
-144.466785
 20
159.249008
 30
0.0
 11
-144.415586
 21
159.268168
 31
0.0
  0
LINE
  5
244
  8
1
  6
CONTINUOUS
 62
     7
 10
-123.1
 20
165.543
 30
0.0
 11
-126.9
 21
165.543
 31
0.0
  0
LINE
  5
245
  8
1
  6
CONTINUOUS
 62
     7
 10
-123.1
 20
170.043
 30
0.0
 11
-126.9
 21
170.043
 31
0.0
  0
LINE
  5
246
  8
1
  6
CONTINUOUS
 62
     7
 10
-126.407176
 20
159.493002
 30
0.0
 11
-126.407827
 21
159.493
 31
0.0
  0
LINE
  5
247
  8
1
  6
CONTINUOUS
 62
     7
 10
-128.3
 20
159.493
 30
0.0
 11
-126.407176
 21
159.493
 31
0.0
  0
ARC
  5
248
  8
1
  6
CONTINUOUS
 62
     7
 10
-128.299834
 20
176.14293
 30
0.0
 40
0.100166
 50
157.524291
 51
180.0
  0
LINE
  5
249
  8
1
  6
CONTINUOUS
 62
     7
 10
-143.695061
 20
159.767482
 30
0.0
 11
-144.415586
 21
159.268168
 31
0.0
  0
LINE
  5
24A
  8
1
  6
CONTINUOUS
 62
     7
 10
-126.9
 20
162.043
 30
0.0
 11
-123.1
 21
162.043
 31
0.0
  0
ARC
  5
24B
  8
1
  6
CONTINUOUS
 62
     7
 10
-108.513769
 20
173.712142
 30
0.0
 40
1.014036
 50
358.685545
 51
87.65795700000001
  0
ARC
  5
24C
  8
1
  6
CONTINUOUS
 62
     7
 10
-114.424988
 20
155.793
 30
0.0
 40
5.0
 50
90.0
 51
125.0
  0
LINE
  5
24D
  8
1
  6
CONTINUOUS
 62
     7
 10
-114.424988
 20
160.793
 30
0.0
 11
-114.424988
 21
160.794284
 31
0.0
  0
LINE
  5
24E
  8
1
  6
CONTINUOUS
 62
     7
 10
-108.5
 20
160.793
 30
0.0
 11
-114.424988
 21
160.793
 31
0.0
  0
LINE
  5
24F
  8
1
  6
CONTINUOUS
 62
     7
 10
-124.069055
 20
173.543
 30
0.0
 11
-124.069055
 21
170.043
 31
0.0
  0
LINE
  5
250
  8
1
  6
CONTINUOUS
 62
     7
 10
-123.1
 20
174.443
 30
0.0
 11
-123.1
 21
173.543
 31
0.0
  0
LINE
  5
251
  8
1
  6
CONTINUOUS
 62
     7
 10
-126.8
 20
174.543
 30
0.0
 11
-123.2
 21
174.543
 31
0.0
  0
LINE
  5
252
  8
1
  6
CONTINUOUS
 62
     7
 10
-123.922777
 20
176.14668
 30
0.0
 11
-123.922777
 21
174.543
 31
0.0
  0
LINE
  5
253
  8
1
  6
CONTINUOUS
 62
     7
 10
-128.4
 20
175.793
 30
0.0
 11
-128.4
 21
176.14293
 31
0.0
  0
LINE
  5
254
  8
1
  6
CONTINUOUS
 62
     7
 10
-123.922777
 20
161.043
 30
0.0
 11
-123.922777
 21
159.43932
 31
0.0
  0
LINE
  5
255
  8
1
  6
CONTINUOUS
 62
     7
 10
-123.1
 20
170.043
 30
0.0
 11
-123.1
 21
165.543
 31
0.0
  0
ARC
  5
256
  8
1
  6
CONTINUOUS
 62
     7
 10
-128.299932
 20
176.142932
 30
0.0
 40
0.100081
 50
112.524305
 51
135.008338
  0
LINE
  5
257
  8
1
  6
CONTINUOUS
 62
     7
 10
-124.069055
 20
165.543
 30
0.0
 11
-124.069055
 21
162.043
 31
0.0
  0
ARC
  5
258
  8
1
  6
CONTINUOUS
 62
     7
 10
-128.299834
 20
159.44307
 30
0.0
 40
0.100166
 50
180.0
 51
202.475709
  0
ARC
  5
259
  8
1
  6
CONTINUOUS
 62
     7
 10
-114.424988
 20
179.793
 30
0.0
 40
5.0
 50
235.0
 51
270.0
  0
LINE
  5
25A
  8
1
  6
CONTINUOUS
 62
     7
 10
-110.0
 20
175.793
 30
0.0
 11
-110.0
 21
174.776934
 31
0.0
  0
LINE
  5
25B
  8
1
  6
CONTINUOUS
 62
     7
 10
-114.424988
 20
174.793
 30
0.0
 11
-110.0
 21
174.793
 31
0.0
  0
LINE
  5
25C
  8
1
  6
CONTINUOUS
 62
     7
 10
-110.0
 20
174.776934
 30
0.0
 11
-108.47233
 21
174.725331
 31
0.0
  0
ARC
  5
25D
  8
1
  6
CONTINUOUS
 62
     7
 10
-128.3
 20
159.442904
 30
0.0
 40
0.099904
 50
247.475695
 51
270.0
  0
LINE
  5
25E
  8
1
  6
CONTINUOUS
 62
     7
 10
-124.551265
 20
159.343
 30
0.0
 11
-128.3
 21
159.343
 31
0.0
  0
ARC
  5
25F
  8
1
  6
CONTINUOUS
 62
     7
 10
-123.52239
 20
165.293
 30
0.0
 40
8.0
 50
270.0
 51
305.0
  0
LINE
  5
260
  8
1
  6
CONTINUOUS
 62
     7
 10
-143.695061
 20
159.767482
 30
0.0
 11
-143.695061
 21
159.130443
 31
0.0
  0
ARC
  5
261
  8
1
  6
CONTINUOUS
 62
     7
 10
-128.299932
 20
159.443068
 30
0.0
 40
0.100081
 50
224.991662
 51
247.475695
  0
ARC
  5
262
  8
1
  6
CONTINUOUS
 62
     7
 10
-123.52239
 20
170.293
 30
0.0
 40
8.0
 50
55.00000000000001
 51
90.0
  0
LINE
  5
263
  8
1
  6
CONTINUOUS
 62
     7
 10
-144.466785
 20
176.336992
 30
0.0
 11
-143.998324
 21
176.421867
 31
0.0
  0
LINE
  5
264
  8
1
  6
CONTINUOUS
 62
     7
 10
-117.29287
 20
159.88876
 30
0.0
 11
-118.933779
 21
158.739784
 31
0.0
  0
ARC
  5
265
  8
1
  6
CONTINUOUS
 62
     7
 10
-125.991641
 20
159.500789
 30
0.0
 40
0.096313
 50
270.456195
 51
281.0502269999999
  0
LINE
  5
266
  8
1
  6
CONTINUOUS
 62
     7
 10
-128.3
 20
176.243
 30
0.0
 11
-124.551265
 21
176.243
 31
0.0
  0
ARC
  5
267
  8
1
  6
CONTINUOUS
 62
     7
 10
-125.992401
 20
159.504681
 30
0.0
 40
0.100278
 50
281.0502269999999
 51
303.183379
  0
ARC
  5
268
  8
1
  6
CONTINUOUS
 62
     7
 10
-125.991265
 20
159.502945
 30
0.0
 40
0.098204
 50
303.183379
 51
326.042902
  0
LINE
  5
269
  8
1
  6
CONTINUOUS
 62
     7
 10
-140.243814
 20
157.793
 30
0.0
 11
-140.141315
 21
157.793
 31
0.0
  0
LINE
  5
26A
  8
1
  6
CONTINUOUS
 62
     7
 10
-124.551265
 20
176.243
 30
0.0
 11
-123.922777
 21
176.14668
 31
0.0
  0
ARC
  5
26B
  8
1
  6
CONTINUOUS
 62
     7
 10
-123.2
 20
174.443
 30
0.0
 40
0.1
 50
0.0
 51
90.0
  0
ARC
  5
26C
  8
1
  6
CONTINUOUS
 62
     7
 10
-128.3
 20
176.143095
 30
0.0
 40
0.099904
 50
90.0
 51
112.524305
  0
LINE
  5
26D
  8
1
  6
CONTINUOUS
 62
     7
 10
-123.2
 20
161.043
 30
0.0
 11
-126.8
 21
161.043
 31
0.0
  0
LINE
  5
26E
  8
1
  6
CONTINUOUS
 62
     7
 10
-118.933779
 20
176.846216
 30
0.0
 11
-117.29287
 21
175.69724
 31
0.0
  0
ARC
  5
26F
  8
1
  6
CONTINUOUS
 62
     7
 10
-125.994594
 20
159.505187
 30
0.0
 40
0.102217
 50
326.042902
 51
359.556431
  0
LINE
  5
270
  8
1
  6
CONTINUOUS
 62
     7
 10
-125.892393
 20
159.504395
 30
0.0
 11
-125.892393
 21
161.043
 31
0.0
  0
LINE
  5
271
  8
1
  6
CONTINUOUS
 62
     7
 10
-143.695061
 20
176.455557
 30
0.0
 11
-143.695061
 21
175.818518
 31
0.0
  0
LINE
  5
272
  8
1
  6
CONTINUOUS
 62
     7
 10
-128.3
 20
176.243
 30
0.0
 11
-128.3
 21
176.093
 31
0.0
  0
LINE
  5
273
  8
1
  6
CONTINUOUS
 62
     7
 10
-128.4
 20
175.993
 30
0.0
 11
-128.3
 21
176.093
 31
0.0
  0
ARC
  5
274
  8
1
  6
CONTINUOUS
 62
     7
 10
-125.991641
 20
176.085211
 30
0.0
 40
0.096313
 50
78.949773
 51
89.543805
  0
LINE
  5
275
  8
1
  6
CONTINUOUS
 62
     7
 10
-126.407176
 20
176.092998
 30
0.0
 11
-125.990874
 21
176.181534
 31
0.0
  0
ARC
  5
276
  8
1
  6
CONTINUOUS
 62
     7
 10
-125.992401
 20
176.081319
 30
0.0
 40
0.100278
 50
56.816621
 51
78.949773
  0
LINE
  5
277
  8
1
  6
CONTINUOUS
 62
     7
 10
-126.407827
 20
176.093
 30
0.0
 11
-126.407176
 21
176.092998
 31
0.0
  0
LINE
  5
278
  8
1
  6
CONTINUOUS
 62
     7
 10
-125.990874
 20
176.181534
 30
0.0
 11
-124.551265
 21
176.243
 31
0.0
  0
ARC
  5
279
  8
1
  6
CONTINUOUS
 62
     7
 10
-125.994594
 20
176.080813
 30
0.0
 40
0.102217
 50
0.4435689999999999
 51
33.957098
  0
LINE
  5
27A
  8
1
  6
CONTINUOUS
 62
     7
 10
-126.273218
 20
173.543
 30
0.0
 11
-126.273218
 21
170.043
 31
0.0
  0
LINE
  5
27B
  8
1
  6
CONTINUOUS
 62
     7
 10
-126.273218
 20
162.043
 30
0.0
 11
-126.273218
 21
165.543
 31
0.0
  0
ARC
  5
27C
  8
1
  6
CONTINUOUS
 62
     7
 10
-125.991265
 20
176.083055
 30
0.0
 40
0.098204
 50
33.957098
 51
56.816621
  0
LINE
  5
27D
  8
1
  6
CONTINUOUS
 62
     7
 10
-126.8
 20
159.593
 30
0.0
 11
-126.8
 21
175.993
 31
0.0
  0
LINE
  5
27E
  8
1
  6
CONTINUOUS
 62
     7
 10
-126.407176
 20
176.093
 30
0.0
 11
-128.3
 21
176.093
 31
0.0
  0
ENDSEC
  0
EOF
