  0
SECTION
  2
HEADER
  9
$ACADVER
  1
AC1021
  9
$ACADMAINTVER
 70
    25
  9
$DWGCODEPAGE
  3
ANSI_932
  9
$INSBASE
 10
0.0
 20
0.0
 30
0.0
  9
$EXTMIN
 10
0.0
 20
0.0
 30
0.0
  9
$EXTMAX
 10
1437.5
 20
462.5000125
 30
10.0
  9
$LIMMIN
 10
0.0
 20
0.0
  9
$LIMMAX
 10
12.0
 20
9.0
  9
$ORTHOMODE
 70
     0
  9
$REGENMODE
 70
     1
  9
$FILLMODE
 70
     1
  9
$QTEXTMODE
 70
     0
  9
$MIRRTEXT
 70
     1
  9
$LTSCALE
 40
1.0
  9
$ATTMODE
 70
     1
  9
$TEXTSIZE
 40
0.2
  9
$TRACEWID
 40
0.05
  9
$TEXTSTYLE
  7
Standard
  9
$CLAYER
  8
0
  9
$CELTYPE
  6
ByLayer
  9
$CECOLOR
 62
   256
  9
$CELTSCALE
 40
1.0
  9
$DISPSILH
 70
     0
  9
$DIMSCALE
 40
1.0
  9
$DIMASZ
 40
3.0
  9
$DIMEXO
 40
0.0625
  9
$DIMDLI
 40
0.38
  9
$DIMRND
 40
0.0
  9
$DIMDLE
 40
0.0
  9
$DIMEXE
 40
0.18
  9
$DIMTP
 40
0.0
  9
$DIMTM
 40
0.0
  9
$DIMTXT
 40
3.0
  9
$DIMCEN
 40
0.09
  9
$DIMTSZ
 40
0.0
  9
$DIMTOL
 70
     0
  9
$DIMLIM
 70
     0
  9
$DIMTIH
 70
     1
  9
$DIMTOH
 70
     1
  9
$DIMSE1
 70
     0
  9
$DIMSE2
 70
     0
  9
$DIMTAD
 70
     1
  9
$DIMZIN
 70
     0
  9
$DIMBLK
  1

  9
$DIMASO
 70
     1
  9
$DIMSHO
 70
     1
  9
$DIMPOST
  1

  9
$DIMAPOST
  1

  9
$DIMALT
 70
     0
  9
$DIMALTD
 70
     2
  9
$DIMALTF
 40
25.4
  9
$DIMLFAC
 40
1.0
  9
$DIMTOFL
 70
     0
  9
$DIMTVP
 40
0.0
  9
$DIMTIX
 70
     0
  9
$DIMSOXD
 70
     0
  9
$DIMSAH
 70
     0
  9
$DIMBLK1
  1

  9
$DIMBLK2
  1

  9
$DIMSTYLE
  2
Standard
  9
$DIMCLRD
 70
     0
  9
$DIMCLRE
 70
     0
  9
$DIMCLRT
 70
     0
  9
$DIMTFAC
 40
1.0
  9
$DIMGAP
 40
0.09
  9
$DIMJUST
 70
     0
  9
$DIMSD1
 70
     0
  9
$DIMSD2
 70
     0
  9
$DIMTOLJ
 70
     1
  9
$DIMTZIN
 70
     0
  9
$DIMALTZ
 70
     0
  9
$DIMALTTZ
 70
     0
  9
$DIMUPT
 70
     0
  9
$DIMDEC
 70
     2
  9
$DIMTDEC
 70
     4
  9
$DIMALTU
 70
     2
  9
$DIMALTTD
 70
     2
  9
$DIMTXSTY
  7
Standard
  9
$DIMAUNIT
 70
     0
  9
$DIMADEC
 70
     2
  9
$DIMALTRND
 40
0.0
  9
$DIMAZIN
 70
     0
  9
$DIMDSEP
 70
    46
  9
$DIMATFIT
 70
     3
  9
$DIMFRAC
 70
     0
  9
$DIMLDRBLK
  1

  9
$DIMLUNIT
 70
     2
  9
$DIMLWD
 70
    -2
  9
$DIMLWE
 70
    -2
  9
$DIMTMOVE
 70
     0
  9
$DIMFXL
 40
1.0
  9
$DIMFXLON
 70
     0
  9
$DIMJOGANG
 40
0.7853981633974483
  9
$DIMTFILL
 70
     0
  9
$DIMTFILLCLR
 70
     0
  9
$DIMARCSYM
 70
     0
  9
$DIMLTYPE
  6

  9
$DIMLTEX1
  6

  9
$DIMLTEX2
  6

  9
$LUNITS
 70
     2
  9
$LUPREC
 70
     4
  9
$SKETCHINC
 40
0.1
  9
$FILLETRAD
 40
0.5
  9
$AUNITS
 70
     0
  9
$AUPREC
 70
     0
  9
$MENU
  1
.
  9
$ELEVATION
 40
0.0
  9
$PELEVATION
 40
0.0
  9
$THICKNESS
 40
0.0
  9
$LIMCHECK
 70
     0
  9
$CHAMFERA
 40
0.5
  9
$CHAMFERB
 40
0.5
  9
$CHAMFERC
 40
1.0
  9
$CHAMFERD
 40
0.0
  9
$SKPOLY
 70
     0
  9
$TDCREATE
 40
2459298.582702952
  9
$TDUCREATE
 40
2459298.207702952
  9
$TDUPDATE
 40
2459298.582702963
  9
$TDUUPDATE
 40
2459298.207702963
  9
$TDINDWG
 40
0.0000000116
  9
$TDUSRTIMER
 40
0.0000000116
  9
$USRTIMER
 70
     1
  9
$ANGBASE
 50
0.0
  9
$ANGDIR
 70
     0
  9
$PDMODE
 70
     0
  9
$PDSIZE
 40
0.0
  9
$PLINEWID
 40
0.0
  9
$SPLFRAME
 70
     0
  9
$SPLINETYPE
 70
     6
  9
$SPLINESEGS
 70
     8
  9
$HANDSEED
  5
301
  9
$SURFTAB1
 70
     6
  9
$SURFTAB2
 70
     6
  9
$SURFTYPE
 70
     6
  9
$SURFU
 70
     6
  9
$SURFV
 70
     6
  9
$UCSBASE
  2

  9
$UCSNAME
  2

  9
$UCSORG
 10
0.0
 20
0.0
 30
0.0
  9
$UCSXDIR
 10
1.0
 20
0.0
 30
0.0
  9
$UCSYDIR
 10
0.0
 20
1.0
 30
0.0
  9
$UCSORTHOREF
  2

  9
$UCSORTHOVIEW
 70
     0
  9
$UCSORGTOP
 10
0.0
 20
0.0
 30
0.0
  9
$UCSORGBOTTOM
 10
0.0
 20
0.0
 30
0.0
  9
$UCSORGLEFT
 10
0.0
 20
0.0
 30
0.0
  9
$UCSORGRIGHT
 10
0.0
 20
0.0
 30
0.0
  9
$UCSORGFRONT
 10
0.0
 20
0.0
 30
0.0
  9
$UCSORGBACK
 10
0.0
 20
0.0
 30
0.0
  9
$PUCSBASE
  2

  9
$PUCSNAME
  2

  9
$PUCSORG
 10
0.0
 20
0.0
 30
0.0
  9
$PUCSXDIR
 10
1.0
 20
0.0
 30
0.0
  9
$PUCSYDIR
 10
0.0
 20
1.0
 30
0.0
  9
$PUCSORTHOREF
  2

  9
$PUCSORTHOVIEW
 70
     0
  9
$PUCSORGTOP
 10
0.0
 20
0.0
 30
0.0
  9
$PUCSORGBOTTOM
 10
0.0
 20
0.0
 30
0.0
  9
$PUCSORGLEFT
 10
0.0
 20
0.0
 30
0.0
  9
$PUCSORGRIGHT
 10
0.0
 20
0.0
 30
0.0
  9
$PUCSORGFRONT
 10
0.0
 20
0.0
 30
0.0
  9
$PUCSORGBACK
 10
0.0
 20
0.0
 30
0.0
  9
$USERI1
 70
     0
  9
$USERI2
 70
     0
  9
$USERI3
 70
     0
  9
$USERI4
 70
     0
  9
$USERI5
 70
     0
  9
$USERR1
 40
0.0
  9
$USERR2
 40
0.0
  9
$USERR3
 40
0.0
  9
$USERR4
 40
0.0
  9
$USERR5
 40
0.0
  9
$WORLDVIEW
 70
     1
  9
$SHADEDGE
 70
     3
  9
$SHADEDIF
 70
    70
  9
$TILEMODE
 70
     1
  9
$MAXACTVP
 70
    64
  9
$PINSBASE
 10
0.0
 20
0.0
 30
0.0
  9
$PLIMCHECK
 70
     0
  9
$PEXTMIN
 10
1.000000000000000E+20
 20
1.000000000000000E+20
 30
1.000000000000000E+20
  9
$PEXTMAX
 10
-1.000000000000000E+20
 20
-1.000000000000000E+20
 30
-1.000000000000000E+20
  9
$PLIMMIN
 10
0.0
 20
0.0
  9
$PLIMMAX
 10
12.0
 20
9.0
  9
$UNITMODE
 70
     0
  9
$VISRETAIN
 70
     1
  9
$PLINEGEN
 70
     0
  9
$PSLTSCALE
 70
     1
  9
$TREEDEPTH
 70
  3020
  9
$CMLSTYLE
  2
Standard
  9
$CMLJUST
 70
     0
  9
$CMLSCALE
 40
1.0
  9
$PROXYGRAPHICS
 70
     1
  9
$MEASUREMENT
 70
     1
  9
$CELWEIGHT
370
    -1
  9
$ENDCAPS
280
     0
  9
$JOINSTYLE
280
     0
  9
$LWDISPLAY
290
     1
  9
$INSUNITS
 70
     4
  9
$HYPERLINKBASE
  1

  9
$STYLESHEET
  1

  9
$XEDIT
290
     1
  9
$CEPSNTYPE
380
     0
  9
$PSTYLEMODE
290
     1
  9
$FINGERPRINTGUID
  2
{38DBBC48-A86C-49DB-81AD-8B986051D1F2}
  9
$VERSIONGUID
  2
{FAEB1C32-E019-11D5-929B-00C0DF256EC4}
  9
$EXTNAMES
290
     1
  9
$PSVPSCALE
 40
0.0
  9
$OLESTARTUP
290
     0
  9
$SORTENTS
280
   127
  9
$INDEXCTL
280
     0
  9
$HIDETEXT
280
     1
  9
$XCLIPFRAME
290
     0
  9
$HALOGAP
280
     0
  9
$OBSCOLOR
 70
   257
  9
$OBSLTYPE
280
     0
  9
$INTERSECTIONDISPLAY
280
     0
  9
$INTERSECTIONCOLOR
 70
   257
  9
$DIMASSOC
280
     2
  9
$PROJECTNAME
  1

  9
$CAMERADISPLAY
290
     0
  9
$LENSLENGTH
 40
50.0
  9
$CAMERAHEIGHT
 40
0.0
  9
$STEPSPERSEC
 40
2.0
  9
$STEPSIZE
 40
6.0
  9
$3DDWFPREC
 40
2.0
  9
$PSOLWIDTH
 40
0.25
  9
$PSOLHEIGHT
 40
4.0
  9
$LOFTANG1
 40
1.570796326794897
  9
$LOFTANG2
 40
1.570796326794897
  9
$LOFTMAG1
 40
0.0
  9
$LOFTMAG2
 40
0.0
  9
$LOFTPARAM
 70
     7
  9
$LOFTNORMALS
280
     1
  9
$LATITUDE
 40
37.795
  9
$LONGITUDE
 40
-122.394
  9
$NORTHDIRECTION
 40
0.0
  9
$TIMEZONE
 70
 -8000
  9
$LIGHTGLYPHDISPLAY
280
     1
  9
$TILEMODELIGHTSYNCH
280
     1
  9
$SOLIDHIST
280
     1
  9
$SHOWHIST
280
     1
  9
$DWFFRAME
280
     2
  9
$DGNFRAME
280
     2
  9
$REALWORLDSCALE
290
     1
  9
$INTERFERECOLOR
 62
   256
  9
$CSHADOW
280
     0
  9
$SHADOWPLANELOCATION
 40
0.0
  0
ENDSEC
  0
SECTION
  2
CLASSES
  0
CLASS
  1
ACDBDICTIONARYWDFLT
  2
AcDbDictionaryWithDefault
  3
ObjectDBX Classes
 90
        0
 91
        4
280
     0
281
     0
  0
CLASS
  1
VISUALSTYLE
  2
AcDbVisualStyle
  3
ObjectDBX Classes
 90
     4095
 91
        4
280
     0
281
     0
  0
ENDSEC
  0
SECTION
  2
TABLES
  0
TABLE
  2
VPORT
  5
8
330
0
100
AcDbSymbolTable
 70
     1
  0
VPORT
  5
29
330
8
100
AcDbSymbolTableRecord
100
AcDbViewportTableRecord
  2
*Active
 70
     0
 10
0.0
 20
0.0
 11
1.0
 21
1.0
 12
718.75
 22
231.25000625
 13
0.0
 23
0.0
 14
0.5
 24
0.5
 15
0.5
 25
0.5
 16
0.0
 26
0.0
 36
1.0
 17
0.0
 27
0.0
 37
0.0
 40
462.5000125
 41
1.6
 42
50.0
 43
0.0
 44
0.0
 50
0.0
 51
0.0
 71
     0
 72
   100
 73
     1
 74
     3
 75
     0
 76
     0
 77
     0
 78
     0
281
     0
 65
     1
110
0.0
120
0.0
130
0.0
111
1.0
121
0.0
131
0.0
112
0.0
122
1.0
132
0.0
 79
     0
146
0.0
 60
     3
 61
     5
292
     1
282
     1
141
0.0
142
0.0
 63
   250
  0
ENDTAB
  0
TABLE
  2
LTYPE
  5
5
330
0
100
AcDbSymbolTable
 70
     2
  0
LTYPE
  5
14
330
5
100
AcDbSymbolTableRecord
100
AcDbLinetypeTableRecord
  2
ByBlock
 70
     0
  3

 72
    65
 73
     0
 40
0.0
  0
LTYPE
  5
15
330
5
100
AcDbSymbolTableRecord
100
AcDbLinetypeTableRecord
  2
ByLayer
 70
     0
  3

 72
    65
 73
     0
 40
0.0
  0
LTYPE
  5
16
330
5
100
AcDbSymbolTableRecord
100
AcDbLinetypeTableRecord
  2
Continuous
 70
     0
  3
Solid line
 72
    65
 73
     0
 40
0.0
  0
LTYPE
  5
3D
330
5
100
AcDbSymbolTableRecord
100
AcDbLinetypeTableRecord
  2
________________
 70
     0
  3

 72
    65
 73
     0
 40
0.0
  0
ENDTAB
  0
TABLE
  2
LAYER
  5
2
330
0
100
AcDbSymbolTable
 70
     2
  0
LAYER
  5
10
330
2
100
AcDbSymbolTableRecord
100
AcDbLayerTableRecord
  2
0
 70
     0
 62
     7
  6
Continuous
370
    -3
390
F
347
0
  0
LAYER
  5
3B
330
2
100
AcDbSymbolTableRecord
100
AcDbLayerTableRecord
  2
7
 70
     0
 62
     7
  6
Continuous
370
    -3
390
F
347
0
  0
ENDTAB
  0
TABLE
  2
STYLE
  5
3
330
0
100
AcDbSymbolTable
 70
     1
  0
STYLE
  5
11
330
3
100
AcDbSymbolTableRecord
100
AcDbTextStyleTableRecord
  2
Standard
 70
     0
 40
0.0
 41
1.0
 50
0.0
 71
     0
 42
0.2
  3
txt
  4

  0
ENDTAB
  0
TABLE
  2
VIEW
  5
6
330
0
100
AcDbSymbolTable
 70
     0
  0
ENDTAB
  0
TABLE
  2
UCS
  5
7
330
0
100
AcDbSymbolTable
 70
     0
  0
ENDTAB
  0
TABLE
  2
APPID
  5
9
330
0
100
AcDbSymbolTable
 70
     1
  0
APPID
  5
12
330
9
100
AcDbSymbolTableRecord
100
AcDbRegAppTableRecord
  2
ACAD
 70
     0
  0
ENDTAB
  0
TABLE
  2
DIMSTYLE
  5
A
330
0
100
AcDbSymbolTable
 70
     1
100
AcDbDimStyleTable
  0
DIMSTYLE
105
27
330
A
100
AcDbSymbolTableRecord
100
AcDbDimStyleTableRecord
  2
Standard
 70
     0
340
11
  0
ENDTAB
  0
TABLE
  2
BLOCK_RECORD
  5
1
330
0
100
AcDbSymbolTable
 70
     1
  0
BLOCK_RECORD
  5
1F
330
1
100
AcDbSymbolTableRecord
100
AcDbBlockTableRecord
  2
*Model_Space
340
22
 70
     0
280
     1
281
     0
  0
BLOCK_RECORD
  5
1B
330
1
100
AcDbSymbolTableRecord
100
AcDbBlockTableRecord
  2
*Paper_Space
340
1E
 70
     0
280
     1
281
     0
  0
BLOCK_RECORD
  5
23
330
1
100
AcDbSymbolTableRecord
100
AcDbBlockTableRecord
  2
*Paper_Space0
340
26
 70
     0
280
     1
281
     0
  0
ENDTAB
  0
ENDSEC
  0
SECTION
  2
BLOCKS
  0
BLOCK
  5
20
330
1F
100
AcDbEntity
  8
0
100
AcDbBlockBegin
  2
*Model_Space
 70
     0
 10
0.0
 20
0.0
 30
0.0
  3
*Model_Space
  1

  0
ENDBLK
  5
21
330
1F
100
AcDbEntity
  8
0
100
AcDbBlockEnd
  0
BLOCK
  5
1C
330
1B
100
AcDbEntity
 67
     1
  8
0
100
AcDbBlockBegin
  2
*Paper_Space
 70
     0
 10
0.0
 20
0.0
 30
0.0
  3
*Paper_Space
  1

  0
ENDBLK
  5
1D
330
1B
100
AcDbEntity
 67
     1
  8
0
100
AcDbBlockEnd
  0
BLOCK
  5
24
330
23
100
AcDbEntity
  8
0
100
AcDbBlockBegin
  2
*Paper_Space0
 70
     0
 10
0.0
 20
0.0
 30
0.0
  3
*Paper_Space0
  1

  0
ENDBLK
  5
25
330
23
100
AcDbEntity
  8
0
100
AcDbBlockEnd
  0
ENDSEC
  0
SECTION
  2
ENTITIES
  0
LINE
  5
3C
330
1F
100
AcDbEntity
  8
7
  6
________________
 62
     7
370
     9
100
AcDbLine
 10
1222.855507811078
 20
462.5000125
 30
0.0
 11
1222.855507811078
 21
392.5000125
 31
0.0
  0
LINE
  5
3E
330
1F
100
AcDbEntity
  8
7
  6
________________
 62
     7
370
     9
100
AcDbLine
 10
1218.856822428981
 20
401.8320894036636
 30
0.0
 11
1218.856822428981
 21
392.5251024131411
 31
0.0
  0
LINE
  5
3F
330
1F
100
AcDbEntity
  8
7
  6
________________
 62
     7
370
     9
100
AcDbLine
 10
1218.856822428981
 20
426.1749976260704
 30
0.0
 11
1218.856822428981
 21
403.7059434087208
 31
0.0
  0
LINE
  5
40
330
1F
100
AcDbEntity
  8
7
  6
________________
 62
     7
370
     9
100
AcDbLine
 10
1218.856822428981
 20
451.2940815912792
 30
0.0
 11
1218.856822428981
 21
428.8250273739295
 31
0.0
  0
LINE
  5
41
330
1F
100
AcDbEntity
  8
7
  6
________________
 62
     7
370
     9
100
AcDbLine
 10
1218.856822428981
 20
462.474922586859
 30
0.0
 11
1218.856822428981
 21
453.1679355963364
 31
0.0
  0
ELLIPSE
  5
42
330
1F
100
AcDbEntity
  8
7
  6
________________
 62
     7
370
     9
100
AcDbEllipse
 10
1199.995314411455
 20
426.1939264099837
 30
0.0
 11
0.01569469836226745
 21
0.4997536157381189
 31
3.851859888774472E-34
210
-2.418151163526636E-35
220
-7.699923626926483E-34
230
1.0
 40
0.5138303366715505
 41
3.141592653589793
 42
3.202635866508765
  0
LINE
  5
43
330
1F
100
AcDbEntity
  8
7
  6
________________
 62
     7
370
     9
100
AcDbLine
 10
1199.995314411455
 20
425.6939264099837
 30
0.0
 11
1199.995314411455
 21
425.6946116426064
 31
0.0
  0
ELLIPSE
  5
44
330
1F
100
AcDbEntity
  8
7
  6
________________
 62
     7
370
     9
100
AcDbEllipse
 10
1199.995314411455
 20
428.8060985900162
 30
0.0
 11
-0.01569469836226745
 21
0.4997536157381189
 31
-3.851859888774472E-34
210
-2.418151163526636E-35
220
7.699923626926483E-34
230
1.0
 40
0.5138303366715505
 41
0.0
 42
0.1487735596370077
  0
ELLIPSE
  5
45
330
1F
100
AcDbEntity
  8
7
  6
________________
 62
     7
370
     9
100
AcDbEllipse
 10
1199.995314411455
 20
428.8060985900162
 30
0.0
 11
-0.01569469836226745
 21
0.4997536157381189
 31
0.0
210
0.0
220
0.0
230
1.0
 40
0.5138303366715505
 41
-0.0610432129189749
 42
0.0
  0
LINE
  5
46
330
1F
100
AcDbEntity
  8
7
  6
________________
 62
     7
370
     9
100
AcDbLine
 10
1199.995314411455
 20
429.3060985900162
 30
0.0
 11
1199.995314411455
 21
429.3054133573935
 31
0.0
  0
ELLIPSE
  5
47
330
1F
100
AcDbEntity
  8
7
  6
________________
 62
     7
370
     9
100
AcDbEllipse
 10
1199.995314411455
 20
426.1939264099837
 30
0.0
 11
0.01569469836226745
 21
0.4997536157381189
 31
0.0
210
0.0
220
0.0
230
1.0
 40
0.5138303366715505
 41
2.992817865621075
 42
3.141592653589819
  0
ELLIPSE
  5
48
330
1F
100
AcDbEntity
  8
7
  6
________________
 62
     7
370
     9
100
AcDbEllipse
 10
1195.356822428981
 20
426.3395989999419
 30
0.0
 11
0.01569500009046543
 21
0.4997536062623098
 31
0.0
210
0.0
220
0.0
230
0.9999999999999998
 40
0.5138376068365703
 41
2.992709962025411
 42
3.141592653589809
  0
LINE
  5
49
330
1F
100
AcDbEntity
  8
7
  6
________________
 62
     7
370
     9
100
AcDbLine
 10
1194.856822428981
 20
426.3395989999419
 30
0.0
 11
1194.856822428981
 21
428.6604260000581
 31
0.0
  0
ELLIPSE
  5
4A
330
1F
100
AcDbEntity
  8
7
  6
________________
 62
     7
370
     9
100
AcDbEllipse
 10
1195.356822428981
 20
428.6604260000581
 30
0.0
 11
-0.01569500009046543
 21
0.4997536062623098
 31
0.0
210
0.0
220
0.0
230
0.9999999999999998
 40
0.5138376068365703
 41
0.0
 42
0.1488814605310406
  0
LINE
  5
4B
330
1F
100
AcDbEntity
  8
7
  6
________________
 62
     7
370
     9
100
AcDbLine
 10
1218.856822428981
 20
406.4201639909205
 30
0.0
 11
1208.269666686233
 21
407.0399503010889
 31
0.0
  0
LINE
  5
4C
330
1F
100
AcDbEntity
  8
7
  6
________________
 62
     7
370
     9
100
AcDbLine
 10
1218.856822428981
 20
448.5798610090794
 30
0.0
 11
1208.269666686233
 21
447.9600746989109
 31
0.0
  0
LINE
  5
4D
330
1F
100
AcDbEntity
  8
7
  6
________________
 62
     7
370
     9
100
AcDbLine
 10
1207.377504673742
 20
447.4288743834977
 30
0.0
 11
1207.356822428981
 21
447.2781144843843
 31
0.0
  0
ELLIPSE
  5
4E
330
1F
100
AcDbEntity
  8
7
  6
________________
 62
     7
370
     9
100
AcDbEllipse
 10
1208.356822428981
 20
447.2934903365254
 30
0.0
 11
1.000000000000112
 21
0.0
 31
-2.465190328815664E-32
210
2.465190328815388E-32
220
0.0
230
1.0
 40
0.669130606358795
 41
1.658062789394658
 42
2.937857859638521
  0
LINE
  5
4F
330
1F
100
AcDbEntity
  8
7
  6
________________
 62
     7
370
     9
100
AcDbLine
 10
1207.356822428981
 20
447.2781144843843
 30
0.0
 11
1207.356822428981
 21
429.3060985900162
 31
0.0
  0
ELLIPSE
  5
50
330
1F
100
AcDbEntity
  8
7
  6
________________
 62
     7
370
     9
100
AcDbEllipse
 10
1208.356822428981
 20
407.7065346634746
 30
0.0
 11
1.000000000000112
 21
0.0
 31
0.0
210
0.0
220
0.0
230
-1.0
 40
0.669130606358795
 41
1.658062789394643
 42
2.937857859638385
  0
LINE
  5
51
330
1F
100
AcDbEntity
  8
7
  6
________________
 62
     7
370
     9
100
AcDbLine
 10
1207.356822428981
 20
407.7219105156157
 30
0.0
 11
1207.377504673742
 21
407.5711506165022
 31
0.0
  0
LINE
  5
52
330
1F
100
AcDbEntity
  8
7
  6
________________
 62
     7
370
     9
100
AcDbLine
 10
1207.356822428981
 20
425.6939264099837
 30
0.0
 11
1207.356822428981
 21
407.7219105156156
 31
0.0
  0
LINE
  5
53
330
1F
100
AcDbEntity
  8
7
  6
________________
 62
     7
370
     9
100
AcDbLine
 10
1194.856822428981
 20
425.1111220192498
 30
0.0
 11
1194.856822428981
 21
426.3332007618931
 31
0.0
  0
LINE
  5
54
330
1F
100
AcDbEntity
  8
7
  6
________________
 62
     7
370
     9
100
AcDbLine
 10
1194.856822428981
 20
428.6611188121851
 30
0.0
 11
1194.856822428981
 21
429.8889029807501
 31
0.0
  0
LINE
  5
55
330
1F
100
AcDbEntity
  8
7
  6
________________
 62
     7
370
     9
100
AcDbLine
 10
1194.856822428981
 20
425.1111220192498
 30
0.0
 11
1194.856822428981
 21
408.8947163394728
 31
0.0
  0
LINE
  5
56
330
1F
100
AcDbEntity
  8
7
  6
________________
 62
     7
370
     9
100
AcDbLine
 10
1194.856822428981
 20
446.1053086605271
 30
0.0
 11
1194.856822428981
 21
429.8889029807501
 31
0.0
  0
LINE
  5
57
330
1F
100
AcDbEntity
  8
7
  6
________________
 62
     7
370
     9
100
AcDbLine
 10
1194.856822428981
 20
447.808870028767
 30
0.0
 11
1194.856822428981
 21
449.0916993752442
 31
0.0
  0
LINE
  5
58
330
1F
100
AcDbEntity
  8
7
  6
________________
 62
     7
370
     9
100
AcDbLine
 10
1194.856822428981
 20
405.9083256247558
 30
0.0
 11
1194.856822428981
 21
407.1911549712329
 31
0.0
  0
LINE
  5
59
330
1F
100
AcDbEntity
  8
7
  6
________________
 62
     7
370
     9
100
AcDbLine
 10
1194.856822428981
 20
449.0916993752441
 30
0.0
 11
1194.856822428981
 21
450.7327718849871
 31
0.0
  0
LINE
  5
5A
330
1F
100
AcDbEntity
  8
7
  6
________________
 62
     7
370
     9
100
AcDbLine
 10
1194.856822428981
 20
404.2672531150129
 30
0.0
 11
1194.856822428981
 21
405.9083256247558
 31
0.0
  0
LINE
  5
5B
330
1F
100
AcDbEntity
  8
7
  6
________________
 62
     7
370
     9
100
AcDbLine
 10
1194.856822428981
 20
447.7067863043692
 30
0.0
 11
1194.856822428981
 21
447.8088700287669
 31
0.0
  0
LINE
  5
5C
330
1F
100
AcDbEntity
  8
7
  6
________________
 62
     7
370
     9
100
AcDbLine
 10
1194.856822428981
 20
446.1053086605272
 30
0.0
 11
1194.856822428981
 21
447.6074689374915
 31
0.0
  0
LINE
  5
5D
330
1F
100
AcDbEntity
  8
7
  6
________________
 62
     7
370
     9
100
AcDbLine
 10
1194.856822428981
 20
447.6074689374915
 30
0.0
 11
1194.856822428981
 21
447.7067863043692
 31
0.0
  0
LINE
  5
5E
330
1F
100
AcDbEntity
  8
7
  6
________________
 62
     7
370
     9
100
AcDbLine
 10
1194.856822428981
 20
407.285864915651
 30
0.0
 11
1194.856822428981
 21
407.3840639258849
 31
0.0
  0
LINE
  5
5F
330
1F
100
AcDbEntity
  8
7
  6
________________
 62
     7
370
     9
100
AcDbLine
 10
1194.856822428981
 20
407.3840639258848
 30
0.0
 11
1194.856822428981
 21
408.8947163394728
 31
0.0
  0
LINE
  5
60
330
1F
100
AcDbEntity
  8
7
  6
________________
 62
     7
370
     9
100
AcDbLine
 10
1194.856822428981
 20
407.1911549712329
 30
0.0
 11
1194.856822428981
 21
407.285864915651
 31
0.0
  0
LINE
  5
61
330
1F
100
AcDbEntity
  8
7
  6
________________
 62
     7
370
     9
100
AcDbLine
 10
1218.856822428981
 20
458.9601775399311
 30
0.0
 11
1208.269666686233
 21
458.0351908352596
 31
0.0
  0
LINE
  5
62
330
1F
100
AcDbEntity
  8
7
  6
________________
 62
     7
370
     9
100
AcDbLine
 10
1218.856822428981
 20
396.0398474600689
 30
0.0
 11
1208.269666686233
 21
396.9648341647402
 31
0.0
  0
LINE
  5
63
330
1F
100
AcDbEntity
  8
7
  6
________________
 62
     7
370
     9
100
AcDbLine
 10
1207.368135036889
 20
457.1900752749786
 30
0.0
 11
1207.356822428981
 21
457.0392716627323
 31
0.0
  0
LINE
  5
64
330
1F
100
AcDbEntity
  8
7
  6
________________
 62
     7
370
     9
100
AcDbLine
 10
1207.377504673742
 20
457.2424123869247
 30
0.0
 11
1207.368127408421
 21
457.1900764306818
 31
0.0
  0
ELLIPSE
  5
65
330
1F
100
AcDbEntity
  8
7
  6
________________
 62
     7
370
     9
100
AcDbEllipse
 10
1208.356822428981
 20
457.0403613873793
 30
0.0
 11
1.000000000000112
 21
0.0
 31
-2.465190328815664E-32
210
2.465190328815388E-32
220
0.0
230
1.0
 40
0.9986295347544353
 41
1.658062789394654
 42
2.937857859638416
  0
LINE
  5
66
330
1F
100
AcDbEntity
  8
7
  6
________________
 62
     7
370
     9
100
AcDbLine
 10
1207.356822428981
 20
457.0392716627323
 30
0.0
 11
1207.356822428981
 21
453.3012509806744
 31
0.0
  0
ELLIPSE
  5
67
330
1F
100
AcDbEntity
  8
7
  6
________________
 62
     7
370
     9
100
AcDbEllipse
 10
1208.356822428981
 20
397.9596636126207
 30
0.0
 11
1.000000000000112
 21
0.0
 31
0.0
210
0.0
220
0.0
230
-1.0
 40
0.9986295347544908
 41
1.658062789394686
 42
2.937857859638448
  0
LINE
  5
68
330
1F
100
AcDbEntity
  8
7
  6
________________
 62
     7
370
     9
100
AcDbLine
 10
1207.368127408421
 20
397.8099485693182
 30
0.0
 11
1207.377504673742
 21
397.7576126130753
 31
0.0
  0
LINE
  5
69
330
1F
100
AcDbEntity
  8
7
  6
________________
 62
     7
370
     9
100
AcDbLine
 10
1207.356822428981
 20
397.9607533372677
 30
0.0
 11
1207.368135036889
 21
397.8099497250213
 31
0.0
  0
LINE
  5
6A
330
1F
100
AcDbEntity
  8
7
  6
________________
 62
     7
370
     9
100
AcDbLine
 10
1207.356822428981
 20
401.6987740193256
 30
0.0
 11
1207.356822428981
 21
397.9607533372676
 31
0.0
  0
LINE
  5
6B
330
1F
100
AcDbEntity
  8
7
  6
________________
 62
     7
370
     9
100
AcDbLine
 10
1194.856822428981
 20
404.2672531150129
 30
0.0
 11
1194.856822428981
 21
398.7992598570643
 31
0.0
  0
LINE
  5
6C
330
1F
100
AcDbEntity
  8
7
  6
________________
 62
     7
370
     9
100
AcDbLine
 10
1194.856822428981
 20
456.2007651429357
 30
0.0
 11
1194.856822428981
 21
450.7327718849871
 31
0.0
  0
LINE
  5
6D
330
1F
100
AcDbEntity
  8
7
  6
________________
 62
     7
370
     9
100
AcDbLine
 10
1194.856822428981
 20
456.2007651429357
 30
0.0
 11
1194.856822428981
 21
457.2811514366772
 31
0.0
  0
LINE
  5
6E
330
1F
100
AcDbEntity
  8
7
  6
________________
 62
     7
370
     9
100
AcDbLine
 10
1194.856822428981
 20
397.7188735633227
 30
0.0
 11
1194.856822428981
 21
398.7992598570643
 31
0.0
  0
LINE
  5
6F
330
1F
100
AcDbEntity
  8
7
  6
________________
 62
     7
370
     9
100
AcDbLine
 10
1194.856822428981
 20
395.8043425864584
 30
0.0
 11
1194.856822428981
 21
397.7188735633227
 31
0.0
  0
LINE
  5
70
330
1F
100
AcDbEntity
  8
7
  6
________________
 62
     7
370
     9
100
AcDbLine
 10
1194.856822428981
 20
457.2811514366773
 30
0.0
 11
1194.856822428981
 21
459.1956824135416
 31
0.0
  0
LINE
  5
71
330
1F
100
AcDbEntity
  8
7
  6
________________
 62
     7
370
     9
100
AcDbLine
 10
1194.856822428981
 20
459.1956824135415
 30
0.0
 11
1194.856822428981
 21
459.2169173105154
 31
0.0
  0
LINE
  5
72
330
1F
100
AcDbEntity
  8
7
  6
________________
 62
     7
370
     9
100
AcDbLine
 10
1194.856822428981
 20
395.7831076894845
 30
0.0
 11
1194.856822428981
 21
395.8043425864584
 31
0.0
  0
LWPOLYLINE
  5
73
330
1F
100
AcDbEntity
  8
7
  6
________________
 62
     7
370
     9
100
AcDbPolyline
 90
       38
 70
     0
 43
0.0
 10
1338.356714338396
 20
461.5000125
 10
1338.354878853954
 20
461.5476468334397
 10
1338.35082649258
 20
461.5946928585757
 10
1338.344629552809
 20
461.6410512829967
 10
1338.33636392722
 20
461.686629180567
 10
1338.326108637146
 20
461.7313400125103
 10
1338.313945381386
 20
461.7751036201467
 10
1338.2999581002
 20
461.8178461911746
 10
1338.284232555646
 20
461.859500201394
 10
1338.266855929175
 20
461.9000043337666
 10
1338.247916437258
 20
461.9393033766848
 10
1338.227502965644
 20
461.9773481033055
 10
1338.205704722722
 20
462.0140951337586
 10
1338.182610912321
 20
462.0495067820075
 10
1338.158310426181
 20
462.0835508890864
 10
1338.132891556153
 20
462.1162006443799
 10
1338.10644172617
 20
462.147434396561
 10
1338.07904724383
 20
462.1772354557246
 10
1338.050793071429
 20
462.2055918882013
 10
1338.021762616147
 20
462.2324963054515
 10
1337.992037539026
 20
462.2579456483758
 10
1337.958019178547
 20
462.2847228917801
 10
1337.923338389684
 20
462.3096835613378
 10
1337.888100602232
 20
462.3328406344514
 10
1337.852407536662
 20
462.3542124254254
 10
1337.816357028329
 20
462.3738221964331
 10
1337.780693134962
 20
462.3913935937186
 10
1337.744859921805
 20
462.4073224595371
 10
1337.708938422014
 20
462.4216426400865
 10
1337.673005667493
 20
462.4343912034162
 10
1337.632251783991
 20
462.4470213439097
 10
1337.591678247867
 20
462.4577363813807
 10
1337.551379050176
 20
462.4666027281424
 10
1337.511441462583
 20
462.4736899925933
 10
1337.471946111331
 20
462.4790704587078
 10
1337.432967081357
 20
462.4828185924498
 10
1337.394572047399
 20
462.4850105758296
 10
1337.356822428981
 20
462.4857238690718
  0
LINE
  5
74
330
1F
100
AcDbEntity
  8
7
  6
________________
 62
     7
370
     9
100
AcDbLine
 10
1338.356822428981
 20
461.5000125
 30
0.0
 11
1338.356822428981
 21
393.5000125
 31
0.0
  0
LINE
  5
75
330
1F
100
AcDbEntity
  8
7
  6
________________
 62
     7
370
     9
100
AcDbLine
 10
1337.356822428981
 20
462.4857238690718
 30
0.0
 11
1332.856822428981
 21
462.4857238690718
 31
0.0
  0
LINE
  5
76
330
1F
100
AcDbEntity
  8
7
  6
________________
 62
     7
370
     9
100
AcDbLine
 10
1332.856822428981
 20
462.4857238690718
 30
0.0
 11
1332.856822428981
 21
392.5000125
 31
0.0
  0
LINE
  5
77
330
1F
100
AcDbEntity
  8
7
  6
________________
 62
     7
370
     9
100
AcDbLine
 10
1315.856822428981
 20
453.5002278844245
 30
0.0
 11
1315.856822428981
 21
448.5345988168493
 31
0.0
  0
SPLINE
  5
78
330
1F
100
AcDbEntity
  8
7
  6
________________
 62
     7
370
     9
100
AcDbSpline
210
0.0
220
0.0
230
1.0
 70
    12
 71
     3
 72
     9
 73
     5
 74
     0
 42
0.000000001
 43
0.0001
 40
2.802824839288023
 40
2.802824839288023
 40
2.802824839288023
 40
2.802824839288023
 40
2.80540632869295
 40
2.811531152681884
 40
2.811531152681884
 40
2.811531152681884
 40
2.811531152681884
 10
1154.856877339264
 20
453.4995665980803
 30
0.0
 41
1.0
 10
1154.80430180104
 20
453.4996827724965
 30
0.0
 41
1.0
 10
1154.626985902801
 20
453.3568951625483
 30
0.0
 41
1.0
 10
1154.449670004562
 20
452.7290989364998
 30
0.0
 41
1.0
 10
1154.324929644547
 20
452.0609809056596
 30
0.0
 41
1.0
  0
SPLINE
  5
79
330
1F
100
AcDbEntity
  8
7
  6
________________
 62
     7
370
     9
100
AcDbSpline
210
0.0
220
0.0
230
1.0
 70
    12
 71
     3
 72
     9
 73
     5
 74
     0
 42
0.000000001
 43
0.0001
 40
2.72097539644958
 40
2.72097539644958
 40
2.72097539644958
 40
2.72097539644958
 40
2.7233332712046
 40
2.729696879388375
 40
2.729696879388375
 40
2.729696879388375
 40
2.729696879388375
 10
1159.857802583054
 20
401.5004292970006
 30
0.0
 41
1.0
 10
1159.809781260916
 20
401.499851835333
 30
0.0
 41
1.0
 10
1159.63215641429
 20
401.6287756916936
 30
0.0
 41
1.0
 10
1159.454531567664
 20
402.2448228719845
 30
0.0
 41
1.0
 10
1159.324928043175
 20
402.9390101118485
 30
0.0
 41
1.0
  0
SPLINE
  5
7A
330
1F
100
AcDbEntity
  8
7
  6
________________
 62
     7
370
     9
100
AcDbSpline
210
0.0
220
0.0
230
1.0
 70
    12
 71
     3
 72
     9
 73
     5
 74
     0
 42
0.000000001
 43
0.0001
 40
2.639159335758796
 40
2.639159335758796
 40
2.639159335758796
 40
2.639159335758796
 40
2.64126021371624
 40
2.647866002354189
 40
2.647866002354189
 40
2.647866002354189
 40
2.647866002354189
 10
1164.856688208503
 20
453.4996430710621
 30
0.0
 41
1.0
 10
1164.813900975232
 20
453.4996803936152
 30
0.0
 41
1.0
 10
1164.636577883564
 20
453.3831915289821
 30
0.0
 41
1.0
 10
1164.459254791897
 20
452.7808521238766
 30
0.0
 41
1.0
 10
1164.3247189335
 20
452.0599340294935
 30
0.0
 41
1.0
  0
SPLINE
  5
7B
330
1F
100
AcDbEntity
  8
7
  6
________________
 62
     7
370
     9
100
AcDbSpline
210
0.0
220
0.0
230
1.0
 70
    12
 71
     3
 72
     9
 73
     5
 74
     0
 42
0.000000001
 43
0.0001
 40
2.557319977408382
 40
2.557319977408382
 40
2.557319977408382
 40
2.557319977408382
 40
2.55918715622789
 40
2.566034197826122
 40
2.566034197826122
 40
2.566034197826122
 40
2.566034197826122
 10
1169.856997299405
 20
401.5003391911756
 30
0.0
 41
1.0
 10
1169.818969666517
 20
401.5001788232031
 30
0.0
 41
1.0
 10
1169.641492730996
 20
401.6032515891869
 30
0.0
 41
1.0
 10
1169.464015795476
 20
402.1933589662175
 30
0.0
 41
1.0
 10
1169.324566492844
 20
402.9408738403816
 30
0.0
 41
1.0
  0
SPLINE
  5
7C
330
1F
100
AcDbEntity
  8
7
  6
________________
 62
     7
370
     9
100
AcDbSpline
210
0.0
220
0.0
230
1.0
 70
    12
 71
     3
 72
     9
 73
     5
 74
     0
 42
0.000000001
 43
0.0001
 40
2.475488716196322
 40
2.475488716196322
 40
2.475488716196322
 40
2.475488716196322
 40
2.47711409873953
 40
2.484195199362118
 40
2.484195199362118
 40
2.484195199362118
 40
2.484195199362118
 10
1174.856811662643
 20
453.4997318001432
 30
0.0
 41
1.0
 10
1174.823708539358
 20
453.4998108922084
 30
0.0
 41
1.0
 10
1174.646389183484
 20
453.4098738744549
 30
0.0
 41
1.0
 10
1174.469069827609
 20
452.8334675088295
 30
0.0
 41
1.0
 10
1174.324853595019
 20
452.0607165070893
 30
0.0
 41
1.0
  0
SPLINE
  5
7D
330
1F
100
AcDbEntity
  8
7
  6
________________
 62
     7
370
     9
100
AcDbSpline
210
0.0
220
0.0
230
1.0
 70
    12
 71
     3
 72
     9
 73
     5
 74
     0
 42
0.000000001
 43
0.0001
 40
2.393660520463722
 40
2.393660520463722
 40
2.393660520463722
 40
2.393660520463722
 40
2.39504104125117
 40
2.402358374041527
 40
2.402358374041527
 40
2.402358374041527
 40
2.402358374041527
 10
1179.856438727921
 20
401.5002473598719
 30
0.0
 41
1.0
 10
1179.828322546894
 20
401.5002889067207
 30
0.0
 41
1.0
 10
1179.6511789443
 20
401.5772846035459
 30
0.0
 41
1.0
 10
1179.474035341706
 20
402.1400436164881
 30
0.0
 41
1.0
 10
1179.32500792014
 20
402.9384647955278
 30
0.0
 41
1.0
  0
ARC
  5
7E
330
1F
100
AcDbEntity
  8
7
  6
________________
 62
     7
370
     9
100
AcDbCircle
 10
1186.57863673246
 20
452.0454687599215
 30
0.0
 40
2.253510410272078
100
AcDbArc
 50
139.8064784563928
 51
179.5658164132916
  0
ARC
  5
7F
330
1F
100
AcDbEntity
  8
7
  6
________________
 62
     7
370
     9
100
AcDbCircle
 10
-1191.47686710269
 20
402.9157288669094
 30
0.0
 40
2.151920157719583
210
0.0
220
0.0
230
-1.0
100
AcDbArc
 50
318.8665663010153
 51
0.5974880224840717
  0
ARC
  5
80
330
1F
100
AcDbEntity
  8
7
  6
________________
 62
     7
370
     9
100
AcDbCircle
 10
1196.35946139452
 20
452.1262461434923
 30
0.0
 40
2.03570204396904
100
AcDbArc
 50
137.5629329851338
 51
181.8499205127602
  0
SPLINE
  5
81
330
1F
100
AcDbEntity
  8
7
  6
________________
 62
     7
370
     9
100
AcDbSpline
210
0.0
220
0.0
230
1.0
 70
    12
 71
     3
 72
     9
 73
     5
 74
     0
 42
0.000000001
 43
0.0001
 40
1.657151515928229
 40
1.657151515928229
 40
1.657151515928229
 40
1.657151515928229
 40
1.66384471090034
 40
1.665847611228646
 40
1.665847611228646
 40
1.665847611228646
 40
1.665847611228646
 10
1224.856457608088
 20
453.4998833348134
 30
0.0
 41
1.0
 10
1224.72014160097
 20
453.4989659684804
 30
0.0
 41
1.0
 10
1224.543033808084
 20
453.1249234007853
 30
0.0
 41
1.0
 10
1224.365926015198
 20
452.2806209271314
 30
0.0
 41
1.0
 10
1224.325134229429
 20
452.061983773006
 30
0.0
 41
1.0
  0
SPLINE
  5
82
330
1F
100
AcDbEntity
  8
7
  6
________________
 62
     7
370
     9
100
AcDbSpline
210
0.0
220
0.0
230
1.0
 70
    12
 71
     3
 72
     9
 73
     5
 74
     0
 42
0.000000001
 43
0.0001
 40
1.575302348270698
 40
1.575302348270698
 40
1.575302348270698
 40
1.575302348270698
 40
1.58177165341198
 40
1.584012900967146
 40
1.584012900967146
 40
1.584012900967146
 40
1.584012900967146
 10
1229.85736603858
 20
401.5001772961006
 30
0.0
 41
1.0
 10
1229.725609851982
 20
401.4998837537542
 30
0.0
 41
1.0
 10
1229.548207614588
 20
401.8601263306032
 30
0.0
 41
1.0
 10
1229.370805377193
 20
402.6933114825748
 30
0.0
 41
1.0
 10
1229.325159326398
 20
402.9379469278602
 30
0.0
 41
1.0
  0
SPLINE
  5
83
330
1F
100
AcDbEntity
  8
7
  6
________________
 62
     7
370
     9
100
AcDbSpline
210
0.0
220
0.0
230
1.0
 70
    12
 71
     3
 72
     9
 73
     5
 74
     0
 42
0.000000001
 43
0.0001
 40
1.493492300636352
 40
1.493492300636352
 40
1.493492300636352
 40
1.493492300636352
 40
1.49969859592362
 40
1.502179018124266
 40
1.502179018124266
 40
1.502179018124266
 40
1.502179018124266
 10
1234.855884271843
 20
453.4997971132731
 30
0.0
 41
1.0
 10
1234.729484638173
 20
453.4981224577874
 30
0.0
 41
1.0
 10
1234.552567837177
 20
453.151098860208
 30
0.0
 41
1.0
 10
1234.37565103618
 20
452.3326453127577
 30
0.0
 41
1.0
 10
1234.325133868853
 20
452.0619046801055
 30
0.0
 41
1.0
  0
SPLINE
  5
84
330
1F
100
AcDbEntity
  8
7
  6
________________
 62
     7
370
     9
100
AcDbSpline
210
0.0
220
0.0
230
1.0
 70
    12
 71
     3
 72
     9
 73
     5
 74
     0
 42
0.000000001
 43
0.0001
 40
1.411640703405588
 40
1.411640703405588
 40
1.411640703405588
 40
1.411640703405588
 40
1.41762553843527
 40
1.420344818319077
 40
1.420344818319077
 40
1.420344818319077
 40
1.420344818319077
 10
1239.856941147012
 20
401.5002646079023
 30
0.0
 41
1.0
 10
1239.735051852303
 20
401.500569526468
 30
0.0
 41
1.0
 10
1239.557780729103
 20
401.8338006711411
 30
0.0
 41
1.0
 10
1239.380509605903
 20
402.6413886302979
 30
0.0
 41
1.0
 10
1239.325127777413
 20
402.9381855816371
 30
0.0
 41
1.0
  0
SPLINE
  5
85
330
1F
100
AcDbEntity
  8
7
  6
________________
 62
     7
370
     9
100
AcDbSpline
210
0.0
220
0.0
230
1.0
 70
    12
 71
     3
 72
     9
 73
     5
 74
     0
 42
0.000000001
 43
0.0001
 40
1.329810184791929
 40
1.329810184791929
 40
1.329810184791929
 40
1.329810184791929
 40
1.33555248094691
 40
1.338512414639227
 40
1.338512414639227
 40
1.338512414639227
 40
1.338512414639227
 10
1244.856710138175
 20
453.4997137797848
 30
0.0
 41
1.0
 10
1244.739760477094
 20
453.4991448737352
 30
0.0
 41
1.0
 10
1244.562527745828
 20
453.1792955746877
 30
0.0
 41
1.0
 10
1244.385295014562
 20
452.3842985370489
 30
0.0
 41
1.0
 10
1244.325011944376
 20
452.0611912690106
 30
0.0
 41
1.0
  0
SPLINE
  5
86
330
1F
100
AcDbEntity
  8
7
  6
________________
 62
     7
370
     9
100
AcDbSpline
210
0.0
220
0.0
230
1.0
 70
    12
 71
     3
 72
     9
 73
     5
 74
     0
 42
0.000000001
 43
0.0001
 40
1.247961095813743
 40
1.247961095813743
 40
1.247961095813743
 40
1.247961095813743
 40
1.25347942345855
 40
1.256675227177136
 40
1.256675227177136
 40
1.256675227177136
 40
1.256675227177136
 10
1249.857613761432
 20
401.5003559504037
 30
0.0
 41
1.0
 10
1249.745225523282
 20
401.4998483008193
 30
0.0
 41
1.0
 10
1249.567750401474
 20
401.8058173664423
 30
0.0
 41
1.0
 10
1249.390275279667
 20
402.5891937876355
 30
0.0
 41
1.0
 10
1249.325188396009
 20
402.9379095340753
 30
0.0
 41
1.0
  0
ARC
  5
87
330
1F
100
AcDbEntity
  8
7
  6
________________
 62
     7
370
     9
100
AcDbCircle
 10
1256.767201964384
 20
451.9757649025227
 30
0.0
 40
2.443634059745133
100
AcDbArc
 50
141.4201309884006
 51
177.9899663259466
  0
ARC
  5
88
330
1F
100
AcDbEntity
  8
7
  6
________________
 62
     7
370
     9
100
AcDbCircle
 10
-1261.645106139568
 20
402.9800378613254
 30
0.0
 40
2.320549170818947
210
0.0
220
0.0
230
-1.0
100
AcDbArc
 50
320.3863049962929
 51
358.9968146993375
  0
ARC
  5
89
330
1F
100
AcDbEntity
  8
7
  6
________________
 62
     7
370
     9
100
AcDbCircle
 10
1266.533164835382
 20
452.0618914941635
 30
0.0
 40
2.208202927227939
100
AcDbArc
 50
139.3787514123064
 51
180.0262475115242
  0
SPLINE
  5
8A
330
1F
100
AcDbEntity
  8
7
  6
________________
 62
     7
370
     9
100
AcDbSpline
210
0.0
220
0.0
230
1.0
 70
    12
 71
     3
 72
     9
 73
     5
 74
     0
 42
0.000000001
 43
0.0001
 40
0.9206381856444141
 40
0.9206381856444141
 40
0.9206381856444141
 40
0.9206381856444141
 40
0.925187193505118
 40
0.9293413624620762
 40
0.9293413624620762
 40
0.9293413624620762
 40
0.9293413624620762
 10
1269.856740787477
 20
401.5004989929089
 30
0.0
 41
1.0
 10
1269.764094063378
 20
401.5007904928219
 30
0.0
 41
1.0
 10
1269.586842045774
 20
401.7534405452284
 30
0.0
 41
1.0
 10
1269.40959002817
 20
402.4857242096118
 30
0.0
 41
1.0
 10
1269.324984734665
 20
402.9390174009546
 30
0.0
 41
1.0
  0
SPLINE
  5
8B
330
1F
100
AcDbEntity
  8
7
  6
________________
 62
     7
370
     9
100
AcDbSpline
210
0.0
220
0.0
230
1.0
 70
    12
 71
     3
 72
     9
 73
     5
 74
     0
 42
0.000000001
 43
0.0001
 40
0.8387990164867707
 40
0.8387990164867707
 40
0.8387990164867707
 40
0.8387990164867707
 40
0.843114136016762
 40
0.8475090182701388
 40
0.8475090182701388
 40
0.8475090182701388
 40
0.8475090182701388
 10
1274.857038318875
 20
453.4995047796843
 30
0.0
 41
1.0
 10
1274.769155048327
 20
453.499536553243
 30
0.0
 41
1.0
 10
1274.591764031026
 20
453.2603408188106
 30
0.0
 41
1.0
 10
1274.414373013725
 20
452.5400018572517
 30
0.0
 41
1.0
 10
1274.324865266972
 20
452.0603812191226
 30
0.0
 41
1.0
  0
SPLINE
  5
8C
330
1F
100
AcDbEntity
  8
7
  6
________________
 62
     7
370
     9
100
AcDbSpline
210
0.0
220
0.0
230
1.0
 70
    12
 71
     3
 72
     9
 73
     5
 74
     0
 42
0.000000001
 43
0.0001
 40
0.7569814599493891
 40
0.7569814599493891
 40
0.7569814599493891
 40
0.7569814599493891
 40
0.761041078528405
 40
0.7656757939574472
 40
0.7656757939574472
 40
0.7656757939574472
 40
0.7656757939574472
 10
1279.856015339167
 20
401.5005393453292
 30
0.0
 41
1.0
 10
1279.773335692538
 20
401.5013338115326
 30
0.0
 41
1.0
 10
1279.596263770763
 20
401.7276843471862
 30
0.0
 41
1.0
 10
1279.419191848988
 20
402.4341627534891
 30
0.0
 41
1.0
 10
1279.324799573842
 20
402.9399752592563
 30
0.0
 41
1.0
  0
SPLINE
  5
8D
330
1F
100
AcDbEntity
  8
7
  6
________________
 62
     7
370
     9
100
AcDbSpline
210
0.0
220
0.0
230
1.0
 70
    12
 71
     3
 72
     9
 73
     5
 74
     0
 42
0.000000001
 43
0.0001
 40
0.6751333723113894
 40
0.6751333723113894
 40
0.6751333723113894
 40
0.6751333723113894
 40
0.678968021040048
 40
0.6838409501551219
 40
0.6838409501551219
 40
0.6838409501551219
 40
0.6838409501551219
 10
1284.856857781465
 20
453.4994829965519
 30
0.0
 41
1.0
 10
1284.77875995142
 20
453.4994456759852
 30
0.0
 41
1.0
 10
1284.601418300942
 20
453.2868533440335
 30
0.0
 41
1.0
 10
1284.424076650464
 20
452.5919935067985
 30
0.0
 41
1.0
 10
1284.324832830031
 20
452.0602547313584
 30
0.0
 41
1.0
  0
SPLINE
  5
8E
330
1F
100
AcDbEntity
  8
7
  6
________________
 62
     7
370
     9
100
AcDbSpline
210
0.0
220
0.0
230
1.0
 70
    12
 71
     3
 72
     9
 73
     5
 74
     0
 42
0.000000001
 43
0.0001
 40
0.5933085565339914
 40
0.5933085565339914
 40
0.5933085565339914
 40
0.5933085565339914
 40
0.596894963551691
 40
0.602006893722701
 40
0.602006893722701
 40
0.602006893722701
 40
0.602006893722701
 10
1289.856278334607
 20
401.5005432068835
 30
0.0
 41
1.0
 10
1289.783236284198
 20
401.5009731603146
 30
0.0
 41
1.0
 10
1289.606082832212
 20
401.7005570854286
 30
0.0
 41
1.0
 10
1289.428929380225
 20
402.382019401142
 30
0.0
 41
1.0
 10
1289.324817978648
 20
402.9398174955829
 30
0.0
 41
1.0
  0
SPLINE
  5
8F
330
1F
100
AcDbEntity
  8
7
  6
________________
 62
     7
370
     9
100
AcDbSpline
210
0.0
220
0.0
230
1.0
 70
    12
 71
     3
 72
     9
 73
     5
 74
     0
 42
0.000000001
 43
0.0001
 40
0.511451064226752
 40
0.511451064226752
 40
0.511451064226752
 40
0.511451064226752
 40
0.514821906063334
 40
0.5201734429644945
 40
0.5201734429644945
 40
0.5201734429644945
 40
0.5201734429644945
 10
1294.857695393496
 20
453.4994875266645
 30
0.0
 41
1.0
 10
1294.789043620807
 20
453.5001136994549
 30
0.0
 41
1.0
 10
1294.611400530018
 20
453.3145954418574
 30
0.0
 41
1.0
 10
1294.43375743923
 20
452.6439346339433
 30
0.0
 41
1.0
 10
1294.32476612113
 20
452.0599666819051
 30
0.0
 41
1.0
  0
SPLINE
  5
90
330
1F
100
AcDbEntity
  8
7
  6
________________
 62
     7
370
     9
100
AcDbSpline
210
0.0
220
0.0
230
1.0
 70
    12
 71
     3
 72
     9
 73
     5
 74
     0
 42
0.000000001
 43
0.0001
 40
0.4296293926574127
 40
0.4296293926574127
 40
0.4296293926574127
 40
0.4296293926574127
 40
0.432748848574977
 40
0.4383382544956482
 40
0.4383382544956482
 40
0.4383382544956482
 40
0.4383382544956482
 10
1299.856923838435
 20
401.5005180231316
 30
0.0
 41
1.0
 10
1299.793391881449
 20
401.5004087786162
 30
0.0
 41
1.0
 10
1299.616024080679
 20
401.6730493313131
 30
0.0
 41
1.0
 10
1299.438656279909
 20
402.3298842152674
 30
0.0
 41
1.0
 10
1299.324820436125
 20
402.9397267109343
 30
0.0
 41
1.0
  0
SPLINE
  5
91
330
1F
100
AcDbEntity
  8
7
  6
________________
 62
     7
370
     9
100
AcDbSpline
210
0.0
220
0.0
230
1.0
 70
    12
 71
     3
 72
     9
 73
     5
 74
     0
 42
0.000000001
 43
0.0001
 40
0.3477804080128099
 40
0.3477804080128099
 40
0.3477804080128099
 40
0.3477804080128099
 40
0.35067579108662
 40
0.3565062940224675
 40
0.3565062940224675
 40
0.3565062940224675
 40
0.3565062940224675
 10
1304.857821087006
 20
453.499523370319
 30
0.0
 41
1.0
 10
1304.798852677847
 20
453.5001933056184
 30
0.0
 41
1.0
 10
1304.621138156701
 20
453.3413368762831
 30
0.0
 41
1.0
 10
1304.443423635556
 20
452.6958756701384
 30
0.0
 41
1.0
 10
1304.32467752357
 20
452.0595755246351
 30
0.0
 41
1.0
  0
SPLINE
  5
92
330
1F
100
AcDbEntity
  8
7
  6
________________
 62
     7
370
     9
100
AcDbSpline
210
0.0
220
0.0
230
1.0
 70
    12
 71
     3
 72
     9
 73
     5
 74
     0
 42
0.000000001
 43
0.0001
 40
0.2659644598368864
 40
0.2659644598368864
 40
0.2659644598368864
 40
0.2659644598368864
 40
0.268602733598261
 40
0.2746708400813916
 40
0.2746708400813916
 40
0.2746708400813916
 40
0.2746708400813916
 10
1309.856699837901
 20
401.5004663350968
 30
0.0
 41
1.0
 10
1309.802967809127
 20
401.5004503316966
 30
0.0
 41
1.0
 10
1309.625650549384
 20
401.6467136512053
 30
0.0
 41
1.0
 10
1309.448333289641
 20
402.2778812541553
 30
0.0
 41
1.0
 10
1309.324748058672
 20
402.9400277364202
 30
0.0
 41
1.0
  0
SPLINE
  5
93
330
1F
100
AcDbEntity
  8
7
  6
________________
 62
     7
370
     9
100
AcDbSpline
210
0.0
220
0.0
230
1.0
 70
    12
 71
     3
 72
     9
 73
     5
 74
     0
 42
0.000000001
 43
0.0001
 40
0.1841255030979867
 40
0.1841255030979867
 40
0.1841255030979867
 40
0.1841255030979867
 40
0.186529676109904
 40
0.1928318197450328
 40
0.1928318197450328
 40
0.1928318197450328
 40
0.1928318197450328
 10
1314.856984390711
 20
453.499592701994
 30
0.0
 41
1.0
 10
1314.808020141683
 20
453.4997673039761
 30
0.0
 41
1.0
 10
1314.630704177189
 20
453.3670111467801
 30
0.0
 41
1.0
 10
1314.453388212694
 20
452.7489259556569
 30
0.0
 41
1.0
 10
1314.325036497228
 20
452.0615853051634
 30
0.0
 41
1.0
  0
SPLINE
  5
94
330
1F
100
AcDbEntity
  8
7
  6
________________
 62
     7
370
     9
100
AcDbSpline
210
0.0
220
0.0
230
1.0
 70
    12
 71
     3
 72
    16
 73
    12
 74
     0
 42
0.000000001
 43
0.0001
 40
2.884643201240406
 40
2.884643201240406
 40
2.884643201240406
 40
2.884643201240406
 40
2.88747938618131
 40
2.89494057322571
 40
2.9024017602701
 40
2.90986294731451
 40
2.9173241343589
 40
2.92478532140329
 40
2.93224650844769
 40
2.93970769549209
 40
2.94194404715177
 40
2.94194404715177
 40
2.94194404715177
 40
2.94194404715177
 10
1153.357851108851
 20
401.500503488022
 30
0.0
 41
1.0
 10
1153.300088350078
 20
401.4998232199883
 30
0.0
 41
1.0
 10
1153.090368382455
 20
401.6833341785732
 30
0.0
 41
1.0
 10
1152.728691205982
 20
403.1687746229802
 30
0.0
 41
1.0
 10
1152.272819579432
 20
407.023692288061
 30
0.0
 41
1.0
 10
1151.816947952883
 20
412.5471071588321
 30
0.0
 41
1.0
 10
1151.361076326333
 20
419.2889480221859
 30
0.0
 41
1.0
 10
1150.905204699783
 20
426.6998611600098
 30
0.0
 41
1.0
 10
1150.449333073233
 20
434.1759740144369
 30
0.0
 41
1.0
 10
1150.099872316299
 20
439.4899841433682
 30
0.0
 41
1.0
 10
1149.902368768215
 20
442.1810896811576
 30
0.0
 41
1.0
 10
1149.856822428981
 20
442.7829537178896
 30
0.0
 41
1.0
  0
ARC
  5
95
330
1F
100
AcDbEntity
  8
7
  6
________________
 62
     7
370
     9
100
AcDbCircle
 10
-1151.83384324159
 20
402.8506879442649
 30
0.0
 40
2.036074174816135
210
0.0
220
0.0
230
-1.0
100
AcDbArc
 50
180.3140493404103
 51
221.5391208491006
  0
SPLINE
  5
96
330
1F
100
AcDbEntity
  8
7
  6
________________
 62
     7
370
     9
100
AcDbSpline
210
0.0
220
0.0
230
1.0
 70
    12
 71
     3
 72
    18
 73
    14
 74
     0
 42
0.000000001
 43
0.0001
 40
2.720976889635603
 40
2.720976889635603
 40
2.720976889635603
 40
2.720976889635603
 40
2.7233332712046
 40
2.73079445824899
 40
2.73825564529339
 40
2.74571683233779
 40
2.75317801938218
 40
2.76063920642658
 40
2.76810039347097
 40
2.77556158051537
 40
2.78302276755977
 40
2.79048395460417
 40
2.793821117947497
 40
2.793821117947497
 40
2.793821117947497
 40
2.793821117947497
 10
1163.35771135076
 20
401.5004363030063
 30
0.0
 41
1.0
 10
1163.309720439384
 20
401.4999040557743
 30
0.0
 41
1.0
 10
1163.109772319158
 20
401.6451244501148
 30
0.0
 41
1.0
 10
1162.757866990081
 20
402.9870718049494
 30
0.0
 41
1.0
 10
1162.301995363532
 20
406.7228998703909
 30
0.0
 41
1.0
 10
1161.846123736982
 20
412.1517349803592
 30
0.0
 41
1.0
 10
1161.390252110431
 20
418.8312126808227
 30
0.0
 41
1.0
 10
1160.934380483882
 20
426.2170608680381
 30
0.0
 41
1.0
 10
1160.478508857332
 20
433.7074493823629
 30
0.0
 41
1.0
 10
1160.022637230782
 20
440.6920296759962
 30
0.0
 41
1.0
 10
1159.566765604232
 20
446.6016685950197
 30
0.0
 41
1.0
 10
1159.194885322104
 20
450.1527835919093
 30
0.0
 41
1.0
 10
1158.974962248826
 20
451.5856511672348
 30
0.0
 41
1.0
 10
1158.906996384399
 20
451.9617800914236
 30
0.0
 41
1.0
  0
LINE
  5
97
330
1F
100
AcDbEntity
  8
7
  6
________________
 62
     7
370
     9
100
AcDbLine
 10
1158.906996384399
 20
451.9617800914236
 30
0.0
 11
1158.89493349261
 21
452.0278362935537
 31
0.0
  0
LINE
  5
98
330
1F
100
AcDbEntity
  8
7
  6
________________
 62
     7
370
     9
100
AcDbLine
 10
1158.89493349261
 20
452.0278362935536
 30
0.0
 11
1158.882712495527
 21
452.0933263242866
 31
0.0
  0
LINE
  5
99
330
1F
100
AcDbEntity
  8
7
  6
________________
 62
     7
370
     9
100
AcDbLine
 10
1158.882712495527
 20
452.0933263242866
 30
0.0
 11
1158.870649603738
 21
452.1565519433174
 31
0.0
  0
ARC
  5
9A
330
1F
100
AcDbEntity
  8
7
  6
________________
 62
     7
370
     9
100
AcDbCircle
 10
1156.731378152544
 20
452.1078290330325
 30
0.0
 40
2.139826222823155
100
AcDbArc
 50
1.304712677992885
 51
40.57129779411417
  0
LINE
  5
9B
330
1F
100
AcDbEntity
  8
7
  6
________________
 62
     7
370
     9
100
AcDbLine
 10
1163.88262470311
 20
402.9062271211903
 30
0.0
 11
1163.878427428981
 21
402.8840694399736
 31
0.0
  0
ARC
  5
9C
330
1F
100
AcDbEntity
  8
7
  6
________________
 62
     7
370
     9
100
AcDbCircle
 10
-1161.569786142863
 20
402.9631031720281
 30
0.0
 40
2.309993705353082
210
0.0
220
0.0
230
-1.0
100
AcDbArc
 50
181.9606907161019
 51
219.2859316975155
  0
SPLINE
  5
9D
330
1F
100
AcDbEntity
  8
7
  6
________________
 62
     7
370
     9
100
AcDbSpline
210
0.0
220
0.0
230
1.0
 70
    12
 71
     3
 72
    18
 73
    14
 74
     0
 42
0.000000001
 43
0.0001
 40
2.557321511040714
 40
2.557321511040714
 40
2.557321511040714
 40
2.557321511040714
 40
2.55918715622789
 40
2.56664834327228
 40
2.57410953031668
 40
2.58157071736107
 40
2.58903190440547
 40
2.59649309144987
 40
2.60395427849426
 40
2.61141546553865
 40
2.61887665258305
 40
2.62633783962745
 40
2.630213877569723
 40
2.630213877569723
 40
2.630213877569723
 40
2.630213877569723
 10
1173.356903595878
 20
401.50034690152
 30
0.0
 41
1.0
 10
1173.318907197495
 20
401.5002231787557
 30
0.0
 41
1.0
 10
1173.128953590262
 20
401.6106336908949
 30
0.0
 41
1.0
 10
1172.78704277418
 20
402.8136063472163
 30
0.0
 41
1.0
 10
1172.33117114763
 20
406.4290894205224
 30
0.0
 41
1.0
 10
1171.875299521081
 20
411.7615204569163
 30
0.0
 41
1.0
 10
1171.419427894531
 20
418.3763904141637
 30
0.0
 41
1.0
 10
1170.963556267981
 20
425.7346917007923
 30
0.0
 41
1.0
 10
1170.507684641431
 20
433.2368387951699
 30
0.0
 41
1.0
 10
1170.051813014881
 20
440.2715250106426
 30
0.0
 41
1.0
 10
1169.595941388331
 20
446.2655343507844
 30
0.0
 41
1.0
 10
1169.213086193031
 20
450.0153092660123
 30
0.0
 41
1.0
 10
1168.982188206581
 20
451.5483666278013
 30
0.0
 41
1.0
 10
1168.903247428981
 20
451.9824591371978
 30
0.0
 41
1.0
  0
LINE
  5
9E
330
1F
100
AcDbEntity
  8
7
  6
________________
 62
     7
370
     9
100
AcDbLine
 10
1168.903247428981
 20
451.9824591371978
 30
0.0
 11
1168.894827789273
 21
452.0284167935293
 31
0.0
  0
LINE
  5
9F
330
1F
100
AcDbEntity
  8
7
  6
________________
 62
     7
370
     9
100
AcDbLine
 10
1168.894827789273
 20
452.0284167935294
 30
0.0
 11
1168.882606785181
 21
452.0939061876505
 31
0.0
  0
LINE
  5
A0
330
1F
100
AcDbEntity
  8
7
  6
________________
 62
     7
370
     9
100
AcDbLine
 10
1168.88260678518
 20
452.0939061876505
 30
0.0
 11
1168.869518829712
 21
452.1624383705498
 31
0.0
  0
ARC
  5
A1
330
1F
100
AcDbEntity
  8
7
  6
________________
 62
     7
370
     9
100
AcDbCircle
 10
1166.51575856065
 20
452.0265499872024
 30
0.0
 40
2.357679591663506
100
AcDbArc
 50
3.304158904802201
 51
38.66772273237022
  0
SPLINE
  5
A2
330
1F
100
AcDbEntity
  8
7
  6
________________
 62
     7
370
     9
100
AcDbSpline
210
0.0
220
0.0
230
1.0
 70
    12
 71
     3
 72
     9
 73
     5
 74
     0
 42
0.000000001
 43
0.0001
 40
2.548915710413516
 40
2.548915710413516
 40
2.548915710413516
 40
2.548915710413516
 40
2.55172596918349
 40
2.557321511040714
 40
2.557321511040714
 40
2.557321511040714
 40
2.557321511040714
 10
1173.870490238537
 20
402.8425909462414
 30
0.0
 41
1.0
 10
1173.813255501452
 20
402.5459629294538
 30
0.0
 41
1.0
 10
1173.642059953899
 20
401.8013951695303
 30
0.0
 41
1.0
 10
1173.470864406346
 20
401.5007179773878
 30
0.0
 41
1.0
 10
1173.356903595878
 20
401.50034690152
 30
0.0
 41
1.0
  0
SPLINE
  5
A3
330
1F
100
AcDbEntity
  8
7
  6
________________
 62
     7
370
     9
100
AcDbSpline
210
0.0
220
0.0
230
1.0
 70
    12
 71
     3
 72
    18
 73
    14
 74
     0
 42
0.000000001
 43
0.0001
 40
2.393662053433633
 40
2.393662053433633
 40
2.393662053433633
 40
2.393662053433633
 40
2.39504104125117
 40
2.40250222829557
 40
2.40996341533996
 40
2.41742460238435
 40
2.42488578942876
 40
2.43234697647315
 40
2.43980816351755
 40
2.44726935056194
 40
2.45473053760634
 40
2.46219172465073
 40
2.46649913525426
 40
2.46649913525426
 40
2.46649913525426
 40
2.46649913525426
 10
1183.356345064868
 20
401.5002556038398
 30
0.0
 41
1.0
 10
1183.328260104856
 20
401.5003241228083
 30
0.0
 41
1.0
 10
1183.148217935993
 20
401.5786666761159
 30
0.0
 41
1.0
 10
1182.816218558279
 20
402.648436541337
 30
0.0
 41
1.0
 10
1182.36034693173
 20
406.1423596709002
 30
0.0
 41
1.0
 10
1181.90447530518
 20
411.376594716696
 30
0.0
 41
1.0
 10
1181.44860367863
 20
417.9246340612714
 30
0.0
 41
1.0
 10
1180.99273205208
 20
425.252915754231
 30
0.0
 41
1.0
 10
1180.53686042553
 20
432.7643003974487
 30
0.0
 41
1.0
 10
1180.08098879898
 20
439.8467285897058
 30
0.0
 41
1.0
 10
1179.62511717243
 20
445.9230941163135
 30
0.0
 41
1.0
 10
1179.233476486941
 20
449.8536406240655
 30
0.0
 41
1.0
 10
1178.993793010301
 20
451.4820755345571
 30
0.0
 41
1.0
 10
1178.906066742512
 20
451.9669428000229
 30
0.0
 41
1.0
  0
LINE
  5
A4
330
1F
100
AcDbEntity
  8
7
  6
________________
 62
     7
370
     9
100
AcDbLine
 10
1178.906066742512
 20
451.9669428000229
 30
0.0
 11
1178.894720703965
 21
452.0290325554261
 31
0.0
  0
LINE
  5
A5
330
1F
100
AcDbEntity
  8
7
  6
________________
 62
     7
370
     9
100
AcDbLine
 10
1178.894720703965
 20
452.0290325554261
 30
0.0
 11
1178.882499690861
 21
452.0945199823603
 31
0.0
  0
LINE
  5
A6
330
1F
100
AcDbEntity
  8
7
  6
________________
 62
     7
370
     9
100
AcDbLine
 10
1178.882499690861
 20
452.0945199823603
 30
0.0
 11
1178.877179571837
 21
452.1225767380877
 31
0.0
  0
SPLINE
  5
A7
330
1F
100
AcDbEntity
  8
7
  6
________________
 62
     7
370
     9
100
AcDbSpline
210
0.0
220
0.0
230
1.0
 70
    12
 71
     3
 72
     9
 73
     5
 74
     0
 42
0.000000001
 43
0.0001
 40
2.466971927529613
 40
2.466971927529613
 40
2.466971927529613
 40
2.466971927529613
 40
2.46965291169513
 40
2.475491708613497
 40
2.475491708613497
 40
2.475491708613497
 40
2.475491708613497
 10
1178.877179571837
 20
452.1225767380877
 30
0.0
 41
1.0
 10
1178.822577687668
 20
452.4091234581083
 30
0.0
 41
1.0
 10
1178.649060773293
 20
453.1819328089167
 30
0.0
 41
1.0
 10
1178.475543858918
 20
453.4996630160551
 30
0.0
 41
1.0
 10
1178.356628828712
 20
453.4997240049519
 30
0.0
 41
1.0
  0
SPLINE
  5
A8
330
1F
100
AcDbEntity
  8
7
  6
________________
 62
     7
370
     9
100
AcDbSpline
210
0.0
220
0.0
230
1.0
 70
    12
 71
     3
 72
     9
 73
     5
 74
     0
 42
0.000000001
 43
0.0001
 40
2.385267404301421
 40
2.385267404301421
 40
2.385267404301421
 40
2.385267404301421
 40
2.38757985420677
 40
2.393662053433633
 40
2.393662053433633
 40
2.393662053433633
 40
2.393662053433633
 10
1183.869250361499
 20
402.8361054719786
 30
0.0
 41
1.0
 10
1183.822154178126
 20
402.5925587015199
 30
0.0
 41
1.0
 10
1183.651185745916
 20
401.8258217855908
 30
0.0
 41
1.0
 10
1183.480217313706
 20
401.4999533923106
 30
0.0
 41
1.0
 10
1183.356345064868
 20
401.5002556038398
 30
0.0
 41
1.0
  0
SPLINE
  5
A9
330
1F
100
AcDbEntity
  8
7
  6
________________
 62
     7
370
     9
100
AcDbSpline
210
0.0
220
0.0
230
1.0
 70
    12
 71
     3
 72
    18
 73
    14
 74
     0
 42
0.000000001
 43
0.0001
 40
2.230000719521012
 40
2.230000719521012
 40
2.230000719521012
 40
2.230000719521012
 40
2.23089492627445
 40
2.23835611331885
 40
2.24581730036325
 40
2.25327848740764
 40
2.26073967445204
 40
2.26820086149643
 40
2.27566204854083
 40
2.28312323558523
 40
2.29058442262962
 40
2.29804560967402
 40
2.30281193582197
 40
2.30281193582197
 40
2.30281193582197
 40
2.30281193582197
 10
1193.355901174391
 20
401.5001730700118
 30
0.0
 41
1.0
 10
1193.337689439237
 20
401.500309236344
 30
0.0
 41
1.0
 10
1193.167520495233
 20
401.5494167198412
 30
0.0
 41
1.0
 10
1192.845394342379
 20
402.4916178911872
 30
0.0
 41
1.0
 10
1192.389522715829
 20
405.8628069745594
 30
0.0
 41
1.0
 10
1191.933651089279
 20
410.9970871106432
 30
0.0
 41
1.0
 10
1191.477779462729
 20
417.4760954309347
 30
0.0
 41
1.0
 10
1191.021907836179
 20
424.7718949249669
 30
0.0
 41
1.0
 10
1190.566036209629
 20
432.2899929816131
 30
0.0
 41
1.0
 10
1190.110164583079
 20
439.4177831623242
 30
0.0
 41
1.0
 10
1189.654292956529
 20
445.5744629656672
 30
0.0
 41
1.0
 10
1189.253305832623
 20
449.6944439431095
 30
0.0
 41
1.0
 10
1189.004275917566
 20
451.4230391537037
 30
0.0
 41
1.0
 10
1188.90720321136
 20
451.9607051773409
 30
0.0
 41
1.0
  0
LINE
  5
AA
330
1F
100
AcDbEntity
  8
7
  6
________________
 62
     7
370
     9
100
AcDbLine
 10
1188.90720321136
 20
451.9607051773409
 30
0.0
 11
1188.894863918285
 21
452.0283159745029
 31
0.0
  0
LINE
  5
AB
330
1F
100
AcDbEntity
  8
7
  6
________________
 62
     7
370
     9
100
AcDbLine
 10
1188.894863918285
 20
452.0283159745029
 30
0.0
 11
1188.882642753082
 21
452.0938294498377
 31
0.0
  0
LINE
  5
AC
330
1F
100
AcDbEntity
  8
7
  6
________________
 62
     7
370
     9
100
AcDbLine
 10
1188.882642753082
 20
452.0938294498377
 30
0.0
 11
1188.870303460008
 21
452.1585075536267
 31
0.0
  0
SPLINE
  5
AD
330
1F
100
AcDbEntity
  8
7
  6
________________
 62
     7
370
     9
100
AcDbSpline
210
0.0
220
0.0
230
1.0
 70
    12
 71
     3
 72
     9
 73
     5
 74
     0
 42
0.000000001
 43
0.0001
 40
2.30341586888271
 40
2.30341586888271
 40
2.30341586888271
 40
2.30341586888271
 40
2.30550679671842
 40
2.311812971976695
 40
2.311812971976695
 40
2.311812971976695
 40
2.311812971976695
 10
1188.870303460008
 20
452.1585075536267
 30
0.0
 41
1.0
 10
1188.827718874482
 20
452.3791689047744
 30
0.0
 41
1.0
 10
1188.656700464007
 20
453.1591352161972
 30
0.0
 41
1.0
 10
1188.485682053532
 20
453.4989539117965
 30
0.0
 41
1.0
 10
1188.357248228584
 20
453.4998117011748
 30
0.0
 41
1.0
  0
LINE
  5
AE
330
1F
100
AcDbEntity
  8
7
  6
________________
 62
     7
370
     9
100
AcDbLine
 10
1193.882508795899
 20
402.9054457856337
 30
0.0
 11
1193.870931451963
 21
402.844731742782
 31
0.0
  0
SPLINE
  5
AF
330
1F
100
AcDbEntity
  8
7
  6
________________
 62
     7
370
     9
100
AcDbSpline
210
0.0
220
0.0
230
1.0
 70
    12
 71
     3
 72
     9
 73
     5
 74
     0
 42
0.000000001
 43
0.0001
 40
2.221571291123424
 40
2.221571291123424
 40
2.221571291123424
 40
2.221571291123424
 40
2.22343373923005
 40
2.230000719521012
 40
2.230000719521012
 40
2.230000719521012
 40
2.230000719521012
 10
1193.870931451963
 20
402.844731742782
 30
0.0
 41
1.0
 10
1193.833000166469
 20
402.6479455978935
 30
0.0
 41
1.0
 10
1193.661323407278
 20
401.8522996402266
 30
0.0
 41
1.0
 10
1193.489646648087
 20
401.499173075753
 30
0.0
 41
1.0
 10
1193.355901174391
 20
401.5001730700118
 30
0.0
 41
1.0
  0
SPLINE
  5
B0
330
1F
100
AcDbEntity
  8
7
  6
________________
 62
     7
370
     9
100
AcDbSpline
210
0.0
220
0.0
230
1.0
 70
    12
 71
     3
 72
     9
 73
     5
 74
     0
 42
0.000000001
 43
0.0001
 40
1.738976716694475
 40
1.738976716694475
 40
1.738976716694475
 40
1.738976716694475
 40
1.7459177683887
 40
1.747184790575896
 40
1.747184790575896
 40
1.747184790575896
 40
1.747184790575896
 10
1223.357013532474
 20
401.500116856737
 30
0.0
 41
1.0
 10
1223.215649586541
 20
401.5001813390563
 30
0.0
 41
1.0
 10
1223.048481012743
 20
401.8656276924685
 30
0.0
 41
1.0
 10
1222.881312438944
 20
402.649005563619
 30
0.0
 41
1.0
 10
1222.855507811078
 20
402.7796892158404
 30
0.0
 41
1.0
  0
ARC
  5
B1
330
1F
100
AcDbEntity
  8
7
  6
________________
 62
     7
370
     9
100
AcDbCircle
 10
-1221.999581372418
 20
402.7890059716579
 30
0.0
 40
1.871859294849893
210
0.0
220
0.0
230
-1.0
100
AcDbArc
 50
178.3440027759058
 51
223.5162990732036
  0
SPLINE
  5
B2
330
1F
100
AcDbEntity
  8
7
  6
________________
 62
     7
370
     9
100
AcDbSpline
210
0.0
220
0.0
230
1.0
 70
    12
 71
     3
 72
    17
 73
    13
 74
     0
 42
0.000000001
 43
0.0001
 40
1.575303900155006
 40
1.575303900155006
 40
1.575303900155006
 40
1.575303900155006
 40
1.58177165341198
 40
1.58923284045638
 40
1.59669402750078
 40
1.60415521454517
 40
1.61161640158957
 40
1.61907758863397
 40
1.62653877567836
 40
1.63399996272276
 40
1.64146114976715
 40
1.648160785600287
 40
1.648160785600287
 40
1.648160785600287
 40
1.648160785600287
 10
1233.357271219875
 20
401.5001851916233
 30
0.0
 41
1.0
 10
1233.225546639508
 20
401.5000201919971
 30
0.0
 41
1.0
 10
1232.941864850292
 20
402.0762143348888
 30
0.0
 41
1.0
 10
1232.506225852225
 20
404.8182087130357
 30
0.0
 41
1.0
 10
1232.050354225675
 20
409.5357604263107
 30
0.0
 41
1.0
 10
1231.594482599125
 20
415.7171154048706
 30
0.0
 41
1.0
 10
1231.138610972575
 20
422.8585906918977
 30
0.0
 41
1.0
 10
1230.682739346025
 20
430.3782686655935
 30
0.0
 41
1.0
 10
1230.226867719476
 20
437.6634141490838
 30
0.0
 41
1.0
 10
1229.770996092925
 20
444.1204026650974
 30
0.0
 41
1.0
 10
1229.330634491224
 20
449.0494837577482
 30
0.0
 41
1.0
 10
1229.042230098373
 20
451.2149829023535
 30
0.0
 41
1.0
 10
1228.905782914371
 20
451.9688718317441
 30
0.0
 41
1.0
  0
LINE
  5
B3
330
1F
100
AcDbEntity
  8
7
  6
________________
 62
     7
370
     9
100
AcDbLine
 10
1228.905782914371
 20
451.9688718317441
 30
0.0
 11
1228.89465807178
 21
452.0297377411184
 31
0.0
  0
LINE
  5
B4
330
1F
100
AcDbEntity
  8
7
  6
________________
 62
     7
370
     9
100
AcDbLine
 10
1228.89465807178
 20
452.0297377411184
 30
0.0
 11
1228.88485742898
 21
452.0823618805734
 31
0.0
  0
ARC
  5
B5
330
1F
100
AcDbEntity
  8
7
  6
________________
 62
     7
370
     9
100
AcDbCircle
 10
1226.835625766081
 20
452.1256219607375
 30
0.0
 40
2.049688230624844
100
AcDbArc
 50
358.7906433614796
 51
42.1032817049508
  0
SPLINE
  5
B6
330
1F
100
AcDbEntity
  8
7
  6
________________
 62
     7
370
     9
100
AcDbSpline
210
0.0
220
0.0
230
1.0
 70
    12
 71
     3
 72
     9
 73
     5
 74
     0
 42
0.000000001
 43
0.0001
 40
1.56691420425922
 40
1.56691420425922
 40
1.56691420425922
 40
1.56691420425922
 40
1.57431046636759
 40
1.575303900155006
 40
1.575303900155006
 40
1.575303900155006
 40
1.575303900155006
 10
1233.869873878342
 20
402.8390207178086
 30
0.0
 41
1.0
 10
1233.719238954003
 20
402.0595792828514
 30
0.0
 41
1.0
 10
1233.54837140118
 20
401.5537642222485
 30
0.0
 41
1.0
 10
1233.377503848358
 20
401.5002105352314
 30
0.0
 41
1.0
 10
1233.357271219875
 20
401.5001851916233
 30
0.0
 41
1.0
  0
SPLINE
  5
B7
330
1F
100
AcDbEntity
  8
7
  6
________________
 62
     7
370
     9
100
AcDbSpline
210
0.0
220
0.0
230
1.0
 70
    12
 71
     3
 72
    17
 73
    13
 74
     0
 42
0.000000001
 43
0.0001
 40
1.411643698088819
 40
1.411643698088819
 40
1.411643698088819
 40
1.411643698088819
 40
1.41762553843527
 40
1.42508672547966
 40
1.43254791252406
 40
1.44000909956845
 40
1.44747028661285
 40
1.45493147365725
 40
1.46239266070164
 40
1.46985384774604
 40
1.47731503479043
 40
1.484468719936919
 40
1.484468719936919
 40
1.484468719936919
 40
1.484468719936919
 10
1243.356758174628
 20
401.5002732980063
 30
0.0
 41
1.0
 10
1243.23492987071
 20
401.5008069417976
 30
0.0
 41
1.0
 10
1242.961144357942
 20
402.0157160416168
 30
0.0
 41
1.0
 10
1242.535401636324
 20
404.5759010785507
 30
0.0
 41
1.0
 10
1242.079530009774
 20
409.1852185434639
 30
0.0
 41
1.0
 10
1241.623658383224
 20
415.2869029094113
 30
0.0
 41
1.0
 10
1241.167786756674
 20
422.3837631181744
 30
0.0
 41
1.0
 10
1240.711915130124
 20
429.8975169732974
 30
0.0
 41
1.0
 10
1240.256043503575
 20
437.2159120201518
 30
0.0
 41
1.0
 10
1239.800171877024
 20
443.742614466366
 30
0.0
 41
1.0
 10
1239.350562944312
 20
448.8743204113887
 30
0.0
 41
1.0
 10
1239.052911220449
 20
451.1541540198297
 30
0.0
 41
1.0
 10
1238.907216705437
 20
451.9609856900364
 30
0.0
 41
1.0
  0
LINE
  5
B8
330
1F
100
AcDbEntity
  8
7
  6
________________
 62
     7
370
     9
100
AcDbLine
 10
1238.907216705437
 20
451.9609856900364
 30
0.0
 11
1238.89516414095
 21
452.0270247923212
 31
0.0
  0
LINE
  5
B9
330
1F
100
AcDbEntity
  8
7
  6
________________
 62
     7
370
     9
100
AcDbLine
 10
1238.895164140949
 20
452.0270247923212
 30
0.0
 11
1238.882942564003
 21
452.0925446626906
 31
0.0
  0
LINE
  5
BA
330
1F
100
AcDbEntity
  8
7
  6
________________
 62
     7
370
     9
100
AcDbLine
 10
1238.882942564003
 20
452.0925446626906
 30
0.0
 11
1238.870889999516
 21
452.1557293113518
 31
0.0
  0
SPLINE
  5
BB
330
1F
100
AcDbEntity
  8
7
  6
________________
 62
     7
370
     9
100
AcDbSpline
210
0.0
220
0.0
230
1.0
 70
    12
 71
     3
 72
     9
 73
     5
 74
     0
 42
0.000000001
 43
0.0001
 40
1.485063274043378
 40
1.485063274043378
 40
1.485063274043378
 40
1.485063274043378
 40
1.49223740887923
 40
1.493493816366155
 40
1.493493816366155
 40
1.493493816366155
 40
1.493493816366155
 10
1238.870889999516
 20
452.1557293113518
 30
0.0
 41
1.0
 10
1238.724778998802
 20
452.9130934814109
 30
0.0
 41
1.0
 10
1238.553079553012
 20
453.4348703018819
 30
0.0
 41
1.0
 10
1238.381380107222
 20
453.5001511507676
 30
0.0
 41
1.0
 10
1238.355791662145
 20
453.499787781716
 30
0.0
 41
1.0
  0
SPLINE
  5
BC
330
1F
100
AcDbEntity
  8
7
  6
________________
 62
     7
370
     9
100
AcDbSpline
210
0.0
220
0.0
230
1.0
 70
    12
 71
     3
 72
     9
 73
     5
 74
     0
 42
0.000000001
 43
0.0001
 40
1.403035206027849
 40
1.403035206027849
 40
1.403035206027849
 40
1.403035206027849
 40
1.41016435139087
 40
1.411643698088819
 40
1.411643698088819
 40
1.411643698088819
 40
1.411643698088819
 10
1243.882729076392
 20
402.9063632292501
 30
0.0
 41
1.0
 10
1243.737534347403
 20
402.1370579063455
 30
0.0
 41
1.0
 10
1243.562210713481
 20
401.5807281274896
 30
0.0
 41
1.0
 10
1243.38688707956
 20
401.5001413245442
 30
0.0
 41
1.0
 10
1243.356758174628
 20
401.5002732980063
 30
0.0
 41
1.0
  0
SPLINE
  5
BD
330
1F
100
AcDbEntity
  8
7
  6
________________
 62
     7
370
     9
100
AcDbSpline
210
0.0
220
0.0
230
1.0
 70
    12
 71
     3
 72
    18
 73
    14
 74
     0
 42
0.000000001
 43
0.0001
 40
1.247962639543303
 40
1.247962639543303
 40
1.247962639543303
 40
1.247962639543303
 40
1.25347942345855
 40
1.26094061050295
 40
1.26840179754734
 40
1.27586298459174
 40
1.28332417163613
 40
1.29078535868053
 40
1.29824654572493
 40
1.30570773276932
 40
1.31316891981372
 40
1.32063010685812
 40
1.320791511585135
 40
1.320791511585135
 40
1.320791511585135
 40
1.320791511585135
 10
1253.357519440974
 20
401.5003636304506
 30
0.0
 41
1.0
 10
1253.245162642974
 20
401.4999647827306
 30
0.0
 41
1.0
 10
1252.980848636123
 20
401.9557708577657
 30
0.0
 41
1.0
 10
1252.564577420424
 20
404.341296892119
 30
0.0
 41
1.0
 10
1252.108705793873
 20
408.8408311876679
 30
0.0
 41
1.0
 10
1251.652834167324
 20
414.860794523096
 30
0.0
 41
1.0
 10
1251.196962540773
 20
421.910654815511
 30
0.0
 41
1.0
 10
1250.741090914224
 20
429.4159596204968
 30
0.0
 41
1.0
 10
1250.285219287674
 20
436.7651449477783
 30
0.0
 41
1.0
 10
1249.829347661124
 20
443.3593680826609
 30
0.0
 41
1.0
 10
1249.373476034574
 20
448.6613038241139
 30
0.0
 41
1.0
 10
1249.066274390368
 20
451.072184365811
 30
0.0
 41
1.0
 10
1248.911029955013
 20
451.9398584895163
 30
0.0
 41
1.0
 10
1248.907742728508
 20
451.9580736341807
 30
0.0
 41
1.0
  0
LINE
  5
BE
330
1F
100
AcDbEntity
  8
7
  6
________________
 62
     7
370
     9
100
AcDbLine
 10
1248.907742728508
 20
451.9580736341807
 30
0.0
 11
1248.897936535853
 21
452.0119443768913
 31
0.0
  0
LINE
  5
BF
330
1F
100
AcDbEntity
  8
7
  6
________________
 62
     7
370
     9
100
AcDbLine
 10
1248.897936535853
 20
452.0119443768913
 30
0.0
 11
1248.894793865359
 21
452.0290109313218
 31
0.0
  0
LINE
  5
C0
330
1F
100
AcDbEntity
  8
7
  6
________________
 62
     7
370
     9
100
AcDbLine
 10
1248.894793865359
 20
452.0290109313218
 30
0.0
 11
1248.882572327315
 21
452.0944671334476
 31
0.0
  0
LINE
  5
C1
330
1F
100
AcDbEntity
  8
7
  6
________________
 62
     7
370
     9
100
AcDbLine
 10
1248.882572327315
 20
452.0944671334476
 30
0.0
 11
1248.869623464166
 21
452.1622302851632
 31
0.0
  0
SPLINE
  5
C2
330
1F
100
AcDbEntity
  8
7
  6
________________
 62
     7
370
     9
100
AcDbSpline
210
0.0
220
0.0
230
1.0
 70
    12
 71
     3
 72
     9
 73
     5
 74
     0
 42
0.000000001
 43
0.0001
 40
1.321415404244135
 40
1.321415404244135
 40
1.321415404244135
 40
1.321415404244135
 40
1.32809129390251
 40
1.32981173431801
 40
1.32981173431801
 40
1.32981173431801
 40
1.32981173431801
 10
1248.869623464166
 20
452.1622302851632
 30
0.0
 41
1.0
 10
1248.733659903269
 20
452.8651556209169
 30
0.0
 41
1.0
 10
1248.562657236399
 20
453.4086963685835
 30
0.0
 41
1.0
 10
1248.391654569528
 20
453.4999096966645
 30
0.0
 41
1.0
 10
1248.356615463555
 20
453.499705212765
 30
0.0
 41
1.0
  0
SPLINE
  5
C3
330
1F
100
AcDbEntity
  8
7
  6
________________
 62
     7
370
     9
100
AcDbSpline
210
0.0
220
0.0
230
1.0
 70
    12
 71
     3
 72
     9
 73
     5
 74
     0
 42
0.000000001
 43
0.0001
 40
1.2395648300903
 40
1.2395648300903
 40
1.2395648300903
 40
1.2395648300903
 40
1.24601823641415
 40
1.247962639543303
 40
1.247962639543303
 40
1.247962639543303
 40
1.247962639543303
 10
1253.870617830281
 20
402.8429782011237
 30
0.0
 41
1.0
 10
1253.739185444696
 20
402.1622479159556
 30
0.0
 41
1.0
 10
1253.56815264826
 20
401.6052789613502
 30
0.0
 41
1.0
 10
1253.397119851824
 20
401.5005042052433
 30
0.0
 41
1.0
 10
1253.357519440974
 20
401.5003636304506
 30
0.0
 41
1.0
  0
SPLINE
  5
C4
330
1F
100
AcDbEntity
  8
7
  6
________________
 62
     7
370
     9
100
AcDbSpline
210
0.0
220
0.0
230
1.0
 70
    12
 71
     3
 72
    18
 73
    14
 74
     0
 42
0.000000001
 43
0.0001
 40
1.084296770901956
 40
1.084296770901956
 40
1.084296770901956
 40
1.084296770901956
 40
1.08933330848183
 40
1.09679449552623
 40
1.10425568257063
 40
1.11171686961502
 40
1.11917805665942
 40
1.12663924370381
 40
1.13410043074821
 40
1.14156161779261
 40
1.149022804837
 40
1.1564839918814
 40
1.15714318902699
 40
1.15714318902699
 40
1.15714318902699
 40
1.15714318902699
 10
1263.357352618227
 20
401.500444614381
 30
0.0
 41
1.0
 10
1263.254776689176
 20
401.5002048746409
 30
0.0
 41
1.0
 10
1263.000243551274
 20
401.900719931714
 30
0.0
 41
1.0
 10
1262.593753204523
 20
404.1144749904348
 30
0.0
 41
1.0
 10
1262.137881577973
 20
408.5027140872952
 30
0.0
 41
1.0
 10
1261.682009951423
 20
414.4389334359375
 30
0.0
 41
1.0
 10
1261.226138324873
 20
421.4394247678334
 30
0.0
 41
1.0
 10
1260.770266698323
 20
428.9337584303478
 30
0.0
 41
1.0
 10
1260.314395071773
 20
436.3112644083128
 30
0.0
 41
1.0
 10
1259.858523445223
 20
442.9707923005922
 30
0.0
 41
1.0
 10
1259.402651818673
 20
448.3696955982202
 30
0.0
 41
1.0
 10
1259.085311955702
 20
450.9441811235147
 30
0.0
 41
1.0
 10
1258.91992930158
 20
451.8906702946017
 30
0.0
 41
1.0
 10
1258.906503856308
 20
451.9648841744892
 30
0.0
 41
1.0
  0
LINE
  5
C5
330
1F
100
AcDbEntity
  8
7
  6
________________
 62
     7
370
     9
100
AcDbLine
 10
1258.906503856308
 20
451.9648841744892
 30
0.0
 11
1258.89511195709
 21
452.0272276799284
 31
0.0
  0
LINE
  5
C6
330
1F
100
AcDbEntity
  8
7
  6
________________
 62
     7
370
     9
100
AcDbLine
 10
1258.89511195709
 20
452.0272276799284
 30
0.0
 11
1258.882890362349
 21
452.0927108476715
 31
0.0
  0
LINE
  5
C7
330
1F
100
AcDbEntity
  8
7
  6
________________
 62
     7
370
     9
100
AcDbLine
 10
1258.882890362349
 20
452.0927108476716
 30
0.0
 11
1258.875840286123
 21
452.1298245169532
 31
0.0
  0
SPLINE
  5
C8
330
1F
100
AcDbEntity
  8
7
  6
________________
 62
     7
370
     9
100
AcDbSpline
210
0.0
220
0.0
230
1.0
 70
    12
 71
     3
 72
     9
 73
     5
 74
     0
 42
0.000000001
 43
0.0001
 40
1.157645055384265
 40
1.157645055384265
 40
1.157645055384265
 40
1.157645055384265
 40
1.1639451789258
 40
1.166141207442345
 40
1.166141207442345
 40
1.166141207442345
 40
1.166141207442345
 10
1258.875840286123
 20
452.1298245169532
 30
0.0
 41
1.0
 10
1258.747529712606
 20
452.800886771918
 30
0.0
 41
1.0
 10
1258.574494035437
 20
453.3816031484195
 30
0.0
 41
1.0
 10
1258.401458358268
 20
453.4998108758438
 30
0.0
 41
1.0
 10
1258.356733254616
 20
453.4996185695175
 30
0.0
 41
1.0
  0
SPLINE
  5
C9
330
1F
100
AcDbEntity
  8
7
  6
________________
 62
     7
370
     9
100
AcDbSpline
210
0.0
220
0.0
230
1.0
 70
    12
 71
     3
 72
     9
 73
     5
 74
     0
 42
0.000000001
 43
0.0001
 40
1.075908909916426
 40
1.075908909916426
 40
1.075908909916426
 40
1.075908909916426
 40
1.08187212143744
 40
1.084296770901956
 40
1.084296770901956
 40
1.084296770901956
 40
1.084296770901956
 10
1263.869843165374
 20
402.8390544937789
 30
0.0
 41
1.0
 10
1263.74839426279
 20
402.2109818257982
 30
0.0
 41
1.0
 10
1263.577564080408
 20
401.6305579747495
 30
0.0
 41
1.0
 10
1263.406733898026
 20
401.5005600279609
 30
0.0
 41
1.0
 10
1263.357352618227
 20
401.500444614381
 30
0.0
 41
1.0
  0
SPLINE
  5
CA
330
1F
100
AcDbEntity
  8
7
  6
________________
 62
     7
370
     9
100
AcDbSpline
210
0.0
220
0.0
230
1.0
 70
    12
 71
     3
 72
    18
 73
    14
 74
     0
 42
0.000000001
 43
0.0001
 40
0.9206411849100032
 40
0.9206411849100032
 40
0.9206411849100032
 40
0.9206411849100032
 40
0.925187193505118
 40
0.932648380549514
 40
0.940109567593911
 40
0.947570754638307
 40
0.955031941682703
 40
0.962493128727099
 40
0.969954315771495
 40
0.977415502815892
 40
0.984876689860288
 40
0.992337876904684
 40
0.9934569663175278
 40
0.9934569663175278
 40
0.9934569663175278
 40
0.9934569663175278
 10
1273.356557535114
 20
401.5005078017558
 30
0.0
 41
1.0
 10
1273.263971895133
 20
401.5009727452468
 30
0.0
 41
1.0
 10
1273.019429046303
 20
401.8497651919724
 30
0.0
 41
1.0
 10
1272.622928988622
 20
403.8955115950238
 30
0.0
 41
1.0
 10
1272.167057362072
 20
408.1709808636526
 30
0.0
 41
1.0
 10
1271.711185735522
 20
414.0214614106822
 30
0.0
 41
1.0
 10
1271.255314108972
 20
420.9702313278964
 30
0.0
 41
1.0
 10
1270.799442482422
 20
428.4510754423619
 30
0.0
 41
1.0
 10
1270.343570855872
 20
435.8544229243589
 30
0.0
 41
1.0
 10
1269.887699229322
 20
442.5770176976687
 30
0.0
 41
1.0
 10
1269.431827602772
 20
448.0710742970239
 30
0.0
 41
1.0
 10
1269.105121409097
 20
450.80717744894
 30
0.0
 41
1.0
 10
1268.930372424271
 20
451.8326400661296
 30
0.0
 41
1.0
 10
1268.907580648295
 20
451.9588517299774
 30
0.0
 41
1.0
  0
LINE
  5
CB
330
1F
100
AcDbEntity
  8
7
  6
________________
 62
     7
370
     9
100
AcDbLine
 10
1268.907580648295
 20
451.9588517299774
 30
0.0
 11
1268.895200512451
 21
452.0266663548329
 31
0.0
  0
LINE
  5
CC
330
1F
100
AcDbEntity
  8
7
  6
________________
 62
     7
370
     9
100
AcDbLine
 10
1268.895200512451
 20
452.0266663548329
 30
0.0
 11
1268.882979143384
 21
452.0921546216233
 31
0.0
  0
LINE
  5
CD
330
1F
100
AcDbEntity
  8
7
  6
________________
 62
     7
370
     9
100
AcDbLine
 10
1268.882979143384
 20
452.0921546216233
 30
0.0
 11
1268.87059900754
 21
452.1570150798752
 31
0.0
  0
SPLINE
  5
CE
330
1F
100
AcDbEntity
  8
7
  6
________________
 62
     7
370
     9
100
AcDbSpline
210
0.0
220
0.0
230
1.0
 70
    12
 71
     3
 72
     9
 73
     5
 74
     0
 42
0.000000001
 43
0.0001
 40
0.9940622396506592
 40
0.9940622396506592
 40
0.9940622396506592
 40
0.9940622396506592
 40
0.99979906394908
 40
1.002468595311758
 40
1.002468595311758
 40
1.002468595311758
 40
1.002468595311758
 10
1268.87059900754
 20
452.1570150798752
 30
0.0
 41
1.0
 10
1268.753760788251
 20
452.762107889912
 30
0.0
 41
1.0
 10
1268.582553936679
 20
453.356861578313
 30
0.0
 41
1.0
 10
1268.411347085107
 20
453.4996081943854
 30
0.0
 41
1.0
 10
1268.356978452824
 20
453.4995465946234
 30
0.0
 41
1.0
  0
LINE
  5
CF
330
1F
100
AcDbEntity
  8
7
  6
________________
 62
     7
370
     9
100
AcDbLine
 10
1273.882787234007
 20
402.9068971602823
 30
0.0
 11
1273.871202869757
 21
402.846181489567
 31
0.0
  0
SPLINE
  5
D0
330
1F
100
AcDbEntity
  8
7
  6
________________
 62
     7
370
     9
100
AcDbSpline
210
0.0
220
0.0
230
1.0
 70
    12
 71
     3
 72
     9
 73
     5
 74
     0
 42
0.000000001
 43
0.0001
 40
0.912218056819414
 40
0.912218056819414
 40
0.912218056819414
 40
0.912218056819414
 40
0.917726006460722
 40
0.9206411849100032
 40
0.9206411849100032
 40
0.9206411849100032
 40
0.9206411849100032
 10
1273.871202869757
 20
402.8461814895669
 30
0.0
 41
1.0
 10
1273.759025993745
 20
402.2645551431117
 30
0.0
 41
1.0
 10
1273.587477548864
 20
401.6556996597521
 30
0.0
 41
1.0
 10
1273.415929103983
 20
401.5002096515836
 30
0.0
 41
1.0
 10
1273.356557535114
 20
401.5005078017558
 30
0.0
 41
1.0
  0
SPLINE
  5
D1
330
1F
100
AcDbEntity
  8
7
  6
________________
 62
     7
370
     9
100
AcDbSpline
210
0.0
220
0.0
230
1.0
 70
    12
 71
     3
 72
    18
 73
    14
 74
     0
 42
0.000000001
 43
0.0001
 40
0.7569814947789305
 40
0.7569814947789305
 40
0.7569814947789305
 40
0.7569814947789305
 40
0.761041078528405
 40
0.768502265572801
 40
0.775963452617197
 40
0.783424639661593
 40
0.790885826705989
 40
0.798347013750385
 40
0.805808200794781
 40
0.813269387839177
 40
0.820730574883573
 40
0.828191761927969
 40
0.8299932799497639
 40
0.8299932799497639
 40
0.8299932799497639
 40
0.8299932799497639
 10
1283.356013211105
 20
401.500547426221
 30
0.0
 41
1.0
 10
1283.273334273827
 20
401.5013436852362
 30
0.0
 41
1.0
 10
1283.038698127699
 20
401.8012808613835
 30
0.0
 41
1.0
 10
1282.652104772721
 20
403.6844802866287
 30
0.0
 41
1.0
 10
1282.196233146171
 20
407.8457429928043
 30
0.0
 41
1.0
 10
1281.740361519622
 20
413.6085187351703
 30
0.0
 41
1.0
 10
1281.284489893071
 20
420.5032321640725
 30
0.0
 41
1.0
 10
1280.828618266521
 20
427.9680728579563
 30
0.0
 41
1.0
 10
1280.372746639972
 20
435.3947740135218
 30
0.0
 41
1.0
 10
1279.916875013422
 20
442.1781765984182
 30
0.0
 41
1.0
 10
1279.461003386871
 20
447.7655402696145
 30
0.0
 41
1.0
 10
1279.120398607617
 20
450.7063571259368
 30
0.0
 41
1.0
 10
1278.931751037213
 20
451.8286058129204
 30
0.0
 41
1.0
 10
1278.895060675658
 20
452.0273368659201
 30
0.0
 41
1.0
  0
LINE
  5
D2
330
1F
100
AcDbEntity
  8
7
  6
________________
 62
     7
370
     9
100
AcDbLine
 10
1278.895060675658
 20
452.0273368659201
 30
0.0
 11
1278.882839578507
 21
452.092808642058
 31
0.0
  0
LINE
  5
D3
330
1F
100
AcDbEntity
  8
7
  6
________________
 62
     7
370
     9
100
AcDbLine
 10
1278.882839578508
 20
452.092808642058
 30
0.0
 11
1278.869549048901
 21
452.1623658107814
 31
0.0
  0
SPLINE
  5
D4
330
1F
100
AcDbEntity
  8
7
  6
________________
 62
     7
370
     9
100
AcDbSpline
210
0.0
220
0.0
230
1.0
 70
    12
 71
     3
 72
     9
 73
     5
 74
     0
 42
0.000000001
 43
0.0001
 40
0.8304108251707283
 40
0.8304108251707283
 40
0.8304108251707283
 40
0.8304108251707283
 40
0.835652948972365
 40
0.8388005376359154
 40
0.8388005376359154
 40
0.8388005376359154
 40
0.8388005376359154
 10
1278.869549048901
 20
452.1623658107814
 30
0.0
 41
1.0
 10
1278.762786077191
 20
452.7142298159211
 30
0.0
 41
1.0
 10
1278.591918186911
 20
453.3315292302767
 30
0.0
 41
1.0
 10
1278.42105029663
 20
453.4995344910513
 30
0.0
 41
1.0
 10
1278.35694537806
 20
453.4994967086704
 30
0.0
 41
1.0
  0
SPLINE
  5
D5
330
1F
100
AcDbEntity
  8
7
  6
________________
 62
     7
370
     9
100
AcDbSpline
210
0.0
220
0.0
230
1.0
 70
    12
 71
     3
 72
     9
 73
     5
 74
     0
 42
0.000000001
 43
0.0001
 40
0.7485602344538441
 40
0.7485602344538441
 40
0.7485602344538441
 40
0.7485602344538441
 40
0.753579891484009
 40
0.7569814947789305
 40
0.7569814947789305
 40
0.7569814947789305
 40
0.7569814947789305
 10
1283.870544427003
 20
402.8428446783978
 30
0.0
 41
1.0
 10
1283.768312293276
 20
402.3133810072589
 30
0.0
 41
1.0
 10
1283.596801887977
 20
401.6805523792494
 30
0.0
 41
1.0
 10
1283.425291482677
 20
401.499880225479
 30
0.0
 41
1.0
 10
1283.356013211105
 20
401.500547426221
 30
0.0
 41
1.0
  0
SPLINE
  5
D6
330
1F
100
AcDbEntity
  8
7
  6
________________
 62
     7
370
     9
100
AcDbSpline
210
0.0
220
0.0
230
1.0
 70
    12
 71
     3
 72
    18
 73
    14
 74
     0
 42
0.000000001
 43
0.0001
 40
0.5933100614925778
 40
0.5933100614925778
 40
0.5933100614925778
 40
0.5933100614925778
 40
0.596894963551691
 40
0.604356150596087
 40
0.611817337640483
 40
0.619278524684879
 40
0.626739711729275
 40
0.634200898773671
 40
0.641662085818068
 40
0.649123272862464
 40
0.65658445990686
 40
0.664045646951256
 40
0.6661324043379018
 40
0.6661324043379018
 40
0.6661324043379018
 40
0.6661324043379018
 10
1293.356186383021
 20
401.5005518518084
 30
0.0
 41
1.0
 10
1293.283174983137
 20
401.5010502977534
 30
0.0
 41
1.0
 10
1293.058206374404
 20
401.7546093441679
 30
0.0
 41
1.0
 10
1292.68128055682
 20
403.4814519804832
 30
0.0
 41
1.0
 10
1292.225408930271
 20
407.5271097681029
 30
0.0
 41
1.0
 10
1291.76953730372
 20
413.2002441751914
 30
0.0
 41
1.0
 10
1291.313665677171
 20
420.038584207363
 30
0.0
 41
1.0
 10
1290.85779405062
 20
427.4849129859433
 30
0.0
 41
1.0
 10
1290.401922424071
 20
434.9324721368147
 30
0.0
 41
1.0
 10
1289.946050797521
 20
441.7744030299194
 30
0.0
 41
1.0
 10
1289.490179170971
 20
447.4531961880414
 30
0.0
 41
1.0
 10
1289.143765104604
 20
450.5329878872201
 30
0.0
 41
1.0
 10
1288.949308247088
 20
451.7279198356979
 30
0.0
 41
1.0
 10
1288.906808598421
 20
451.9629541346217
 30
0.0
 41
1.0
  0
LINE
  5
D7
330
1F
100
AcDbEntity
  8
7
  6
________________
 62
     7
370
     9
100
AcDbLine
 10
1288.906808598421
 20
451.9629541346217
 30
0.0
 11
1288.895152437822
 21
452.026760262193
 31
0.0
  0
LINE
  5
D8
330
1F
100
AcDbEntity
  8
7
  6
________________
 62
     7
370
     9
100
AcDbLine
 10
1288.895152437822
 20
452.026760262193
 30
0.0
 11
1288.882931210869
 21
452.0922495600598
 31
0.0
  0
LINE
  5
D9
330
1F
100
AcDbEntity
  8
7
  6
________________
 62
     7
370
     9
100
AcDbLine
 10
1288.882931210869
 20
452.0922495600598
 30
0.0
 11
1288.87127505027
 21
452.1533630681568
 31
0.0
  0
SPLINE
  5
DA
330
1F
100
AcDbEntity
  8
7
  6
________________
 62
     7
370
     9
100
AcDbSpline
210
0.0
220
0.0
230
1.0
 70
    12
 71
     3
 72
     9
 73
     5
 74
     0
 42
0.000000001
 43
0.0001
 40
0.6667139769422679
 40
0.6667139769422679
 40
0.6667139769422679
 40
0.6667139769422679
 40
0.671506833995652
 40
0.6751348689897293
 40
0.6751348689897293
 40
0.6751348689897293
 40
0.6751348689897293
 10
1288.87127505027
 20
452.1533630681568
 30
0.0
 41
1.0
 10
1288.773662006137
 20
452.6596323348173
 30
0.0
 41
1.0
 10
1288.602159101311
 20
453.3053838021712
 30
0.0
 41
1.0
 10
1288.430656196486
 20
453.4995792757804
 30
0.0
 41
1.0
 10
1288.356766335794
 20
453.4994748496644
 30
0.0
 41
1.0
  0
LINE
  5
DB
330
1F
100
AcDbEntity
  8
7
  6
________________
 62
     7
370
     9
100
AcDbLine
 10
1293.891465286124
 20
402.9533869522293
 30
0.0
 11
1293.882756072482
 21
402.9068768941388
 31
0.0
  0
SPLINE
  5
DC
330
1F
100
AcDbEntity
  8
7
  6
________________
 62
     7
370
     9
100
AcDbSpline
210
0.0
220
0.0
230
1.0
 70
    12
 71
     3
 72
     9
 73
     5
 74
     0
 42
0.000000001
 43
0.0001
 40
0.5849135809745432
 40
0.5849135809745432
 40
0.5849135809745432
 40
0.5849135809745432
 40
0.589433776507295
 40
0.5933100614925778
 40
0.5933100614925778
 40
0.5933100614925778
 40
0.5933100614925778
 10
1293.86920357563
 20
402.8359631332289
 30
0.0
 41
1.0
 10
1293.777143653727
 20
402.3603078420961
 30
0.0
 41
1.0
 10
1293.606137922857
 20
401.7059872009632
 30
0.0
 41
1.0
 10
1293.435132191987
 20
401.5000128918867
 30
0.0
 41
1.0
 10
1293.356186383021
 20
401.5005518518084
 30
0.0
 41
1.0
  0
SPLINE
  5
DD
330
1F
100
AcDbEntity
  8
7
  6
________________
 62
     7
370
     9
100
AcDbSpline
210
0.0
220
0.0
230
1.0
 70
    12
 71
     3
 72
    18
 73
    14
 74
     0
 42
0.000000001
 43
0.0001
 40
0.4296308988645845
 40
0.4296308988645845
 40
0.4296308988645845
 40
0.4296308988645845
 40
0.432748848574977
 40
0.440210035619374
 40
0.447671222663769
 40
0.455132409708166
 40
0.462593596752562
 40
0.470054783796958
 40
0.477515970841354
 40
0.48497715788575
 40
0.492438344930146
 40
0.499899531974542
 40
0.5024505457451887
 40
0.5024505457451887
 40
0.5024505457451887
 40
0.5024505457451887
 10
1303.35683181056
 20
401.5005259686417
 30
0.0
 41
1.0
 10
1303.29333052953
 20
401.5004765702861
 30
0.0
 41
1.0
 10
1303.07787203965
 20
401.7102942710682
 30
0.0
 41
1.0
 10
1302.71045634092
 20
403.2864949024814
 30
0.0
 41
1.0
 10
1302.254584714369
 20
407.2151882634694
 30
0.0
 41
1.0
 10
1301.79871308782
 20
412.7967749278562
 30
0.0
 41
1.0
 10
1301.34284146127
 20
419.5764435986678
 30
0.0
 41
1.0
 10
1300.88696983472
 20
427.0017581879904
 30
0.0
 41
1.0
 10
1300.43109820817
 20
434.4676726467577
 30
0.0
 41
1.0
 10
1299.97522658162
 20
441.3658326767637
 30
0.0
 41
1.0
 10
1299.51935495507
 20
447.1341470128134
 30
0.0
 41
1.0
 10
1299.163485676834
 20
450.3881780907752
 30
0.0
 41
1.0
 10
1298.959573607448
 20
451.6706393108933
 30
0.0
 41
1.0
 10
1298.907618746912
 20
451.9584002330303
 30
0.0
 41
1.0
  0
LINE
  5
DE
330
1F
100
AcDbEntity
  8
7
  6
________________
 62
     7
370
     9
100
AcDbLine
 10
1298.907618746912
 20
451.9584002330303
 30
0.0
 11
1298.901734109951
 21
451.9908264745084
 31
0.0
  0
LINE
  5
DF
330
1F
100
AcDbEntity
  8
7
  6
________________
 62
     7
370
     9
100
AcDbLine
 10
1298.901734109951
 20
451.9908264745084
 30
0.0
 11
1298.89493928771
 21
452.0278527142472
 31
0.0
  0
LINE
  5
E0
330
1F
100
AcDbEntity
  8
7
  6
________________
 62
     7
370
     9
100
AcDbLine
 10
1298.89493928771
 20
452.0278527142472
 30
0.0
 11
1298.882718255298
 21
452.09332498521
 31
0.0
  0
LINE
  5
E1
330
1F
100
AcDbEntity
  8
7
  6
________________
 62
     7
370
     9
100
AcDbLine
 10
1298.882718255298
 20
452.0933249852101
 30
0.0
 11
1298.870038796096
 21
452.1597251546879
 31
0.0
  0
SPLINE
  5
E2
330
1F
100
AcDbEntity
  8
7
  6
________________
 62
     7
370
     9
100
AcDbSpline
210
0.0
220
0.0
230
1.0
 70
    12
 71
     3
 72
     9
 73
     5
 74
     0
 42
0.000000001
 43
0.0001
 40
0.5030656115352505
 40
0.5030656115352505
 40
0.5030656115352505
 40
0.5030656115352505
 40
0.507360719018938
 40
0.5114510957554799
 40
0.5114510957554799
 40
0.5114510957554799
 40
0.5114510957554799
 10
1298.870038796096
 20
452.1597251546879
 30
0.0
 41
1.0
 10
1298.782563098054
 20
452.6124436093722
 30
0.0
 41
1.0
 10
1298.611781321726
 20
453.2788531258462
 30
0.0
 41
1.0
 10
1298.440999545397
 20
453.4987212910091
 30
0.0
 41
1.0
 10
1298.357693467111
 20
453.4994794837953
 30
0.0
 41
1.0
  0
ARC
  5
E3
330
1F
100
AcDbEntity
  8
7
  6
________________
 62
     7
370
     9
100
AcDbCircle
 10
-1301.967802259732
 20
402.8022447151733
 30
0.0
 40
1.903647758422661
210
0.0
220
0.0
230
-1.0
100
AcDbArc
 50
178.709438753506
 51
223.141488756332
  0
SPLINE
  5
E4
330
1F
100
AcDbEntity
  8
7
  6
________________
 62
     7
370
     9
100
AcDbSpline
210
0.0
220
0.0
230
1.0
 70
    12
 71
     3
 72
    18
 73
    14
 74
     0
 42
0.000000001
 43
0.0001
 40
0.2659645002885428
 40
0.2659645002885428
 40
0.2659645002885428
 40
0.2659645002885428
 40
0.268602733598261
 40
0.276063920642658
 40
0.283525107687054
 40
0.29098629473145
 40
0.298447481775846
 40
0.305908668820242
 40
0.313369855864639
 40
0.320831042909035
 40
0.328292229953431
 40
0.335753416997827
 40
0.3388081956187672
 40
0.3388081956187672
 40
0.3388081956187672
 40
0.3388081956187672
 10
1313.356697366333
 20
401.5004743948347
 30
0.0
 41
1.0
 10
1313.302966161412
 20
401.5004597512941
 30
0.0
 41
1.0
 10
1313.09727774764
 20
401.6701280865048
 30
0.0
 41
1.0
 10
1312.739632125019
 20
403.0996745662519
 30
0.0
 41
1.0
 10
1312.283760498469
 20
406.9100832974093
 30
0.0
 41
1.0
 10
1311.827888871919
 20
412.398246575492
 30
0.0
 41
1.0
 10
1311.372017245369
 20
419.116965636314
 30
0.0
 41
1.0
 10
1310.916145618819
 20
426.51877082406
 30
0.0
 41
1.0
 10
1310.460273992269
 20
434.0005317351715
 30
0.0
 41
1.0
 10
1310.004402365719
 20
440.9526028354601
 30
0.0
 41
1.0
 10
1309.548530739169
 20
446.8084999576272
 30
0.0
 41
1.0
 10
1309.182401605482
 20
450.2479988077042
 30
0.0
 41
1.0
 10
1308.968229680645
 20
451.6235457028924
 30
0.0
 41
1.0
 10
1308.906014964658
 20
451.9672230821947
 30
0.0
 41
1.0
  0
LINE
  5
E5
330
1F
100
AcDbEntity
  8
7
  6
________________
 62
     7
370
     9
100
AcDbLine
 10
1308.906014964658
 20
451.9672230821947
 30
0.0
 11
1308.894885607095
 21
452.0281054531152
 31
0.0
  0
LINE
  5
E6
330
1F
100
AcDbEntity
  8
7
  6
________________
 62
     7
370
     9
100
AcDbLine
 10
1308.894885607095
 20
452.0281054531152
 30
0.0
 11
1308.885859928981
 21
452.0766020691561
 31
0.0
  0
ARC
  5
E7
330
1F
100
AcDbEntity
  8
7
  6
________________
 62
     7
370
     9
100
AcDbCircle
 10
1306.784312529282
 20
452.1060571942252
 30
0.0
 40
2.101753809933712
100
AcDbArc
 50
359.1969993854379
 51
41.52893982147236
  0
SPLINE
  5
E8
330
1F
100
AcDbEntity
  8
7
  6
________________
 62
     7
370
     9
100
AcDbSpline
210
0.0
220
0.0
230
1.0
 70
    12
 71
     3
 72
    10
 73
     6
 74
     0
 42
0.000000001
 43
0.0001
 40
0.167761294002341
 40
0.167761294002341
 40
0.167761294002341
 40
0.167761294002341
 40
0.171607302021111
 40
0.179068489065507
 40
0.1841255030979867
 40
0.1841255030979867
 40
0.1841255030979867
 40
0.1841255030979867
 10
1315.856822428981
 20
448.5345988168507
 30
0.0
 41
1.0
 10
1315.778493251563
 20
449.2866878660947
 30
0.0
 41
1.0
 10
1315.548206865295
 20
451.2739043339963
 30
0.0
 41
1.0
 10
1315.214927519205
 20
453.0948993702955
 30
0.0
 41
1.0
 10
1314.959977350533
 20
453.4992254386277
 30
0.0
 41
1.0
 10
1314.856984390711
 20
453.499592701994
 30
0.0
 41
1.0
  0
LINE
  5
E9
330
1F
100
AcDbEntity
  8
7
  6
________________
 62
     7
370
     9
100
AcDbLine
 10
1313.984683542803
 20
403.4970423730108
 30
0.0
 11
1313.907684012855
 21
403.042049980547
 31
0.0
  0
LINE
  5
EA
330
1F
100
AcDbEntity
  8
7
  6
________________
 62
     7
370
     9
100
AcDbLine
 10
1313.907684012855
 20
403.042049980547
 30
0.0
 11
1313.900530467761
 21
403.0026615233177
 31
0.0
  0
LINE
  5
EB
330
1F
100
AcDbEntity
  8
7
  6
________________
 62
     7
370
     9
100
AcDbLine
 10
1313.900530467761
 20
403.0026615233177
 30
0.0
 11
1313.894948914988
 21
402.9722712052532
 31
0.0
  0
LINE
  5
EC
330
1F
100
AcDbEntity
  8
7
  6
________________
 62
     7
370
     9
100
AcDbLine
 10
1313.894948914988
 20
402.9722712052532
 30
0.0
 11
1313.882727967324
 21
402.9067811150258
 31
0.0
  0
LINE
  5
ED
330
1F
100
AcDbEntity
  8
7
  6
________________
 62
     7
370
     9
100
AcDbLine
 10
1313.882727967324
 20
402.9067811150257
 30
0.0
 11
1313.869992869457
 21
402.8400733788459
 31
0.0
  0
ARC
  5
EE
330
1F
100
AcDbEntity
  8
7
  6
________________
 62
     7
370
     9
100
AcDbCircle
 10
-1311.762624818413
 20
402.8794162634794
 30
0.0
 40
2.107735269224742
210
0.0
220
0.0
230
-1.0
100
AcDbArc
 50
181.069542364386
 51
220.8612263800581
  0
LINE
  5
EF
330
1F
100
AcDbEntity
  8
7
  6
________________
 62
     7
370
     9
100
AcDbLine
 10
1149.856822428981
 20
401.5004887281995
 30
0.0
 11
1149.856822424689
 21
414.1342936344359
 31
0.0
  0
LINE
  5
F0
330
1F
100
AcDbEntity
  8
7
  6
________________
 62
     7
370
     9
100
AcDbLine
 10
1149.856822424689
 20
414.1342936344359
 30
0.0
 11
1149.856822423925
 21
418.4222006524465
 31
0.0
  0
LINE
  5
F1
330
1F
100
AcDbEntity
  8
7
  6
________________
 62
     7
370
     9
100
AcDbLine
 10
1149.856822423925
 20
418.4222006524465
 30
0.0
 11
1149.856822423067
 21
423.600693643423
 31
0.0
  0
LINE
  5
F2
330
1F
100
AcDbEntity
  8
7
  6
________________
 62
     7
370
     9
100
AcDbLine
 10
1149.856822423067
 20
423.600693643423
 30
0.0
 11
1149.856822422495
 21
427.1606460340421
 31
0.0
  0
LINE
  5
F3
330
1F
100
AcDbEntity
  8
7
  6
________________
 62
     7
370
     9
100
AcDbLine
 10
1149.856822422495
 20
427.1606460340421
 30
0.0
 11
1149.856822420969
 21
436.4938200448022
 31
0.0
  0
LINE
  5
F4
330
1F
100
AcDbEntity
  8
7
  6
________________
 62
     7
370
     9
100
AcDbLine
 10
1149.856822420969
 20
436.4938200448022
 30
0.0
 11
1149.85682242011
 21
441.3027212727609
 31
0.0
  0
LINE
  5
F5
330
1F
100
AcDbEntity
  8
7
  6
________________
 62
     7
370
     9
100
AcDbLine
 10
1149.856822420109
 20
441.3027212727609
 30
0.0
 11
1149.856822419919
 21
442.2972211696136
 31
0.0
  0
LINE
  5
F6
330
1F
100
AcDbEntity
  8
7
  6
________________
 62
     7
370
     9
100
AcDbLine
 10
1149.856822419919
 20
442.2972211696136
 30
0.0
 11
1149.856822419824
 21
442.7829538388927
 31
0.0
  0
ARC
  5
F7
330
1F
100
AcDbEntity
  8
7
  6
________________
 62
     7
370
     9
100
AcDbCircle
 10
-1586.828532464523
 20
440.1939524742731
 30
0.0
 40
280.1120621404568
210
0.0
220
0.0
230
-1.0
100
AcDbArc
 50
352.7899910384813
 51
357.4026168238789
  0
ARC
  5
F8
330
1F
100
AcDbEntity
  8
7
  6
________________
 62
     7
370
     9
100
AcDbCircle
 10
-1576.944783383055
 20
440.202149113035
 30
0.0
 40
280.2285702273387
210
0.0
220
0.0
230
-1.0
100
AcDbArc
 50
352.7917746988425
 51
357.4020198390335
  0
ARC
  5
F9
330
1F
100
AcDbEntity
  8
7
  6
________________
 62
     7
370
     9
100
AcDbCircle
 10
-1566.859773027874
 20
440.1964782722382
 30
0.0
 40
280.1433957920303
210
0.0
220
0.0
230
-1.0
100
AcDbArc
 50
352.790422275412
 51
357.402390421599
  0
ARC
  5
FA
330
1F
100
AcDbEntity
  8
7
  6
________________
 62
     7
370
     9
100
AcDbCircle
 10
-1556.879085711746
 20
440.1975369217108
 30
0.0
 40
280.162732476693
210
0.0
220
0.0
230
-1.0
100
AcDbArc
 50
352.7907639544252
 51
357.4023531042272
  0
ARC
  5
FB
330
1F
100
AcDbEntity
  8
7
  6
________________
 62
     7
370
     9
100
AcDbCircle
 10
-1546.872927191026
 20
440.1971064694251
 30
0.0
 40
280.1565375438993
210
0.0
220
0.0
230
-1.0
100
AcDbArc
 50
352.7906682949584
 51
357.4023837484716
  0
ARC
  5
FC
330
1F
100
AcDbEntity
  8
7
  6
________________
 62
     7
370
     9
100
AcDbCircle
 10
-1536.842559488468
 20
440.1953248433232
 30
0.0
 40
280.1261162048223
210
0.0
220
0.0
230
-1.0
100
AcDbArc
 50
352.790148264699
 51
357.4024662381139
  0
ARC
  5
FD
330
1F
100
AcDbEntity
  8
7
  6
________________
 62
     7
370
     9
100
AcDbCircle
 10
-1526.825449619137
 20
440.193776151982
 30
0.0
 40
280.1089228528361
210
0.0
220
0.0
230
-1.0
100
AcDbArc
 50
352.7899362264305
 51
357.4026237975575
  0
ARC
  5
FE
330
1F
100
AcDbEntity
  8
7
  6
________________
 62
     7
370
     9
100
AcDbCircle
 10
-1516.805292632886
 20
440.1922950268614
 30
0.0
 40
280.088739557178
210
0.0
220
0.0
230
-1.0
100
AcDbArc
 50
352.7896363467123
 51
357.4027397962851
  0
ARC
  5
FF
330
1F
100
AcDbEntity
  8
7
  6
________________
 62
     7
370
     9
100
AcDbCircle
 10
-1506.784364779746
 20
440.1909147934945
 30
0.0
 40
280.0677751774251
210
0.0
220
0.0
230
-1.0
100
AcDbArc
 50
352.7893008958085
 51
357.4028279020691
  0
LINE
  5
100
330
1F
100
AcDbEntity
  8
7
  6
________________
 62
     7
370
     9
100
AcDbLine
 10
1218.931598296444
 20
405.0371818301266
 30
0.0
 11
1218.856822428981
 21
405.4588824135732
 31
0.0
  0
ARC
  5
101
330
1F
100
AcDbEntity
  8
7
  6
________________
 62
     7
370
     9
100
AcDbCircle
 10
-1466.816656212499
 20
440.1930534769126
 30
0.0
 40
280.1001069845903
210
0.0
220
0.0
230
-1.0
100
AcDbArc
 50
352.7898166981112
 51
357.4026899702869
  0
ARC
  5
102
330
1F
100
AcDbEntity
  8
7
  6
________________
 62
     7
370
     9
100
AcDbCircle
 10
-1456.775064528763
 20
440.1901674616048
 30
0.0
 40
280.0584513632801
210
0.0
220
0.0
230
-1.0
100
AcDbArc
 50
352.7891718785323
 51
357.4028944269038
  0
ARC
  5
103
330
1F
100
AcDbEntity
  8
7
  6
________________
 62
     7
370
     9
100
AcDbCircle
 10
-1446.873622443137
 20
440.19722615998
 30
0.0
 40
280.1572298387327
210
0.0
220
0.0
230
-1.0
100
AcDbArc
 50
352.790668163747
 51
357.4023656683808
  0
ARC
  5
104
330
1F
100
AcDbEntity
  8
7
  6
________________
 62
     7
370
     9
100
AcDbCircle
 10
-1436.86198182792
 20
440.1963206950985
 30
0.0
 40
280.1455740369632
210
0.0
220
0.0
230
-1.0
100
AcDbArc
 50
352.7905026172698
 51
357.4024428939688
  0
SPLINE
  5
105
330
1F
100
AcDbEntity
  8
7
  6
________________
 62
     7
370
     9
100
AcDbSpline
210
0.0
220
0.0
230
1.0
 70
    12
 71
     3
 72
    18
 73
    14
 74
     0
 42
0.000000001
 43
0.0001
 40
2.729696879388375
 40
2.729696879388375
 40
2.729696879388375
 40
2.729696879388375
 40
2.73079445824899
 40
2.73825564529339
 40
2.74571683233779
 40
2.75317801938218
 40
2.76063920642658
 40
2.76810039347097
 40
2.77556158051537
 40
2.78302276755977
 40
2.79048395460417
 40
2.79794514164856
 40
2.802824839288023
 40
2.802824839288023
 40
2.802824839288023
 40
2.802824839288023
 10
1159.324928043175
 20
402.9390101118485
 30
0.0
 41
1.0
 10
1159.302574358814
 20
403.0587417511606
 30
0.0
 41
1.0
 10
1159.128263465603
 20
404.0491540703194
 30
0.0
 41
1.0
 10
1158.801995363542
 20
406.7228934290177
 30
0.0
 41
1.0
 10
1158.346123736991
 20
412.1517302220473
 30
0.0
 41
1.0
 10
1157.890252110441
 20
418.8312099932994
 30
0.0
 41
1.0
 10
1157.434380483891
 20
426.2170604702941
 30
0.0
 41
1.0
 10
1156.978508857341
 20
433.7074513068083
 30
0.0
 41
1.0
 10
1156.522637230791
 20
440.6920337658188
 30
0.0
 41
1.0
 10
1156.066765604241
 20
446.6016745169637
 30
0.0
 41
1.0
 10
1155.610893977691
 20
450.9548310282917
 30
0.0
 41
1.0
 10
1155.207597889366
 20
453.1151593278053
 30
0.0
 41
1.0
 10
1154.95625900989
 20
453.4993469977119
 30
0.0
 41
1.0
 10
1154.856877339264
 20
453.4995665980803
 30
0.0
 41
1.0
  0
SPLINE
  5
106
330
1F
100
AcDbEntity
  8
7
  6
________________
 62
     7
370
     9
100
AcDbSpline
210
0.0
220
0.0
230
1.0
 70
    12
 71
     3
 72
    18
 73
    14
 74
     0
 42
0.000000001
 43
0.0001
 40
2.566034197826122
 40
2.566034197826122
 40
2.566034197826122
 40
2.566034197826122
 40
2.56664834327228
 40
2.57410953031668
 40
2.58157071736107
 40
2.58903190440547
 40
2.59649309144987
 40
2.60395427849426
 40
2.61141546553865
 40
2.61887665258305
 40
2.62633783962745
 40
2.63379902667185
 40
2.639159335758796
 40
2.639159335758796
 40
2.639159335758796
 40
2.639159335758796
 10
1169.324566492844
 20
402.9408738403816
 30
0.0
 41
1.0
 10
1169.312058586626
 20
403.0079221924789
 30
0.0
 41
1.0
 10
1169.147593471558
 20
403.9195608117004
 30
0.0
 41
1.0
 10
1168.83117114764
 20
406.4290828880613
 30
0.0
 41
1.0
 10
1168.37529952109
 20
411.761515577629
 30
0.0
 41
1.0
 10
1167.91942789454
 20
418.3763875856353
 30
0.0
 41
1.0
 10
1167.46355626799
 20
425.734691153503
 30
0.0
 41
1.0
 10
1167.00768464144
 20
433.2368405737154
 30
0.0
 41
1.0
 10
1166.55181301489
 20
440.2715289700993
 30
0.0
 41
1.0
 10
1166.09594138834
 20
446.2655401685192
 30
0.0
 41
1.0
 10
1165.640069761791
 20
450.7304567760083
 30
0.0
 41
1.0
 10
1165.226985368511
 20
453.0610553663078
 30
0.0
 41
1.0
 10
1164.965858184082
 20
453.4995478440072
 30
0.0
 41
1.0
 10
1164.856688208503
 20
453.4996430710621
 30
0.0
 41
1.0
  0
SPLINE
  5
107
330
1F
100
AcDbEntity
  8
7
  6
________________
 62
     7
370
     9
100
AcDbSpline
210
0.0
220
0.0
230
1.0
 70
    12
 71
     3
 72
    18
 73
    14
 74
     0
 42
0.000000001
 43
0.0001
 40
2.402358374041527
 40
2.402358374041527
 40
2.402358374041527
 40
2.402358374041527
 40
2.40250222829557
 40
2.40996341533996
 40
2.41742460238435
 40
2.42488578942876
 40
2.43234697647315
 40
2.43980816351755
 40
2.44726935056194
 40
2.45473053760634
 40
2.46219172465073
 40
2.46965291169513
 40
2.475488716196322
 40
2.475488716196322
 40
2.475488716196322
 40
2.475488716196322
 10
1179.32500792014
 20
402.9384647955278
 30
0.0
 41
1.0
 10
1179.322078132856
 20
402.9541612639561
 30
0.0
 41
1.0
 10
1179.167191136723
 20
403.7906155539474
 30
0.0
 41
1.0
 10
1178.860346931739
 20
406.1423530495464
 30
0.0
 41
1.0
 10
1178.404475305189
 20
411.3765897180731
 30
0.0
 41
1.0
 10
1177.94860367864
 20
417.9246310926882
 30
0.0
 41
1.0
 10
1177.492732052089
 20
425.2529150575804
 30
0.0
 41
1.0
 10
1177.036860425539
 20
432.7643020294965
 30
0.0
 41
1.0
 10
1176.580988798989
 20
439.8467324174659
 30
0.0
 41
1.0
 10
1176.12511717244
 20
445.9230998278841
 30
0.0
 41
1.0
 10
1175.669245545889
 20
450.4982761351839
 30
0.0
 41
1.0
 10
1175.246477042623
 20
453.0033103653906
 30
0.0
 41
1.0
 10
1174.975665748208
 20
453.499447826483
 30
0.0
 41
1.0
 10
1174.856811662643
 20
453.4997318001432
 30
0.0
 41
1.0
  0
SPLINE
  5
108
330
1F
100
AcDbEntity
  8
7
  6
________________
 62
     7
370
     9
100
AcDbSpline
210
0.0
220
0.0
230
1.0
 70
    12
 71
     3
 72
    17
 73
    13
 74
     0
 42
0.000000001
 43
0.0001
 40
2.238688857999101
 40
2.238688857999101
 40
2.238688857999101
 40
2.238688857999101
 40
2.24581730036325
 40
2.25327848740764
 40
2.26073967445204
 40
2.26820086149643
 40
2.27566204854083
 40
2.28312323558523
 40
2.29058442262962
 40
2.29804560967402
 40
2.30550679671842
 40
2.311812943384282
 40
2.311812943384282
 40
2.311812943384282
 40
2.311812943384282
 10
1189.325063950225
 20
402.9381689703052
 30
0.0
 41
1.0
 10
1189.179883538763
 20
403.7161540191507
 30
0.0
 41
1.0
 10
1188.88274591845
 20
405.9391243564215
 30
0.0
 41
1.0
 10
1188.433651089288
 20
410.9970819943644
 30
0.0
 41
1.0
 10
1187.977779462738
 20
417.4760923232944
 30
0.0
 41
1.0
 10
1187.521907836188
 20
424.771894079189
 30
0.0
 41
1.0
 10
1187.066036209638
 20
432.289994466615
 30
0.0
 41
1.0
 10
1186.610164583089
 20
439.4177868571018
 30
0.0
 41
1.0
 10
1186.154292956538
 20
445.5744685691544
 30
0.0
 41
1.0
 10
1185.698421329988
 20
450.2583671281004
 30
0.0
 41
1.0
 10
1185.266073669664
 20
452.941812816302
 30
0.0
 41
1.0
 10
1184.985683218189
 20
453.4989596578609
 30
0.0
 41
1.0
 10
1184.857249975564
 20
453.4998197500152
 30
0.0
 41
1.0
  0
SPLINE
  5
109
330
1F
100
AcDbEntity
  8
7
  6
________________
 62
     7
370
     9
100
AcDbSpline
210
0.0
220
0.0
230
1.0
 70
    12
 71
     3
 72
    18
 73
    14
 74
     0
 42
0.000000001
 43
0.0001
 40
1.584012900967146
 40
1.584012900967146
 40
1.584012900967146
 40
1.584012900967146
 40
1.58923284045638
 40
1.59669402750078
 40
1.60415521454517
 40
1.61161640158957
 40
1.61907758863397
 40
1.62653877567836
 40
1.63399996272276
 40
1.64146114976715
 40
1.64892233681155
 40
1.65638352385595
 40
1.657151515928229
 40
1.657151515928229
 40
1.657151515928229
 40
1.657151515928229
 10
1229.325159326398
 20
402.9379469278602
 30
0.0
 41
1.0
 10
1229.218848168343
 20
403.5077109498525
 30
0.0
 41
1.0
 10
1228.960579801439
 20
405.2905663982343
 30
0.0
 41
1.0
 10
1228.550354225685
 20
409.5357548569877
 30
0.0
 41
1.0
 10
1228.094482599135
 20
415.717111751907
 30
0.0
 41
1.0
 10
1227.638610972585
 20
422.8585892529523
 30
0.0
 41
1.0
 10
1227.182739346035
 20
430.3782695579178
 30
0.0
 41
1.0
 10
1226.726867719485
 20
437.6634172999675
 30
0.0
 41
1.0
 10
1226.270996092935
 20
444.1204078177929
 30
0.0
 41
1.0
 10
1225.815124466385
 20
449.2230982046297
 30
0.0
 41
1.0
 10
1225.359252839835
 20
452.5556996583972
 30
0.0
 41
1.0
 10
1225.039697220403
 20
453.4606318292301
 30
0.0
 41
1.0
 10
1224.87209880982
 20
453.499988595466
 30
0.0
 41
1.0
 10
1224.856457608088
 20
453.4998833348134
 30
0.0
 41
1.0
  0
SPLINE
  5
10A
330
1F
100
AcDbEntity
  8
7
  6
________________
 62
     7
370
     9
100
AcDbSpline
210
0.0
220
0.0
230
1.0
 70
    12
 71
     3
 72
    18
 73
    14
 74
     0
 42
0.000000001
 43
0.0001
 40
1.420344818319077
 40
1.420344818319077
 40
1.420344818319077
 40
1.420344818319077
 40
1.42508672547966
 40
1.43254791252406
 40
1.44000909956845
 40
1.44747028661285
 40
1.45493147365725
 40
1.46239266070164
 40
1.46985384774604
 40
1.47731503479043
 40
1.48477622183483
 40
1.49223740887923
 40
1.493492300636352
 40
1.493492300636352
 40
1.493492300636352
 40
1.493492300636352
 10
1239.325127777413
 20
402.9381855816371
 30
0.0
 41
1.0
 10
1239.228552397053
 20
403.4557430413071
 30
0.0
 41
1.0
 10
1238.980019807844
 20
405.1358597460703
 30
0.0
 41
1.0
 10
1238.579530009784
 20
409.185212865465
 30
0.0
 41
1.0
 10
1238.123658383234
 20
415.286899123072
 30
0.0
 41
1.0
 10
1237.667786756684
 20
422.3837615320217
 30
0.0
 41
1.0
 10
1237.211915130134
 20
429.8975177165778
 30
0.0
 41
1.0
 10
1236.756043503584
 20
437.2159150322997
 30
0.0
 41
1.0
 10
1236.300171877034
 20
443.7426195019387
 30
0.0
 41
1.0
 10
1235.844300250484
 20
448.9458076309781
 30
0.0
 41
1.0
 10
1235.388428623934
 20
452.4015016360986
 30
0.0
 41
1.0
 10
1235.058956631054
 20
453.432558983774
 30
0.0
 41
1.0
 10
1234.881441847023
 20
453.5001357229054
 30
0.0
 41
1.0
 10
1234.855884271843
 20
453.4997971132731
 30
0.0
 41
1.0
  0
SPLINE
  5
10B
330
1F
100
AcDbEntity
  8
7
  6
________________
 62
     7
370
     9
100
AcDbSpline
210
0.0
220
0.0
230
1.0
 70
    12
 71
     3
 72
    18
 73
    14
 74
     0
 42
0.000000001
 43
0.0001
 40
1.256675227177136
 40
1.256675227177136
 40
1.256675227177136
 40
1.256675227177136
 40
1.26094061050295
 40
1.26840179754734
 40
1.27586298459174
 40
1.28332417163613
 40
1.29078535868053
 40
1.29824654572493
 40
1.30570773276932
 40
1.31316891981372
 40
1.32063010685812
 40
1.32809129390251
 40
1.329810184791929
 40
1.329810184791929
 40
1.329810184791929
 40
1.329810184791929
 10
1249.325188396009
 20
402.9379095340753
 30
0.0
 41
1.0
 10
1249.238318070817
 20
403.4033343415074
 30
0.0
 41
1.0
 10
1248.999490536775
 20
404.9837090667628
 30
0.0
 41
1.0
 10
1248.608705793883
 20
408.840825402901
 30
0.0
 41
1.0
 10
1248.152834167333
 20
414.8607906046535
 30
0.0
 41
1.0
 10
1247.696962540783
 20
421.9106530826841
 30
0.0
 41
1.0
 10
1247.241090914233
 20
429.4159602144836
 30
0.0
 41
1.0
 10
1246.785219287683
 20
436.7651478201782
 30
0.0
 41
1.0
 10
1246.329347661133
 20
443.3593729994184
 30
0.0
 41
1.0
 10
1245.873476034583
 20
448.6613103845912
 30
0.0
 41
1.0
 10
1245.417604408033
 20
452.2389356851823
 30
0.0
 41
1.0
 10
1245.078682442564
 20
453.4000652223002
 30
0.0
 41
1.0
 10
1244.891717685944
 20
453.4998840753249
 30
0.0
 41
1.0
 10
1244.856710138175
 20
453.4997137797848
 30
0.0
 41
1.0
  0
SPLINE
  5
10C
330
1F
100
AcDbEntity
  8
7
  6
________________
 62
     7
370
     9
100
AcDbSpline
210
0.0
220
0.0
230
1.0
 70
    12
 71
     3
 72
    18
 73
    14
 74
     0
 42
0.000000001
 43
0.0001
 40
1.093011141190261
 40
1.093011141190261
 40
1.093011141190261
 40
1.093011141190261
 40
1.09679449552623
 40
1.10425568257063
 40
1.11171686961502
 40
1.11917805665942
 40
1.12663924370381
 40
1.13410043074821
 40
1.14156161779261
 40
1.149022804837
 40
1.1564839918814
 40
1.1639451789258
 40
1.166138210098418
 40
1.166138210098418
 40
1.166138210098418
 40
1.166138210098418
 10
1259.324912654723
 20
402.9394097051759
 30
0.0
 41
1.0
 10
1259.247859504659
 20
403.3523694140572
 30
0.0
 41
1.0
 10
1259.018849145746
 20
404.8354975260597
 30
0.0
 41
1.0
 10
1258.637881577982
 20
408.5027081977044
 30
0.0
 41
1.0
 10
1258.182009951432
 20
414.4389293867088
 30
0.0
 41
1.0
 10
1257.726138324882
 20
421.4394228889146
 30
0.0
 41
1.0
 10
1257.270266698332
 20
428.9337588748414
 30
0.0
 41
1.0
 10
1256.814395071782
 20
436.3112671399995
 30
0.0
 41
1.0
 10
1256.358523445232
 20
442.9707970968827
 30
0.0
 41
1.0
 10
1255.902651818682
 20
448.3697020682923
 30
0.0
 41
1.0
 10
1255.446780192133
 20
452.0680564345196
 30
0.0
 41
1.0
 10
1255.098201715761
 20
453.3652300182137
 30
0.0
 41
1.0
 10
1254.901580448239
 20
453.4997354741466
 30
0.0
 41
1.0
 10
1254.856916389567
 20
453.4996272455815
 30
0.0
 41
1.0
  0
SPLINE
  5
10D
330
1F
100
AcDbEntity
  8
7
  6
________________
 62
     7
370
     9
100
AcDbSpline
210
0.0
220
0.0
230
1.0
 70
    12
 71
     3
 72
    18
 73
    14
 74
     0
 42
0.000000001
 43
0.0001
 40
0.9293413624620762
 40
0.9293413624620762
 40
0.9293413624620762
 40
0.9293413624620762
 40
0.932648380549514
 40
0.940109567593911
 40
0.947570754638307
 40
0.955031941682703
 40
0.962493128727099
 40
0.969954315771495
 40
0.977415502815892
 40
0.984876689860288
 40
0.992337876904684
 40
0.99979906394908
 40
1.002467051712253
 40
1.002467051712253
 40
1.002467051712253
 40
1.002467051712253
 10
1269.324984734665
 20
402.9390174009546
 30
0.0
 41
1.0
 10
1269.257632819321
 20
403.2998714726631
 30
0.0
 41
1.0
 10
1269.038323695126
 20
404.6889895993291
 30
0.0
 41
1.0
 10
1268.667057362081
 20
408.1709748712171
 30
0.0
 41
1.0
 10
1268.211185735532
 20
414.0214572320276
 30
0.0
 41
1.0
 10
1267.755314108981
 20
420.9702293035171
 30
0.0
 41
1.0
 10
1267.299442482431
 20
428.4510757372129
 30
0.0
 41
1.0
 10
1266.843570855882
 20
435.8544255144145
 30
0.0
 41
1.0
 10
1266.387699229332
 20
442.57702237188
 30
0.0
 41
1.0
 10
1265.931827602782
 20
448.0710806745167
 30
0.0
 41
1.0
 10
1265.475955976232
 20
451.8889213065959
 30
0.0
 41
1.0
 10
1265.11770436375
 20
453.3274622966235
 30
0.0
 41
1.0
 10
1264.911409960117
 20
453.4995638164908
 30
0.0
 41
1.0
 10
1264.857072765335
 20
453.4995547163906
 30
0.0
 41
1.0
  0
SPLINE
  5
10E
330
1F
100
AcDbEntity
  8
7
  6
________________
 62
     7
370
     9
100
AcDbSpline
210
0.0
220
0.0
230
1.0
 70
    12
 71
     3
 72
    18
 73
    14
 74
     0
 42
0.000000001
 43
0.0001
 40
0.7656757939574472
 40
0.7656757939574472
 40
0.7656757939574472
 40
0.7656757939574472
 40
0.768502265572801
 40
0.775963452617197
 40
0.783424639661593
 40
0.790885826705989
 40
0.798347013750385
 40
0.805808200794781
 40
0.813269387839177
 40
0.820730574883573
 40
0.828191761927969
 40
0.835652948972365
 40
0.8387990164867707
 40
0.8387990164867707
 40
0.8387990164867707
 40
0.8387990164867707
 10
1279.324799573842
 20
402.9399752592563
 30
0.0
 41
1.0
 10
1279.267234640138
 20
403.2484439693919
 30
0.0
 41
1.0
 10
1279.057712497584
 20
404.5460996271494
 30
0.0
 41
1.0
 10
1278.696233146181
 20
407.8457368995378
 30
0.0
 41
1.0
 10
1278.240361519631
 20
413.6085144284941
 30
0.0
 41
1.0
 10
1277.784489893081
 20
420.5032299949129
 30
0.0
 41
1.0
 10
1277.328618266531
 20
427.9680730030656
 30
0.0
 41
1.0
 10
1276.872746639981
 20
435.3947764610758
 30
0.0
 41
1.0
 10
1276.416875013431
 20
442.1781811489799
 30
0.0
 41
1.0
 10
1275.961003386881
 20
447.7655465523849
 30
0.0
 41
1.0
 10
1275.505131760331
 20
451.7015904982113
 30
0.0
 41
1.0
 10
1275.137143404329
 20
453.2869666779292
 30
0.0
 41
1.0
 10
1274.921112257177
 20
453.499481614217
 30
0.0
 41
1.0
 10
1274.857038318875
 20
453.4995047796843
 30
0.0
 41
1.0
  0
SPLINE
  5
10F
330
1F
100
AcDbEntity
  8
7
  6
________________
 62
     7
370
     9
100
AcDbSpline
210
0.0
220
0.0
230
1.0
 70
    12
 71
     3
 72
    18
 73
    14
 74
     0
 42
0.000000001
 43
0.0001
 40
0.602006893722701
 40
0.602006893722701
 40
0.602006893722701
 40
0.602006893722701
 40
0.604356150596087
 40
0.611817337640483
 40
0.619278524684879
 40
0.626739711729275
 40
0.634200898773671
 40
0.641662085818068
 40
0.649123272862464
 40
0.65658445990686
 40
0.664045646951256
 40
0.671506833995652
 40
0.6751333723113894
 40
0.6751333723113894
 40
0.6751333723113894
 40
0.6751333723113894
 10
1289.324817978648
 20
402.9398174955828
 30
0.0
 41
1.0
 10
1289.276972171375
 20
403.1961611785928
 30
0.0
 41
1.0
 10
1289.077169155252
 20
404.4053871720316
 30
0.0
 41
1.0
 10
1288.72540893028
 20
407.5271035760529
 30
0.0
 41
1.0
 10
1288.26953730373
 20
413.2002397419408
 30
0.0
 41
1.0
 10
1287.81366567718
 20
420.0385818941521
 30
0.0
 41
1.0
 10
1287.35779405063
 20
427.4849129812621
 30
0.0
 41
1.0
 10
1286.90192242408
 20
434.9324744410447
 30
0.0
 41
1.0
 10
1286.44605079753
 20
441.7744074553021
 30
0.0
 41
1.0
 10
1285.99017917098
 20
447.4532023739782
 30
0.0
 41
1.0
 10
1285.53430754443
 20
451.506126960253
 30
0.0
 41
1.0
 10
1285.156533747925
 20
453.2437168161615
 30
0.0
 41
1.0
 10
1284.93071716027
 20
453.4995182916923
 30
0.0
 41
1.0
 10
1284.856857781465
 20
453.4994829965519
 30
0.0
 41
1.0
  0
SPLINE
  5
110
330
1F
100
AcDbEntity
  8
7
  6
________________
 62
     7
370
     9
100
AcDbSpline
210
0.0
220
0.0
230
1.0
 70
    12
 71
     3
 72
    18
 73
    14
 74
     0
 42
0.000000001
 43
0.0001
 40
0.4383382544956482
 40
0.4383382544956482
 40
0.4383382544956482
 40
0.4383382544956482
 40
0.440210035619374
 40
0.447671222663769
 40
0.455132409708166
 40
0.462593596752562
 40
0.470054783796958
 40
0.477515970841354
 40
0.48497715788575
 40
0.492438344930146
 40
0.499899531974542
 40
0.507360719018938
 40
0.511451064226752
 40
0.511451064226752
 40
0.511451064226752
 40
0.511451064226752
 10
1299.324820436125
 20
402.9397267109343
 30
0.0
 41
1.0
 10
1299.28669907106
 20
403.1439508606983
 30
0.0
 41
1.0
 10
1299.096620497144
 20
404.2675229248798
 30
0.0
 41
1.0
 10
1298.754584714379
 20
407.2151819747166
 30
0.0
 41
1.0
 10
1298.298713087829
 20
412.7967703695211
 30
0.0
 41
1.0
 10
1297.842841461279
 20
419.5764411421829
 30
0.0
 41
1.0
 10
1297.386969834729
 20
427.0017580335204
 30
0.0
 41
1.0
 10
1296.931098208179
 20
434.4676748068894
 30
0.0
 41
1.0
 10
1296.475226581629
 20
441.3658369754805
 30
0.0
 41
1.0
 10
1296.019354955079
 20
447.1341530998376
 30
0.0
 41
1.0
 10
1295.563483328529
 20
451.3025963765407
 30
0.0
 41
1.0
 10
1295.176263474668
 20
453.1958430561707
 30
0.0
 41
1.0
 10
1294.941000829657
 20
453.4987276978157
 30
0.0
 41
1.0
 10
1294.857695393496
 20
453.4994875266645
 30
0.0
 41
1.0
  0
SPLINE
  5
111
330
1F
100
AcDbEntity
  8
7
  6
________________
 62
     7
370
     9
100
AcDbSpline
210
0.0
220
0.0
230
1.0
 70
    12
 71
     3
 72
    18
 73
    14
 74
     0
 42
0.000000001
 43
0.0001
 40
0.2746708400813916
 40
0.2746708400813916
 40
0.2746708400813916
 40
0.2746708400813916
 40
0.276063920642658
 40
0.283525107687054
 40
0.29098629473145
 40
0.298447481775846
 40
0.305908668820242
 40
0.313369855864639
 40
0.320831042909035
 40
0.328292229953431
 40
0.335753416997827
 40
0.343214604042223
 40
0.3477804080128099
 40
0.3477804080128099
 40
0.3477804080128099
 40
0.3477804080128099
 10
1309.324748058672
 20
402.9400277364202
 30
0.0
 41
1.0
 10
1309.296376080791
 20
403.0920394711711
 30
0.0
 41
1.0
 10
1309.11604689406
 20
404.1326560311649
 30
0.0
 41
1.0
 10
1308.783760498478
 20
406.9100769140672
 30
0.0
 41
1.0
 10
1308.327888871928
 20
412.3982418936042
 30
0.0
 41
1.0
 10
1307.872017245378
 20
419.1169630373806
 30
0.0
 41
1.0
 10
1307.416145618828
 20
426.5187705198529
 30
0.0
 41
1.0
 10
1306.960273992278
 20
434.0005337504791
 30
0.0
 41
1.0
 10
1306.504402365728
 20
440.9526070060663
 30
0.0
 41
1.0
 10
1306.048530739178
 20
446.8085059436936
 30
0.0
 41
1.0
 10
1305.592659112628
 20
451.0910671417545
 30
0.0
 41
1.0
 10
1305.195755895238
 20
453.146022149719
 30
0.0
 41
1.0
 10
1304.950809886697
 20
453.4984669321302
 30
0.0
 41
1.0
 10
1304.857821087006
 20
453.499523370319
 30
0.0
 41
1.0
  0
LINE
  5
112
330
1F
100
AcDbEntity
  8
7
  6
________________
 62
     7
370
     9
100
AcDbLine
 10
1315.856822428981
 20
448.5345988168493
 30
0.0
 11
1315.856822428981
 21
443.3428154767338
 31
0.0
  0
LWPOLYLINE
  5
113
330
1F
100
AcDbEntity
  8
7
  6
________________
 62
     7
370
     9
100
AcDbPolyline
 90
        4
 70
     0
 43
0.0
 10
1315.856822428982
 20
443.3428154767362
 42
0.0513504912028773
 10
1314.731416647464
 20
451.2560788261692
 10
1314.651030520213
 20
451.3981018570432
 10
1314.570644392961
 20
451.4791701165636
  0
LWPOLYLINE
  5
114
330
1F
100
AcDbEntity
  8
7
  6
________________
 62
     7
370
     9
100
AcDbPolyline
 90
        6
 70
     0
 43
0.0
 10
1307.004246090897
 20
427.5000125
 42
0.0268412791825854
 10
1304.874843798988
 20
450.8524922501025
 10
1304.798793717134
 20
451.0903345784305
 10
1304.72274363528
 20
451.2743210370011
 10
1304.646693553426
 20
451.4040315912458
 10
1304.570643471572
 20
451.4791701165636
  0
LWPOLYLINE
  5
115
330
1F
100
AcDbEntity
  8
7
  6
________________
 62
     7
370
     9
100
AcDbPolyline
 90
        7
 70
     0
 43
0.0
 10
1297.004240951054
 20
427.5000125000106
 42
0.0251193139361658
 10
1294.894901527869
 20
450.7807625766706
 10
1294.816777845529
 20
451.0388592296787
 10
1294.738654163189
 20
451.2402487391556
 10
1294.660530480849
 20
451.3844459401333
 10
1294.582406798509
 20
451.4711034489244
 10
1294.504283116169
 20
451.5000125
  0
LWPOLYLINE
  5
116
330
1F
100
AcDbEntity
  8
7
  6
________________
 62
     7
370
     9
100
AcDbPolyline
 90
        7
 70
     0
 43
0.0
 10
1287.004235361055
 20
427.5000124999843
 42
0.0251196555966471
 10
1284.89486671023
 20
450.7807625766668
 10
1284.816741945384
 20
451.0388592296758
 10
1284.738617180539
 20
451.2402487391535
 10
1284.660492415693
 20
451.3844459401319
 10
1284.582367650848
 20
451.4711034489237
 10
1284.504242886002
 20
451.5000125
  0
LWPOLYLINE
  5
117
330
1F
100
AcDbEntity
  8
7
  6
________________
 62
     7
370
     9
100
AcDbPolyline
 90
        7
 70
     0
 43
0.0
 10
1277.004239499431
 20
427.5000125
 42
0.0251195504980269
 10
1274.894879839362
 20
450.780762576669
 10
1274.816755407507
 20
451.0388592296775
 10
1274.738630975653
 20
451.2402487391548
 10
1274.660506543798
 20
451.3844459401327
 10
1274.582382111944
 20
451.4711034489241
 10
1274.504257680089
 20
451.5000125
  0
LWPOLYLINE
  5
118
330
1F
100
AcDbEntity
  8
7
  6
________________
 62
     7
370
     9
100
AcDbPolyline
 90
        7
 70
     0
 43
0.0
 10
1267.004262754798
 20
427.5000124999997
 42
0.0251191769461044
 10
1264.894935050535
 20
450.780762576669
 10
1264.816811802229
 20
451.0388592296775
 10
1264.738688553923
 20
451.2402487391547
 10
1264.660565305617
 20
451.3844459401327
 10
1264.582442057311
 20
451.4711034489241
 10
1264.504318809005
 20
451.5000125
  0
LWPOLYLINE
  5
119
330
1F
100
AcDbEntity
  8
7
  6
________________
 62
     7
370
     9
100
AcDbPolyline
 90
        7
 70
     0
 43
0.0
 10
1257.004266854128
 20
427.5000125
 42
0.025119456825966
 10
1254.894915207314
 20
450.780762576669
 10
1254.816791072247
 20
451.0388592296775
 10
1254.73866693718
 20
451.2402487391548
 10
1254.660542802113
 20
451.3844459401327
 10
1254.582418667045
 20
451.4711034489241
 10
1254.504294531978
 20
451.5000125
  0
LWPOLYLINE
  5
11A
330
1F
100
AcDbEntity
  8
7
  6
________________
 62
     7
370
     9
100
AcDbPolyline
 90
        7
 70
     0
 43
0.0
 10
1247.004297762949
 20
427.5000125
 42
0.0251197715184821
 10
1244.894919195491
 20
450.780762576669
 10
1244.816794063363
 20
451.0388592296775
 10
1244.738668931235
 20
451.2402487391548
 10
1244.660543799106
 20
451.3844459401327
 10
1244.582418666978
 20
451.4711034489241
 10
1244.50429353485
 20
451.5000125
  0
LWPOLYLINE
  5
11B
330
1F
100
AcDbEntity
  8
7
  6
________________
 62
     7
370
     9
100
AcDbPolyline
 90
        7
 70
     0
 43
0.0
 10
1237.004277640111
 20
427.5000125
 42
0.0251195624404265
 10
1234.894916958418
 20
450.780762576669
 10
1234.816792488726
 20
451.0388592296775
 10
1234.738668019034
 20
451.2402487391548
 10
1234.660543549341
 20
451.3844459401327
 10
1234.582419079649
 20
451.4711034489241
 10
1234.504294609957
 20
451.5000125
  0
LWPOLYLINE
  5
11C
330
1F
100
AcDbEntity
  8
7
  6
________________
 62
     7
370
     9
100
AcDbPolyline
 90
        7
 70
     0
 43
0.0
 10
1227.004273115222
 20
427.5000125
 42
0.0251195448737363
 10
1224.894913936287
 20
450.780762576669
 10
1224.816789522252
 20
451.0388592296775
 10
1224.738665108218
 20
451.2402487391548
 10
1224.660540694183
 20
451.3844459401327
 10
1224.582416280148
 20
451.4711034489241
 10
1224.504291866114
 20
451.5000125
  0
LWPOLYLINE
  5
11D
330
1F
100
AcDbEntity
  8
7
  6
________________
 62
     7
370
     9
100
AcDbPolyline
 90
        6
 70
     0
 43
0.0
 10
1194.856822428981
 20
450.9136751140373
 10
1194.816796175038
 20
451.0388592296775
 10
1194.738671175493
 20
451.2402487391548
 10
1194.660546175948
 20
451.3844459401327
 10
1194.582421176402
 20
451.4711034489241
 10
1194.504296176857
 20
451.5000125
  0
LWPOLYLINE
  5
11E
330
1F
100
AcDbEntity
  8
7
  6
________________
 62
     7
370
     9
100
AcDbPolyline
 90
        7
 70
     0
 43
0.0
 10
1187.004296507755
 20
427.5000125000001
 42
0.0251197671403101
 10
1184.894918314831
 20
450.780762576669
 10
1184.816793196574
 20
451.0388592296775
 10
1184.738668078318
 20
451.2402487391548
 10
1184.660542960061
 20
451.3844459401327
 10
1184.582417841805
 20
451.4711034489241
 10
1184.504292723549
 20
451.5000125
  0
LWPOLYLINE
  5
11F
330
1F
100
AcDbEntity
  8
7
  6
________________
 62
     7
370
     9
100
AcDbPolyline
 90
        7
 70
     0
 43
0.0
 10
1177.004272366592
 20
427.5000125
 42
0.0251195865475935
 10
1174.89490962263
 20
450.780762576669
 10
1174.816785076558
 20
451.0388592296775
 10
1174.738660530485
 20
451.2402487391548
 10
1174.660535984413
 20
451.3844459401327
 10
1174.58241143834
 20
451.4711034489241
 10
1174.504286892267
 20
451.5000125
  0
LWPOLYLINE
  5
120
330
1F
100
AcDbEntity
  8
7
  6
________________
 62
     7
370
     9
100
AcDbPolyline
 90
        6
 70
     0
 43
0.0
 10
1167.004270430121
 20
427.5000125000001
 42
0.026841553549171
 10
1164.874845944815
 20
450.8524922501026
 10
1164.79879507034
 20
451.0903345784307
 10
1164.722744195864
 20
451.2743210370011
 10
1164.646693321389
 20
451.4040315912459
 10
1164.570642446914
 20
451.4791701165636
  0
LWPOLYLINE
  5
121
330
1F
100
AcDbEntity
  8
7
  6
________________
 62
     7
370
     9
100
AcDbPolyline
 90
        6
 70
     0
 43
0.0
 10
1157.004256526805
 20
427.5000125000001
 42
0.0268413795353501
 10
1154.874846117404
 20
450.8524922501026
 10
1154.79879574564
 20
451.0903345784306
 10
1154.722745373876
 20
451.2743210370011
 10
1154.646695002111
 20
451.4040315912458
 10
1154.570644630347
 20
451.4791701165636
  0
LINE
  5
122
330
1F
100
AcDbEntity
  8
7
  6
________________
 62
     7
370
     9
100
AcDbLine
 10
1149.856822428981
 20
403.3983884660353
 30
0.0
 11
1149.856822428981
 21
401.5004887281996
 31
0.0
  0
LINE
  5
123
330
1F
100
AcDbEntity
  8
7
  6
________________
 62
     7
370
     9
100
AcDbLine
 10
1319.856822428981
 20
452.5000125
 30
0.0
 11
1319.856822428981
 21
402.5000125
 31
0.0
  0
LINE
  5
124
330
1F
100
AcDbEntity
  8
7
  6
________________
 62
     7
370
     9
100
AcDbLine
 10
1321.856822428981
 20
452.5000125
 30
0.0
 11
1321.856822428981
 21
402.5000125
 31
0.0
  0
ARC
  5
125
330
1F
100
AcDbEntity
  8
7
  6
________________
 62
     7
370
     9
100
AcDbCircle
 10
-1153.279224779442
 20
430.4474053983913
 30
0.0
 40
137.405382573488
210
0.0
220
0.0
230
-1.0
100
AcDbArc
 50
171.9367008636977
 51
176.5502863115357
  0
LINE
  5
126
330
1F
100
AcDbEntity
  8
7
  6
________________
 62
     7
370
     9
100
AcDbLine
 10
1290.435627968905
 20
438.7154296059014
 30
0.0
 11
1291.209516338419
 21
427.500012500011
 31
0.0
  0
ARC
  5
127
330
1F
100
AcDbEntity
  8
7
  6
________________
 62
     7
370
     9
100
AcDbCircle
 10
-1190.517290210626
 20
436.1315078975751
 30
0.0
 40
89.84077599963825
210
0.0
220
0.0
230
-1.0
100
AcDbArc
 50
171.2507117759809
 51
175.790981746915
  0
LINE
  5
128
330
1F
100
AcDbEntity
  8
7
  6
________________
 62
     7
370
     9
100
AcDbLine
 10
1280.11576000524
 20
442.7253870806418
 30
0.0
 11
1281.209503175389
 21
427.5000125000001
 31
0.0
  0
LINE
  5
129
330
1F
100
AcDbEntity
  8
7
  6
________________
 62
     7
370
     9
100
AcDbLine
 10
1269.276070349795
 20
449.9954544079924
 30
0.0
 11
1269.730311017503
 21
446.7305649528398
 31
0.0
  0
LINE
  5
12A
330
1F
100
AcDbEntity
  8
7
  6
________________
 62
     7
370
     9
100
AcDbLine
 10
1269.730311017503
 20
446.7305649528398
 30
0.0
 11
1269.853237428841
 21
445.5652682931826
 31
0.0
  0
ARC
  5
12B
330
1F
100
AcDbEntity
  8
7
  6
________________
 62
     7
370
     9
100
AcDbCircle
 10
-671.886067220989
 20
391.5882861964985
 30
0.0
 40
600.3984104264865
210
0.0
220
0.0
230
-1.0
100
AcDbArc
 50
174.8420341803014
 51
176.5709116259269
  0
LINE
  5
12C
330
1F
100
AcDbEntity
  8
7
  6
________________
 62
     7
370
     9
100
AcDbLine
 10
1259.275743367141
 20
449.9971458490808
 30
0.0
 11
1259.673267529764
 21
447.2327756426976
 31
0.0
  0
ARC
  5
12D
330
1F
100
AcDbEntity
  8
7
  6
________________
 62
     7
370
     9
100
AcDbCircle
 10
-779.0571232639364
 20
399.8886106628904
 30
0.0
 40
482.9423858873703
210
0.0
220
0.0
230
-1.0
100
AcDbArc
 50
174.374101923548
 51
176.7224248961561
  0
LINE
  5
12E
330
1F
100
AcDbEntity
  8
7
  6
________________
 62
     7
370
     9
100
AcDbLine
 10
1249.288954451146
 20
449.926731601019
 30
0.0
 11
1249.384351593544
 21
449.374488517103
 31
0.0
  0
ARC
  5
12F
330
1F
100
AcDbEntity
  8
7
  6
________________
 62
     7
370
     9
100
AcDbCircle
 10
-1043.2133589854
 20
423.0647068852623
 30
0.0
 40
207.8429281995001
210
0.0
220
0.0
230
-1.0
100
AcDbArc
 50
172.7277075382686
 51
176.9033984942134
  0
LINE
  5
130
330
1F
100
AcDbEntity
  8
7
  6
________________
 62
     7
370
     9
100
AcDbLine
 10
1250.75281078912
 20
434.2922955646695
 30
0.0
 11
1251.209478075657
 21
427.5000125
 31
0.0
  0
LINE
  5
131
330
1F
100
AcDbEntity
  8
7
  6
________________
 62
     7
370
     9
100
AcDbLine
 10
1239.28894975921
 20
449.9266620215139
 30
0.0
 11
1239.385922203618
 21
449.3646253143226
 31
0.0
  0
ARC
  5
132
330
1F
100
AcDbEntity
  8
7
  6
________________
 62
     7
370
     9
100
AcDbCircle
 10
-1127.374402854661
 20
433.5709474299517
 30
0.0
 40
113.1194975588961
210
0.0
220
0.0
230
-1.0
100
AcDbArc
 50
171.9741760577307
 51
175.8598701939383
  0
LINE
  5
133
330
1F
100
AcDbEntity
  8
7
  6
________________
 62
     7
370
     9
100
AcDbLine
 10
1240.198710748994
 20
441.737726240583
 30
0.0
 11
1241.2094663599
 21
427.5000124999999
 31
0.0
  0
LINE
  5
134
330
1F
100
AcDbEntity
  8
7
  6
________________
 62
     7
370
     9
100
AcDbLine
 10
1229.316022847007
 20
449.778173946949
 30
0.0
 11
1229.490775271429
 21
448.6658602044876
 31
0.0
  0
ARC
  5
135
330
1F
100
AcDbEntity
  8
7
  6
________________
 62
     7
370
     9
100
AcDbCircle
 10
-845.6963851201631
 20
406.8478327992141
 30
0.0
 40
386.0659028296214
210
0.0
220
0.0
230
-1.0
100
AcDbArc
 50
173.7816142517904
 51
176.9335603045371
  0
LINE
  5
136
330
1F
100
AcDbEntity
  8
7
  6
________________
 62
     7
370
     9
100
AcDbLine
 10
1189.28884854232
 20
449.927186502485
 30
0.0
 11
1189.421655073326
 21
449.1369197017726
 31
0.0
  0
LINE
  5
137
330
1F
100
AcDbEntity
  8
7
  6
________________
 62
     7
370
     9
100
AcDbLine
 10
1189.421655073326
 20
449.1369197017726
 30
0.0
 11
1190.06163540609
 21
443.3468722468852
 31
0.0
  0
LINE
  5
138
330
1F
100
AcDbEntity
  8
7
  6
________________
 62
     7
370
     9
100
AcDbLine
 10
1190.06163540609
 20
443.3468722468852
 30
0.0
 11
1191.20946073748
 21
427.5000124999999
 31
0.0
  0
LINE
  5
139
330
1F
100
AcDbEntity
  8
7
  6
________________
 62
     7
370
     9
100
AcDbLine
 10
1179.288922521081
 20
449.9267845594471
 30
0.0
 11
1179.339209481888
 21
449.6456039831198
 31
0.0
  0
ARC
  5
13A
330
1F
100
AcDbEntity
  8
7
  6
________________
 62
     7
370
     9
100
AcDbCircle
 10
-866.399884853849
 20
412.065335621285
 30
0.0
 40
315.1877178266963
210
0.0
220
0.0
230
-1.0
100
AcDbArc
 50
173.1522542455771
 51
177.1931150132321
  0
LINE
  5
13B
330
1F
100
AcDbEntity
  8
7
  6
________________
 62
     7
370
     9
100
AcDbLine
 10
1169.288838630059
 20
449.9273969511647
 30
0.0
 11
1169.407177431278
 21
449.230678194383
 31
0.0
  0
LINE
  5
13C
330
1F
100
AcDbEntity
  8
7
  6
________________
 62
     7
370
     9
100
AcDbLine
 10
1169.407177431278
 20
449.230678194383
 30
0.0
 11
1170.030196063866
 21
443.7001504493721
 31
0.0
  0
LINE
  5
13D
330
1F
100
AcDbEntity
  8
7
  6
________________
 62
     7
370
     9
100
AcDbLine
 10
1170.030196063866
 20
443.7001504493721
 30
0.0
 11
1171.209493771541
 21
427.5000125
 31
0.0
  0
LINE
  5
13E
330
1F
100
AcDbEntity
  8
7
  6
________________
 62
     7
370
     9
100
AcDbLine
 10
1164.570642446914
 20
451.4791701165636
 30
0.0
 11
1158.997650571872
 21
451.4791701165636
 31
0.0
  0
LINE
  5
13F
330
1F
100
AcDbEntity
  8
7
  6
________________
 62
     7
370
     9
100
AcDbLine
 10
1158.997650571872
 20
451.4791701165636
 30
0.0
 11
1158.987319286785
 21
451.4791701165636
 31
0.0
  0
LINE
  5
140
330
1F
100
AcDbEntity
  8
7
  6
________________
 62
     7
370
     9
100
AcDbLine
 10
1159.289061189195
 20
449.9260043768562
 30
0.0
 11
1159.748299344822
 21
446.5664088451439
 31
0.0
  0
ARC
  5
141
330
1F
100
AcDbEntity
  8
7
  6
________________
 62
     7
370
     9
100
AcDbCircle
 10
-637.8685765316184
 20
396.9821328459865
 30
0.0
 40
524.2299548003209
210
0.0
220
0.0
230
-1.0
100
AcDbArc
 50
174.5725670578006
 51
176.6626576388798
  0
LWPOLYLINE
  5
142
330
1F
100
AcDbEntity
  8
7
  6
________________
 62
     7
370
     9
100
AcDbPolyline
 90
        7
 70
     0
 43
0.0
 10
1161.209483141612
 20
427.5000125
 42
0.0251197120112
 10
1163.318856618467
 20
404.2192624233309
 10
1163.396981562054
 20
403.9611657703225
 10
1163.475106505642
 20
403.7597762608452
 10
1163.553231449229
 20
403.6155790598673
 10
1163.631356392816
 20
403.5289215510758
 10
1163.709481336404
 20
403.5000125
  0
LINE
  5
143
330
1F
100
AcDbEntity
  8
7
  6
________________
 62
     7
370
     9
100
AcDbLine
 10
1171.209493771541
 20
427.5000125
 30
0.0
 11
1171.889755172418
 21
417.5513409349471
 31
0.0
  0
LINE
  5
144
330
1F
100
AcDbEntity
  8
7
  6
________________
 62
     7
370
     9
100
AcDbLine
 10
1171.889755172418
 20
417.5513409349471
 30
0.0
 11
1172.261101132823
 21
412.7710043492447
 31
0.0
  0
LWPOLYLINE
  5
145
330
1F
100
AcDbEntity
  8
7
  6
________________
 62
     7
370
     9
100
AcDbPolyline
 90
        5
 70
     0
 43
0.0
 10
1172.261101132823
 20
412.7710043492447
 42
0.0477080249256885
 10
1173.475101717398
 20
403.7597762608452
 10
1173.553226129324
 20
403.6155790598673
 10
1173.63135054125
 20
403.5289215510758
 10
1173.709474953176
 20
403.5000125
  0
ARC
  5
146
330
1F
100
AcDbEntity
  8
7
  6
________________
 62
     7
370
     9
100
AcDbCircle
 10
1480.722915390401
 20
441.8591819539118
 30
0.0
 40
299.8574595934451
100
AcDbArc
 50
182.7447526806322
 51
187.0480090318778
  0
LINE
  5
147
330
1F
100
AcDbEntity
  8
7
  6
________________
 62
     7
370
     9
100
AcDbLine
 10
1183.131272621451
 20
405.0663806483312
 30
0.0
 11
1183.527589019608
 21
403.6565380749965
 31
0.0
  0
LINE
  5
148
330
1F
100
AcDbEntity
  8
7
  6
________________
 62
     7
370
     9
100
AcDbLine
 10
1183.527589019608
 20
403.6565380749964
 30
0.0
 11
1183.709457822735
 21
403.5000125
 31
0.0
  0
LINE
  5
149
330
1F
100
AcDbEntity
  8
7
  6
________________
 62
     7
370
     9
100
AcDbLine
 10
1191.20946073748
 20
427.5000124999999
 30
0.0
 11
1191.918522491925
 21
417.1576980820612
 31
0.0
  0
LWPOLYLINE
  5
14A
330
1F
100
AcDbEntity
  8
7
  6
________________
 62
     7
370
     9
100
AcDbPolyline
 90
        5
 70
     0
 43
0.0
 10
1191.918522491925
 20
417.1576980820612
 42
0.0433900861374786
 10
1193.475054066259
 20
403.7597762608452
 10
1193.553177974148
 20
403.6155790598673
 10
1193.631301882036
 20
403.5289215510758
 10
1193.633193223131
 20
403.5275390114669
  0
LINE
  5
14B
330
1F
100
AcDbEntity
  8
7
  6
________________
 62
     7
370
     9
100
AcDbLine
 10
1193.633193223131
 20
403.5275390114669
 30
0.0
 11
1193.709425789925
 21
403.5000125
 31
0.0
  0
LWPOLYLINE
  5
14C
330
1F
100
AcDbEntity
  8
7
  6
________________
 62
     7
370
     9
100
AcDbPolyline
 90
        5
 70
     0
 43
0.0
 10
1222.855507811079
 20
406.8724738650279
 42
0.056149151041347
 10
1223.475069000267
 20
403.7597762608452
 10
1223.553194130592
 20
403.6155790598673
 10
1223.631319260916
 20
403.5289215510758
 10
1223.709444391241
 20
403.5000125
  0
LWPOLYLINE
  5
14D
330
1F
100
AcDbEntity
  8
7
  6
________________
 62
     7
370
     9
100
AcDbPolyline
 90
        7
 70
     0
 43
0.0
 10
1231.209509152611
 20
427.500012499989
 42
0.0251194699592241
 10
1233.318861922918
 20
404.2192624233294
 10
1233.396986099596
 20
403.9611657703213
 10
1233.475110276274
 20
403.7597762608444
 10
1233.553234452952
 20
403.6155790598667
 10
1233.63135862963
 20
403.5289215510755
 10
1233.709482806308
 20
403.5000125
  0
ARC
  5
14E
330
1F
100
AcDbEntity
  8
7
  6
________________
 62
     7
370
     9
100
AcDbCircle
 10
1815.367204444943
 20
461.6877598462489
 30
0.0
 40
575.1746780514114
100
AcDbArc
 50
183.4076063417982
 51
185.2600684982667
  0
LWPOLYLINE
  5
14F
330
1F
100
AcDbEntity
  8
7
  6
________________
 62
     7
370
     9
100
AcDbPolyline
 90
        5
 70
     0
 43
0.0
 10
1242.614683153831
 20
408.9576960664825
 42
0.0509489796073783
 10
1243.475099182239
 20
403.7597762608452
 10
1243.553224451975
 20
403.6155790598673
 10
1243.631349721711
 20
403.5289215510758
 10
1243.680267141446
 20
403.5040538361368
  0
LINE
  5
150
330
1F
100
AcDbEntity
  8
7
  6
________________
 62
     7
370
     9
100
AcDbLine
 10
1243.680267141446
 20
403.5040538361368
 30
0.0
 11
1243.709474991446
 21
403.5000125
 31
0.0
  0
LWPOLYLINE
  5
151
330
1F
100
AcDbEntity
  8
7
  6
________________
 62
     7
370
     9
100
AcDbPolyline
 90
        5
 70
     0
 43
0.0
 10
1251.209478075657
 20
427.5000125
 42
0.0251198229022533
 10
1253.318861038787
 20
404.2192624233309
 10
1253.396986333718
 20
403.9611657703225
 10
1253.475111628649
 20
403.7597762608452
 10
1253.54583412481
 20
403.6267791512134
  0
LINE
  5
152
330
1F
100
AcDbEntity
  8
7
  6
________________
 62
     7
370
     9
100
AcDbLine
 10
1253.54583412481
 20
403.6267791512134
 30
0.0
 11
1253.666167976019
 21
403.5089020241199
 31
0.0
  0
LINE
  5
153
330
1F
100
AcDbEntity
  8
7
  6
________________
 62
     7
370
     9
100
AcDbLine
 10
1253.666167976019
 20
403.5089020241199
 30
0.0
 11
1253.709487513441
 21
403.5000125
 31
0.0
  0
LWPOLYLINE
  5
154
330
1F
100
AcDbEntity
  8
7
  6
________________
 62
     7
370
     9
100
AcDbPolyline
 90
        7
 70
     0
 43
0.0
 10
1261.209545818439
 20
427.5000124999999
 42
0.0251197672985113
 10
1263.318924024896
 20
404.2192624233309
 10
1263.397049143654
 20
403.9611657703224
 10
1263.475174262412
 20
403.7597762608452
 10
1263.553299381169
 20
403.6155790598673
 10
1263.631424499927
 20
403.5289215510758
 10
1263.709549618685
 20
403.5000125
  0
ARC
  5
155
330
1F
100
AcDbEntity
  8
7
  6
________________
 62
     7
370
     9
100
AcDbCircle
 10
1561.698130584535
 20
441.2246150112352
 30
0.0
 40
290.8126519112098
100
AcDbArc
 50
182.7050198604203
 51
187.1747845787815
  0
LINE
  5
156
330
1F
100
AcDbEntity
  8
7
  6
________________
 62
     7
370
     9
100
AcDbLine
 10
1273.162610542737
 20
404.9031036737424
 30
0.0
 11
1273.550575024489
 21
403.6195877822927
 31
0.0
  0
LINE
  5
157
330
1F
100
AcDbEntity
  8
7
  6
________________
 62
     7
370
     9
100
AcDbLine
 10
1273.550575024489
 20
403.6195877822927
 30
0.0
 11
1273.7095138122
 21
403.5000125
 31
0.0
  0
LWPOLYLINE
  5
158
330
1F
100
AcDbEntity
  8
7
  6
________________
 62
     7
370
     9
100
AcDbPolyline
 90
        7
 70
     0
 43
0.0
 10
1281.209503175389
 20
427.5000125000001
 42
0.0251196008059636
 10
1283.318867139094
 20
404.2192624233309
 10
1283.396991730342
 20
403.9611657703225
 10
1283.475116321591
 20
403.7597762608452
 10
1283.553240912839
 20
403.6155790598673
 10
1283.631365504087
 20
403.5289215510758
 10
1283.709490095336
 20
403.5000125
  0
LINE
  5
159
330
1F
100
AcDbEntity
  8
7
  6
________________
 62
     7
370
     9
100
AcDbLine
 10
1291.209516338419
 20
427.500012500011
 30
0.0
 11
1291.587262511455
 21
421.857040107379
 31
0.0
  0
LWPOLYLINE
  5
15A
330
1F
100
AcDbEntity
  8
7
  6
________________
 62
     7
370
     9
100
AcDbPolyline
 90
        6
 70
     0
 43
0.0
 10
1291.587262511455
 20
421.857040107379
 42
0.0324727541665184
 10
1293.397006498716
 20
403.9611657703236
 10
1293.475131147298
 20
403.7597762608461
 10
1293.55325579588
 20
403.6155790598679
 10
1293.631380444462
 20
403.5289215510761
 10
1293.709505093044
 20
403.5000125
  0
LINE
  5
15B
330
1F
100
AcDbEntity
  8
7
  6
________________
 62
     7
370
     9
100
AcDbLine
 10
1304.570643471572
 20
451.4791701165636
 30
0.0
 11
1298.997660489514
 21
451.4791701165636
 31
0.0
  0
LINE
  5
15C
330
1F
100
AcDbEntity
  8
7
  6
________________
 62
     7
370
     9
100
AcDbLine
 10
1298.997660489514
 20
451.4791701165636
 30
0.0
 11
1298.987973862298
 21
451.4791701165636
 31
0.0
  0
LINE
  5
15D
330
1F
100
AcDbEntity
  8
7
  6
________________
 62
     7
370
     9
100
AcDbLine
 10
1299.288926649977
 20
449.926779815142
 30
0.0
 11
1299.554982792795
 21
448.1921747265437
 31
0.0
  0
ARC
  5
15E
330
1F
100
AcDbEntity
  8
7
  6
________________
 62
     7
370
     9
100
AcDbCircle
 10
-1116.625927400022
 20
426.5010529722733
 30
0.0
 40
184.2105970617611
210
0.0
220
0.0
230
-1.0
100
AcDbArc
 50
173.2376321266037
 51
176.0119767030638
  0
LINE
  5
15F
330
1F
100
AcDbEntity
  8
7
  6
________________
 62
     7
370
     9
100
AcDbLine
 10
1300.390478739056
 20
439.312522092329
 30
0.0
 11
1301.209515257828
 21
427.5000125000002
 31
0.0
  0
LINE
  5
160
330
1F
100
AcDbEntity
  8
7
  6
________________
 62
     7
370
     9
100
AcDbLine
 10
1301.209515257828
 20
427.5000125000002
 30
0.0
 11
1301.81013478567
 21
418.6563193369623
 31
0.0
  0
LWPOLYLINE
  5
161
330
1F
100
AcDbEntity
  8
7
  6
________________
 62
     7
370
     9
100
AcDbPolyline
 90
        4
 70
     0
 43
0.0
 10
1301.81013478567
 20
418.6563193369622
 42
0.0407048199303935
 10
1303.475135318896
 20
403.7597762608452
 10
1303.553260148588
 20
403.6155790598673
 10
1303.570804859921
 20
403.5910985530177
  0
LINE
  5
162
330
1F
100
AcDbEntity
  8
7
  6
________________
 62
     7
370
     9
100
AcDbLine
 10
1303.570804859921
 20
403.5910985530177
 30
0.0
 11
1303.709509807972
 21
403.5000125
 31
0.0
  0
LINE
  5
163
330
1F
100
AcDbEntity
  8
7
  6
________________
 62
     7
370
     9
100
AcDbLine
 10
1148.856822428981
 20
404.701986269644
 30
0.0
 11
1148.856822428981
 21
403.5000125
 31
0.0
  0
LINE
  5
164
330
1F
100
AcDbEntity
  8
7
  6
________________
 62
     7
370
     9
100
AcDbLine
 10
1148.856822428981
 20
404.701986269644
 30
0.0
 11
1147.856822428981
 21
404.701986269644
 31
0.0
  0
LINE
  5
165
330
1F
100
AcDbEntity
  8
7
  6
________________
 62
     7
370
     9
100
AcDbLine
 10
1147.856822428981
 20
420.0000125
 30
0.0
 11
1147.856822428981
 21
404.701986269644
 31
0.0
  0
LINE
  5
166
330
1F
100
AcDbEntity
  8
7
  6
________________
 62
     7
370
     9
100
AcDbLine
 10
1148.856822428981
 20
420.0000125
 30
0.0
 11
1147.856822428981
 21
420.0000125
 31
0.0
  0
LINE
  5
167
330
1F
100
AcDbEntity
  8
7
  6
________________
 62
     7
370
     9
100
AcDbLine
 10
1148.856822428981
 20
435.0000125
 30
0.0
 11
1148.856822428981
 21
420.0000125
 31
0.0
  0
LINE
  5
168
330
1F
100
AcDbEntity
  8
7
  6
________________
 62
     7
370
     9
100
AcDbLine
 10
1147.856822428981
 20
435.0000125
 30
0.0
 11
1148.856822428981
 21
435.0000125
 31
0.0
  0
LINE
  5
169
330
1F
100
AcDbEntity
  8
7
  6
________________
 62
     7
370
     9
100
AcDbLine
 10
1147.856822428981
 20
450.298038730356
 30
0.0
 11
1147.856822428981
 21
435.0000125
 31
0.0
  0
LINE
  5
16A
330
1F
100
AcDbEntity
  8
7
  6
________________
 62
     7
370
     9
100
AcDbLine
 10
1148.856822428981
 20
450.298038730356
 30
0.0
 11
1147.856822428981
 21
450.298038730356
 31
0.0
  0
LINE
  5
16B
330
1F
100
AcDbEntity
  8
7
  6
________________
 62
     7
370
     9
100
AcDbLine
 10
1148.856822428981
 20
451.4791701165636
 30
0.0
 11
1148.856822428981
 21
450.2980387303559
 31
0.0
  0
LINE
  5
16C
330
1F
100
AcDbEntity
  8
7
  6
________________
 62
     7
370
     9
100
AcDbLine
 10
1154.570644630348
 20
451.4791701165636
 30
0.0
 11
1148.856822428981
 21
451.4791701165636
 31
0.0
  0
LINE
  5
16D
330
1F
100
AcDbEntity
  8
7
  6
________________
 62
     7
370
     9
100
AcDbLine
 10
1149.856822428981
 20
445.5294724872064
 30
0.0
 11
1149.856822428981
 21
442.8841009248094
 31
0.0
  0
LINE
  5
16E
330
1F
100
AcDbEntity
  8
7
  6
________________
 62
     7
370
     9
100
AcDbLine
 10
1149.941872478039
 20
444.6576128241578
 30
0.0
 11
1150.736751029918
 21
434.524648172898
 31
0.0
  0
LINE
  5
16F
330
1F
100
AcDbEntity
  8
7
  6
________________
 62
     7
370
     9
100
AcDbLine
 10
1150.736751029918
 20
434.524648172898
 30
0.0
 11
1151.209506315554
 21
427.5000125
 31
0.0
  0
ARC
  5
170
330
1F
100
AcDbEntity
  8
7
  6
________________
 62
     7
370
     9
100
AcDbCircle
 10
1733.185670400318
 20
462.2232657206914
 30
0.0
 40
583.0111147114128
100
AcDbArc
 50
183.4144699572288
 51
185.2273800315699
  0
LWPOLYLINE
  5
171
330
1F
100
AcDbEntity
  8
7
  6
________________
 62
     7
370
     9
100
AcDbPolyline
 90
        4
 70
     0
 43
0.0
 10
1152.599313979023
 20
409.1060122667546
 42
0.0514003407884063
 10
1153.475126103054
 20
403.7597762608452
 10
1153.553250923312
 20
403.6155790598673
 10
1153.585964300893
 20
403.5722751427505
  0
LINE
  5
172
330
1F
100
AcDbEntity
  8
7
  6
________________
 62
     7
370
     9
100
AcDbLine
 10
1153.585964300893
 20
403.5722751427505
 30
0.0
 11
1153.70950056383
 21
403.5000125
 31
0.0
  0
LINE
  5
173
330
1F
100
AcDbEntity
  8
7
  6
________________
 62
     7
370
     9
100
AcDbLine
 10
1314.570644392961
 20
451.4791701165636
 30
0.0
 11
1308.997652781059
 21
451.4791701165636
 31
0.0
  0
LINE
  5
174
330
1F
100
AcDbEntity
  8
7
  6
________________
 62
     7
370
     9
100
AcDbLine
 10
1308.997652781059
 20
451.4791701165636
 30
0.0
 11
1308.987503900688
 21
451.4791701165636
 31
0.0
  0
LINE
  5
175
330
1F
100
AcDbEntity
  8
7
  6
________________
 62
     7
370
     9
100
AcDbLine
 10
1317.856822428981
 20
451.4791701165636
 30
0.0
 11
1315.856822428981
 21
451.4791701165636
 31
0.0
  0
LINE
  5
176
330
1F
100
AcDbEntity
  8
7
  6
________________
 62
     7
370
     9
100
AcDbLine
 10
1317.856822428981
 20
451.4791701165636
 30
0.0
 11
1317.856822428981
 21
403.5000125
 31
0.0
  0
LINE
  5
177
330
1F
100
AcDbEntity
  8
7
  6
________________
 62
     7
370
     9
100
AcDbLine
 10
1309.275841876293
 20
449.9962506016486
 30
0.0
 11
1309.289077288921
 21
449.9259382484715
 31
0.0
  0
LINE
  5
178
330
1F
100
AcDbEntity
  8
7
  6
________________
 62
     7
370
     9
100
AcDbLine
 10
1309.289077288921
 20
449.9259382484715
 30
0.0
 11
1309.600282443747
 21
447.8377229097244
 31
0.0
  0
ARC
  5
179
330
1F
100
AcDbEntity
  8
7
  6
________________
 62
     7
370
     9
100
AcDbCircle
 10
-943.0503707344284
 20
409.2531018031638
 30
0.0
 40
368.5751087092641
210
0.0
220
0.0
230
-1.0
100
AcDbArc
 50
173.9909291308355
 51
176.7372484471713
  0
LINE
  5
17A
330
1F
100
AcDbEntity
  8
7
  6
________________
 62
     7
370
     9
100
AcDbLine
 10
1311.028029688966
 20
430.230548511095
 30
0.0
 11
1311.209501257908
 21
427.5000124999999
 31
0.0
  0
LWPOLYLINE
  5
17B
330
1F
100
AcDbEntity
  8
7
  6
________________
 62
     7
370
     9
100
AcDbPolyline
 90
        5
 70
     0
 43
0.0
 10
1311.209501257908
 20
427.5000125
 42
0.0281260300097856
 10
1313.367186087335
 20
404.053024949789
 10
1313.45017396539
 20
403.8179187241253
 10
1313.533161843445
 20
403.6471861467978
 10
1313.571457671
 20
403.5902414964992
  0
LINE
  5
17C
330
1F
100
AcDbEntity
  8
7
  6
________________
 62
     7
370
     9
100
AcDbLine
 10
1313.571457671
 20
403.5902414964992
 30
0.0
 11
1313.709507283238
 21
403.5000125000112
 31
0.0
  0
LINE
  5
17D
330
1F
100
AcDbEntity
  8
7
  6
________________
 62
     7
370
     9
100
AcDbLine
 10
1159.282446212241
 20
449.9613202823832
 30
0.0
 11
1159.748299344822
 21
446.5663983495434
 31
0.0
  0
ARC
  5
17E
330
1F
100
AcDbEntity
  8
7
  6
________________
 62
     7
370
     9
100
AcDbCircle
 10
-637.9408339142476
 20
396.9871571914589
 30
0.0
 40
524.1575451454376
210
0.0
220
0.0
230
-1.0
100
AcDbArc
 50
174.5723678733923
 51
176.6627460973774
  0
LINE
  5
17F
330
1F
100
AcDbEntity
  8
7
  6
________________
 62
     7
370
     9
100
AcDbLine
 10
1169.282225487069
 20
449.9624687473886
 30
0.0
 11
1169.407177431278
 21
449.2306773406863
 31
0.0
  0
LINE
  5
180
330
1F
100
AcDbEntity
  8
7
  6
________________
 62
     7
370
     9
100
AcDbLine
 10
1169.407177431278
 20
449.2306773406863
 30
0.0
 11
1170.030196063866
 21
443.700153400464
 31
0.0
  0
LINE
  5
181
330
1F
100
AcDbEntity
  8
7
  6
________________
 62
     7
370
     9
100
AcDbLine
 10
1170.030196063866
 20
443.700153400464
 30
0.0
 11
1171.209472253171
 21
427.5000110722953
 31
0.0
  0
LINE
  5
182
330
1F
100
AcDbEntity
  8
7
  6
________________
 62
     7
370
     9
100
AcDbLine
 10
1179.282367272251
 20
449.9617182773846
 30
0.0
 11
1179.339209481889
 21
449.6455824711614
 31
0.0
  0
ARC
  5
183
330
1F
100
AcDbEntity
  8
7
  6
________________
 62
     7
370
     9
100
AcDbCircle
 10
-866.4327685267991
 20
412.0674834215772
 30
0.0
 40
315.1548100844426
210
0.0
220
0.0
230
-1.0
100
AcDbArc
 50
173.1519330144258
 51
177.1932121314908
  0
LINE
  5
184
330
1F
100
AcDbEntity
  8
7
  6
________________
 62
     7
370
     9
100
AcDbLine
 10
1189.282212326092
 20
449.9625691285976
 30
0.0
 11
1189.421655073326
 21
449.1369234062054
 31
0.0
  0
LINE
  5
185
330
1F
100
AcDbEntity
  8
7
  6
________________
 62
     7
370
     9
100
AcDbLine
 10
1189.421655073326
 20
449.1369234062054
 30
0.0
 11
1190.06163540609
 21
443.3468839438055
 31
0.0
  0
LINE
  5
186
330
1F
100
AcDbEntity
  8
7
  6
________________
 62
     7
370
     9
100
AcDbLine
 10
1190.06163540609
 20
443.3468839438056
 30
0.0
 11
1191.209430024237
 21
427.5000104626305
 31
0.0
  0
LINE
  5
187
330
1F
100
AcDbEntity
  8
7
  6
________________
 62
     7
370
     9
100
AcDbLine
 10
1229.282231559986
 20
449.9627393271073
 30
0.0
 11
1229.316022847007
 21
449.7781936927749
 31
0.0
  0
LINE
  5
188
330
1F
100
AcDbEntity
  8
7
  6
________________
 62
     7
370
     9
100
AcDbLine
 10
1229.316022847007
 20
449.778193692775
 30
0.0
 11
1229.49077527143
 21
448.6658692293973
 31
0.0
  0
ARC
  5
189
330
1F
100
AcDbEntity
  8
7
  6
________________
 62
     7
370
     9
100
AcDbCircle
 10
-845.7386243784746
 20
406.8484732564819
 30
0.0
 40
386.0238437207277
210
0.0
220
0.0
230
-1.0
100
AcDbArc
 50
173.7810283317308
 51
176.9333195650175
  0
LINE
  5
18A
330
1F
100
AcDbEntity
  8
7
  6
________________
 62
     7
370
     9
100
AcDbLine
 10
1239.282315006988
 20
449.9623575814137
 30
0.0
 11
1239.385922203618
 21
449.3646141713039
 31
0.0
  0
ARC
  5
18B
330
1F
100
AcDbEntity
  8
7
  6
________________
 62
     7
370
     9
100
AcDbCircle
 10
-1127.377268615905
 20
433.5712241885923
 30
0.0
 40
113.1166196704905
210
0.0
220
0.0
230
-1.0
100
AcDbArc
 50
171.9741177906736
 51
175.8599025878526
  0
LINE
  5
18C
330
1F
100
AcDbEntity
  8
7
  6
________________
 62
     7
370
     9
100
AcDbLine
 10
1240.198710748994
 20
441.737731440064
 30
0.0
 11
1241.209450302388
 21
427.5000114356208
 31
0.0
  0
LINE
  5
18D
330
1F
100
AcDbEntity
  8
7
  6
________________
 62
     7
370
     9
100
AcDbLine
 10
1249.282341842863
 20
449.9622491117148
 30
0.0
 11
1249.384351593544
 21
449.374487239895
 31
0.0
  0
ARC
  5
18E
330
1F
100
AcDbEntity
  8
7
  6
________________
 62
     7
370
     9
100
AcDbCircle
 10
-1043.199618052334
 20
423.0634581878408
 30
0.0
 40
207.8567165025893
210
0.0
220
0.0
230
-1.0
100
AcDbArc
 50
172.7278459173172
 51
176.9032595107423
  0
LINE
  5
18F
330
1F
100
AcDbEntity
  8
7
  6
________________
 62
     7
370
     9
100
AcDbLine
 10
1250.75281078912
 20
434.2922951714486
 30
0.0
 11
1251.209475939965
 21
427.5000123584431
 31
0.0
  0
LINE
  5
190
330
1F
100
AcDbEntity
  8
7
  6
________________
 62
     7
370
     9
100
AcDbLine
 10
1259.282399560982
 20
449.961933020699
 30
0.0
 11
1259.673267529764
 21
447.2327759450923
 31
0.0
  0
ARC
  5
191
330
1F
100
AcDbEntity
  8
7
  6
________________
 62
     7
370
     9
100
AcDbCircle
 10
-779.032778317148
 20
399.8843053652652
 30
0.0
 40
482.9670356626745
210
0.0
220
0.0
230
-1.0
100
AcDbArc
 50
174.3738767275867
 51
176.7220799995275
  0
LINE
  5
192
330
1F
100
AcDbEntity
  8
7
  6
________________
 62
     7
370
     9
100
AcDbLine
 10
1269.282735930429
 20
449.9600968907209
 30
0.0
 11
1269.730311017502
 21
446.7305633141428
 31
0.0
  0
LINE
  5
193
330
1F
100
AcDbEntity
  8
7
  6
________________
 62
     7
370
     9
100
AcDbLine
 10
1269.730311017503
 20
446.7305633141428
 30
0.0
 11
1269.853237428841
 21
445.5652823124915
 31
0.0
  0
ARC
  5
194
330
1F
100
AcDbEntity
  8
7
  6
________________
 62
     7
370
     9
100
AcDbCircle
 10
-671.8286863357026
 20
391.5855864472395
 30
0.0
 40
600.4558029329507
210
0.0
220
0.0
230
-1.0
100
AcDbArc
 50
174.8422685209177
 51
176.5709819999889
  0
LINE
  5
195
330
1F
100
AcDbEntity
  8
7
  6
________________
 62
     7
370
     9
100
AcDbLine
 10
1279.282536163271
 20
449.9610852539155
 30
0.0
 11
1279.312625053798
 21
449.7973031761628
 31
0.0
  0
ARC
  5
196
330
1F
100
AcDbEntity
  8
7
  6
________________
 62
     7
370
     9
100
AcDbCircle
 10
-1197.567110914918
 20
436.9321603162828
 30
0.0
 40
82.75168265742309
210
0.0
220
0.0
230
-1.0
100
AcDbArc
 50
171.0561273856849
 51
175.985587723822
  0
LINE
  5
197
330
1F
100
AcDbEntity
  8
7
  6
________________
 62
     7
370
     9
100
AcDbLine
 10
1280.11576000524
 20
442.7253905031313
 30
0.0
 11
1281.209537980447
 21
427.5000148075513
 31
0.0
  0
LINE
  5
198
330
1F
100
AcDbEntity
  8
7
  6
________________
 62
     7
370
     9
100
AcDbLine
 10
1289.282674262702
 20
449.9602721451273
 30
0.0
 11
1289.32617775813
 21
449.7208662553302
 31
0.0
  0
ARC
  5
199
330
1F
100
AcDbEntity
  8
7
  6
________________
 62
     7
370
     9
100
AcDbCircle
 10
-1153.301249316866
 20
430.4496529481628
 30
0.0
 40
137.3832625168777
210
0.0
220
0.0
230
-1.0
100
AcDbArc
 50
171.9363346667963
 51
176.5506705657931
  0
LINE
  5
19A
330
1F
100
AcDbEntity
  8
7
  6
________________
 62
     7
370
     9
100
AcDbLine
 10
1290.435627968905
 20
438.7154264449624
 30
0.0
 11
1291.209498196887
 21
427.5000112969112
 31
0.0
  0
LINE
  5
19B
330
1F
100
AcDbEntity
  8
7
  6
________________
 62
     7
370
     9
100
AcDbLine
 10
1299.282306142118
 20
449.962151757356
 30
0.0
 11
1299.554982792795
 21
448.1921661524042
 31
0.0
  0
ARC
  5
19C
330
1F
100
AcDbEntity
  8
7
  6
________________
 62
     7
370
     9
100
AcDbCircle
 10
-1116.61899011736
 20
426.500372358243
 30
0.0
 40
184.2175652161193
210
0.0
220
0.0
230
-1.0
100
AcDbArc
 50
173.237678628389
 51
176.0119140988996
  0
LINE
  5
19D
330
1F
100
AcDbEntity
  8
7
  6
________________
 62
     7
370
     9
100
AcDbLine
 10
1300.390478739056
 20
439.3125268968405
 30
0.0
 11
1301.209506551592
 21
427.5000119224681
 31
0.0
  0
LINE
  5
19E
330
1F
100
AcDbEntity
  8
7
  6
________________
 62
     7
370
     9
100
AcDbLine
 10
1309.282458554862
 20
449.9612820749059
 30
0.0
 11
1309.600282443747
 21
447.8377179875098
 31
0.0
  0
ARC
  5
19F
330
1F
100
AcDbEntity
  8
7
  6
________________
 62
     7
370
     9
100
AcDbCircle
 10
-943.0699387115335
 20
409.2546803104791
 30
0.0
 40
368.5554824891925
210
0.0
220
0.0
230
-1.0
100
AcDbArc
 50
173.9908554795475
 51
176.737320638596
  0
LINE
  5
1A0
330
1F
100
AcDbEntity
  8
7
  6
________________
 62
     7
370
     9
100
AcDbLine
 10
1311.028029688966
 20
430.2305463732918
 30
0.0
 11
1311.209501255788
 21
427.5000124998592
 31
0.0
  0
ARC
  5
1A1
330
1F
100
AcDbEntity
  8
7
  6
________________
 62
     7
370
     9
100
AcDbCircle
 10
-1151.134893428497
 20
403.0611710950009
 30
0.0
 40
2.756660329579037
210
0.0
220
0.0
230
-1.0
100
AcDbArc
 50
182.5297754342251
 51
213.9323303552755
  0
LINE
  5
1A2
330
1F
100
AcDbEntity
  8
7
  6
________________
 62
     7
370
     9
100
AcDbLine
 10
1153.422087428981
 20
401.5223664365652
 30
0.0
 11
1153.373207906126
 21
401.5018910774852
 31
0.0
  0
LINE
  5
1A3
330
1F
100
AcDbEntity
  8
7
  6
________________
 62
     7
370
     9
100
AcDbLine
 10
1153.373207906126
 20
401.5018910774852
 30
0.0
 11
1153.363962228622
 21
401.5007665673
 31
0.0
  0
LINE
  5
1A4
330
1F
100
AcDbEntity
  8
7
  6
________________
 62
     7
370
     9
100
AcDbLine
 10
1153.363962228622
 20
401.5007665673
 30
0.0
 11
1153.351739989079
 21
401.5006226440262
 31
0.0
  0
LINE
  5
1A5
330
1F
100
AcDbEntity
  8
7
  6
________________
 62
     7
370
     9
100
AcDbLine
 10
1153.351739989079
 20
401.5006226440262
 30
0.0
 11
1153.340747428981
 21
401.5017993045906
 31
0.0
  0
SPLINE
  5
1A6
330
1F
100
AcDbEntity
  8
7
  6
________________
 62
     7
370
     9
100
AcDbSpline
210
0.0
220
0.0
230
1.0
 70
    12
 71
     3
 72
    16
 73
    12
 74
     0
 42
0.000000001
 43
0.0001
 40
2.884923134772616
 40
2.884923134772616
 40
2.884923134772616
 40
2.884923134772616
 40
2.88747938618131
 40
2.89494057322571
 40
2.9024017602701
 40
2.90986294731451
 40
2.9173241343589
 40
2.92478532140329
 40
2.93224650844769
 40
2.93970769549209
 40
2.94194404715177
 40
2.94194404715177
 40
2.94194404715177
 40
2.94194404715177
 10
1153.340747428981
 20
401.5017993045906
 30
0.0
 41
1.0
 10
1153.288685896832
 20
401.510301621273
 30
0.0
 41
1.0
 10
1153.084667155832
 20
401.706749625164
 30
0.0
 41
1.0
 10
1152.728691205982
 20
403.1687746229802
 30
0.0
 41
1.0
 10
1152.272819579432
 20
407.023692288061
 30
0.0
 41
1.0
 10
1151.816947952883
 20
412.5471071588321
 30
0.0
 41
1.0
 10
1151.361076326333
 20
419.2889480221859
 30
0.0
 41
1.0
 10
1150.905204699783
 20
426.6998611600098
 30
0.0
 41
1.0
 10
1150.449333073233
 20
434.1759740144369
 30
0.0
 41
1.0
 10
1150.099872316299
 20
439.4899841433682
 30
0.0
 41
1.0
 10
1149.902368768215
 20
442.1810896811576
 30
0.0
 41
1.0
 10
1149.856822428981
 20
442.7829537178896
 30
0.0
 41
1.0
  0
ARC
  5
1A7
330
1F
100
AcDbEntity
  8
7
  6
________________
 62
     7
370
     9
100
AcDbCircle
 10
1156.529809274263
 20
452.020367355847
 30
0.0
 40
2.359359538890338
100
AcDbArc
 50
0.9810030335875176
 51
38.80291847701053
  0
LINE
  5
1A8
330
1F
100
AcDbEntity
  8
7
  6
________________
 62
     7
370
     9
100
AcDbLine
 10
1158.36847242898
 20
453.4988446932586
 30
0.0
 11
1158.362895386863
 21
453.4993598376124
 31
0.0
  0
ARC
  5
1A9
330
1F
100
AcDbEntity
  8
7
  6
________________
 62
     7
370
     9
100
AcDbCircle
 10
-1161.135263817711
 20
403.0869711250408
 30
0.0
 40
2.757455795065885
210
0.0
220
0.0
230
-1.0
100
AcDbArc
 50
183.0804737167329
 51
214.9217453542664
  0
LINE
  5
1AA
330
1F
100
AcDbEntity
  8
7
  6
________________
 62
     7
370
     9
100
AcDbLine
 10
1163.39619742898
 20
401.5084459693423
 30
0.0
 11
1163.363822546404
 21
401.5006953441931
 31
0.0
  0
LINE
  5
1AB
330
1F
100
AcDbEntity
  8
7
  6
________________
 62
     7
370
     9
100
AcDbLine
 10
1163.363822546404
 20
401.5006953441931
 30
0.0
 11
1163.355438500409
 21
401.5004375542197
 31
0.0
  0
LINE
  5
1AC
330
1F
100
AcDbEntity
  8
7
  6
________________
 62
     7
370
     9
100
AcDbLine
 10
1163.355438500409
 20
401.5004375542198
 30
0.0
 11
1163.351600155117
 21
401.5005598169532
 31
0.0
  0
LINE
  5
1AD
330
1F
100
AcDbEntity
  8
7
  6
________________
 62
     7
370
     9
100
AcDbLine
 10
1163.351600155117
 20
401.5005598169532
 30
0.0
 11
1163.314679571838
 21
401.5094476040384
 31
0.0
  0
SPLINE
  5
1AE
330
1F
100
AcDbEntity
  8
7
  6
________________
 62
     7
370
     9
100
AcDbSpline
210
0.0
220
0.0
230
1.0
 70
    12
 71
     3
 72
    18
 73
    14
 74
     0
 42
0.000000001
 43
0.0001
 40
2.721681184732506
 40
2.721681184732506
 40
2.721681184732506
 40
2.721681184732506
 40
2.7233332712046
 40
2.73079445824899
 40
2.73825564529339
 40
2.74571683233779
 40
2.75317801938218
 40
2.76063920642658
 40
2.76810039347097
 40
2.77556158051537
 40
2.78302276755977
 40
2.79048395460417
 40
2.794118559280951
 40
2.794118559280951
 40
2.794118559280951
 40
2.794118559280951
 10
1163.314679571838
 20
401.5094476040384
 30
0.0
 41
1.0
 10
1163.281032586769
 20
401.5239164028482
 30
0.0
 41
1.0
 10
1163.09542839285
 20
401.6998232352028
 30
0.0
 41
1.0
 10
1162.757866990081
 20
402.9870718049494
 30
0.0
 41
1.0
 10
1162.301995363532
 20
406.7228998703909
 30
0.0
 41
1.0
 10
1161.846123736982
 20
412.1517349803592
 30
0.0
 41
1.0
 10
1161.390252110431
 20
418.8312126808227
 30
0.0
 41
1.0
 10
1160.934380483882
 20
426.2170608680381
 30
0.0
 41
1.0
 10
1160.478508857332
 20
433.7074493823629
 30
0.0
 41
1.0
 10
1160.022637230782
 20
440.6920296759962
 30
0.0
 41
1.0
 10
1159.566765604232
 20
446.6016685950197
 30
0.0
 41
1.0
 10
1159.188827525327
 20
450.2106299849983
 30
0.0
 41
1.0
 10
1158.962846655273
 20
451.664081824807
 30
0.0
 41
1.0
 10
1158.888822994068
 20
452.060761706013
 30
0.0
 41
1.0
  0
ARC
  5
1AF
330
1F
100
AcDbEntity
  8
7
  6
________________
 62
     7
370
     9
100
AcDbCircle
 10
1165.73758398409
 20
451.8066124625422
 30
0.0
 40
3.161412372636389
100
AcDbArc
 50
4.621593035355135
 51
31.9298892707886
  0
LINE
  5
1B0
330
1F
100
AcDbEntity
  8
7
  6
________________
 62
     7
370
     9
100
AcDbLine
 10
1168.420661714695
 20
453.4786238504794
 30
0.0
 11
1168.371869232019
 21
453.4984409712615
 31
0.0
  0
ARC
  5
1B1
330
1F
100
AcDbEntity
  8
7
  6
________________
 62
     7
370
     9
100
AcDbCircle
 10
-1171.216776411799
 20
403.1003138937393
 30
0.0
 40
2.67685593603113
210
0.0
220
0.0
230
-1.0
100
AcDbArc
 50
183.4569681523081
 51
216.6999780086421
  0
LINE
  5
1B2
330
1F
100
AcDbEntity
  8
7
  6
________________
 62
     7
370
     9
100
AcDbLine
 10
1173.363014918479
 20
401.500558295309
 30
0.0
 11
1173.350792273278
 21
401.5005185315145
 31
0.0
  0
LINE
  5
1B3
330
1F
100
AcDbEntity
  8
7
  6
________________
 62
     7
370
     9
100
AcDbLine
 10
1173.350792273278
 20
401.5005185315145
 30
0.0
 11
1173.333232276255
 21
401.5031440763542
 31
0.0
  0
LINE
  5
1B4
330
1F
100
AcDbEntity
  8
7
  6
________________
 62
     7
370
     9
100
AcDbLine
 10
1173.333232276255
 20
401.5031440763542
 30
0.0
 11
1173.282090286123
 21
401.5288356861766
 31
0.0
  0
SPLINE
  5
1B5
330
1F
100
AcDbEntity
  8
7
  6
________________
 62
     7
370
     9
100
AcDbSpline
210
0.0
220
0.0
230
1.0
 70
    12
 71
     3
 72
    18
 73
    14
 74
     0
 42
0.000000001
 43
0.0001
 40
2.558545970000176
 40
2.558545970000176
 40
2.558545970000176
 40
2.558545970000176
 40
2.55918715622789
 40
2.56664834327228
 40
2.57410953031668
 40
2.58157071736107
 40
2.58903190440547
 40
2.59649309144987
 40
2.60395427849426
 40
2.61141546553865
 40
2.61887665258305
 40
2.62633783962745
 40
2.630451690364148
 40
2.630451690364148
 40
2.630451690364148
 40
2.630451690364148
 10
1173.282090286123
 20
401.5288356861766
 30
0.0
 41
1.0
 10
1173.269031657659
 20
401.5388292556796
 30
0.0
 41
1.0
 10
1173.104015820344
 20
401.6983742767739
 30
0.0
 41
1.0
 10
1172.78704277418
 20
402.8136063472163
 30
0.0
 41
1.0
 10
1172.33117114763
 20
406.4290894205224
 30
0.0
 41
1.0
 10
1171.875299521081
 20
411.7615204569163
 30
0.0
 41
1.0
 10
1171.419427894531
 20
418.3763904141637
 30
0.0
 41
1.0
 10
1170.963556267981
 20
425.7346917007923
 30
0.0
 41
1.0
 10
1170.507684641431
 20
433.2368387951699
 30
0.0
 41
1.0
 10
1170.051813014881
 20
440.2715250106426
 30
0.0
 41
1.0
 10
1169.595941388331
 20
446.2655343507844
 30
0.0
 41
1.0
 10
1169.208242812447
 20
450.0627464883469
 30
0.0
 41
1.0
 10
1168.972501445412
 20
451.6123618010853
 30
0.0
 41
1.0
 10
1168.888717287227
 20
452.0613419184783
 30
0.0
 41
1.0
  0
ARC
  5
1B6
330
1F
100
AcDbEntity
  8
7
  6
________________
 62
     7
370
     9
100
AcDbCircle
 10
1175.820230568147
 20
451.7937292365821
 30
0.0
 40
3.08008109781926
100
AcDbArc
 50
4.995906806621033
 51
33.5200176955127
  0
ARC
  5
1B7
330
1F
100
AcDbEntity
  8
7
  6
________________
 62
     7
370
     9
100
AcDbCircle
 10
-1180.390636507468
 20
403.3182124732273
 30
0.0
 40
3.518539606346816
210
0.0
220
0.0
230
-1.0
100
AcDbArc
 50
186.2097912846451
 51
210.8009062198091
  0
LINE
  5
1B8
330
1F
100
AcDbEntity
  8
7
  6
________________
 62
     7
370
     9
100
AcDbLine
 10
1183.412892428981
 20
401.5165215712381
 30
0.0
 11
1183.368360820244
 21
401.5009675826192
 31
0.0
  0
LINE
  5
1B9
330
1F
100
AcDbEntity
  8
7
  6
________________
 62
     7
370
     9
100
AcDbLine
 10
1183.368360820244
 20
401.5009675826192
 30
0.0
 11
1183.362456341604
 21
401.5004324728545
 31
0.0
  0
LINE
  5
1BA
330
1F
100
AcDbEntity
  8
7
  6
________________
 62
     7
370
     9
100
AcDbLine
 10
1183.362456341604
 20
401.5004324728545
 30
0.0
 11
1183.350233788133
 21
401.5004623364797
 31
0.0
  0
LINE
  5
1BB
330
1F
100
AcDbEntity
  8
7
  6
________________
 62
     7
370
     9
100
AcDbLine
 10
1183.350233788133
 20
401.5004623364797
 30
0.0
 11
1183.331552428981
 21
401.5034742571535
 31
0.0
  0
SPLINE
  5
1BC
330
1F
100
AcDbEntity
  8
7
  6
________________
 62
     7
370
     9
100
AcDbSpline
210
0.0
220
0.0
230
1.0
 70
    12
 71
     3
 72
    18
 73
    14
 74
     0
 42
0.000000001
 43
0.0001
 40
2.394067831031776
 40
2.394067831031776
 40
2.394067831031776
 40
2.394067831031776
 40
2.39504104125117
 40
2.40250222829557
 40
2.40996341533996
 40
2.41742460238435
 40
2.42488578942876
 40
2.43234697647315
 40
2.43980816351755
 40
2.44726935056194
 40
2.45473053760634
 40
2.46219172465073
 40
2.466784844082242
 40
2.466784844082242
 40
2.466784844082242
 40
2.466784844082242
 10
1183.331552428981
 20
401.5034742571534
 30
0.0
 41
1.0
 10
1183.31173168093
 20
401.5085734569204
 30
0.0
 41
1.0
 10
1183.13995372403
 20
401.6052956565023
 30
0.0
 41
1.0
 10
1182.816218558279
 20
402.648436541337
 30
0.0
 41
1.0
 10
1182.36034693173
 20
406.1423596709002
 30
0.0
 41
1.0
 10
1181.90447530518
 20
411.376594716696
 30
0.0
 41
1.0
 10
1181.44860367863
 20
417.9246340612714
 30
0.0
 41
1.0
 10
1180.99273205208
 20
425.252915754231
 30
0.0
 41
1.0
 10
1180.53686042553
 20
432.7643003974487
 30
0.0
 41
1.0
 10
1180.08098879898
 20
439.8467285897058
 30
0.0
 41
1.0
 10
1179.62511717243
 20
445.9230941163135
 30
0.0
 41
1.0
 10
1179.227657638574
 20
449.9120391893134
 30
0.0
 41
1.0
 10
1178.982155313569
 20
451.5606852956892
 30
0.0
 41
1.0
 10
1178.888610197413
 20
452.0619567889458
 30
0.0
 41
1.0
  0
ARC
  5
1BD
330
1F
100
AcDbEntity
  8
7
  6
________________
 62
     7
370
     9
100
AcDbCircle
 10
1184.922126632768
 20
451.5624907307083
 30
0.0
 40
3.997860875301154
100
AcDbArc
 50
7.166744981965855
 51
28.4339349118798
  0
LINE
  5
1BE
330
1F
100
AcDbEntity
  8
7
  6
________________
 62
     7
370
     9
100
AcDbLine
 10
1188.36335948353
 20
453.4995789531415
 30
0.0
 11
1188.35637242898
 21
453.4998136081193
 31
0.0
  0
ARC
  5
1BF
330
1F
100
AcDbEntity
  8
7
  6
________________
 62
     7
370
     9
100
AcDbCircle
 10
-1190.442219141676
 20
403.3448489731068
 30
0.0
 40
3.470329693408486
210
0.0
220
0.0
230
-1.0
100
AcDbArc
 50
186.7323817333795
 51
212.0351330725381
  0
LINE
  5
1C0
330
1F
100
AcDbEntity
  8
7
  6
________________
 62
     7
370
     9
100
AcDbLine
 10
1193.38409742898
 20
401.504050145521
 30
0.0
 11
1193.362012539488
 21
401.5003195131204
 31
0.0
  0
LINE
  5
1C1
330
1F
100
AcDbEntity
  8
7
  6
________________
 62
     7
370
     9
100
AcDbLine
 10
1193.362012539488
 20
401.5003195131204
 30
0.0
 11
1193.349789809294
 21
401.500410953792
 31
0.0
  0
LINE
  5
1C2
330
1F
100
AcDbEntity
  8
7
  6
________________
 62
     7
370
     9
100
AcDbLine
 10
1193.349789809294
 20
401.500410953792
 30
0.0
 11
1193.344153678981
 21
401.500971136551
 31
0.0
  0
LINE
  5
1C3
330
1F
100
AcDbEntity
  8
7
  6
________________
 62
     7
370
     9
100
AcDbLine
 10
1193.34415367898
 20
401.500971136551
 30
0.0
 11
1193.30420992898
 21
401.5143232999109
 31
0.0
  0
SPLINE
  5
1C4
330
1F
100
AcDbEntity
  8
7
  6
________________
 62
     7
370
     9
100
AcDbSpline
210
0.0
220
0.0
230
1.0
 70
    12
 71
     3
 72
    18
 73
    14
 74
     0
 42
0.000000001
 43
0.0001
 40
2.230846742892733
 40
2.230846742892733
 40
2.230846742892733
 40
2.230846742892733
 40
2.23089492627445
 40
2.23835611331885
 40
2.24581730036325
 40
2.25327848740764
 40
2.26073967445204
 40
2.26820086149643
 40
2.27566204854083
 40
2.28312323558523
 40
2.29058442262962
 40
2.29804560967402
 40
2.30311390235234
 40
2.30311390235234
 40
2.30311390235234
 40
2.30311390235234
 10
1193.30420992898
 20
401.5143232999109
 30
0.0
 41
1.0
 10
1193.303228608963
 20
401.5148535316047
 30
0.0
 41
1.0
 10
1193.150290080096
 20
401.5998147306233
 30
0.0
 41
1.0
 10
1192.845394342379
 20
402.4916178911872
 30
0.0
 41
1.0
 10
1192.389522715829
 20
405.8628069745594
 30
0.0
 41
1.0
 10
1191.933651089279
 20
410.9970871106432
 30
0.0
 41
1.0
 10
1191.477779462729
 20
417.4760954309347
 30
0.0
 41
1.0
 10
1191.021907836179
 20
424.7718949249669
 30
0.0
 41
1.0
 10
1190.566036209629
 20
432.2899929816131
 30
0.0
 41
1.0
 10
1190.110164583079
 20
439.4177831623242
 30
0.0
 41
1.0
 10
1189.654292956529
 20
445.5744629656672
 30
0.0
 41
1.0
 10
1189.247155874064
 20
449.7576322869813
 30
0.0
 41
1.0
 10
1188.991976000449
 20
451.5079105093643
 30
0.0
 41
1.0
 10
1188.888753335684
 20
452.0612533776402
 30
0.0
 41
1.0
  0
ARC
  5
1C5
330
1F
100
AcDbEntity
  8
7
  6
________________
 62
     7
370
     9
100
AcDbCircle
 10
-1221.793782302226
 20
402.8800001380717
 30
0.0
 40
2.095630336755898
210
0.0
220
0.0
230
-1.0
100
AcDbArc
 50
178.4205642065737
 51
221.1405417797092
  0
LINE
  5
1C6
330
1F
100
AcDbEntity
  8
7
  6
________________
 62
     7
370
     9
100
AcDbLine
 10
1223.37199742898
 20
401.5012675599344
 30
0.0
 11
1223.363124874407
 21
401.500306581993
 31
0.0
  0
LINE
  5
1C7
330
1F
100
AcDbEntity
  8
7
  6
________________
 62
     7
370
     9
100
AcDbLine
 10
1223.363124874407
 20
401.500306581993
 30
0.0
 11
1223.350902190541
 21
401.5003120968085
 31
0.0
  0
LINE
  5
1C8
330
1F
100
AcDbEntity
  8
7
  6
________________
 62
     7
370
     9
100
AcDbLine
 10
1223.350902190541
 20
401.5003120968085
 30
0.0
 11
1223.333734963965
 21
401.5029185467714
 31
0.0
  0
LINE
  5
1C9
330
1F
100
AcDbEntity
  8
7
  6
________________
 62
     7
370
     9
100
AcDbLine
 10
1223.333734963965
 20
401.5029185467714
 30
0.0
 11
1223.29210992898
 21
401.5218200469489
 31
0.0
  0
ARC
  5
1CA
330
1F
100
AcDbEntity
  8
7
  6
________________
 62
     7
370
     9
100
AcDbCircle
 10
-1226.711895539451
 20
403.4135221625984
 30
0.0
 40
3.908128774226648
210
0.0
220
0.0
230
-1.0
100
AcDbArc
 50
331.0502129822053
 51
350.6663585409243
  0
ARC
  5
1CB
330
1F
100
AcDbEntity
  8
7
  6
________________
 62
     7
370
     9
100
AcDbCircle
 10
1226.425789663297
 20
452.0171446224659
 30
0.0
 40
2.463178210847002
100
AcDbArc
 50
1.058763252905635
 51
36.73826410832478
  0
ARC
  5
1CC
330
1F
100
AcDbEntity
  8
7
  6
________________
 62
     7
370
     9
100
AcDbCircle
 10
-1228.492643850002
 20
403.918661722737
 30
0.0
 40
5.484418039340604
210
0.0
220
0.0
230
-1.0
100
AcDbArc
 50
190.2883152520317
 51
205.8700237065856
  0
LINE
  5
1CD
330
1F
100
AcDbEntity
  8
7
  6
________________
 62
     7
370
     9
100
AcDbLine
 10
1233.42744742898
 20
401.5256396026645
 30
0.0
 11
1233.375236004178
 21
401.5018681691475
 31
0.0
  0
LINE
  5
1CE
330
1F
100
AcDbEntity
  8
7
  6
________________
 62
     7
370
     9
100
AcDbLine
 10
1233.375236004178
 20
401.5018681691476
 30
0.0
 11
1233.363382627037
 21
401.5003849602703
 31
0.0
  0
LINE
  5
1CF
330
1F
100
AcDbEntity
  8
7
  6
________________
 62
     7
370
     9
100
AcDbLine
 10
1233.363382627037
 20
401.5003849602703
 30
0.0
 11
1233.351159812713
 21
401.5003695983183
 31
0.0
  0
LINE
  5
1D0
330
1F
100
AcDbEntity
  8
7
  6
________________
 62
     7
370
     9
100
AcDbLine
 10
1233.351159812713
 20
401.5003695983183
 30
0.0
 11
1233.345929571837
 21
401.5008323805197
 31
0.0
  0
SPLINE
  5
1D1
330
1F
100
AcDbEntity
  8
7
  6
________________
 62
     7
370
     9
100
AcDbSpline
210
0.0
220
0.0
230
1.0
 70
    12
 71
     3
 72
    17
 73
    13
 74
     0
 42
0.000000001
 43
0.0001
 40
1.575489527319487
 40
1.575489527319487
 40
1.575489527319487
 40
1.575489527319487
 40
1.58177165341198
 40
1.58923284045638
 40
1.59669402750078
 40
1.60415521454517
 40
1.61161640158957
 40
1.61907758863397
 40
1.62653877567836
 40
1.63399996272276
 40
1.64146114976715
 40
1.648442877905369
 40
1.648442877905369
 40
1.648442877905369
 40
1.648442877905369
 10
1233.345929571837
 20
401.5008323805197
 30
0.0
 41
1.0
 10
1233.217985540816
 20
401.5155925374037
 30
0.0
 41
1.0
 10
1232.938084300946
 20
402.1000098286327
 30
0.0
 41
1.0
 10
1232.506225852225
 20
404.8182087130357
 30
0.0
 41
1.0
 10
1232.050354225675
 20
409.5357604263107
 30
0.0
 41
1.0
 10
1231.594482599125
 20
415.7171154048706
 30
0.0
 41
1.0
 10
1231.138610972575
 20
422.8585906918977
 30
0.0
 41
1.0
 10
1230.682739346025
 20
430.3782686655935
 30
0.0
 41
1.0
 10
1230.226867719476
 20
437.6634141490838
 30
0.0
 41
1.0
 10
1229.770996092925
 20
444.1204026650974
 30
0.0
 41
1.0
 10
1229.324889298259
 20
449.1137911857985
 30
0.0
 41
1.0
 10
1229.030739712443
 20
451.3008373466709
 30
0.0
 41
1.0
 10
1228.888547335476
 20
452.0626588676426
 30
0.0
 41
1.0
  0
ARC
  5
1D2
330
1F
100
AcDbEntity
  8
7
  6
________________
 62
     7
370
     9
100
AcDbCircle
 10
1236.459265426429
 20
451.9970970287615
 30
0.0
 40
2.430601159071463
100
AcDbArc
 50
1.48217810213242
 51
38.16095926452834
  0
LINE
  5
1D3
330
1F
100
AcDbEntity
  8
7
  6
________________
 62
     7
370
     9
100
AcDbLine
 10
1238.370393857551
 20
453.498899317425
 30
0.0
 11
1238.361902935813
 21
453.4996826567001
 31
0.0
  0
SPLINE
  5
1D4
330
1F
100
AcDbEntity
  8
7
  6
________________
 62
     7
370
     9
100
AcDbSpline
210
0.0
220
0.0
230
1.0
 70
    12
 71
     3
 72
     9
 73
     5
 74
     0
 42
0.000000001
 43
0.0001
 40
1.402935191719725
 40
1.402935191719725
 40
1.402935191719725
 40
1.402935191719725
 40
1.41016435139087
 40
1.411020121239905
 40
1.411020121239905
 40
1.411020121239905
 40
1.411020121239905
 10
1243.888839858102
 20
402.9389229760572
 30
0.0
 41
1.0
 10
1243.741608201876
 20
402.1500491104969
 30
0.0
 41
1.0
 10
1243.576947630264
 20
401.6223638580134
 30
0.0
 41
1.0
 10
1243.412287058652
 20
401.5143126308327
 30
0.0
 41
1.0
 10
1243.394858143266
 20
401.5075638088102
 30
0.0
 41
1.0
  0
LINE
  5
1D5
330
1F
100
AcDbEntity
  8
7
  6
________________
 62
     7
370
     9
100
AcDbLine
 10
1243.394858143266
 20
401.5075638088102
 30
0.0
 11
1243.362869469447
 21
401.5004382863483
 31
0.0
  0
LINE
  5
1D6
330
1F
100
AcDbEntity
  8
7
  6
________________
 62
     7
370
     9
100
AcDbLine
 10
1243.362869469447
 20
401.5004382863484
 30
0.0
 11
1243.354099214694
 21
401.5003212395138
 31
0.0
  0
LINE
  5
1D7
330
1F
100
AcDbEntity
  8
7
  6
________________
 62
     7
370
     9
100
AcDbLine
 10
1243.354099214694
 20
401.5003212395138
 30
0.0
 11
1243.350646879808
 21
401.5004917823484
 31
0.0
  0
LINE
  5
1D8
330
1F
100
AcDbEntity
  8
7
  6
________________
 62
     7
370
     9
100
AcDbLine
 10
1243.350646879808
 20
401.5004917823484
 30
0.0
 11
1243.313340286123
 21
401.5101336259667
 31
0.0
  0
SPLINE
  5
1D9
330
1F
100
AcDbEntity
  8
7
  6
________________
 62
     7
370
     9
100
AcDbSpline
210
0.0
220
0.0
230
1.0
 70
    12
 71
     3
 72
    17
 73
    13
 74
     0
 42
0.000000001
 43
0.0001
 40
1.412354312587158
 40
1.412354312587158
 40
1.412354312587158
 40
1.412354312587158
 40
1.41762553843527
 40
1.42508672547966
 40
1.43254791252406
 40
1.44000909956845
 40
1.44747028661285
 40
1.45493147365725
 40
1.46239266070164
 40
1.46985384774604
 40
1.47731503479043
 40
1.484765996990149
 40
1.484765996990149
 40
1.484765996990149
 40
1.484765996990149
 10
1243.313340286123
 20
401.5101336259667
 30
0.0
 41
1.0
 10
1243.205984611707
 20
401.5584060865564
 30
0.0
 41
1.0
 10
1242.946671728441
 20
402.1027465593774
 30
0.0
 41
1.0
 10
1242.535401636324
 20
404.5759010785507
 30
0.0
 41
1.0
 10
1242.079530009774
 20
409.1852185434639
 30
0.0
 41
1.0
 10
1241.623658383224
 20
415.2869029094113
 30
0.0
 41
1.0
 10
1241.167786756674
 20
422.3837631181744
 30
0.0
 41
1.0
 10
1240.711915130124
 20
429.8975169732974
 30
0.0
 41
1.0
 10
1240.256043503575
 20
437.2159120201518
 30
0.0
 41
1.0
 10
1239.800171877024
 20
443.742614466366
 30
0.0
 41
1.0
 10
1239.344508493325
 20
448.9434241588065
 30
0.0
 41
1.0
 10
1239.040802318476
 20
451.2464385929681
 30
0.0
 41
1.0
 10
1238.889053352476
 20
452.0599669652428
 30
0.0
 41
1.0
  0
SPLINE
  5
1DA
330
1F
100
AcDbEntity
  8
7
  6
________________
 62
     7
370
     9
100
AcDbSpline
210
0.0
220
0.0
230
1.0
 70
    12
 71
     3
 72
     9
 73
     5
 74
     0
 42
0.000000001
 43
0.0001
 40
1.321103457914635
 40
1.321103457914635
 40
1.321103457914635
 40
1.321103457914635
 40
1.32809129390251
 40
1.328785418200113
 40
1.328785418200113
 40
1.328785418200113
 40
1.328785418200113
 10
1248.888683096337
 20
452.0619208629055
 30
0.0
 41
1.0
 10
1248.746366324716
 20
452.8241432506298
 30
0.0
 41
1.0
 10
1248.58991276893
 20
453.3368142820477
 30
0.0
 41
1.0
 10
1248.433459213145
 20
453.4708526957485
 30
0.0
 41
1.0
 10
1248.41932242898
 20
453.4798791039239
 30
0.0
 41
1.0
  0
LINE
  5
1DB
330
1F
100
AcDbEntity
  8
7
  6
________________
 62
     7
370
     9
100
AcDbLine
 10
1248.41932242898
 20
453.4798791039239
 30
0.0
 11
1248.371403812747
 21
453.4986693665674
 31
0.0
  0
SPLINE
  5
1DC
330
1F
100
AcDbEntity
  8
7
  6
________________
 62
     7
370
     9
100
AcDbSpline
210
0.0
220
0.0
230
1.0
 70
    12
 71
     3
 72
     9
 73
     5
 74
     0
 42
0.000000001
 43
0.0001
 40
1.239266190444296
 40
1.239266190444296
 40
1.239266190444296
 40
1.239266190444296
 40
1.24601823641415
 40
1.247862600863728
 40
1.247862600863728
 40
1.247862600863728
 40
1.247862600863728
 10
1253.8888644364
 20
402.9391053773888
 30
0.0
 41
1.0
 10
1253.751349848774
 20
402.2024332018581
 30
0.0
 41
1.0
 10
1253.576272273894
 20
401.6158313599058
 30
0.0
 41
1.0
 10
1253.401194699013
 20
401.5030646277094
 30
0.0
 41
1.0
 10
1253.363631711757
 20
401.5005768750931
 30
0.0
 41
1.0
  0
LINE
  5
1DD
330
1F
100
AcDbEntity
  8
7
  6
________________
 62
     7
370
     9
100
AcDbLine
 10
1253.363631711757
 20
401.5005768750931
 30
0.0
 11
1253.3514082697
 21
401.5005333814856
 31
0.0
  0
LINE
  5
1DE
330
1F
100
AcDbEntity
  8
7
  6
________________
 62
     7
370
     9
100
AcDbLine
 10
1253.3514082697
 20
401.5005333814857
 30
0.0
 11
1253.333678049067
 21
401.5031920425384
 31
0.0
  0
LINE
  5
1DF
330
1F
100
AcDbEntity
  8
7
  6
________________
 62
     7
370
     9
100
AcDbLine
 10
1253.333678049067
 20
401.5031920425384
 30
0.0
 11
1253.28146242898
 21
401.5297172035644
 31
0.0
  0
SPLINE
  5
1E0
330
1F
100
AcDbEntity
  8
7
  6
________________
 62
     7
370
     9
100
AcDbSpline
210
0.0
220
0.0
230
1.0
 70
    12
 71
     3
 72
    18
 73
    14
 74
     0
 42
0.000000001
 43
0.0001
 40
1.24920745400307
 40
1.24920745400307
 40
1.24920745400307
 40
1.24920745400307
 40
1.25347942345855
 40
1.26094061050295
 40
1.26840179754734
 40
1.27586298459174
 40
1.28332417163613
 40
1.29078535868053
 40
1.29824654572493
 40
1.30570773276932
 40
1.31316891981372
 40
1.32063010685812
 40
1.321103457914635
 40
1.321103457914635
 40
1.321103457914635
 40
1.321103457914635
 10
1253.28146242898
 20
401.5297172035644
 30
0.0
 41
1.0
 10
1253.194457968311
 20
401.5971463786308
 30
0.0
 41
1.0
 10
1252.955496298792
 20
402.101057532546
 30
0.0
 41
1.0
 10
1252.564577420424
 20
404.341296892119
 30
0.0
 41
1.0
 10
1252.108705793873
 20
408.8408311876679
 30
0.0
 41
1.0
 10
1251.652834167324
 20
414.860794523096
 30
0.0
 41
1.0
 10
1251.196962540773
 20
421.910654815511
 30
0.0
 41
1.0
 10
1250.741090914224
 20
429.4159596204968
 30
0.0
 41
1.0
 10
1250.285219287674
 20
436.7651449477783
 30
0.0
 41
1.0
 10
1249.829347661124
 20
443.3593680826609
 30
0.0
 41
1.0
 10
1249.373476034574
 20
448.6613038241139
 30
0.0
 41
1.0
 10
1249.059921179645
 20
451.1220435784811
 30
0.0
 41
1.0
 10
1248.898323533566
 20
452.0102884586598
 30
0.0
 41
1.0
 10
1248.888683096337
 20
452.0619208629055
 30
0.0
 41
1.0
  0
SPLINE
  5
1E1
330
1F
100
AcDbEntity
  8
7
  6
________________
 62
     7
370
     9
100
AcDbSpline
210
0.0
220
0.0
230
1.0
 70
    12
 71
     3
 72
     9
 73
     5
 74
     0
 42
0.000000001
 43
0.0001
 40
1.157429653209938
 40
1.157429653209938
 40
1.157429653209938
 40
1.157429653209938
 40
1.1639451789258
 40
1.165635648653087
 40
1.165635648653087
 40
1.165635648653087
 40
1.165635648653087
 10
1258.88900115972
 20
452.0601506937509
 30
0.0
 41
1.0
 10
1258.756303628337
 20
452.771143785733
 30
0.0
 41
1.0
 10
1258.589177384757
 20
453.343353289014
 30
0.0
 41
1.0
 10
1258.422051141178
 20
453.4841054653226
 30
0.0
 41
1.0
 10
1258.38762242898
 20
453.4948610160399
 30
0.0
 41
1.0
  0
SPLINE
  5
1E2
330
1F
100
AcDbEntity
  8
7
  6
________________
 62
     7
370
     9
100
AcDbSpline
210
0.0
220
0.0
230
1.0
 70
    12
 71
     3
 72
     9
 73
     5
 74
     0
 42
0.000000001
 43
0.0001
 40
1.075592394288649
 40
1.075592394288649
 40
1.075592394288649
 40
1.075592394288649
 40
1.08187212143744
 40
1.083347577959406
 40
1.083347577959406
 40
1.083347577959406
 40
1.083347577959406
 10
1263.889181977443
 20
402.9408840576559
 30
0.0
 41
1.0
 10
1263.76128680417
 20
402.2554277452338
 30
0.0
 41
1.0
 10
1263.603341954682
 20
401.703069173168
 30
0.0
 41
1.0
 10
1263.445397105194
 20
401.5357499254912
 30
0.0
 41
1.0
 10
1263.41534742898
 20
401.5178145073277
 30
0.0
 41
1.0
  0
LINE
  5
1E3
330
1F
100
AcDbEntity
  8
7
  6
________________
 62
     7
370
     9
100
AcDbLine
 10
1263.41534742898
 20
401.5178145073277
 30
0.0
 11
1263.370692336848
 21
401.5013871866032
 31
0.0
  0
LINE
  5
1E4
330
1F
100
AcDbEntity
  8
7
  6
________________
 62
     7
370
     9
100
AcDbLine
 10
1263.370692336848
 20
401.5013871866032
 30
0.0
 11
1263.363463809369
 21
401.5006501608582
 31
0.0
  0
LINE
  5
1E5
330
1F
100
AcDbEntity
  8
7
  6
________________
 62
     7
370
     9
100
AcDbLine
 10
1263.363463809369
 20
401.5006501608582
 30
0.0
 11
1263.351241427086
 21
401.5006215702654
 31
0.0
  0
LINE
  5
1E6
330
1F
100
AcDbEntity
  8
7
  6
________________
 62
     7
370
     9
100
AcDbLine
 10
1263.351241427086
 20
401.5006215702654
 30
0.0
 11
1263.33545992898
 21
401.5028473129335
 31
0.0
  0
SPLINE
  5
1E7
330
1F
100
AcDbEntity
  8
7
  6
________________
 62
     7
370
     9
100
AcDbSpline
210
0.0
220
0.0
230
1.0
 70
    12
 71
     3
 72
    18
 73
    14
 74
     0
 42
0.000000001
 43
0.0001
 40
1.084655085479714
 40
1.084655085479714
 40
1.084655085479714
 40
1.084655085479714
 40
1.08933330848183
 40
1.09679449552623
 40
1.10425568257063
 40
1.11171686961502
 40
1.11917805665942
 40
1.12663924370381
 40
1.13410043074821
 40
1.14156161779261
 40
1.149022804837
 40
1.1564839918814
 40
1.157429653209938
 40
1.157429653209938
 40
1.157429653209938
 40
1.157429653209938
 10
1263.33545992898
 20
401.5028473129335
 30
0.0
 41
1.0
 10
1263.240181563011
 20
401.5239809347594
 30
0.0
 41
1.0
 10
1262.992945988192
 20
401.9404626151976
 30
0.0
 41
1.0
 10
1262.593753204523
 20
404.1144749904348
 30
0.0
 41
1.0
 10
1262.137881577973
 20
408.5027140872952
 30
0.0
 41
1.0
 10
1261.682009951423
 20
414.4389334359375
 30
0.0
 41
1.0
 10
1261.226138324873
 20
421.4394247678334
 30
0.0
 41
1.0
 10
1260.770266698323
 20
428.9337584303478
 30
0.0
 41
1.0
 10
1260.314395071773
 20
436.3112644083128
 30
0.0
 41
1.0
 10
1259.858523445223
 20
442.9707923005922
 30
0.0
 41
1.0
 10
1259.402651818673
 20
448.3696955982202
 30
0.0
 41
1.0
 10
1259.079477723506
 20
450.9915125435249
 30
0.0
 41
1.0
 10
1258.908260837188
 20
451.9569573826866
 30
0.0
 41
1.0
 10
1258.88900115972
 20
452.0601506937509
 30
0.0
 41
1.0
  0
SPLINE
  5
1E8
330
1F
100
AcDbEntity
  8
7
  6
________________
 62
     7
370
     9
100
AcDbSpline
210
0.0
220
0.0
230
1.0
 70
    12
 71
     3
 72
     9
 73
     5
 74
     0
 42
0.000000001
 43
0.0001
 40
0.9937596029840935
 40
0.9937596029840935
 40
0.9937596029840935
 40
0.9937596029840935
 40
0.99979906394908
 40
1.002368542234717
 40
1.002368542234717
 40
1.002368542234717
 40
1.002368542234717
 10
1268.889089827918
 20
452.0595915795469
 30
0.0
 41
1.0
 10
1268.766088001836
 20
452.718698680152
 30
0.0
 41
1.0
 10
1268.59075526029
 20
453.3444500848778
 30
0.0
 41
1.0
 10
1268.415422518743
 20
453.4961462014262
 30
0.0
 41
1.0
 10
1268.363091603279
 20
453.4993622196346
 30
0.0
 41
1.0
  0
SPLINE
  5
1E9
330
1F
100
AcDbEntity
  8
7
  6
________________
 62
     7
370
     9
100
AcDbSpline
210
0.0
220
0.0
230
1.0
 70
    12
 71
     3
 72
     9
 73
     5
 74
     0
 42
0.000000001
 43
0.0001
 40
0.9119284444388858
 40
0.9119284444388858
 40
0.9119284444388858
 40
0.9119284444388858
 40
0.917726006460722
 40
0.9201589955731861
 40
0.9201589955731861
 40
0.9201589955731861
 40
0.9201589955731861
 10
1273.888897918306
 20
402.9394490272366
 30
0.0
 41
1.0
 10
1273.770822692778
 20
402.3069596588888
 30
0.0
 41
1.0
 10
1273.603196339193
 20
401.6967926892505
 30
0.0
 41
1.0
 10
1273.435569985608
 20
401.5194976942425
 30
0.0
 41
1.0
 10
1273.386018857552
 20
401.504802123015
 30
0.0
 41
1.0
  0
LINE
  5
1EA
330
1F
100
AcDbEntity
  8
7
  6
________________
 62
     7
370
     9
100
AcDbLine
 10
1273.386018857552
 20
401.504802123015
 30
0.0
 11
1273.362668664005
 21
401.5006682198094
 31
0.0
  0
LINE
  5
1EB
330
1F
100
AcDbEntity
  8
7
  6
________________
 62
     7
370
     9
100
AcDbLine
 10
1273.362668664005
 20
401.5006682198094
 30
0.0
 11
1273.350446406223
 21
401.5007295816286
 31
0.0
  0
LINE
  5
1EC
330
1F
100
AcDbEntity
  8
7
  6
________________
 62
     7
370
     9
100
AcDbLine
 10
1273.350446406223
 20
401.5007295816286
 30
0.0
 11
1273.34525992898
 21
401.5012175996674
 31
0.0
  0
LINE
  5
1ED
330
1F
100
AcDbEntity
  8
7
  6
________________
 62
     7
370
     9
100
AcDbLine
 10
1273.34525992898
 20
401.5012175996674
 30
0.0
 11
1273.304501000409
 21
401.51463089566
 31
0.0
  0
SPLINE
  5
1EE
330
1F
100
AcDbEntity
  8
7
  6
________________
 62
     7
370
     9
100
AcDbSpline
210
0.0
220
0.0
230
1.0
 70
    12
 71
     3
 72
    18
 73
    14
 74
     0
 42
0.000000001
 43
0.0001
 40
0.9214931869204394
 40
0.9214931869204394
 40
0.9214931869204394
 40
0.9214931869204394
 40
0.925187193505118
 40
0.932648380549514
 40
0.940109567593911
 40
0.947570754638307
 40
0.955031941682703
 40
0.962493128727099
 40
0.969954315771495
 40
0.977415502815892
 40
0.984876689860288
 40
0.992337876904684
 40
0.9937596029840935
 40
0.9937596029840935
 40
0.9937596029840935
 40
0.9937596029840935
 10
1273.304501000409
 20
401.51463089566
 30
0.0
 41
1.0
 10
1273.229267538663
 20
401.5550682911007
 30
0.0
 41
1.0
 10
1273.002076868068
 20
401.939293946186
 30
0.0
 41
1.0
 10
1272.622928988622
 20
403.8955115950238
 30
0.0
 41
1.0
 10
1272.167057362072
 20
408.1709808636526
 30
0.0
 41
1.0
 10
1271.711185735522
 20
414.0214614106822
 30
0.0
 41
1.0
 10
1271.255314108972
 20
420.9702313278964
 30
0.0
 41
1.0
 10
1270.799442482422
 20
428.4510754423619
 30
0.0
 41
1.0
 10
1270.343570855872
 20
435.8544229243589
 30
0.0
 41
1.0
 10
1269.887699229322
 20
442.5770176976687
 30
0.0
 41
1.0
 10
1269.431827602772
 20
448.0710742970239
 30
0.0
 41
1.0
 10
1269.098957802304
 20
450.8587965008545
 30
0.0
 41
1.0
 10
1268.918045210686
 20
451.9044337335922
 30
0.0
 41
1.0
 10
1268.889089827918
 20
452.0595915795469
 30
0.0
 41
1.0
  0
SPLINE
  5
1EF
330
1F
100
AcDbEntity
  8
7
  6
________________
 62
     7
370
     9
100
AcDbSpline
210
0.0
220
0.0
230
1.0
 70
    12
 71
     3
 72
     9
 73
     5
 74
     0
 42
0.000000001
 43
0.0001
 40
0.83009329044221
 40
0.83009329044221
 40
0.83009329044221
 40
0.83009329044221
 40
0.835652948972365
 40
0.8379242925333948
 40
0.8379242925333948
 40
0.8379242925333948
 40
0.8379242925333948
 10
1278.888950127083
 20
452.0602535766464
 30
0.0
 41
1.0
 10
1278.775720129312
 20
452.6668589838112
 30
0.0
 41
1.0
 10
1278.616231134707
 20
453.2589220241129
 30
0.0
 41
1.0
 10
1278.456742140101
 20
453.459539574498
 30
0.0
 41
1.0
 10
1278.410483143266
 20
453.4848613052181
 30
0.0
 41
1.0
  0
SPLINE
  5
1F0
330
1F
100
AcDbEntity
  8
7
  6
________________
 62
     7
370
     9
100
AcDbSpline
210
0.0
220
0.0
230
1.0
 70
    12
 71
     3
 72
     9
 73
     5
 74
     0
 42
0.000000001
 43
0.0001
 40
0.748256904140905
 40
0.748256904140905
 40
0.748256904140905
 40
0.748256904140905
 40
0.753579891484009
 40
0.7556895894936038
 40
0.7556895894936038
 40
0.7556895894936038
 40
0.7556895894936038
 10
1283.889077628533
 20
402.9404948128142
 30
0.0
 41
1.0
 10
1283.780667760962
 20
402.3595560906049
 30
0.0
 41
1.0
 10
1283.629291027778
 20
401.7866408454748
 30
0.0
 41
1.0
 10
1283.477914294594
 20
401.5659553746557
 30
0.0
 41
1.0
 10
1283.43494742898
 20
401.5316630057611
 30
0.0
 41
1.0
  0
LINE
  5
1F1
330
1F
100
AcDbEntity
  8
7
  6
________________
 62
     7
370
     9
100
AcDbLine
 10
1283.43494742898
 20
401.5316630057611
 30
0.0
 11
1283.378091086986
 21
401.5028281090194
 31
0.0
  0
LINE
  5
1F2
330
1F
100
AcDbEntity
  8
7
  6
________________
 62
     7
370
     9
100
AcDbLine
 10
1283.378091086986
 20
401.5028281090194
 30
0.0
 11
1283.362124359571
 21
401.500679595363
 31
0.0
  0
LINE
  5
1F3
330
1F
100
AcDbEntity
  8
7
  6
________________
 62
     7
370
     9
100
AcDbLine
 10
1283.362124359571
 20
401.500679595363
 30
0.0
 11
1283.35360742898
 21
401.5006001992767
 31
0.0
  0
LINE
  5
1F4
330
1F
100
AcDbEntity
  8
7
  6
________________
 62
     7
370
     9
100
AcDbLine
 10
1283.35360742898
 20
401.5006001992767
 30
0.0
 11
1283.349897287694
 21
401.5007976431946
 31
0.0
  0
SPLINE
  5
1F5
330
1F
100
AcDbEntity
  8
7
  6
________________
 62
     7
370
     9
100
AcDbSpline
210
0.0
220
0.0
230
1.0
 70
    12
 71
     3
 72
    18
 73
    14
 74
     0
 42
0.000000001
 43
0.0001
 40
0.7570815932405653
 40
0.7570815932405653
 40
0.7570815932405653
 40
0.7570815932405653
 40
0.761041078528405
 40
0.768502265572801
 40
0.775963452617197
 40
0.783424639661593
 40
0.790885826705989
 40
0.798347013750385
 40
0.805808200794781
 40
0.813269387839177
 40
0.820730574883573
 40
0.828191761927969
 40
0.83009329044221
 40
0.83009329044221
 40
0.83009329044221
 40
0.83009329044221
 10
1283.349897287694
 20
401.5007976431946
 30
0.0
 41
1.0
 10
1283.269256991553
 20
401.5066193475679
 30
0.0
 41
1.0
 10
1283.036659486562
 20
401.8112116265356
 30
0.0
 41
1.0
 10
1282.652104772721
 20
403.6844802866287
 30
0.0
 41
1.0
 10
1282.196233146171
 20
407.8457429928043
 30
0.0
 41
1.0
 10
1281.740361519622
 20
413.6085187351703
 30
0.0
 41
1.0
 10
1281.284489893071
 20
420.5032321640725
 30
0.0
 41
1.0
 10
1280.828618266521
 20
427.9680728579563
 30
0.0
 41
1.0
 10
1280.372746639972
 20
435.3947740135218
 30
0.0
 41
1.0
 10
1279.916875013422
 20
442.1781765984182
 30
0.0
 41
1.0
 10
1279.461003386871
 20
447.7655402696145
 30
0.0
 41
1.0
 10
1279.118361758092
 20
450.7239434951893
 30
0.0
 41
1.0
 10
1278.927677338162
 20
451.8527808564496
 30
0.0
 41
1.0
 10
1278.888950127083
 20
452.0602535766464
 30
0.0
 41
1.0
  0
SPLINE
  5
1F6
330
1F
100
AcDbEntity
  8
7
  6
________________
 62
     7
370
     9
100
AcDbSpline
210
0.0
220
0.0
230
1.0
 70
    12
 71
     3
 72
     9
 73
     5
 74
     0
 42
0.000000001
 43
0.0001
 40
0.6664231906400848
 40
0.6664231906400848
 40
0.6664231906400848
 40
0.6664231906400848
 40
0.671506833995652
 40
0.6747803449122475
 40
0.6747803449122475
 40
0.6747803449122475
 40
0.6747803449122475
 10
1288.889041824345
 20
452.0596855338068
 30
0.0
 41
1.0
 10
1288.785506522187
 20
452.6144963126354
 30
0.0
 41
1.0
 10
1288.615301723732
 20
453.2708349811052
 30
0.0
 41
1.0
 10
1288.445096925277
 20
453.4824274455469
 30
0.0
 41
1.0
 10
1288.378427428981
 20
453.497105679807
 30
0.0
 41
1.0
  0
LINE
  5
1F7
330
1F
100
AcDbEntity
  8
7
  6
________________
 62
     7
370
     9
100
AcDbLine
 10
1288.378427428981
 20
453.497105679807
 30
0.0
 11
1288.362877445805
 21
453.4992924808795
 31
0.0
  0
SPLINE
  5
1F8
330
1F
100
AcDbEntity
  8
7
  6
________________
 62
     7
370
     9
100
AcDbSpline
210
0.0
220
0.0
230
1.0
 70
    12
 71
     3
 72
     9
 73
     5
 74
     0
 42
0.000000001
 43
0.0001
 40
0.5845917592855028
 40
0.5845917592855028
 40
0.5845917592855028
 40
0.5845917592855028
 40
0.589433776507295
 40
0.5925398199465773
 40
0.5925398199465773
 40
0.5925398199465773
 40
0.5925398199465773
 10
1293.888866583134
 20
402.939432225054
 30
0.0
 41
1.0
 10
1293.790252325396
 20
402.4111243032074
 30
0.0
 41
1.0
 10
1293.628379274012
 20
401.7754815559748
 30
0.0
 41
1.0
 10
1293.466506222627
 20
401.5415754071359
 30
0.0
 41
1.0
 10
1293.40324742898
 20
401.5115573771939
 30
0.0
 41
1.0
  0
LINE
  5
1F9
330
1F
100
AcDbEntity
  8
7
  6
________________
 62
     7
370
     9
100
AcDbLine
 10
1293.40324742898
 20
401.5115573771939
 30
0.0
 11
1293.362297467545
 21
401.5007011347489
 31
0.0
  0
LINE
  5
1FA
330
1F
100
AcDbEntity
  8
7
  6
________________
 62
     7
370
     9
100
AcDbLine
 10
1293.362297467545
 20
401.5007011347489
 30
0.0
 11
1293.350075298497
 21
401.5007845775527
 31
0.0
  0
LINE
  5
1FB
330
1F
100
AcDbEntity
  8
7
  6
________________
 62
     7
370
     9
100
AcDbLine
 10
1293.350075298497
 20
401.5007845775527
 30
0.0
 11
1293.323359928981
 21
401.5062874604208
 31
0.0
  0
SPLINE
  5
1FC
330
1F
100
AcDbEntity
  8
7
  6
________________
 62
     7
370
     9
100
AcDbSpline
210
0.0
220
0.0
230
1.0
 70
    12
 71
     3
 72
    18
 73
    14
 74
     0
 42
0.000000001
 43
0.0001
 40
0.5938473274668855
 40
0.5938473274668855
 40
0.5938473274668855
 40
0.5938473274668855
 40
0.596894963551691
 40
0.604356150596087
 40
0.611817337640483
 40
0.619278524684879
 40
0.626739711729275
 40
0.634200898773671
 40
0.641662085818068
 40
0.649123272862464
 40
0.65658445990686
 40
0.664045646951256
 40
0.6664231906400848
 40
0.6664231906400848
 40
0.6664231906400848
 40
0.6664231906400848
 10
1293.32335992898
 20
401.5062874604208
 30
0.0
 41
1.0
 10
1293.261290680444
 20
401.5275542112579
 30
0.0
 41
1.0
 10
1293.047264223057
 20
401.8047395623622
 30
0.0
 41
1.0
 10
1292.68128055682
 20
403.4814519804832
 30
0.0
 41
1.0
 10
1292.225408930271
 20
407.5271097681029
 30
0.0
 41
1.0
 10
1291.76953730372
 20
413.2002441751914
 30
0.0
 41
1.0
 10
1291.313665677171
 20
420.038584207363
 30
0.0
 41
1.0
 10
1290.85779405062
 20
427.4849129859433
 30
0.0
 41
1.0
 10
1290.401922424071
 20
434.9324721368147
 30
0.0
 41
1.0
 10
1289.946050797521
 20
441.7744030299194
 30
0.0
 41
1.0
 10
1289.490179170971
 20
447.4531961880414
 30
0.0
 41
1.0
 10
1289.137842846579
 20
450.5856396784648
 30
0.0
 41
1.0
 10
1288.937463731037
 20
451.800208860595
 30
0.0
 41
1.0
 10
1288.889041824345
 20
452.0596855338068
 30
0.0
 41
1.0
  0
ARC
  5
1FD
330
1F
100
AcDbEntity
  8
7
  6
________________
 62
     7
370
     9
100
AcDbCircle
 10
1296.341795681281
 20
452.0136350147217
 30
0.0
 40
2.547469176850517
100
AcDbArc
 50
1.06017056416008
 51
34.90530168806106
  0
LINE
  5
1FE
330
1F
100
AcDbEntity
  8
7
  6
________________
 62
     7
370
     9
100
AcDbLine
 10
1298.430972428981
 20
453.4713523137469
 30
0.0
 11
1298.377796647525
 21
453.4972294976106
 31
0.0
  0
SPLINE
  5
1FF
330
1F
100
AcDbEntity
  8
7
  6
________________
 62
     7
370
     9
100
AcDbSpline
210
0.0
220
0.0
230
1.0
 70
    12
 71
     3
 72
     9
 73
     5
 74
     0
 42
0.000000001
 43
0.0001
 40
0.4209216592632067
 40
0.4209216592632067
 40
0.4209216592632067
 40
0.4209216592632067
 40
0.425287661530581
 40
0.4292978699064678
 40
0.4292978699064678
 40
0.4292978699064678
 40
0.4292978699064678
 10
1303.888958293849
 20
402.9399693722168
 30
0.0
 41
1.0
 10
1303.800038727239
 20
402.4634448528116
 30
0.0
 41
1.0
 10
1303.629445819902
 20
401.769141329999
 30
0.0
 41
1.0
 10
1303.458852912565
 20
401.5197245883729
 30
0.0
 41
1.0
 10
1303.377179571838
 20
401.5026597247919
 30
0.0
 41
1.0
  0
LINE
  5
200
330
1F
100
AcDbEntity
  8
7
  6
________________
 62
     7
370
     9
100
AcDbLine
 10
1303.377179571838
 20
401.5026597247919
 30
0.0
 11
1303.362942961239
 21
401.5007217758111
 31
0.0
  0
LINE
  5
201
330
1F
100
AcDbEntity
  8
7
  6
________________
 62
     7
370
     9
100
AcDbLine
 10
1303.362942961239
 20
401.500721775811
 30
0.0
 11
1303.350720659882
 21
401.5007122795084
 31
0.0
  0
LINE
  5
202
330
1F
100
AcDbEntity
  8
7
  6
________________
 62
     7
370
     9
100
AcDbLine
 10
1303.350720659882
 20
401.5007122795084
 30
0.0
 11
1303.336420643266
 21
401.5026416680804
 31
0.0
  0
LINE
  5
203
330
1F
100
AcDbEntity
  8
7
  6
________________
 62
     7
370
     9
100
AcDbLine
 10
1303.336420643266
 20
401.5026416680805
 30
0.0
 11
1303.295661714695
 21
401.5196267353901
 31
0.0
  0
SPLINE
  5
204
330
1F
100
AcDbEntity
  8
7
  6
________________
 62
     7
370
     9
100
AcDbSpline
210
0.0
220
0.0
230
1.0
 70
    12
 71
     3
 72
    18
 73
    14
 74
     0
 42
0.000000001
 43
0.0001
 40
0.4306320612537211
 40
0.4306320612537211
 40
0.4306320612537211
 40
0.4306320612537211
 40
0.432748848574977
 40
0.440210035619374
 40
0.447671222663769
 40
0.455132409708166
 40
0.462593596752562
 40
0.470054783796958
 40
0.477515970841354
 40
0.48497715788575
 40
0.492438344930146
 40
0.499899531974542
 40
0.5027580786402196
 40
0.5027580786402196
 40
0.5027580786402196
 40
0.5027580786402196
 10
1303.295661714695
 20
401.5196267353901
 30
0.0
 41
1.0
 10
1303.25255046562
 20
401.546587903146
 30
0.0
 41
1.0
 10
1303.057482007694
 20
401.7977668024635
 30
0.0
 41
1.0
 10
1302.71045634092
 20
403.2864949024814
 30
0.0
 41
1.0
 10
1302.254584714369
 20
407.2151882634694
 30
0.0
 41
1.0
 10
1301.79871308782
 20
412.7967749278562
 30
0.0
 41
1.0
 10
1301.34284146127
 20
419.5764435986678
 30
0.0
 41
1.0
 10
1300.88696983472
 20
427.0017581879904
 30
0.0
 41
1.0
 10
1300.43109820817
 20
434.4676726467577
 30
0.0
 41
1.0
 10
1299.97522658162
 20
441.3658326767637
 30
0.0
 41
1.0
 10
1299.51935495507
 20
447.1341470128134
 30
0.0
 41
1.0
 10
1299.157222351698
 20
450.4454492740155
 30
0.0
 41
1.0
 10
1298.947046957176
 20
451.7488738121617
 30
0.0
 41
1.0
 10
1298.888828771504
 20
452.0607693367758
 30
0.0
 41
1.0
  0
ARC
  5
205
330
1F
100
AcDbEntity
  8
7
  6
________________
 62
     7
370
     9
100
AcDbCircle
 10
1306.369346638669
 20
451.998839412636
 30
0.0
 40
2.520195765287752
100
AcDbArc
 50
1.413898400883576
 51
36.25388528471089
  0
ARC
  5
206
330
1F
100
AcDbEntity
  8
7
  6
________________
 62
     7
370
     9
100
AcDbCircle
 10
-1310.992436709938
 20
403.1042479726456
 30
0.0
 40
2.901092161065651
210
0.0
220
0.0
230
-1.0
100
AcDbArc
 50
183.258529975524
 51
212.9778437111231
  0
LINE
  5
207
330
1F
100
AcDbEntity
  8
7
  6
________________
 62
     7
370
     9
100
AcDbLine
 10
1313.426108143266
 20
401.5251409206702
 30
0.0
 11
1313.374346442431
 21
401.5020734790318
 31
0.0
  0
LINE
  5
208
330
1F
100
AcDbEntity
  8
7
  6
________________
 62
     7
370
     9
100
AcDbLine
 10
1313.374346442431
 20
401.5020734790318
 30
0.0
 11
1313.362808494829
 21
401.5006672242947
 31
0.0
  0
LINE
  5
209
330
1F
100
AcDbEntity
  8
7
  6
________________
 62
     7
370
     9
100
AcDbLine
 10
1313.362808494829
 20
401.5006672242947
 30
0.0
 11
1313.350586237838
 21
401.500663913905
 31
0.0
  0
LINE
  5
20A
330
1F
100
AcDbEntity
  8
7
  6
________________
 62
     7
370
     9
100
AcDbLine
 10
1313.350586237838
 20
401.500663913905
 30
0.0
 11
1313.344590286124
 21
401.5012215279541
 31
0.0
  0
SPLINE
  5
20B
330
1F
100
AcDbEntity
  8
7
  6
________________
 62
     7
370
     9
100
AcDbSpline
210
0.0
220
0.0
230
1.0
 70
    12
 71
     3
 72
    18
 73
    14
 74
     0
 42
0.000000001
 43
0.0001
 40
0.2661626551741387
 40
0.2661626551741387
 40
0.2661626551741387
 40
0.2661626551741387
 40
0.268602733598261
 40
0.276063920642658
 40
0.283525107687054
 40
0.29098629473145
 40
0.298447481775846
 40
0.305908668820242
 40
0.313369855864639
 40
0.320831042909035
 40
0.328292229953431
 40
0.335753416997827
 40
0.3390903582402973
 40
0.3390903582402973
 40
0.3390903582402973
 40
0.3390903582402973
 10
1313.344590286124
 20
401.5012215279541
 30
0.0
 41
1.0
 10
1313.294894774605
 20
401.5073688628146
 30
0.0
 41
1.0
 10
1313.093242054237
 20
401.6862591697139
 30
0.0
 41
1.0
 10
1312.739632125019
 20
403.0996745662519
 30
0.0
 41
1.0
 10
1312.283760498469
 20
406.9100832974093
 30
0.0
 41
1.0
 10
1311.827888871919
 20
412.398246575492
 30
0.0
 41
1.0
 10
1311.372017245369
 20
419.116965636314
 30
0.0
 41
1.0
 10
1310.916145618819
 20
426.51877082406
 30
0.0
 41
1.0
 10
1310.460273992269
 20
434.0005317351715
 30
0.0
 41
1.0
 10
1310.004402365719
 20
440.9526028354601
 30
0.0
 41
1.0
 10
1309.548530739169
 20
446.8084999576272
 30
0.0
 41
1.0
 10
1309.176654980427
 20
450.3019838868743
 30
0.0
 41
1.0
 10
1308.956736430535
 20
451.6969043912006
 30
0.0
 41
1.0
 10
1308.888775089493
 20
452.0610244313319
 30
0.0
 41
1.0
  0
LINE
  5
20C
330
1F
100
AcDbEntity
  8
7
  6
________________
 62
     7
370
     9
100
AcDbLine
 10
1149.856822428981
 20
442.7829537178925
 30
0.0
 11
1149.856822428981
 21
445.5294724872032
 31
0.0
  0
LWPOLYLINE
  5
20D
330
1F
100
AcDbEntity
  8
7
  6
________________
 62
     7
370
     9
100
AcDbPolyline
 90
        5
 70
     0
 43
0.0
 10
1311.209501255788
 20
427.5000124998592
 42
0.0281271010218034
 10
1313.367186086199
 20
404.0533493971287
 10
1313.450173964292
 20
403.8180497956994
 10
1313.533161842385
 20
403.647136956225
 10
1313.571457671
 20
403.5902037558648
  0
LINE
  5
20E
330
1F
100
AcDbEntity
  8
7
  6
________________
 62
     7
370
     9
100
AcDbLine
 10
1313.571457671
 20
403.5902037558648
 30
0.0
 11
1313.702890871053
 21
403.5005114558416
 31
0.0
  0
LINE
  5
20F
330
1F
100
AcDbEntity
  8
7
  6
________________
 62
     7
370
     9
100
AcDbLine
 10
1309.278994737056
 20
449.9796248077859
 30
0.0
 11
1309.282458554862
 21
449.9612820749059
 31
0.0
  0
LINE
  5
210
330
1F
100
AcDbEntity
  8
7
  6
________________
 62
     7
370
     9
100
AcDbLine
 10
1301.209506551592
 20
427.500011922468
 30
0.0
 11
1301.81013478567
 21
418.656322777192
 31
0.0
  0
LWPOLYLINE
  5
211
330
1F
100
AcDbEntity
  8
7
  6
________________
 62
     7
370
     9
100
AcDbPolyline
 90
        4
 70
     0
 43
0.0
 10
1301.81013478567
 20
418.6563227771921
 42
0.0407056753919964
 10
1303.475129101933
 20
403.7597524295026
 10
1303.553254017462
 20
403.6155404751325
 10
1303.570804859921
 20
403.5910883632832
  0
LINE
  5
212
330
1F
100
AcDbEntity
  8
7
  6
________________
 62
     7
370
     9
100
AcDbLine
 10
1303.570804859921
 20
403.5910883632832
 30
0.0
 11
1303.686062323234
 21
403.5029102372761
 31
0.0
  0
LINE
  5
213
330
1F
100
AcDbEntity
  8
7
  6
________________
 62
     7
370
     9
100
AcDbLine
 10
1299.267645140286
 20
450.0390324794497
 30
0.0
 11
1299.282306142118
 21
449.962151757356
 31
0.0
  0
LINE
  5
214
330
1F
100
AcDbEntity
  8
7
  6
________________
 62
     7
370
     9
100
AcDbLine
 10
1291.209498196887
 20
427.5000112969112
 30
0.0
 11
1291.587262511454
 21
421.8570384594546
 31
0.0
  0
LWPOLYLINE
  5
215
330
1F
100
AcDbEntity
  8
7
  6
________________
 62
     7
370
     9
100
AcDbPolyline
 90
        6
 70
     0
 43
0.0
 10
1291.587262511454
 20
421.8570384594546
 42
0.0324764768823384
 10
1293.397094556273
 20
403.9617631009339
 10
1293.475222997679
 20
403.7602322110532
 10
1293.553351439086
 20
403.6161523842254
 10
1293.631479880493
 20
403.529730884509
 10
1293.686169987438
 20
403.5035350818474
  0
LINE
  5
216
330
1F
100
AcDbEntity
  8
7
  6
________________
 62
     7
370
     9
100
AcDbLine
 10
1289.269548790365
 20
450.0292160051679
 30
0.0
 11
1289.282674262702
 21
449.9602721451273
 31
0.0
  0
LWPOLYLINE
  5
217
330
1F
100
AcDbEntity
  8
7
  6
________________
 62
     7
370
     9
100
AcDbPolyline
 90
        7
 70
     0
 43
0.0
 10
1281.209537980447
 20
427.5000148075513
 42
0.0251213157287995
 10
1283.318950753355
 20
404.2198697866239
 10
1283.397077152352
 20
403.9615784619337
 10
1283.475203551348
 20
403.7601168521539
 10
1283.553329950345
 20
403.6161048612696
 10
1283.631456349341
 20
403.5296521575098
 10
1283.686144117668
 20
403.5034032641516
  0
LINE
  5
218
330
1F
100
AcDbEntity
  8
7
  6
________________
 62
     7
370
     9
100
AcDbLine
 10
1279.269466947234
 20
450.0297237159849
 30
0.0
 11
1279.282536163271
 21
449.9610852539155
 31
0.0
  0
ARC
  5
219
330
1F
100
AcDbEntity
  8
7
  6
________________
 62
     7
370
     9
100
AcDbCircle
 10
1543.931980636906
 20
439.6896373964643
 30
0.0
 40
272.9947876371614
100
AcDbArc
 50
182.5591936444861
 51
187.3208527936991
  0
LINE
  5
21A
330
1F
100
AcDbEntity
  8
7
  6
________________
 62
     7
370
     9
100
AcDbLine
 10
1273.162610542737
 20
404.9031127659987
 30
0.0
 11
1273.550575024489
 21
403.619597734032
 31
0.0
  0
LINE
  5
21B
330
1F
100
AcDbEntity
  8
7
  6
________________
 62
     7
370
     9
100
AcDbLine
 10
1273.550575024489
 20
403.619597734032
 30
0.0
 11
1273.686061669634
 21
403.5028308271985
 31
0.0
  0
LINE
  5
21C
330
1F
100
AcDbEntity
  8
7
  6
________________
 62
     7
370
     9
100
AcDbLine
 10
1269.269597894334
 20
450.0291132824078
 30
0.0
 11
1269.282735930429
 21
449.9600968907209
 31
0.0
  0
LWPOLYLINE
  5
21D
330
1F
100
AcDbEntity
  8
7
  6
________________
 62
     7
370
     9
100
AcDbPolyline
 90
        7
 70
     0
 43
0.0
 10
1261.209644100268
 20
427.5000190145231
 42
0.0251209001007302
 10
1263.319069209821
 20
404.2203527552703
 10
1263.39719606573
 20
403.9621388827017
 10
1263.475322921639
 20
403.7608962659623
 10
1263.553449777549
 20
403.6169281990883
 10
1263.631576633458
 20
403.5303765441782
 10
1263.686299267408
 20
403.5040215356833
  0
LINE
  5
21E
330
1F
100
AcDbEntity
  8
7
  6
________________
 62
     7
370
     9
100
AcDbLine
 10
1259.269420946632
 20
450.0300966496423
 30
0.0
 11
1259.282399560982
 21
449.9619330206991
 31
0.0
  0
LWPOLYLINE
  5
21F
330
1F
100
AcDbEntity
  8
7
  6
________________
 62
     7
370
     9
100
AcDbPolyline
 90
        5
 70
     0
 43
0.0
 10
1251.209475939965
 20
427.5000123584432
 42
0.0251173747328422
 10
1253.318839405467
 20
404.2190064068474
 10
1253.396963978264
 20
403.9608587456796
 10
1253.47508855106
 20
403.7596571400371
 10
1253.54583412481
 20
403.6267917577828
  0
LINE
  5
220
330
1F
100
AcDbEntity
  8
7
  6
________________
 62
     7
370
     9
100
AcDbLine
 10
1253.54583412481
 20
403.6267917577828
 30
0.0
 11
1253.666167976019
 21
403.5089185863216
 31
0.0
  0
LINE
  5
221
330
1F
100
AcDbEntity
  8
7
  6
________________
 62
     7
370
     9
100
AcDbLine
 10
1249.269351874999
 20
450.030495734949
 30
0.0
 11
1249.282341842863
 21
449.9622491117148
 31
0.0
  0
ARC
  5
222
330
1F
100
AcDbEntity
  8
7
  6
________________
 62
     7
370
     9
100
AcDbCircle
 10
1815.237633181934
 20
461.6784458815014
 30
0.0
 40
575.0447983602362
100
AcDbArc
 50
183.407447339327
 51
185.2603277197326
  0
LWPOLYLINE
  5
223
330
1F
100
AcDbEntity
  8
7
  6
________________
 62
     7
370
     9
100
AcDbPolyline
 90
        5
 70
     0
 43
0.0
 10
1242.614683153831
 20
408.9576983310649
 42
0.0509540171353013
 10
1243.475100111786
 20
403.7598045829898
 10
1243.553225967282
 20
403.6157442819569
 10
1243.631351822779
 20
403.5290406992306
 10
1243.680267141446
 20
403.5040625007235
  0
LINE
  5
224
330
1F
100
AcDbEntity
  8
7
  6
________________
 62
     7
370
     9
100
AcDbLine
 10
1238.973651114832
 20
451.1700994452656
 30
0.0
 11
1239.070018071588
 21
450.886755005646
 31
0.0
  0
LINE
  5
225
330
1F
100
AcDbEntity
  8
7
  6
________________
 62
     7
370
     9
100
AcDbLine
 10
1239.070018071588
 20
450.886755005646
 30
0.0
 11
1239.082618120888
 21
450.8433656413698
 31
0.0
  0
LINE
  5
226
330
1F
100
AcDbEntity
  8
7
  6
________________
 62
     7
370
     9
100
AcDbLine
 10
1239.269317742957
 20
450.0306621081845
 30
0.0
 11
1239.282315006988
 21
449.9623575814137
 31
0.0
  0
LWPOLYLINE
  5
227
330
1F
100
AcDbEntity
  8
7
  6
________________
 62
     7
370
     9
100
AcDbPolyline
 90
        7
 70
     0
 43
0.0
 10
1231.209662755155
 20
427.5000226833093
 42
0.0251155671211582
 10
1233.318943357256
 20
404.2195240702957
 10
1233.397064861038
 20
403.9615646254703
 10
1233.475186364819
 20
403.7603621933274
 10
1233.553307868601
 20
403.6162149772055
 10
1233.631429372382
 20
403.5294211814332
 10
1233.686108831778
 20
403.502951757837
  0
LINE
  5
228
330
1F
100
AcDbEntity
  8
7
  6
________________
 62
     7
370
     9
100
AcDbLine
 10
1229.26934268661
 20
450.0304635627287
 30
0.0
 11
1229.282231559986
 21
449.9627393271074
 31
0.0
  0
LWPOLYLINE
  5
229
330
1F
100
AcDbEntity
  8
7
  6
________________
 62
     7
370
     9
100
AcDbPolyline
 90
        5
 70
     0
 43
0.0
 10
1222.855507811078
 20
406.8718810905597
 42
0.0561588294657024
 10
1223.475053821062
 20
403.7596677614914
 10
1223.553179394846
 20
403.6154675468927
 10
1223.63130496863
 20
403.5286402425708
 10
1223.710717487691
 20
403.4995415708007
  0
LINE
  5
22A
330
1F
100
AcDbEntity
  8
7
  6
________________
 62
     7
370
     9
100
AcDbLine
 10
1191.209430024238
 20
427.5000104626305
 30
0.0
 11
1191.918522491925
 21
417.1576995633637
 31
0.0
  0
LWPOLYLINE
  5
22B
330
1F
100
AcDbEntity
  8
7
  6
________________
 62
     7
370
     9
100
AcDbPolyline
 90
        5
 70
     0
 43
0.0
 10
1191.918522491925
 20
417.1576995633637
 42
0.0434008418814365
 10
1193.475128104123
 20
403.7600876251975
 10
1193.553255624119
 20
403.6157183245048
 10
1193.631383144115
 20
403.5288896686906
 10
1193.633193223131
 20
403.5275640350089
  0
LINE
  5
22C
330
1F
100
AcDbEntity
  8
7
  6
________________
 62
     7
370
     9
100
AcDbLine
 10
1193.702887487427
 20
403.5002487379752
 30
0.0
 11
1193.716140805243
 21
403.500283327759
 31
0.0
  0
LINE
  5
22D
330
1F
100
AcDbEntity
  8
7
  6
________________
 62
     7
370
     9
100
AcDbLine
 10
1189.269262091087
 20
450.0306174696387
 30
0.0
 11
1189.282212326092
 21
449.9625691285976
 31
0.0
  0
ARC
  5
22E
330
1F
100
AcDbEntity
  8
7
  6
________________
 62
     7
370
     9
100
AcDbCircle
 10
1480.75445539904
 20
441.8612870124513
 30
0.0
 40
299.8890225685075
100
AcDbArc
 50
182.744865697123
 51
187.047673418917
  0
LINE
  5
22F
330
1F
100
AcDbEntity
  8
7
  6
________________
 62
     7
370
     9
100
AcDbLine
 10
1183.131272621451
 20
405.0663562415914
 30
0.0
 11
1183.527589019608
 21
403.6565381705351
 31
0.0
  0
LINE
  5
230
330
1F
100
AcDbEntity
  8
7
  6
________________
 62
     7
370
     9
100
AcDbLine
 10
1183.527589019608
 20
403.656538170535
 30
0.0
 11
1183.702853286231
 21
403.5001235722325
 31
0.0
  0
LINE
  5
231
330
1F
100
AcDbEntity
  8
7
  6
________________
 62
     7
370
     9
100
AcDbLine
 10
1178.989614264085
 20
451.1291535626384
 30
0.0
 11
1179.081915785892
 21
450.8460091654484
 31
0.0
  0
LINE
  5
232
330
1F
100
AcDbEntity
  8
7
  6
________________
 62
     7
370
     9
100
AcDbLine
 10
1179.269379984622
 20
450.0299556753613
 30
0.0
 11
1179.282367272251
 21
449.9617182773846
 31
0.0
  0
LINE
  5
233
330
1F
100
AcDbEntity
  8
7
  6
________________
 62
     7
370
     9
100
AcDbLine
 10
1171.209472253171
 20
427.5000110722953
 30
0.0
 11
1171.889755172418
 21
417.5513444944098
 31
0.0
  0
LINE
  5
234
330
1F
100
AcDbEntity
  8
7
  6
________________
 62
     7
370
     9
100
AcDbLine
 10
1171.889755172418
 20
417.5513444944098
 30
0.0
 11
1172.261101132822
 21
412.7709880875948
 31
0.0
  0
LWPOLYLINE
  5
235
330
1F
100
AcDbEntity
  8
7
  6
________________
 62
     7
370
     9
100
AcDbPolyline
 90
        5
 70
     0
 43
0.0
 10
1172.261101132823
 20
412.7709880875948
 42
0.0477048512993841
 10
1173.475130140243
 20
403.7599720483011
 10
1173.55325627428
 20
403.615574193696
 10
1173.631382408316
 20
403.5289117679868
 10
1173.68603334431
 20
403.502753625892
  0
LINE
  5
236
330
1F
100
AcDbEntity
  8
7
  6
________________
 62
     7
370
     9
100
AcDbLine
 10
1168.960434227181
 20
451.2023033233456
 30
0.0
 11
1169.082538347256
 21
450.8438418584973
 31
0.0
  0
LINE
  5
237
330
1F
100
AcDbEntity
  8
7
  6
________________
 62
     7
370
     9
100
AcDbLine
 10
1169.269295623219
 20
450.0303835071609
 30
0.0
 11
1169.282225487069
 21
449.9624687473886
 31
0.0
  0
LWPOLYLINE
  5
238
330
1F
100
AcDbEntity
  8
7
  6
________________
 62
     7
370
     9
100
AcDbPolyline
 90
        7
 70
     0
 43
0.0
 10
1161.209500778984
 20
427.5000136702131
 42
0.0251222585934494
 10
1163.318884158738
 20
404.2196457731179
 10
1163.397009469099
 20
403.961497940444
 10
1163.475134779461
 20
403.7599143734684
 10
1163.553260089822
 20
403.615553183736
 10
1163.631385400183
 20
403.5289946925105
 10
1163.686044358519
 20
403.5028481198453
  0
ARC
  5
239
330
1F
100
AcDbEntity
  8
7
  6
________________
 62
     7
370
     9
100
AcDbCircle
 10
1733.31725339408
 20
462.2330776716877
 30
0.0
 40
583.143045678872
100
AcDbArc
 50
183.41466230117
 51
185.2271635547903
  0
LWPOLYLINE
  5
23A
330
1F
100
AcDbEntity
  8
7
  6
________________
 62
     7
370
     9
100
AcDbPolyline
 90
        4
 70
     0
 43
0.0
 10
1152.599313979023
 20
409.1059982755738
 42
0.0513970823194818
 10
1153.475126962005
 20
403.7597862341145
 10
1153.553251714484
 20
403.615505344158
 10
1153.585964300893
 20
403.5722565102586
  0
LINE
  5
23B
330
1F
100
AcDbEntity
  8
7
  6
________________
 62
     7
370
     9
100
AcDbLine
 10
1153.585964300893
 20
403.5722565102586
 30
0.0
 11
1153.686050976602
 21
403.5028625941622
 31
0.0
  0
LINE
  5
23C
330
1F
100
AcDbEntity
  8
7
  6
________________
 62
     7
370
     9
100
AcDbLine
 10
1149.941872478039
 20
444.6576197573962
 30
0.0
 11
1150.736751029918
 21
434.5246481603133
 31
0.0
  0
LINE
  5
23D
330
1F
100
AcDbEntity
  8
7
  6
________________
 62
     7
370
     9
100
AcDbLine
 10
1150.736751029918
 20
434.5246481603133
 30
0.0
 11
1151.209509140126
 21
427.5000126873897
 31
0.0
  0
LINE
  5
23E
330
1F
100
AcDbEntity
  8
7
  6
________________
 62
     7
370
     9
100
AcDbLine
 10
1149.856822428981
 20
442.7829537178925
 30
0.0
 11
1149.856822428981
 21
445.5294724872032
 31
0.0
  0
LINE
  5
23F
330
1F
100
AcDbEntity
  8
7
  6
________________
 62
     7
370
     9
100
AcDbLine
 10
1149.856822428981
 20
401.5004887281997
 30
0.0
 11
1149.856822428981
 21
414.076984029694
 31
0.0
  0
LINE
  5
240
330
1F
100
AcDbEntity
  8
7
  6
________________
 62
     7
370
     9
100
AcDbLine
 10
1149.856822428981
 20
414.076984029694
 30
0.0
 11
1149.856822428981
 21
418.3706378611004
 31
0.0
  0
LINE
  5
241
330
1F
100
AcDbEntity
  8
7
  6
________________
 62
     7
370
     9
100
AcDbLine
 10
1149.856822428981
 20
418.3706378611004
 30
0.0
 11
1149.856822428981
 21
423.5533344940198
 31
0.0
  0
LINE
  5
242
330
1F
100
AcDbEntity
  8
7
  6
________________
 62
     7
370
     9
100
AcDbLine
 10
1149.856822428981
 20
423.5533344940198
 30
0.0
 11
1149.856822428981
 21
427.0999875728088
 31
0.0
  0
LINE
  5
243
330
1F
100
AcDbEntity
  8
7
  6
________________
 62
     7
370
     9
100
AcDbLine
 10
1149.856822428981
 20
427.0999875728088
 30
0.0
 11
1149.856822428981
 21
436.4304767192867
 31
0.0
  0
LINE
  5
244
330
1F
100
AcDbEntity
  8
7
  6
________________
 62
     7
370
     9
100
AcDbLine
 10
1149.856822428981
 20
436.4304767192867
 30
0.0
 11
1149.856822428981
 21
441.25183313152
 31
0.0
  0
LINE
  5
245
330
1F
100
AcDbEntity
  8
7
  6
________________
 62
     7
370
     9
100
AcDbLine
 10
1149.856822428981
 20
441.25183313152
 30
0.0
 11
1149.856822428981
 21
442.7829537178926
 31
0.0
  0
LINE
  5
246
330
1F
100
AcDbEntity
  8
7
  6
________________
 62
     7
370
     9
100
AcDbLine
 10
1199.995314411455
 20
392.5000125
 30
0.0
 11
1222.855507811078
 21
392.5000125
 31
0.0
  0
LINE
  5
247
330
1F
100
AcDbEntity
  8
7
  6
________________
 62
     7
370
     9
100
AcDbLine
 10
1222.855507811078
 20
462.5000125
 30
0.0
 11
1199.995314411455
 21
462.5000125
 31
0.0
  0
LINE
  5
248
330
1F
100
AcDbEntity
  8
7
  6
________________
 62
     7
370
     9
100
AcDbLine
 10
1218.856822428981
 20
429.3060985900162
 30
0.0
 11
1199.995314411455
 21
429.3060985900162
 31
0.0
  0
LINE
  5
249
330
1F
100
AcDbEntity
  8
7
  6
________________
 62
     7
370
     9
100
AcDbLine
 10
1199.995314411455
 20
425.6939264099837
 30
0.0
 11
1218.856822428981
 21
425.6939264099837
 31
0.0
  0
LINE
  5
24A
330
1F
100
AcDbEntity
  8
7
  6
________________
 62
     7
370
     9
100
AcDbLine
 10
1199.941730485727
 20
429.2991363757706
 30
0.0
 11
1195.303210510416
 21
429.1534548782849
 31
0.0
  0
LINE
  5
24B
330
1F
100
AcDbEntity
  8
7
  6
________________
 62
     7
370
     9
100
AcDbLine
 10
1195.303210510415
 20
425.846570121715
 30
0.0
 11
1199.941730485727
 21
425.7008886242293
 31
0.0
  0
ARC
  5
24C
330
1F
100
AcDbEntity
  8
7
  6
________________
 62
     7
370
     9
100
AcDbCircle
 10
1195.356822428981
 20
428.6604260000581
 30
0.0
 40
0.5000000000000235
100
AcDbArc
 50
91.79881001600597
 51
180.0000000000153
  0
ARC
  5
24D
330
1F
100
AcDbEntity
  8
7
  6
________________
 62
     7
370
     9
100
AcDbCircle
 10
1195.356822428981
 20
426.3395989999419
 30
0.0
 40
0.4999999999999449
100
AcDbArc
 50
180.0
 51
268.2011899839939
  0
LINE
  5
24E
330
1F
100
AcDbEntity
  8
7
  6
________________
 62
     7
370
     9
100
AcDbLine
 10
1199.995314411455
 20
401.6987740193256
 30
0.0
 11
1218.856822428981
 21
401.6987740193256
 31
0.0
  0
LINE
  5
24F
330
1F
100
AcDbEntity
  8
7
  6
________________
 62
     7
370
     9
100
AcDbLine
 10
1218.856822428981
 20
453.3012509806744
 30
0.0
 11
1199.995314411455
 21
453.3012509806744
 31
0.0
  0
ARC
  5
250
330
1F
100
AcDbEntity
  8
7
  6
________________
 62
     7
370
     9
100
AcDbCircle
 10
1199.995314411455
 20
452.8012509806744
 30
0.0
 40
0.5000000000000004
100
AcDbArc
 50
90.0
 51
114.0337043224658
  0
ARC
  5
251
330
1F
100
AcDbEntity
  8
7
  6
________________
 62
     7
370
     9
100
AcDbCircle
 10
1199.995314411455
 20
402.1987740193256
 30
0.0
 40
0.5000000000000385
100
AcDbArc
 50
245.9662956775292
 51
269.9999999999952
  0
LINE
  5
252
330
1F
100
AcDbEntity
  8
7
  6
________________
 62
     7
370
     9
100
AcDbLine
 10
1195.152843868987
 20
403.8107536912453
 30
0.0
 11
1199.791338880183
 21
401.7422732438621
 31
0.0
  0
LINE
  5
253
330
1F
100
AcDbEntity
  8
7
  6
________________
 62
     7
370
     9
100
AcDbLine
 10
1199.791338880182
 20
453.2577517561373
 30
0.0
 11
1195.152843868987
 21
451.1892713087545
 31
0.0
  0
LINE
  5
254
330
1F
100
AcDbEntity
  8
7
  6
________________
 62
     7
370
     9
100
AcDbLine
 10
1194.866068737245
 20
447.7403712468665
 30
0.0
 11
1194.856978867117
 21
447.7186381955881
 31
0.0
  0
LINE
  5
255
330
1F
100
AcDbEntity
  8
7
  6
________________
 62
     7
370
     9
100
AcDbLine
 10
1194.856950356949
 20
407.2814491740859
 30
0.0
 11
1194.866068737268
 21
407.2596537532203
 31
0.0
  0
ARC
  5
256
330
1F
100
AcDbEntity
  8
7
  6
________________
 62
     7
370
     9
100
AcDbCircle
 10
1195.356822428981
 20
450.7327718849871
 30
0.0
 40
0.500000000000031
100
AcDbArc
 50
114.0341144464395
 51
180.000000000006
  0
ARC
  5
257
330
1F
100
AcDbEntity
  8
7
  6
________________
 62
     7
370
     9
100
AcDbCircle
 10
1195.356822428981
 20
404.2672531150129
 30
0.0
 40
0.4999999999999449
100
AcDbArc
 50
180.0
 51
245.9658855535655
  0
ARC
  5
258
330
1F
100
AcDbEntity
  8
7
  6
________________
 62
     7
370
     9
100
AcDbCircle
 10
1199.995314411455
 20
462.0000125
 30
0.0
 40
0.5000000000000004
100
AcDbArc
 50
90.0
 51
120.9637565320678
  0
ARC
  5
259
330
1F
100
AcDbEntity
  8
7
  6
________________
 62
     7
370
     9
100
AcDbCircle
 10
1199.995314411455
 20
393.0000125
 30
0.0
 40
0.5000000000000651
100
AcDbArc
 50
239.0362434679177
 51
269.9999999999855
  0
LINE
  5
25A
330
1F
100
AcDbEntity
  8
7
  6
________________
 62
     7
370
     9
100
AcDbLine
 10
1199.738066533741
 20
462.4287589628563
 30
0.0
 11
1195.099574551267
 21
459.6456637733717
 31
0.0
  0
LINE
  5
25B
330
1F
100
AcDbEntity
  8
7
  6
________________
 62
     7
370
     9
100
AcDbLine
 10
1195.099574551267
 20
395.3543612266283
 30
0.0
 11
1199.738066533741
 21
392.5712660371436
 31
0.0
  0
ARC
  5
25C
330
1F
100
AcDbEntity
  8
7
  6
________________
 62
     7
370
     9
100
AcDbCircle
 10
1195.356822428981
 20
459.2169173105155
 30
0.0
 40
0.5000000000000174
100
AcDbArc
 50
120.9637565320855
 51
180.0000000000075
  0
ARC
  5
25D
330
1F
100
AcDbEntity
  8
7
  6
________________
 62
     7
370
     9
100
AcDbCircle
 10
1195.356822428981
 20
395.7831076894845
 30
0.0
 40
0.4999999999999449
100
AcDbArc
 50
180.0
 51
239.036243467922
  0
ARC
  5
25E
330
1F
100
AcDbEntity
  8
7
  6
________________
 62
     7
370
     9
100
AcDbCircle
 10
1337.356822428981
 20
393.5000125
 30
0.0
 40
1.000000000000001
100
AcDbArc
 50
270.0
 51
0.0
  0
LINE
  5
25F
330
1F
100
AcDbEntity
  8
7
  6
________________
 62
     7
370
     9
100
AcDbLine
 10
1332.856822428981
 20
392.5000125
 30
0.0
 11
1337.356822428981
 21
392.5000125
 31
0.0
  0
ARC
  5
260
330
1F
100
AcDbEntity
  8
7
  6
________________
 62
     7
370
     9
100
AcDbCircle
 10
-1329.856822428981
 20
454.5000125
 30
0.0
 40
3.000000000000114
210
0.0
220
0.0
230
-1.0
100
AcDbArc
 50
180.0
 51
270.0
  0
ARC
  5
261
330
1F
100
AcDbEntity
  8
7
  6
________________
 62
     7
370
     9
100
AcDbCircle
 10
-1329.856822428981
 20
400.5000125
 30
0.0
 40
3.000000000000003
210
0.0
220
0.0
230
-1.0
100
AcDbArc
 50
90.0
 51
180.0
  0
LINE
  5
262
330
1F
100
AcDbEntity
  8
7
  6
________________
 62
     7
370
     9
100
AcDbLine
 10
1158.35687607826
 20
453.4995585404133
 30
0.0
 11
1154.85687607827
 21
453.4995666008585
 31
0.0
  0
LINE
  5
263
330
1F
100
AcDbEntity
  8
7
  6
________________
 62
     7
370
     9
100
AcDbLine
 10
1168.3565954226
 20
453.4996350474098
 30
0.0
 11
1164.856595422609
 21
453.4996431078787
 31
0.0
  0
LINE
  5
264
330
1F
100
AcDbEntity
  8
7
  6
________________
 62
     7
370
     9
100
AcDbLine
 10
1178.356720470407
 20
453.4997239148562
 30
0.0
 11
1174.856720470417
 21
453.4997319753527
 31
0.0
  0
LINE
  5
265
330
1F
100
AcDbEntity
  8
7
  6
________________
 62
     7
370
     9
100
AcDbLine
 10
1188.357248425508
 20
453.4998116998594
 30
0.0
 11
1184.857248425518
 21
453.4998197603832
 31
0.0
  0
LINE
  5
266
330
1F
100
AcDbEntity
  8
7
  6
________________
 62
     7
370
     9
100
AcDbLine
 10
1228.356366359337
 20
453.4998746173302
 30
0.0
 11
1224.856366359346
 21
453.4998826778734
 31
0.0
  0
LINE
  5
267
330
1F
100
AcDbEntity
  8
7
  6
________________
 62
     7
370
     9
100
AcDbLine
 10
1238.355882891877
 20
453.4997890344637
 30
0.0
 11
1234.855882891886
 21
453.4997970949805
 31
0.0
  0
LINE
  5
268
330
1F
100
AcDbEntity
  8
7
  6
________________
 62
     7
370
     9
100
AcDbLine
 10
1248.356616954613
 20
453.4997052214553
 30
0.0
 11
1244.856616954622
 21
453.4997132819461
 31
0.0
  0
LINE
  5
269
330
1F
100
AcDbEntity
  8
7
  6
________________
 62
     7
370
     9
100
AcDbLine
 10
1258.35682453497
 20
453.4996189193101
 30
0.0
 11
1254.85682453498
 21
453.4996269797741
 31
0.0
  0
LINE
  5
26A
330
1F
100
AcDbEntity
  8
7
  6
________________
 62
     7
370
     9
100
AcDbLine
 10
1268.357071088433
 20
453.4995466556538
 30
0.0
 11
1264.857071088443
 21
453.4995547160954
 31
0.0
  0
LINE
  5
26B
330
1F
100
AcDbEntity
  8
7
  6
________________
 62
     7
370
     9
100
AcDbLine
 10
1278.35694650172
 20
453.4994967093262
 30
0.0
 11
1274.856946501729
 21
453.4995047697523
 31
0.0
  0
LINE
  5
26C
330
1F
100
AcDbEntity
  8
7
  6
________________
 62
     7
370
     9
100
AcDbLine
 10
1288.356857468209
 20
453.4994749359823
 30
0.0
 11
1284.856857468218
 21
453.4994829964018
 31
0.0
  0
LINE
  5
26D
330
1F
100
AcDbEntity
  8
7
  6
________________
 62
     7
370
     9
100
AcDbLine
 10
1298.357694522019
 20
453.4994794741885
 30
0.0
 11
1294.857694522028
 21
453.4994875346093
 31
0.0
  0
LINE
  5
26E
330
1F
100
AcDbEntity
  8
7
  6
________________
 62
     7
370
     9
100
AcDbLine
 10
1308.357729936574
 20
453.4995163029242
 30
0.0
 11
1304.857729936583
 21
453.4995243633563
 31
0.0
  0
LINE
  5
26F
330
1F
100
AcDbEntity
  8
7
  6
________________
 62
     7
370
     9
100
AcDbLine
 10
1315.85682244068
 20
453.4995904027267
 30
0.0
 11
1314.85698345041
 21
453.4995927053425
 31
0.0
  0
LINE
  5
270
330
1F
100
AcDbEntity
  8
7
  6
________________
 62
     7
370
     9
100
AcDbLine
 10
1309.856699018517
 20
401.5004663348561
 30
0.0
 11
1313.356699018507
 21
401.500474395299
 31
0.0
  0
LINE
  5
271
330
1F
100
AcDbEntity
  8
7
  6
________________
 62
     7
370
     9
100
AcDbLine
 10
1299.856923052989
 20
401.5005180217842
 30
0.0
 11
1303.324935526863
 21
401.5005260085443
 31
0.0
  0
LINE
  5
272
330
1F
100
AcDbEntity
  8
7
  6
________________
 62
     7
370
     9
100
AcDbLine
 10
1303.324935526863
 20
401.5005260085443
 30
0.0
 11
1303.35692305298
 21
401.5005260822109
 31
0.0
  0
LINE
  5
273
330
1F
100
AcDbEntity
  8
7
  6
________________
 62
     7
370
     9
100
AcDbLine
 10
1289.856187114441
 20
401.500543786399
 30
0.0
 11
1293.356187114432
 21
401.5005518468178
 31
0.0
  0
LINE
  5
274
330
1F
100
AcDbEntity
  8
7
  6
________________
 62
     7
370
     9
100
AcDbLine
 10
1279.856013669777
 20
401.5005393613847
 30
0.0
 11
1283.356013669768
 21
401.5005474218049
 31
0.0
  0
LINE
  5
275
330
1F
100
AcDbEntity
  8
7
  6
________________
 62
     7
370
     9
100
AcDbLine
 10
1269.856648654607
 20
401.5004993262277
 30
0.0
 11
1273.329869410742
 21
401.5005073249881
 31
0.0
  0
LINE
  5
276
330
1F
100
AcDbEntity
  8
7
  6
________________
 62
     7
370
     9
100
AcDbLine
 10
1273.329869410742
 20
401.5005073249881
 30
0.0
 11
1273.356648654597
 21
401.5005073866602
 31
0.0
  0
LINE
  5
277
330
1F
100
AcDbEntity
  8
7
  6
________________
 62
     7
370
     9
100
AcDbLine
 10
1259.857353924588
 20
401.5004365569909
 30
0.0
 11
1263.357353924579
 21
401.500444617443
 31
0.0
  0
LINE
  5
278
330
1F
100
AcDbEntity
  8
7
  6
________________
 62
     7
370
     9
100
AcDbLine
 10
1249.857611929345
 20
401.5003559421456
 30
0.0
 11
1253.316758064483
 21
401.5003639085364
 31
0.0
  0
LINE
  5
279
330
1F
100
AcDbEntity
  8
7
  6
________________
 62
     7
370
     9
100
AcDbLine
 10
1253.316758064483
 20
401.5003639085364
 30
0.0
 11
1253.357611929336
 21
401.5003640026226
 31
0.0
  0
LINE
  5
27A
330
1F
100
AcDbEntity
  8
7
  6
________________
 62
     7
370
     9
100
AcDbLine
 10
1239.856849772825
 20
401.5002648793478
 30
0.0
 11
1243.334904636188
 21
401.5002728893134
 31
0.0
  0
LINE
  5
27B
330
1F
100
AcDbEntity
  8
7
  6
________________
 62
     7
370
     9
100
AcDbLine
 10
1243.334904636188
 20
401.5002728893134
 30
0.0
 11
1243.356849772817
 21
401.5002729398531
 31
0.0
  0
LINE
  5
27C
330
1F
100
AcDbEntity
  8
7
  6
________________
 62
     7
370
     9
100
AcDbLine
 10
1229.857272676021
 20
401.5001771329258
 30
0.0
 11
1233.357272676011
 21
401.5001851934583
 31
0.0
  0
LINE
  5
27D
330
1F
100
AcDbEntity
  8
7
  6
________________
 62
     7
370
     9
100
AcDbLine
 10
1222.855507811078
 20
401.5001157028884
 30
0.0
 11
1223.322871430424
 21
401.5001167792339
 31
0.0
  0
LINE
  5
27E
330
1F
100
AcDbEntity
  8
7
  6
________________
 62
     7
370
     9
100
AcDbLine
 10
1223.322871430424
 20
401.5001167792339
 30
0.0
 11
1223.357104880623
 21
401.5001168580741
 31
0.0
  0
LINE
  5
27F
330
1F
100
AcDbEntity
  8
7
  6
________________
 62
     7
370
     9
100
AcDbLine
 10
1189.855992718725
 20
401.5001643681304
 30
0.0
 11
1193.329362248478
 21
401.5001723673366
 31
0.0
  0
LINE
  5
280
330
1F
100
AcDbEntity
  8
7
  6
________________
 62
     7
370
     9
100
AcDbLine
 10
1193.329362248478
 20
401.5001723673366
 30
0.0
 11
1193.355992718717
 21
401.5001724286669
 31
0.0
  0
LINE
  5
281
330
1F
100
AcDbEntity
  8
7
  6
________________
 62
     7
370
     9
100
AcDbLine
 10
1179.856346776371
 20
401.5002475391687
 30
0.0
 11
1183.356346776362
 21
401.5002555996793
 31
0.0
  0
LINE
  5
282
330
1F
100
AcDbEntity
  8
7
  6
________________
 62
     7
370
     9
100
AcDbLine
 10
1169.856995995132
 20
401.500339185684
 30
0.0
 11
1173.316883213979
 21
401.5003471537867
 31
0.0
  0
LINE
  5
283
330
1F
100
AcDbEntity
  8
7
  6
________________
 62
     7
370
     9
100
AcDbLine
 10
1173.316883213979
 20
401.5003471537868
 30
0.0
 11
1173.356995995121
 21
401.5003472461663
 31
0.0
  0
LINE
  5
284
330
1F
100
AcDbEntity
  8
7
  6
________________
 62
     7
370
     9
100
AcDbLine
 10
1159.857711348892
 20
401.5004282425309
 30
0.0
 11
1163.336141735008
 21
401.5004362533109
 31
0.0
  0
LINE
  5
285
330
1F
100
AcDbEntity
  8
7
  6
________________
 62
     7
370
     9
100
AcDbLine
 10
1163.336141735008
 20
401.5004362533109
 30
0.0
 11
1163.357711348883
 21
401.5004363029855
 31
0.0
  0
LINE
  5
286
330
1F
100
AcDbEntity
  8
7
  6
________________
 62
     7
370
     9
100
AcDbLine
 10
1149.857852885672
 20
401.5004954485297
 30
0.0
 11
1153.357852885663
 21
401.5005035089635
 31
0.0
  0
LINE
  5
287
330
1F
100
AcDbEntity
  8
7
  6
________________
 62
     7
370
     9
100
AcDbLine
 10
1154.324978080704
 20
452.0612403217007
 30
0.0
 11
1154.216054900272
 21
451.4783990805991
 31
0.0
  0
LINE
  5
288
330
1F
100
AcDbEntity
  8
7
  6
________________
 62
     7
370
     9
100
AcDbLine
 10
1164.324886762575
 20
452.0608332142889
 30
0.0
 11
1164.216041277679
 21
451.4783998181682
 31
0.0
  0
LINE
  5
289
330
1F
100
AcDbEntity
  8
7
  6
________________
 62
     7
370
     9
100
AcDbLine
 10
1174.324927733594
 20
452.0611137355817
 30
0.0
 11
1174.219932858718
 21
451.4992479890973
 31
0.0
  0
LINE
  5
28A
330
1F
100
AcDbEntity
  8
7
  6
________________
 62
     7
370
     9
100
AcDbLine
 10
1184.325306652689
 20
452.0631648588857
 30
0.0
 11
1184.219931911084
 21
451.4992467740688
 31
0.0
  0
LINE
  5
28B
330
1F
100
AcDbEntity
  8
7
  6
________________
 62
     7
370
     9
100
AcDbLine
 10
1194.324983742752
 20
452.0614064834401
 30
0.0
 11
1194.219939880435
 21
451.4992453271882
 31
0.0
  0
LINE
  5
28C
330
1F
100
AcDbEntity
  8
7
  6
________________
 62
     7
370
     9
100
AcDbLine
 10
1224.325276807391
 20
452.0627478685966
 30
0.0
 11
1224.21998258822
 21
451.4992418812183
 31
0.0
  0
LINE
  5
28D
330
1F
100
AcDbEntity
  8
7
  6
________________
 62
     7
370
     9
100
AcDbLine
 10
1234.325193585041
 20
452.0622247045205
 30
0.0
 11
1234.219995661314
 21
451.4992406169443
 31
0.0
  0
LINE
  5
28E
330
1F
100
AcDbEntity
  8
7
  6
________________
 62
     7
370
     9
100
AcDbLine
 10
1244.325178591246
 20
452.0620843343726
 30
0.0
 11
1244.220005133433
 21
451.4992408940155
 31
0.0
  0
LINE
  5
28F
330
1F
100
AcDbEntity
  8
7
  6
________________
 62
     7
370
     9
100
AcDbLine
 10
1254.325157396083
 20
452.0619345441486
 30
0.0
 11
1254.22000993978
 21
451.4992407401645
 31
0.0
  0
LINE
  5
290
330
1F
100
AcDbEntity
  8
7
  6
________________
 62
     7
370
     9
100
AcDbLine
 10
1264.325069248801
 20
452.0614537862016
 30
0.0
 11
1264.220009736191
 21
451.4992417093469
 31
0.0
  0
LINE
  5
291
330
1F
100
AcDbEntity
  8
7
  6
________________
 62
     7
370
     9
100
AcDbLine
 10
1274.325026510621
 20
452.0612451056356
 30
0.0
 11
1274.22000418074
 21
451.4992412893289
 31
0.0
  0
LINE
  5
292
330
1F
100
AcDbEntity
  8
7
  6
________________
 62
     7
370
     9
100
AcDbLine
 10
1284.324835264397
 20
452.0602677744226
 30
0.0
 11
1284.219994272591
 21
451.4992424357454
 31
0.0
  0
LINE
  5
293
330
1F
100
AcDbEntity
  8
7
  6
________________
 62
     7
370
     9
100
AcDbLine
 10
1294.324908514532
 20
452.060729517776
 30
0.0
 11
1294.219980473912
 21
451.4992427989811
 31
0.0
  0
LINE
  5
294
330
1F
100
AcDbEntity
  8
7
  6
________________
 62
     7
370
     9
100
AcDbLine
 10
1304.32481725919
 20
452.0603242022659
 30
0.0
 11
1304.216064758151
 21
451.4783982896677
 31
0.0
  0
LINE
  5
295
330
1F
100
AcDbEntity
  8
7
  6
________________
 62
     7
370
     9
100
AcDbLine
 10
1314.325100446724
 20
452.06192774344
 30
0.0
 11
1314.216049291834
 21
451.4783994569966
 31
0.0
  0
LINE
  5
296
330
1F
100
AcDbEntity
  8
7
  6
________________
 62
     7
370
     9
100
AcDbLine
 10
1308.930156247852
 20
405.044496387041
 30
0.0
 11
1309.324908297474
 21
402.9391693315216
 31
0.0
  0
LINE
  5
297
330
1F
100
AcDbEntity
  8
7
  6
________________
 62
     7
370
     9
100
AcDbLine
 10
1298.929739985319
 20
405.0467786956935
 30
0.0
 11
1299.324830494268
 21
402.9396728278393
 31
0.0
  0
LINE
  5
298
330
1F
100
AcDbEntity
  8
7
  6
________________
 62
     7
370
     9
100
AcDbLine
 10
1288.930052172229
 20
405.0452002169062
 30
0.0
 11
1289.324966889212
 21
402.9390197841005
 31
0.0
  0
LINE
  5
299
330
1F
100
AcDbEntity
  8
7
  6
________________
 62
     7
370
     9
100
AcDbLine
 10
1278.930009212114
 20
405.04550396575
 30
0.0
 11
1279.324937186897
 21
402.9392379344815
 31
0.0
  0
LINE
  5
29A
330
1F
100
AcDbEntity
  8
7
  6
________________
 62
     7
370
     9
100
AcDbLine
 10
1268.930043577986
 20
405.0453831856686
 30
0.0
 11
1269.325042241363
 21
402.9387093109768
 31
0.0
  0
LINE
  5
29B
330
1F
100
AcDbEntity
  8
7
  6
________________
 62
     7
370
     9
100
AcDbLine
 10
1258.930145845042
 20
405.0448809289545
 30
0.0
 11
1259.325080253067
 21
402.9385116120271
 31
0.0
  0
LINE
  5
29C
330
1F
100
AcDbEntity
  8
7
  6
________________
 62
     7
370
     9
100
AcDbLine
 10
1248.9302291494
 20
405.0444544120903
 30
0.0
 11
1249.32528933921
 21
402.9373687603185
 31
0.0
  0
LINE
  5
29D
330
1F
100
AcDbEntity
  8
7
  6
________________
 62
     7
370
     9
100
AcDbLine
 10
1238.930303840665
 20
405.0440472366612
 30
0.0
 11
1239.32523672449
 21
402.9376017803732
 31
0.0
  0
LINE
  5
29E
330
1F
100
AcDbEntity
  8
7
  6
________________
 62
     7
370
     9
100
AcDbLine
 10
1228.930369828045
 20
405.0436611545705
 30
0.0
 11
1229.325319204484
 21
402.9370902009647
 31
0.0
  0
LINE
  5
29F
330
1F
100
AcDbEntity
  8
7
  6
________________
 62
     7
370
     9
100
AcDbLine
 10
1188.930207945938
 20
405.0442415256164
 30
0.0
 11
1189.325130193963
 21
402.93781400828
 31
0.0
  0
LINE
  5
2A0
330
1F
100
AcDbEntity
  8
7
  6
________________
 62
     7
370
     9
100
AcDbLine
 10
1178.930348519692
 20
405.0434394982899
 30
0.0
 11
1179.325173005959
 21
402.9375804736886
 31
0.0
  0
LINE
  5
2A1
330
1F
100
AcDbEntity
  8
7
  6
________________
 62
     7
370
     9
100
AcDbLine
 10
1168.929976190799
 20
405.0453954651051
 30
0.0
 11
1169.324661803046
 21
402.9403629763709
 31
0.0
  0
LINE
  5
2A2
330
1F
100
AcDbEntity
  8
7
  6
________________
 62
     7
370
     9
100
AcDbLine
 10
1158.930026562447
 20
405.045151445042
 30
0.0
 11
1159.325045593049
 21
402.9383805539209
 31
0.0
  0
LINE
  5
2A3
330
1F
100
AcDbEntity
  8
7
  6
________________
 62
     7
370
     9
100
AcDbLine
 10
1319.856822428981
 20
402.5000125
 30
0.0
 11
1321.856822428981
 21
402.5000125
 31
0.0
  0
LINE
  5
2A4
330
1F
100
AcDbEntity
  8
7
  6
________________
 62
     7
370
     9
100
AcDbLine
 10
1321.856822428981
 20
452.5000125
 30
0.0
 11
1319.856822428981
 21
452.5000125
 31
0.0
  0
LINE
  5
2A5
330
1F
100
AcDbEntity
  8
7
  6
________________
 62
     7
370
     9
100
AcDbLine
 10
1293.709505093044
 20
403.5000125
 30
0.0
 11
1299.219972849228
 21
403.5000125
 31
0.0
  0
LINE
  5
2A6
330
1F
100
AcDbEntity
  8
7
  6
________________
 62
     7
370
     9
100
AcDbLine
 10
1283.709490095336
 20
403.5000125
 30
0.0
 11
1289.219987640934
 21
403.5000125
 31
0.0
  0
LINE
  5
2A7
330
1F
100
AcDbEntity
  8
7
  6
________________
 62
     7
370
     9
100
AcDbLine
 10
1273.7095138122
 20
403.5000125
 30
0.0
 11
1279.219999736918
 21
403.5000125
 31
0.0
  0
LINE
  5
2A8
330
1F
100
AcDbEntity
  8
7
  6
________________
 62
     7
370
     9
100
AcDbLine
 10
1263.709549618685
 20
403.5000125
 30
0.0
 11
1269.220007553423
 21
403.5000125
 31
0.0
  0
LINE
  5
2A9
330
1F
100
AcDbEntity
  8
7
  6
________________
 62
     7
370
     9
100
AcDbLine
 10
1253.709487513441
 20
403.5000125
 30
0.0
 11
1259.220010503493
 21
403.5000125
 31
0.0
  0
LINE
  5
2AA
330
1F
100
AcDbEntity
  8
7
  6
________________
 62
     7
370
     9
100
AcDbLine
 10
1243.709474991446
 20
403.5000125
 30
0.0
 11
1249.220008026005
 21
403.5000125
 31
0.0
  0
LINE
  5
2AB
330
1F
100
AcDbEntity
  8
7
  6
________________
 62
     7
370
     9
100
AcDbLine
 10
1233.709482806308
 20
403.5000125
 30
0.0
 11
1239.220000883736
 21
403.5000125
 31
0.0
  0
LINE
  5
2AC
330
1F
100
AcDbEntity
  8
7
  6
________________
 62
     7
370
     9
100
AcDbLine
 10
1223.709444391241
 20
403.5000125
 30
0.0
 11
1229.219989408776
 21
403.5000125
 31
0.0
  0
LINE
  5
2AD
330
1F
100
AcDbEntity
  8
7
  6
________________
 62
     7
370
     9
100
AcDbLine
 10
1193.709425789925
 20
403.5000125
 30
0.0
 11
1194.856822428981
 21
403.5000125
 31
0.0
  0
LINE
  5
2AE
330
1F
100
AcDbEntity
  8
7
  6
________________
 62
     7
370
     9
100
AcDbLine
 10
1183.709457822735
 20
403.5000125
 30
0.0
 11
1189.219935020656
 21
403.5000125
 31
0.0
  0
LINE
  5
2AF
330
1F
100
AcDbEntity
  8
7
  6
________________
 62
     7
370
     9
100
AcDbLine
 10
1173.709474953176
 20
403.5000125
 30
0.0
 11
1179.21993122464
 21
403.5000125
 31
0.0
  0
LINE
  5
2B0
330
1F
100
AcDbEntity
  8
7
  6
________________
 62
     7
370
     9
100
AcDbLine
 10
1163.709481336404
 20
403.5000125
 30
0.0
 11
1169.21993660722
 21
403.5000125
 31
0.0
  0
LINE
  5
2B1
330
1F
100
AcDbEntity
  8
7
  6
________________
 62
     7
370
     9
100
AcDbLine
 10
1174.504286892267
 20
451.5000125
 30
0.0
 11
1168.993751146722
 21
451.5000125
 31
0.0
  0
LINE
  5
2B2
330
1F
100
AcDbEntity
  8
7
  6
________________
 62
     7
370
     9
100
AcDbLine
 10
1184.504292723549
 20
451.5000125
 30
0.0
 11
1178.993757019038
 21
451.5000125
 31
0.0
  0
LINE
  5
2B3
330
1F
100
AcDbEntity
  8
7
  6
________________
 62
     7
370
     9
100
AcDbLine
 10
1178.993757019039
 20
451.5000125
 30
0.0
 11
1178.984097239516
 21
451.5000125
 31
0.0
  0
LINE
  5
2B4
330
1F
100
AcDbEntity
  8
7
  6
________________
 62
     7
370
     9
100
AcDbLine
 10
1194.504296176857
 20
451.5000125
 30
0.0
 11
1188.993767125138
 21
451.5000125
 31
0.0
  0
LINE
  5
2B5
330
1F
100
AcDbEntity
  8
7
  6
________________
 62
     7
370
     9
100
AcDbLine
 10
1188.993767125138
 20
451.5000125
 30
0.0
 11
1188.984103530049
 21
451.5000125
 31
0.0
  0
LINE
  5
2B6
330
1F
100
AcDbEntity
  8
7
  6
________________
 62
     7
370
     9
100
AcDbLine
 10
1224.504291866114
 20
451.5000125
 30
0.0
 11
1222.855507811079
 21
451.5000125
 31
0.0
  0
LINE
  5
2B7
330
1F
100
AcDbEntity
  8
7
  6
________________
 62
     7
370
     9
100
AcDbLine
 10
1234.504294609957
 20
451.5000125
 30
0.0
 11
1228.993822991938
 21
451.5000125
 31
0.0
  0
LINE
  5
2B8
330
1F
100
AcDbEntity
  8
7
  6
________________
 62
     7
370
     9
100
AcDbLine
 10
1228.993822991938
 20
451.5000125
 30
0.0
 11
1228.984298973161
 21
451.5000125
 31
0.0
  0
LINE
  5
2B9
330
1F
100
AcDbEntity
  8
7
  6
________________
 62
     7
370
     9
100
AcDbLine
 10
1244.50429353485
 20
451.5000125
 30
0.0
 11
1238.993828829512
 21
451.5000125
 31
0.0
  0
LINE
  5
2BA
330
1F
100
AcDbEntity
  8
7
  6
________________
 62
     7
370
     9
100
AcDbLine
 10
1238.993828829512
 20
451.5000125
 30
0.0
 11
1238.983981173011
 21
451.5000125
 31
0.0
  0
LINE
  5
2BB
330
1F
100
AcDbEntity
  8
7
  6
________________
 62
     7
370
     9
100
AcDbLine
 10
1254.504294531978
 20
451.5000125
 30
0.0
 11
1248.993827013246
 21
451.5000125
 31
0.0
  0
LINE
  5
2BC
330
1F
100
AcDbEntity
  8
7
  6
________________
 62
     7
370
     9
100
AcDbLine
 10
1264.504318809005
 20
451.5000125
 30
0.0
 11
1258.993816790069
 21
451.5000125
 31
0.0
  0
LINE
  5
2BD
330
1F
100
AcDbEntity
  8
7
  6
________________
 62
     7
370
     9
100
AcDbLine
 10
1258.993816790068
 20
451.5000125
 30
0.0
 11
1258.984090010711
 21
451.5000125
 31
0.0
  0
LINE
  5
2BE
330
1F
100
AcDbEntity
  8
7
  6
________________
 62
     7
370
     9
100
AcDbLine
 10
1274.504257680089
 20
451.5000125
 30
0.0
 11
1268.993802547947
 21
451.5000125
 31
0.0
  0
LINE
  5
2BF
330
1F
100
AcDbEntity
  8
7
  6
________________
 62
     7
370
     9
100
AcDbLine
 10
1268.993802547947
 20
451.5000125
 30
0.0
 11
1268.984194595654
 21
451.5000125
 31
0.0
  0
LINE
  5
2C0
330
1F
100
AcDbEntity
  8
7
  6
________________
 62
     7
370
     9
100
AcDbLine
 10
1284.504242886002
 20
451.5000125
 30
0.0
 11
1278.993786802787
 21
451.5000125
 31
0.0
  0
LINE
  5
2C1
330
1F
100
AcDbEntity
  8
7
  6
________________
 62
     7
370
     9
100
AcDbLine
 10
1294.504283116169
 20
451.5000125
 30
0.0
 11
1288.993772065937
 21
451.5000125
 31
0.0
  0
LINE
  5
2C2
330
1F
100
AcDbEntity
  8
7
  6
________________
 62
     7
370
     9
100
AcDbLine
 10
1288.993772065938
 20
451.5000125
 30
0.0
 11
1288.983953634402
 21
451.5000125
 31
0.0
  0
LINE
  5
2C3
330
1F
100
AcDbEntity
  8
7
  6
________________
 62
     7
370
     9
100
AcDbLine
 10
1303.709509807972
 20
403.5000125
 30
0.0
 11
1309.21995713647
 21
403.5000125
 31
0.0
  0
LINE
  5
2C4
330
1F
100
AcDbEntity
  8
7
  6
________________
 62
     7
370
     9
100
AcDbLine
 10
1153.70950056383
 20
403.5000125
 30
0.0
 11
1159.219947764357
 21
403.5000125
 31
0.0
  0
LINE
  5
2C5
330
1F
100
AcDbEntity
  8
7
  6
________________
 62
     7
370
     9
100
AcDbLine
 10
1148.856822428981
 20
403.5000125
 30
0.0
 11
1149.856822428981
 21
403.5000125
 31
0.0
  0
LINE
  5
2C6
330
1F
100
AcDbEntity
  8
7
  6
________________
 62
     7
370
     9
100
AcDbLine
 10
1313.709507283238
 20
403.5000125
 30
0.0
 11
1317.856822428981
 21
403.5000125
 31
0.0
  0
LINE
  5
2C7
330
1F
100
AcDbEntity
  8
7
  6
________________
 62
     7
370
     9
100
AcDbLine
 10
1321.856822428981
 20
403.5000125
 30
0.0
 11
1329.856822428981
 21
403.5000125
 31
0.0
  0
LINE
  5
2C8
330
1F
100
AcDbEntity
  8
7
  6
________________
 62
     7
370
     9
100
AcDbLine
 10
1329.856822428981
 20
451.5000125
 30
0.0
 11
1321.856822428981
 21
451.5000125
 31
0.0
  0
LINE
  5
2C9
330
1F
100
AcDbEntity
  8
7
  6
________________
 62
     7
370
     9
100
AcDbLine
 10
1317.856822428981
 20
403.8000125
 30
0.0
 11
1319.856822428981
 21
403.8000125
 31
0.0
  0
LINE
  5
2CA
330
1F
100
AcDbEntity
  8
7
  6
________________
 62
     7
370
     9
100
AcDbLine
 10
1319.856822428981
 20
451.2000125
 30
0.0
 11
1317.856822428981
 21
451.2000125
 31
0.0
  0
LINE
  5
2CB
330
1F
100
AcDbEntity
  8
7
  6
________________
 62
     7
370
     9
100
AcDbLine
 10
1159.283612377209
 20
449.9551299340631
 30
0.0
 11
1158.913581917864
 21
451.928149106417
 31
0.0
  0
LINE
  5
2CC
330
1F
100
AcDbEntity
  8
7
  6
________________
 62
     7
370
     9
100
AcDbLine
 10
1158.913581917864
 20
451.928149106417
 30
0.0
 11
1158.88865777432
 21
452.0616469579184
 31
0.0
  0
LINE
  5
2CD
330
1F
100
AcDbEntity
  8
7
  6
________________
 62
     7
370
     9
100
AcDbLine
 10
1169.283433062786
 20
449.9560586370433
 30
0.0
 11
1168.896509751884
 21
452.0195959118717
 31
0.0
  0
LINE
  5
2CE
330
1F
100
AcDbEntity
  8
7
  6
________________
 62
     7
370
     9
100
AcDbLine
 10
1168.896509751884
 20
452.0195959118717
 30
0.0
 11
1168.88862493448
 21
452.0618367744863
 31
0.0
  0
LINE
  5
2CF
330
1F
100
AcDbEntity
  8
7
  6
________________
 62
     7
370
     9
100
AcDbLine
 10
1179.283577312128
 20
449.9552948284187
 30
0.0
 11
1178.926229529108
 21
451.8604812932329
 31
0.0
  0
LINE
  5
2D0
330
1F
100
AcDbEntity
  8
7
  6
________________
 62
     7
370
     9
100
AcDbLine
 10
1178.926229529107
 20
451.8604812932329
 30
0.0
 11
1178.888526430278
 21
452.0624056301598
 31
0.0
  0
LINE
  5
2D1
330
1F
100
AcDbEntity
  8
7
  6
________________
 62
     7
370
     9
100
AcDbLine
 10
1189.283421067352
 20
449.956152412872
 30
0.0
 11
1188.90881609033
 21
451.9537832758504
 31
0.0
  0
LINE
  5
2D2
330
1F
100
AcDbEntity
  8
7
  6
________________
 62
     7
370
     9
100
AcDbLine
 10
1188.90881609033
 20
451.9537832758504
 30
0.0
 11
1188.888587912891
 21
452.0621400225984
 31
0.0
  0
LINE
  5
2D3
330
1F
100
AcDbEntity
  8
7
  6
________________
 62
     7
370
     9
100
AcDbLine
 10
1229.283441552647
 20
449.956315783541
 30
0.0
 11
1228.930227266153
 21
451.8394434781223
 31
0.0
  0
LINE
  5
2D4
330
1F
100
AcDbEntity
  8
7
  6
________________
 62
     7
370
     9
100
AcDbLine
 10
1228.930227266153
 20
451.8394434781223
 30
0.0
 11
1228.888517079203
 21
452.0628209666744
 31
0.0
  0
LINE
  5
2D5
330
1F
100
AcDbEntity
  8
7
  6
________________
 62
     7
370
     9
100
AcDbLine
 10
1239.2835316338
 20
449.955898785169
 30
0.0
 11
1238.913440826473
 21
451.9293417302408
 31
0.0
  0
LINE
  5
2D6
330
1F
100
AcDbEntity
  8
7
  6
________________
 62
     7
370
     9
100
AcDbLine
 10
1238.913440826473
 20
451.9293417302408
 30
0.0
 11
1238.888894088145
 21
452.0608206597902
 31
0.0
  0
LINE
  5
2D7
330
1F
100
AcDbEntity
  8
7
  6
________________
 62
     7
370
     9
100
AcDbLine
 10
1249.283560411547
 20
449.955780272448
 30
0.0
 11
1248.899286264586
 21
452.0051206772768
 31
0.0
  0
LINE
  5
2D8
330
1F
100
AcDbEntity
  8
7
  6
________________
 62
     7
370
     9
100
AcDbLine
 10
1248.899286264586
 20
452.0051206772769
 30
0.0
 11
1248.888562310546
 21
452.0625676982908
 31
0.0
  0
LINE
  5
2D9
330
1F
100
AcDbEntity
  8
7
  6
________________
 62
     7
370
     9
100
AcDbLine
 10
1259.283617709111
 20
449.955466802954
 30
0.0
 11
1258.925707470854
 21
451.863578111932
 31
0.0
  0
LINE
  5
2DA
330
1F
100
AcDbEntity
  8
7
  6
________________
 62
     7
370
     9
100
AcDbLine
 10
1258.925707470854
 20
451.863578111932
 30
0.0
 11
1258.888907389586
 21
452.060653071206
 31
0.0
  0
LINE
  5
2DB
330
1F
100
AcDbEntity
  8
7
  6
________________
 62
     7
370
     9
100
AcDbLine
 10
1269.283959342835
 20
449.9536027719645
 30
0.0
 11
1268.908534594949
 21
451.9554415488164
 31
0.0
  0
LINE
  5
2DC
330
1F
100
AcDbEntity
  8
7
  6
________________
 62
     7
370
     9
100
AcDbLine
 10
1268.908534594949
 20
451.9554415488164
 30
0.0
 11
1268.888925335811
 21
452.0604728817062
 31
0.0
  0
LINE
  5
2DD
330
1F
100
AcDbEntity
  8
7
  6
________________
 62
     7
370
     9
100
AcDbLine
 10
1279.283754575466
 20
449.9546178711709
 30
0.0
 11
1278.893781807351
 21
452.0343700597136
 31
0.0
  0
LINE
  5
2DE
330
1F
100
AcDbEntity
  8
7
  6
________________
 62
     7
370
     9
100
AcDbLine
 10
1278.893781807351
 20
452.0343700597136
 30
0.0
 11
1278.888888265636
 21
452.0605849675342
 31
0.0
  0
LINE
  5
2DF
330
1F
100
AcDbEntity
  8
7
  6
________________
 62
     7
370
     9
100
AcDbLine
 10
1289.283893354772
 20
449.953801118374
 30
0.0
 11
1288.920974092199
 21
451.8886716341023
 31
0.0
  0
LINE
  5
2E0
330
1F
100
AcDbEntity
  8
7
  6
________________
 62
     7
370
     9
100
AcDbLine
 10
1288.920974092199
 20
451.8886716341023
 30
0.0
 11
1288.8889063815
 21
452.0604112376104
 31
0.0
  0
LINE
  5
2E1
330
1F
100
AcDbEntity
  8
7
  6
________________
 62
     7
370
     9
100
AcDbLine
 10
1299.283476040627
 20
449.9559419202713
 30
0.0
 11
1298.903470994946
 21
451.9823369410685
 31
0.0
  0
LINE
  5
2E2
330
1F
100
AcDbEntity
  8
7
  6
________________
 62
     7
370
     9
100
AcDbLine
 10
1298.903470994946
 20
451.9823369410685
 30
0.0
 11
1298.888682711275
 21
452.0615517302406
 31
0.0
  0
LINE
  5
2E3
330
1F
100
AcDbEntity
  8
7
  6
________________
 62
     7
370
     9
100
AcDbLine
 10
1309.283624714503
 20
449.9550918462162
 30
0.0
 11
1308.930030625784
 21
451.8400943763928
 31
0.0
  0
LINE
  5
2E4
330
1F
100
AcDbEntity
  8
7
  6
________________
 62
     7
370
     9
100
AcDbLine
 10
1308.930030625784
 20
451.8400943763928
 30
0.0
 11
1308.888751413156
 21
452.0611512805779
 31
0.0
  0
LINE
  5
2E5
330
1F
100
AcDbEntity
  8
7
  6
________________
 62
     7
370
     9
100
AcDbLine
 10
1313.888703076696
 20
402.9386204545007
 30
0.0
 11
1313.993750812849
 21
403.5007842449414
 31
0.0
  0
LINE
  5
2E6
330
1F
100
AcDbEntity
  8
7
  6
________________
 62
     7
370
     9
100
AcDbLine
 10
1303.888802262429
 20
402.9391333094843
 30
0.0
 11
1303.993755890585
 21
403.5007834089465
 31
0.0
  0
LINE
  5
2E7
330
1F
100
AcDbEntity
  8
7
  6
________________
 62
     7
370
     9
100
AcDbLine
 10
1293.888846856947
 20
402.9393265474811
 30
0.0
 11
1293.993765752041
 21
403.5007830301867
 31
0.0
  0
LINE
  5
2E8
330
1F
100
AcDbEntity
  8
7
  6
________________
 62
     7
370
     9
100
AcDbLine
 10
1283.888914914007
 20
402.9396229984736
 30
0.0
 11
1283.993779140684
 21
403.5007816623189
 31
0.0
  0
LINE
  5
2E9
330
1F
100
AcDbEntity
  8
7
  6
________________
 62
     7
370
     9
100
AcDbLine
 10
1273.888779041614
 20
402.9388123131695
 30
0.0
 11
1273.993794817435
 21
403.5007811048371
 31
0.0
  0
LINE
  5
2EA
330
1F
100
AcDbEntity
  8
7
  6
________________
 62
     7
370
     9
100
AcDbLine
 10
1263.88910508552
 20
402.9404719828086
 30
0.0
 11
1263.99380983657
 21
403.5007798392199
 31
0.0
  0
LINE
  5
2EB
330
1F
100
AcDbEntity
  8
7
  6
________________
 62
     7
370
     9
100
AcDbLine
 10
1253.888696749375
 20
402.9382072068018
 30
0.0
 11
1253.993822690627
 21
403.5007781233348
 31
0.0
  0
LINE
  5
2EC
330
1F
100
AcDbEntity
  8
7
  6
________________
 62
     7
370
     9
100
AcDbLine
 10
1243.888789415721
 20
402.9386527159049
 30
0.0
 11
1243.993829006974
 21
403.5007773937409
 31
0.0
  0
LINE
  5
2ED
330
1F
100
AcDbEntity
  8
7
  6
________________
 62
     7
370
     9
100
AcDbLine
 10
1233.888757091644
 20
402.9384742813497
 30
0.0
 11
1233.993826730132
 21
403.5007777198401
 31
0.0
  0
LINE
  5
2EE
330
1F
100
AcDbEntity
  8
7
  6
________________
 62
     7
370
     9
100
AcDbLine
 10
1223.888461135212
 20
402.9369295067143
 30
0.0
 11
1223.993817587517
 21
403.5007804545676
 31
0.0
  0
LINE
  5
2EF
330
1F
100
AcDbEntity
  8
7
  6
________________
 62
     7
370
     9
100
AcDbLine
 10
1193.888494997382
 20
402.9373487377072
 30
0.0
 11
1193.993773685062
 21
403.5007834503543
 31
0.0
  0
LINE
  5
2F0
330
1F
100
AcDbEntity
  8
7
  6
________________
 62
     7
370
     9
100
AcDbLine
 10
1183.888443562401
 20
402.9371459102266
 30
0.0
 11
1183.993761696664
 21
403.5007838930562
 31
0.0
  0
LINE
  5
2F1
330
1F
100
AcDbEntity
  8
7
  6
________________
 62
     7
370
     9
100
AcDbLine
 10
1173.888600522564
 20
402.9380400835666
 30
0.0
 11
1173.993753473757
 21
403.5007842010424
 31
0.0
  0
LINE
  5
2F2
330
1F
100
AcDbEntity
  8
7
  6
________________
 62
     7
370
     9
100
AcDbLine
 10
1163.888658545776
 20
402.9383788059641
 30
0.0
 11
1163.99375020007
 21
403.50078414961
 31
0.0
  0
LINE
  5
2F3
330
1F
100
AcDbEntity
  8
7
  6
________________
 62
     7
370
     9
100
AcDbLine
 10
1153.888739625242
 20
402.9388126669641
 30
0.0
 11
1153.993752118928
 21
403.5007838621525
 31
0.0
  0
ARC
  5
2F4
330
1F
100
AcDbEntity
  8
7
  6
________________
 62
     7
370
     9
100
AcDbCircle
 10
1402.5
 20
427.5000125
 30
0.0
 40
34.99999999999999
100
AcDbArc
 50
88.36275492222225
 51
91.63794798391206
  0
ARC
  5
2F5
330
1F
100
AcDbEntity
  8
7
  6
________________
 62
     7
370
     9
100
AcDbCircle
 10
1402.5
 20
427.5000125
 30
0.0
 40
34.99999999999992
100
AcDbArc
 50
0.0
 51
88.36275492222224
  0
LINE
  5
2F6
330
1F
100
AcDbEntity
  8
7
  6
________________
 62
     7
370
     9
100
AcDbLine
 10
1401.5
 20
461.5000124999999
 30
0.0
 11
1401.5
 21
462.4857238690718
 31
0.0
  0
LINE
  5
2F7
330
1F
100
AcDbEntity
  8
7
  6
________________
 62
     7
370
     9
100
AcDbLine
 10
1402.5
 20
461.5000124999999
 30
0.0
 11
1401.5
 21
461.5000124999999
 31
0.0
  0
LINE
  5
2F8
330
1F
100
AcDbEntity
  8
7
  6
________________
 62
     7
370
     9
100
AcDbLine
 10
1403.5
 20
461.5000124999999
 30
0.0
 11
1402.5
 21
461.5000124999999
 31
0.0
  0
LINE
  5
2F9
330
1F
100
AcDbEntity
  8
7
  6
________________
 62
     7
370
     9
100
AcDbLine
 10
1403.5
 20
462.4857238690718
 30
0.0
 11
1403.5
 21
461.5000124999999
 31
0.0
  0
ARC
  5
2FA
330
1F
100
AcDbEntity
  8
7
  6
________________
 62
     7
370
     9
100
AcDbCircle
 10
1402.5
 20
427.5000125
 30
0.0
 40
35.0
100
AcDbArc
 50
91.63724507777775
 51
0.0
  0
CIRCLE
  5
2FB
330
1F
100
AcDbEntity
  8
7
  6
________________
 62
     7
370
     9
100
AcDbCircle
 10
1402.5
 20
427.5000125
 30
0.0
 40
20.7
  0
ARC
  5
2FC
330
1F
100
AcDbEntity
  8
7
  6
________________
 62
     7
370
     9
100
AcDbCircle
 10
1402.5
 20
427.5000125
 30
0.0
 40
17.50000000000007
100
AcDbArc
 50
180.0
 51
0.0
  0
ARC
  5
2FD
330
1F
100
AcDbEntity
  8
7
  6
________________
 62
     7
370
     9
100
AcDbCircle
 10
1402.5
 20
427.5000125
 30
0.0
 40
17.50000000000007
100
AcDbArc
 50
0.0
 51
180.0
  0
MTEXT
  5
2FE
330
1F
100
AcDbEntity
  8
7
 62
     7
100
AcDbMText
 10
1307.749818181818
 20
375.1978580873218
 30
0.0
 40
6.0
 41
0.0
 46
0.0
 71
     1
 72
     1
  1
{\FＭＳ ゴシック;BMHM-30}
 73
     1
 44
1.0
  0
ENDSEC
  0
SECTION
  2
OBJECTS
  0
DICTIONARY
  5
C
330
0
100
AcDbDictionary
281
     1
  3
ACAD_GROUP
350
D
  3
ACAD_LAYOUT
350
1A
  3
ACAD_MLEADERSTYLE
350
300
  3
ACAD_MLINESTYLE
350
17
  3
ACAD_PLOTSETTINGS
350
19
  3
ACAD_PLOTSTYLENAME
350
E
  3
ACAD_TABLESTYLE
350
2FF
  3
ACAD_VISUALSTYLE
350
2A
  0
DICTIONARY
  5
D
102
{ACAD_REACTORS
330
C
102
}
330
C
100
AcDbDictionary
281
     1
  0
DICTIONARY
  5
1A
102
{ACAD_REACTORS
330
C
102
}
330
C
100
AcDbDictionary
281
     1
  3
Layout1
350
1E
  3
Layout2
350
26
  3
Model
350
22
  0
DICTIONARY
  5
300
102
{ACAD_REACTORS
330
C
102
}
330
C
100
AcDbDictionary
281
     1
  0
DICTIONARY
  5
17
102
{ACAD_REACTORS
330
C
102
}
330
C
100
AcDbDictionary
281
     1
  3
Standard
350
18
  0
DICTIONARY
  5
19
102
{ACAD_REACTORS
330
C
102
}
330
C
100
AcDbDictionary
281
     1
  0
ACDBDICTIONARYWDFLT
  5
E
102
{ACAD_REACTORS
330
C
102
}
330
C
100
AcDbDictionary
281
     1
  3
Normal
350
F
100
AcDbDictionaryWithDefault
340
F
  0
DICTIONARY
  5
2FF
102
{ACAD_REACTORS
330
C
102
}
330
C
100
AcDbDictionary
281
     1
  0
DICTIONARY
  5
2A
102
{ACAD_REACTORS
330
C
102
}
330
C
100
AcDbDictionary
281
     1
  3
2dWireframe
350
2F
  3
3D Hidden
350
31
  3
3dWireframe
350
30
  3
Basic
350
32
  3
Brighten
350
36
  3
ColorChange
350
3A
  3
Conceptual
350
34
  3
Dim
350
35
  3
Facepattern
350
39
  3
Flat
350
2B
  3
FlatWithEdges
350
2C
  3
Gouraud
350
2D
  3
GouraudWithEdges
350
2E
  3
Linepattern
350
38
  3
Realistic
350
33
  3
Thicken
350
37
  0
LAYOUT
  5
1E
102
{ACAD_REACTORS
330
1A
102
}
330
1A
100
AcDbPlotSettings
  1

  2
none_device
  4

  6

 40
0.0
 41
0.0
 42
0.0
 43
0.0
 44
0.0
 45
0.0
 46
0.0
 47
0.0
 48
0.0
 49
0.0
140
0.0
141
0.0
142
1.0
143
1.0
 70
   688
 72
     0
 73
     0
 74
     5
  7

 75
    16
 76
     0
 77
     2
 78
   300
147
1.0
148
0.0
149
0.0
100
AcDbLayout
  1
Layout1
 70
     1
 71
     1
 10
0.0
 20
0.0
 11
12.0
 21
9.0
 12
0.0
 22
0.0
 32
0.0
 14
1.000000000000000E+20
 24
1.000000000000000E+20
 34
1.000000000000000E+20
 15
-1.000000000000000E+20
 25
-1.000000000000000E+20
 35
-1.000000000000000E+20
146
0.0
 13
0.0
 23
0.0
 33
0.0
 16
1.0
 26
0.0
 36
0.0
 17
0.0
 27
1.0
 37
0.0
 76
     0
330
1B
  0
LAYOUT
  5
26
102
{ACAD_REACTORS
330
1A
102
}
330
1A
100
AcDbPlotSettings
  1

  2
none_device
  4

  6

 40
0.0
 41
0.0
 42
0.0
 43
0.0
 44
0.0
 45
0.0
 46
0.0
 47
0.0
 48
0.0
 49
0.0
140
0.0
141
0.0
142
1.0
143
1.0
 70
   688
 72
     0
 73
     0
 74
     5
  7

 75
    16
 76
     0
 77
     2
 78
   300
147
1.0
148
0.0
149
0.0
100
AcDbLayout
  1
Layout2
 70
     1
 71
     2
 10
0.0
 20
0.0
 11
0.0
 21
0.0
 12
0.0
 22
0.0
 32
0.0
 14
0.0
 24
0.0
 34
0.0
 15
0.0
 25
0.0
 35
0.0
146
0.0
 13
0.0
 23
0.0
 33
0.0
 16
1.0
 26
0.0
 36
0.0
 17
0.0
 27
1.0
 37
0.0
 76
     0
330
23
  0
LAYOUT
  5
22
102
{ACAD_REACTORS
330
1A
102
}
330
1A
100
AcDbPlotSettings
  1

  2
none_device
  4

  6

 40
0.0
 41
0.0
 42
0.0
 43
0.0
 44
0.0
 45
0.0
 46
0.0
 47
0.0
 48
0.0
 49
0.0
140
0.0
141
0.0
142
1.0
143
1.0
 70
  1712
 72
     0
 73
     0
 74
     0
  7

 75
     0
 76
     0
 77
     2
 78
   300
147
1.0
148
0.0
149
0.0
100
AcDbLayout
  1
Model
 70
     1
 71
     0
 10
0.0
 20
0.0
 11
12.0
 21
9.0
 12
0.0
 22
0.0
 32
0.0
 14
0.0
 24
0.0
 34
0.0
 15
1437.5
 25
462.5000125
 35
10.0
146
0.0
 13
0.0
 23
0.0
 33
0.0
 16
1.0
 26
0.0
 36
0.0
 17
0.0
 27
1.0
 37
0.0
 76
     0
330
1F
331
29
  0
MLINESTYLE
  5
18
102
{ACAD_REACTORS
330
17
102
}
330
17
100
AcDbMlineStyle
  2
Standard
 70
     0
  3

 62
   256
 51
90.0
 52
90.0
 71
     2
 49
0.5
 62
   256
  6
BYLAYER
 49
-0.5
 62
   256
  6
BYLAYER
  0
ACDBPLACEHOLDER
  5
F
102
{ACAD_REACTORS
330
E
102
}
330
E
  0
VISUALSTYLE
  5
2F
102
{ACAD_REACTORS
330
2A
102
}
330
2A
100
AcDbVisualStyle
  2
2dWireframe
 70
     4
 71
     0
 72
     2
 73
     0
 90
        0
 40
-0.6
 41
-30.0
 62
     5
 63
     7
421
 16777215
 74
     1
 91
        4
 64
     7
 65
   257
 75
     1
175
     1
 42
1.0
 92
        0
 66
   257
 43
1.0
 76
     1
 77
     6
 78
     2
 67
     7
 79
     5
170
     0
171
     0
290
     0
174
     0
 93
        1
 44
0.0
173
     0
291
     0
 45
0.0
  0
VISUALSTYLE
  5
31
102
{ACAD_REACTORS
330
2A
102
}
330
2A
100
AcDbVisualStyle
  2
3D Hidden
 70
     6
 71
     1
 72
     2
 73
     2
 90
        0
 40
-0.6
 41
-30.0
 62
     5
 63
     7
421
 16777215
 74
     2
 91
        2
 64
     7
 65
   257
 75
     2
175
     1
 42
40.0
 92
        0
 66
   257
 43
1.0
 76
     1
 77
     6
 78
     2
 67
     7
 79
     3
170
     0
171
     0
290
     0
174
     0
 93
        1
 44
0.0
173
     0
291
     0
 45
0.0
  0
VISUALSTYLE
  5
30
102
{ACAD_REACTORS
330
2A
102
}
330
2A
100
AcDbVisualStyle
  2
3dWireframe
 70
     5
 71
     0
 72
     2
 73
     0
 90
        0
 40
-0.6
 41
-30.0
 62
     5
 63
     7
421
 16777215
 74
     1
 91
        4
 64
     7
 65
   257
 75
     1
175
     1
 42
1.0
 92
        0
 66
   257
 43
1.0
 76
     1
 77
     6
 78
     2
 67
     7
 79
     5
170
     0
171
     0
290
     0
174
     0
 93
        1
 44
0.0
173
     0
291
     0
 45
0.0
  0
VISUALSTYLE
  5
32
102
{ACAD_REACTORS
330
2A
102
}
330
2A
100
AcDbVisualStyle
  2
Basic
 70
     7
 71
     1
 72
     0
 73
     1
 90
        0
 40
-0.6
 41
-30.0
 62
     5
 63
     7
421
 16777215
 74
     0
 91
        4
 64
     7
 65
   257
 75
     1
175
     1
 42
1.0
 92
        8
 66
     7
 43
1.0
 76
     1
 77
     6
 78
     2
 67
     7
 79
     5
170
     0
171
     0
290
     0
174
     0
 93
        1
 44
0.0
173
     0
291
     1
 45
0.0
  0
VISUALSTYLE
  5
36
102
{ACAD_REACTORS
330
2A
102
}
330
2A
100
AcDbVisualStyle
  2
Brighten
 70
    12
 71
     2
 72
     2
 73
     0
 90
        0
 40
-0.6
 41
-30.0
 62
     5
 63
     7
421
 16777215
 74
     1
 91
        4
 64
     7
 65
   257
 75
     1
175
     1
 42
1.0
 92
        8
 66
     7
 43
1.0
 76
     1
 77
     6
 78
     2
 67
     7
 79
     5
170
     0
171
     0
290
     0
174
     0
 93
        1
 44
50.0
173
     0
291
     1
 45
0.0
  0
VISUALSTYLE
  5
3A
102
{ACAD_REACTORS
330
2A
102
}
330
2A
100
AcDbVisualStyle
  2
ColorChange
 70
    16
 71
     2
 72
     2
 73
     3
 90
        0
 40
-0.6
 41
-30.0
 62
     5
 63
     8
421
  8421504
 74
     1
 91
        4
 64
     7
 65
   257
 75
     1
175
     1
 42
1.0
 92
        8
 66
     8
424
  8421504
 43
1.0
 76
     1
 77
     6
 78
     2
 67
     7
 79
     5
170
     0
171
     0
290
     0
174
     0
 93
        1
 44
0.0
173
     0
291
     1
 45
0.0
  0
VISUALSTYLE
  5
34
102
{ACAD_REACTORS
330
2A
102
}
330
2A
100
AcDbVisualStyle
  2
Conceptual
 70
     9
 71
     3
 72
     2
 73
     0
 90
        0
 40
-0.6
 41
-30.0
 62
     5
 63
     7
421
 16777215
 74
     2
 91
        2
 64
     7
 65
   257
 75
     1
175
     1
 42
40.0
 92
        8
 66
     7
 43
1.0
 76
     1
 77
     6
 78
     2
 67
     7
 79
     3
170
     0
171
     0
290
     0
174
     0
 93
        1
 44
0.0
173
     0
291
     0
 45
0.0
  0
VISUALSTYLE
  5
35
102
{ACAD_REACTORS
330
2A
102
}
330
2A
100
AcDbVisualStyle
  2
Dim
 70
    11
 71
     2
 72
     2
 73
     0
 90
        0
 40
-0.6
 41
-30.0
 62
     5
 63
     7
421
 16777215
 74
     1
 91
        4
 64
     7
 65
   257
 75
     1
175
     1
 42
1.0
 92
        8
 66
     7
 43
1.0
 76
     1
 77
     6
 78
     2
 67
     7
 79
     5
170
     0
171
     0
290
     0
174
     0
 93
        1
 44
-50.0
173
     0
291
     1
 45
0.0
  0
VISUALSTYLE
  5
39
102
{ACAD_REACTORS
330
2A
102
}
330
2A
100
AcDbVisualStyle
  2
Facepattern
 70
    15
 71
     2
 72
     2
 73
     0
 90
        0
 40
-0.6
 41
-30.0
 62
     5
 63
     7
421
 16777215
 74
     1
 91
        4
 64
     7
 65
   257
 75
     1
175
     1
 42
1.0
 92
        8
 66
     7
 43
1.0
 76
     1
 77
     6
 78
     2
 67
     7
 79
     5
170
     0
171
     0
290
     0
174
     0
 93
        1
 44
0.0
173
     0
291
     1
 45
0.0
  0
VISUALSTYLE
  5
2B
102
{ACAD_REACTORS
330
2A
102
}
330
2A
100
AcDbVisualStyle
  2
Flat
 70
     0
 71
     2
 72
     1
 73
     1
 90
        2
 40
-0.6
 41
30.0
 62
     5
 63
     7
421
 16777215
 74
     0
 91
        4
 64
     7
 65
   257
 75
     1
175
     1
 42
1.0
 92
        8
 66
     7
 43
1.0
 76
     1
 77
     6
 78
     2
 67
     7
 79
     5
170
     0
171
     0
290
     0
174
     0
 93
       13
 44
0.0
173
     0
291
     1
 45
0.0
  0
VISUALSTYLE
  5
2C
102
{ACAD_REACTORS
330
2A
102
}
330
2A
100
AcDbVisualStyle
  2
FlatWithEdges
 70
     1
 71
     2
 72
     1
 73
     1
 90
        2
 40
-0.6
 41
30.0
 62
     5
 63
     7
421
 16777215
 74
     1
 91
        4
 64
     7
 65
   257
 75
     1
175
     1
 42
1.0
 92
        0
 66
   257
 43
1.0
 76
     1
 77
     6
 78
     2
 67
     7
 79
     5
170
     0
171
     0
290
     0
174
     0
 93
       13
 44
0.0
173
     0
291
     1
 45
0.0
  0
VISUALSTYLE
  5
2D
102
{ACAD_REACTORS
330
2A
102
}
330
2A
100
AcDbVisualStyle
  2
Gouraud
 70
     2
 71
     2
 72
     2
 73
     1
 90
        2
 40
-0.6
 41
30.0
 62
     5
 63
     7
421
 16777215
 74
     0
 91
        4
 64
     7
 65
   257
 75
     1
175
     1
 42
1.0
 92
        0
 66
     7
 43
1.0
 76
     1
 77
     6
 78
     2
 67
     7
 79
     5
170
     0
171
     0
290
     0
174
     0
 93
       13
 44
0.0
173
     0
291
     1
 45
0.0
  0
VISUALSTYLE
  5
2E
102
{ACAD_REACTORS
330
2A
102
}
330
2A
100
AcDbVisualStyle
  2
GouraudWithEdges
 70
     3
 71
     2
 72
     2
 73
     1
 90
        2
 40
-0.6
 41
30.0
 62
     5
 63
     7
421
 16777215
 74
     1
 91
        4
 64
     7
 65
   257
 75
     1
175
     1
 42
1.0
 92
        0
 66
   257
 43
1.0
 76
     1
 77
     6
 78
     2
 67
     7
 79
     5
170
     0
171
     0
290
     0
174
     0
 93
       13
 44
0.0
173
     0
291
     1
 45
0.0
  0
VISUALSTYLE
  5
38
102
{ACAD_REACTORS
330
2A
102
}
330
2A
100
AcDbVisualStyle
  2
Linepattern
 70
    14
 71
     2
 72
     2
 73
     0
 90
        0
 40
-0.6
 41
-30.0
 62
     5
 63
     7
421
 16777215
 74
     1
 91
        4
 64
     7
 65
   257
 75
     7
175
     7
 42
1.0
 92
        8
 66
     7
 43
1.0
 76
     1
 77
     6
 78
     2
 67
     7
 79
     5
170
     0
171
     0
290
     0
174
     0
 93
        1
 44
0.0
173
     0
291
     1
 45
0.0
  0
VISUALSTYLE
  5
33
102
{ACAD_REACTORS
330
2A
102
}
330
2A
100
AcDbVisualStyle
  2
Realistic
 70
     8
 71
     2
 72
     2
 73
     0
 90
        0
 40
-0.6
 41
-30.0
 62
     5
 63
     7
421
 16777215
 74
     1
 91
        0
 64
     7
 65
   257
 75
     1
175
     1
 42
1.0
 92
        8
 66
     8
424
  7895160
 43
1.0
 76
     1
 77
     6
 78
     2
 67
     7
 79
     5
170
     0
171
     0
290
     0
174
     0
 93
       13
 44
0.0
173
     0
291
     0
 45
0.0
  0
VISUALSTYLE
  5
37
102
{ACAD_REACTORS
330
2A
102
}
330
2A
100
AcDbVisualStyle
  2
Thicken
 70
    13
 71
     2
 72
     2
 73
     0
 90
        0
 40
-0.6
 41
-30.0
 62
     5
 63
     7
421
 16777215
 74
     1
 91
        4
 64
     7
 65
   257
 75
     1
175
     1
 42
1.0
 92
       12
 66
     7
 43
1.0
 76
     1
 77
     6
 78
     2
 67
     7
 79
     5
170
     0
171
     0
290
     0
174
     0
 93
        1
 44
0.0
173
     0
291
     1
 45
0.0
  0
ENDSEC
  0
EOF
