  0
SECTION
  2
HEADER
  9
$ACADVER
  1
AC1021
  9
$ACADMAINTVER
 70
    25
  9
$DWGCODEPAGE
  3
ANSI_932
  9
$INSBASE
 10
0.0
 20
0.0
 30
0.0
  9
$EXTMIN
 10
0.0
 20
0.0
 30
0.0
  9
$EXTMAX
 10
870.8646577401015
 20
461.4165038728748
 30
10.0
  9
$LIMMIN
 10
0.0
 20
0.0
  9
$LIMMAX
 10
12.0
 20
9.0
  9
$ORTHOMODE
 70
     0
  9
$REGENMODE
 70
     1
  9
$FILLMODE
 70
     1
  9
$QTEXTMODE
 70
     0
  9
$MIRRTEXT
 70
     1
  9
$LTSCALE
 40
1.0
  9
$ATTMODE
 70
     1
  9
$TEXTSIZE
 40
0.2
  9
$TRACEWID
 40
0.05
  9
$TEXTSTYLE
  7
Standard
  9
$CLAYER
  8
0
  9
$CELTYPE
  6
ByLayer
  9
$CECOLOR
 62
   256
  9
$CELTSCALE
 40
1.0
  9
$DISPSILH
 70
     0
  9
$DIMSCALE
 40
1.0
  9
$DIMASZ
 40
3.0
  9
$DIMEXO
 40
0.0625
  9
$DIMDLI
 40
0.38
  9
$DIMRND
 40
0.0
  9
$DIMDLE
 40
0.0
  9
$DIMEXE
 40
0.18
  9
$DIMTP
 40
0.0
  9
$DIMTM
 40
0.0
  9
$DIMTXT
 40
3.0
  9
$DIMCEN
 40
0.09
  9
$DIMTSZ
 40
0.0
  9
$DIMTOL
 70
     0
  9
$DIMLIM
 70
     0
  9
$DIMTIH
 70
     1
  9
$DIMTOH
 70
     1
  9
$DIMSE1
 70
     0
  9
$DIMSE2
 70
     0
  9
$DIMTAD
 70
     1
  9
$DIMZIN
 70
     0
  9
$DIMBLK
  1

  9
$DIMASO
 70
     1
  9
$DIMSHO
 70
     1
  9
$DIMPOST
  1

  9
$DIMAPOST
  1

  9
$DIMALT
 70
     0
  9
$DIMALTD
 70
     2
  9
$DIMALTF
 40
25.4
  9
$DIMLFAC
 40
1.0
  9
$DIMTOFL
 70
     0
  9
$DIMTVP
 40
0.0
  9
$DIMTIX
 70
     0
  9
$DIMSOXD
 70
     0
  9
$DIMSAH
 70
     0
  9
$DIMBLK1
  1

  9
$DIMBLK2
  1

  9
$DIMSTYLE
  2
Standard
  9
$DIMCLRD
 70
     0
  9
$DIMCLRE
 70
     0
  9
$DIMCLRT
 70
     0
  9
$DIMTFAC
 40
1.0
  9
$DIMGAP
 40
0.09
  9
$DIMJUST
 70
     0
  9
$DIMSD1
 70
     0
  9
$DIMSD2
 70
     0
  9
$DIMTOLJ
 70
     1
  9
$DIMTZIN
 70
     0
  9
$DIMALTZ
 70
     0
  9
$DIMALTTZ
 70
     0
  9
$DIMUPT
 70
     0
  9
$DIMDEC
 70
     2
  9
$DIMTDEC
 70
     4
  9
$DIMALTU
 70
     2
  9
$DIMALTTD
 70
     2
  9
$DIMTXSTY
  7
Standard
  9
$DIMAUNIT
 70
     0
  9
$DIMADEC
 70
     2
  9
$DIMALTRND
 40
0.0
  9
$DIMAZIN
 70
     0
  9
$DIMDSEP
 70
    46
  9
$DIMATFIT
 70
     3
  9
$DIMFRAC
 70
     0
  9
$DIMLDRBLK
  1

  9
$DIMLUNIT
 70
     2
  9
$DIMLWD
 70
    -2
  9
$DIMLWE
 70
    -2
  9
$DIMTMOVE
 70
     0
  9
$DIMFXL
 40
1.0
  9
$DIMFXLON
 70
     0
  9
$DIMJOGANG
 40
0.7853981633974483
  9
$DIMTFILL
 70
     0
  9
$DIMTFILLCLR
 70
     0
  9
$DIMARCSYM
 70
     0
  9
$DIMLTYPE
  6

  9
$DIMLTEX1
  6

  9
$DIMLTEX2
  6

  9
$LUNITS
 70
     2
  9
$LUPREC
 70
     4
  9
$SKETCHINC
 40
0.1
  9
$FILLETRAD
 40
0.5
  9
$AUNITS
 70
     0
  9
$AUPREC
 70
     0
  9
$MENU
  1
.
  9
$ELEVATION
 40
0.0
  9
$PELEVATION
 40
0.0
  9
$THICKNESS
 40
0.0
  9
$LIMCHECK
 70
     0
  9
$CHAMFERA
 40
0.5
  9
$CHAMFERB
 40
0.5
  9
$CHAMFERC
 40
1.0
  9
$CHAMFERD
 40
0.0
  9
$SKPOLY
 70
     0
  9
$TDCREATE
 40
2459298.582975532
  9
$TDUCREATE
 40
2459298.207975532
  9
$TDUPDATE
 40
2459298.582975544
  9
$TDUUPDATE
 40
2459298.207975544
  9
$TDINDWG
 40
0.0000000116
  9
$TDUSRTIMER
 40
0.0000000116
  9
$USRTIMER
 70
     1
  9
$ANGBASE
 50
0.0
  9
$ANGDIR
 70
     0
  9
$PDMODE
 70
     0
  9
$PDSIZE
 40
0.0
  9
$PLINEWID
 40
0.0
  9
$SPLFRAME
 70
     0
  9
$SPLINETYPE
 70
     6
  9
$SPLINESEGS
 70
     8
  9
$HANDSEED
  5
30D
  9
$SURFTAB1
 70
     6
  9
$SURFTAB2
 70
     6
  9
$SURFTYPE
 70
     6
  9
$SURFU
 70
     6
  9
$SURFV
 70
     6
  9
$UCSBASE
  2

  9
$UCSNAME
  2

  9
$UCSORG
 10
0.0
 20
0.0
 30
0.0
  9
$UCSXDIR
 10
1.0
 20
0.0
 30
0.0
  9
$UCSYDIR
 10
0.0
 20
1.0
 30
0.0
  9
$UCSORTHOREF
  2

  9
$UCSORTHOVIEW
 70
     0
  9
$UCSORGTOP
 10
0.0
 20
0.0
 30
0.0
  9
$UCSORGBOTTOM
 10
0.0
 20
0.0
 30
0.0
  9
$UCSORGLEFT
 10
0.0
 20
0.0
 30
0.0
  9
$UCSORGRIGHT
 10
0.0
 20
0.0
 30
0.0
  9
$UCSORGFRONT
 10
0.0
 20
0.0
 30
0.0
  9
$UCSORGBACK
 10
0.0
 20
0.0
 30
0.0
  9
$PUCSBASE
  2

  9
$PUCSNAME
  2

  9
$PUCSORG
 10
0.0
 20
0.0
 30
0.0
  9
$PUCSXDIR
 10
1.0
 20
0.0
 30
0.0
  9
$PUCSYDIR
 10
0.0
 20
1.0
 30
0.0
  9
$PUCSORTHOREF
  2

  9
$PUCSORTHOVIEW
 70
     0
  9
$PUCSORGTOP
 10
0.0
 20
0.0
 30
0.0
  9
$PUCSORGBOTTOM
 10
0.0
 20
0.0
 30
0.0
  9
$PUCSORGLEFT
 10
0.0
 20
0.0
 30
0.0
  9
$PUCSORGRIGHT
 10
0.0
 20
0.0
 30
0.0
  9
$PUCSORGFRONT
 10
0.0
 20
0.0
 30
0.0
  9
$PUCSORGBACK
 10
0.0
 20
0.0
 30
0.0
  9
$USERI1
 70
     0
  9
$USERI2
 70
     0
  9
$USERI3
 70
     0
  9
$USERI4
 70
     0
  9
$USERI5
 70
     0
  9
$USERR1
 40
0.0
  9
$USERR2
 40
0.0
  9
$USERR3
 40
0.0
  9
$USERR4
 40
0.0
  9
$USERR5
 40
0.0
  9
$WORLDVIEW
 70
     1
  9
$SHADEDGE
 70
     3
  9
$SHADEDIF
 70
    70
  9
$TILEMODE
 70
     1
  9
$MAXACTVP
 70
    64
  9
$PINSBASE
 10
0.0
 20
0.0
 30
0.0
  9
$PLIMCHECK
 70
     0
  9
$PEXTMIN
 10
1.000000000000000E+20
 20
1.000000000000000E+20
 30
1.000000000000000E+20
  9
$PEXTMAX
 10
-1.000000000000000E+20
 20
-1.000000000000000E+20
 30
-1.000000000000000E+20
  9
$PLIMMIN
 10
0.0
 20
0.0
  9
$PLIMMAX
 10
12.0
 20
9.0
  9
$UNITMODE
 70
     0
  9
$VISRETAIN
 70
     1
  9
$PLINEGEN
 70
     0
  9
$PSLTSCALE
 70
     1
  9
$TREEDEPTH
 70
  3020
  9
$CMLSTYLE
  2
Standard
  9
$CMLJUST
 70
     0
  9
$CMLSCALE
 40
1.0
  9
$PROXYGRAPHICS
 70
     1
  9
$MEASUREMENT
 70
     1
  9
$CELWEIGHT
370
    -1
  9
$ENDCAPS
280
     0
  9
$JOINSTYLE
280
     0
  9
$LWDISPLAY
290
     1
  9
$INSUNITS
 70
     4
  9
$HYPERLINKBASE
  1

  9
$STYLESHEET
  1

  9
$XEDIT
290
     1
  9
$CEPSNTYPE
380
     0
  9
$PSTYLEMODE
290
     1
  9
$FINGERPRINTGUID
  2
{D66A8F8E-5F82-4BFA-A6F1-F529B52D500E}
  9
$VERSIONGUID
  2
{FAEB1C32-E019-11D5-929B-00C0DF256EC4}
  9
$EXTNAMES
290
     1
  9
$PSVPSCALE
 40
0.0
  9
$OLESTARTUP
290
     0
  9
$SORTENTS
280
   127
  9
$INDEXCTL
280
     0
  9
$HIDETEXT
280
     1
  9
$XCLIPFRAME
290
     0
  9
$HALOGAP
280
     0
  9
$OBSCOLOR
 70
   257
  9
$OBSLTYPE
280
     0
  9
$INTERSECTIONDISPLAY
280
     0
  9
$INTERSECTIONCOLOR
 70
   257
  9
$DIMASSOC
280
     2
  9
$PROJECTNAME
  1

  9
$CAMERADISPLAY
290
     0
  9
$LENSLENGTH
 40
50.0
  9
$CAMERAHEIGHT
 40
0.0
  9
$STEPSPERSEC
 40
2.0
  9
$STEPSIZE
 40
6.0
  9
$3DDWFPREC
 40
2.0
  9
$PSOLWIDTH
 40
0.25
  9
$PSOLHEIGHT
 40
4.0
  9
$LOFTANG1
 40
1.570796326794897
  9
$LOFTANG2
 40
1.570796326794897
  9
$LOFTMAG1
 40
0.0
  9
$LOFTMAG2
 40
0.0
  9
$LOFTPARAM
 70
     7
  9
$LOFTNORMALS
280
     1
  9
$LATITUDE
 40
37.795
  9
$LONGITUDE
 40
-122.394
  9
$NORTHDIRECTION
 40
0.0
  9
$TIMEZONE
 70
 -8000
  9
$LIGHTGLYPHDISPLAY
280
     1
  9
$TILEMODELIGHTSYNCH
280
     1
  9
$SOLIDHIST
280
     1
  9
$SHOWHIST
280
     1
  9
$DWFFRAME
280
     2
  9
$DGNFRAME
280
     2
  9
$REALWORLDSCALE
290
     1
  9
$INTERFERECOLOR
 62
   256
  9
$CSHADOW
280
     0
  9
$SHADOWPLANELOCATION
 40
0.0
  0
ENDSEC
  0
SECTION
  2
CLASSES
  0
CLASS
  1
ACDBDICTIONARYWDFLT
  2
AcDbDictionaryWithDefault
  3
ObjectDBX Classes
 90
        0
 91
        4
280
     0
281
     0
  0
CLASS
  1
VISUALSTYLE
  2
AcDbVisualStyle
  3
ObjectDBX Classes
 90
     4095
 91
        4
280
     0
281
     0
  0
ENDSEC
  0
SECTION
  2
TABLES
  0
TABLE
  2
VPORT
  5
8
330
0
100
AcDbSymbolTable
 70
     1
  0
VPORT
  5
29
330
8
100
AcDbSymbolTableRecord
100
AcDbViewportTableRecord
  2
*Active
 70
     0
 10
0.0
 20
0.0
 11
1.0
 21
1.0
 12
435.4323288700508
 22
230.7082519364374
 13
0.0
 23
0.0
 14
0.5
 24
0.5
 15
0.5
 25
0.5
 16
0.0
 26
0.0
 36
1.0
 17
0.0
 27
0.0
 37
0.0
 40
461.4165038728748
 41
1.6
 42
50.0
 43
0.0
 44
0.0
 50
0.0
 51
0.0
 71
     0
 72
   100
 73
     1
 74
     3
 75
     0
 76
     0
 77
     0
 78
     0
281
     0
 65
     1
110
0.0
120
0.0
130
0.0
111
1.0
121
0.0
131
0.0
112
0.0
122
1.0
132
0.0
 79
     0
146
0.0
 60
     3
 61
     5
292
     1
282
     1
141
0.0
142
0.0
 63
   250
  0
ENDTAB
  0
TABLE
  2
LTYPE
  5
5
330
0
100
AcDbSymbolTable
 70
     2
  0
LTYPE
  5
14
330
5
100
AcDbSymbolTableRecord
100
AcDbLinetypeTableRecord
  2
ByBlock
 70
     0
  3

 72
    65
 73
     0
 40
0.0
  0
LTYPE
  5
15
330
5
100
AcDbSymbolTableRecord
100
AcDbLinetypeTableRecord
  2
ByLayer
 70
     0
  3

 72
    65
 73
     0
 40
0.0
  0
LTYPE
  5
16
330
5
100
AcDbSymbolTableRecord
100
AcDbLinetypeTableRecord
  2
Continuous
 70
     0
  3
Solid line
 72
    65
 73
     0
 40
0.0
  0
LTYPE
  5
3D
330
5
100
AcDbSymbolTableRecord
100
AcDbLinetypeTableRecord
  2
________________
 70
     0
  3

 72
    65
 73
     0
 40
0.0
  0
ENDTAB
  0
TABLE
  2
LAYER
  5
2
330
0
100
AcDbSymbolTable
 70
     2
  0
LAYER
  5
10
330
2
100
AcDbSymbolTableRecord
100
AcDbLayerTableRecord
  2
0
 70
     0
 62
     7
  6
Continuous
370
    -3
390
F
347
0
  0
LAYER
  5
3B
330
2
100
AcDbSymbolTableRecord
100
AcDbLayerTableRecord
  2
1
 70
     0
 62
     7
  6
Continuous
370
    -3
390
F
347
0
  0
ENDTAB
  0
TABLE
  2
STYLE
  5
3
330
0
100
AcDbSymbolTable
 70
     1
  0
STYLE
  5
11
330
3
100
AcDbSymbolTableRecord
100
AcDbTextStyleTableRecord
  2
Standard
 70
     0
 40
0.0
 41
1.0
 50
0.0
 71
     0
 42
0.2
  3
txt
  4

  0
ENDTAB
  0
TABLE
  2
VIEW
  5
6
330
0
100
AcDbSymbolTable
 70
     0
  0
ENDTAB
  0
TABLE
  2
UCS
  5
7
330
0
100
AcDbSymbolTable
 70
     0
  0
ENDTAB
  0
TABLE
  2
APPID
  5
9
330
0
100
AcDbSymbolTable
 70
     1
  0
APPID
  5
12
330
9
100
AcDbSymbolTableRecord
100
AcDbRegAppTableRecord
  2
ACAD
 70
     0
  0
ENDTAB
  0
TABLE
  2
DIMSTYLE
  5
A
330
0
100
AcDbSymbolTable
 70
     1
100
AcDbDimStyleTable
  0
DIMSTYLE
105
27
330
A
100
AcDbSymbolTableRecord
100
AcDbDimStyleTableRecord
  2
Standard
 70
     0
340
11
  0
ENDTAB
  0
TABLE
  2
BLOCK_RECORD
  5
1
330
0
100
AcDbSymbolTable
 70
     1
  0
BLOCK_RECORD
  5
1F
330
1
100
AcDbSymbolTableRecord
100
AcDbBlockTableRecord
  2
*Model_Space
340
22
 70
     0
280
     1
281
     0
  0
BLOCK_RECORD
  5
1B
330
1
100
AcDbSymbolTableRecord
100
AcDbBlockTableRecord
  2
*Paper_Space
340
1E
 70
     0
280
     1
281
     0
  0
BLOCK_RECORD
  5
23
330
1
100
AcDbSymbolTableRecord
100
AcDbBlockTableRecord
  2
*Paper_Space0
340
26
 70
     0
280
     1
281
     0
  0
ENDTAB
  0
ENDSEC
  0
SECTION
  2
BLOCKS
  0
BLOCK
  5
20
330
1F
100
AcDbEntity
  8
0
100
AcDbBlockBegin
  2
*Model_Space
 70
     0
 10
0.0
 20
0.0
 30
0.0
  3
*Model_Space
  1

  0
ENDBLK
  5
21
330
1F
100
AcDbEntity
  8
0
100
AcDbBlockEnd
  0
BLOCK
  5
1C
330
1B
100
AcDbEntity
 67
     1
  8
0
100
AcDbBlockBegin
  2
*Paper_Space
 70
     0
 10
0.0
 20
0.0
 30
0.0
  3
*Paper_Space
  1

  0
ENDBLK
  5
1D
330
1B
100
AcDbEntity
 67
     1
  8
0
100
AcDbBlockEnd
  0
BLOCK
  5
24
330
23
100
AcDbEntity
  8
0
100
AcDbBlockBegin
  2
*Paper_Space0
 70
     0
 10
0.0
 20
0.0
 30
0.0
  3
*Paper_Space0
  1

  0
ENDBLK
  5
25
330
23
100
AcDbEntity
  8
0
100
AcDbBlockEnd
  0
ENDSEC
  0
SECTION
  2
ENTITIES
  0
LINE
  5
3C
330
1F
100
AcDbEntity
  8
1
  6
________________
 62
     7
370
     9
100
AcDbLine
 10
757.3520291497309
 20
423.9203362308599
 30
0.0
 11
758.3827164957353
 21
393.9127694231536
 31
0.0
  0
LINE
  5
3E
330
1F
100
AcDbEntity
  8
1
  6
________________
 62
     7
370
     9
100
AcDbLine
 10
758.3827164957353
 20
393.9127694231536
 30
0.0
 11
758.6145859483739
 21
387.1137594107015
 31
0.0
  0
LINE
  5
3F
330
1F
100
AcDbEntity
  8
1
  6
________________
 62
     7
370
     9
100
AcDbLine
 10
758.418033324931
 20
392.8770156185411
 30
0.0
 11
758.3659850191746
 21
394.4020337325423
 31
0.0
  0
LINE
  5
40
330
1F
100
AcDbEntity
  8
1
  6
________________
 62
     7
370
     9
100
AcDbLine
 10
756.04746218624
 20
461.4147717899528
 30
0.0
 11
757.3520291497309
 21
423.9203362308599
 31
0.0
  0
LINE
  5
41
330
1F
100
AcDbEntity
  8
1
  6
________________
 62
     7
370
     9
100
AcDbLine
 10
759.3568224289811
 20
460.5143705060141
 30
0.0
 11
759.3568224289811
 21
460.5280313854468
 31
0.0
  0
LINE
  5
42
330
1F
100
AcDbEntity
  8
1
  6
________________
 62
     7
370
     9
100
AcDbLine
 10
765.3568224289811
 20
458.9060475999317
 30
0.0
 11
759.3568224289811
 21
460.514370506014
 31
0.0
  0
LINE
  5
43
330
1F
100
AcDbEntity
  8
1
  6
________________
 62
     7
370
     9
100
AcDbLine
 10
765.3568224289811
 20
458.9060475999317
 30
0.0
 11
765.3568224289811
 21
388.9203362308598
 31
0.0
  0
LINE
  5
44
330
1F
100
AcDbEntity
  8
1
  6
________________
 62
     7
370
     9
100
AcDbLine
 10
752.3568224289811
 20
449.9203362308599
 30
0.0
 11
752.3568224289811
 21
397.9203362308599
 31
0.0
  0
LINE
  5
45
330
1F
100
AcDbEntity
  8
1
  6
________________
 62
     7
370
     9
100
AcDbLine
 10
655.3555078110788
 20
458.9203362308599
 30
0.0
 11
655.3555078110788
 21
388.9203362308599
 31
0.0
  0
LINE
  5
46
330
1F
100
AcDbEntity
  8
1
  6
________________
 62
     7
370
     9
100
AcDbLine
 10
651.3568224289812
 20
398.2524131345236
 30
0.0
 11
651.3568224289812
 21
388.945426144001
 31
0.0
  0
LINE
  5
47
330
1F
100
AcDbEntity
  8
1
  6
________________
 62
     7
370
     9
100
AcDbLine
 10
651.3568224289812
 20
422.5953213569304
 30
0.0
 11
651.3568224289812
 21
400.1262671395808
 31
0.0
  0
LINE
  5
48
330
1F
100
AcDbEntity
  8
1
  6
________________
 62
     7
370
     9
100
AcDbLine
 10
651.3568224289812
 20
447.714405322139
 30
0.0
 11
651.3568224289812
 21
425.2453511047894
 31
0.0
  0
LINE
  5
49
330
1F
100
AcDbEntity
  8
1
  6
________________
 62
     7
370
     9
100
AcDbLine
 10
651.3568224289812
 20
458.8952463177188
 30
0.0
 11
651.3568224289812
 21
449.5882593271962
 31
0.0
  0
ELLIPSE
  5
4A
330
1F
100
AcDbEntity
  8
1
  6
________________
 62
     7
370
     9
100
AcDbEllipse
 10
632.4953144114553
 20
425.2264223208762
 30
0.0
 11
-0.01569469836235073
 21
0.4997536157381101
 31
-3.851859888774470E-34
210
-2.418151163534123E-35
220
7.699923626926549E-34
230
0.9999999999999998
 40
0.5138303366712978
 41
0.0
 42
0.1487735596370077
  0
ELLIPSE
  5
4B
330
1F
100
AcDbEntity
  8
1
  6
________________
 62
     7
370
     9
100
AcDbEllipse
 10
632.4953144114553
 20
425.2264223208762
 30
0.0
 11
-0.01569469836232466
 21
0.4997536157381107
 31
0.0
210
0.0
220
0.0
230
1.0
 40
0.5138303366713017
 41
-0.0610432129189749
 42
0.0
  0
LINE
  5
4C
330
1F
100
AcDbEntity
  8
1
  6
________________
 62
     7
370
     9
100
AcDbLine
 10
632.4953144114553
 20
425.7264223208762
 30
0.0
 11
632.4953144114553
 21
425.7257370882534
 31
0.0
  0
ELLIPSE
  5
4D
330
1F
100
AcDbEntity
  8
1
  6
________________
 62
     7
370
     9
100
AcDbEllipse
 10
632.4953144114553
 20
422.6142501408436
 30
0.0
 11
0.01569469836235074
 21
0.4997536157381103
 31
3.851859888774472E-34
210
-2.418151163534127E-35
220
-7.699923626926550E-34
230
0.9999999999999998
 40
0.513830336671298
 41
3.141592653589793
 42
3.202635866508768
  0
LINE
  5
4E
330
1F
100
AcDbEntity
  8
1
  6
________________
 62
     7
370
     9
100
AcDbLine
 10
632.4953144114553
 20
422.1142501408436
 30
0.0
 11
632.4953144114553
 21
422.1149353734663
 31
0.0
  0
ELLIPSE
  5
4F
330
1F
100
AcDbEntity
  8
1
  6
________________
 62
     7
370
     9
100
AcDbEllipse
 10
632.4953144114553
 20
422.6142501408436
 30
0.0
 11
0.01569469836236426
 21
0.4997536157381094
 31
0.0
210
0.0
220
0.0
230
1.0
 40
0.5138303366712964
 41
2.992817865621074
 42
3.141592653589819
  0
ELLIPSE
  5
50
330
1F
100
AcDbEntity
  8
1
  6
________________
 62
     7
370
     9
100
AcDbEllipse
 10
627.8568224289811
 20
422.7599227308019
 30
0.0
 11
0.01569500009047748
 21
0.4997536062622856
 31
0.0
210
0.0
220
0.0
230
1.0
 40
0.513837606836695
 41
2.992709962025411
 42
3.141592653589809
  0
LINE
  5
51
330
1F
100
AcDbEntity
  8
1
  6
________________
 62
     7
370
     9
100
AcDbLine
 10
627.3568224289811
 20
422.7599227308019
 30
0.0
 11
627.3568224289811
 21
425.080749730918
 31
0.0
  0
ELLIPSE
  5
52
330
1F
100
AcDbEntity
  8
1
  6
________________
 62
     7
370
     9
100
AcDbEllipse
 10
627.8568224289811
 20
425.0807497309179
 30
0.0
 11
-0.01569500009046544
 21
0.4997536062622864
 31
0.0
210
0.0
220
0.0
230
1.0
 40
0.5138376068366913
 41
0.0
 42
0.1488814605310405
  0
LINE
  5
53
330
1F
100
AcDbEntity
  8
1
  6
________________
 62
     7
370
     9
100
AcDbLine
 10
651.3568224289812
 20
402.8404877217804
 30
0.0
 11
640.7696666862334
 21
403.4602740319488
 31
0.0
  0
LINE
  5
54
330
1F
100
AcDbEntity
  8
1
  6
________________
 62
     7
370
     9
100
AcDbLine
 10
651.3568224289812
 20
445.0001847399393
 30
0.0
 11
640.7696666862334
 21
444.3803984297709
 31
0.0
  0
ELLIPSE
  5
55
330
1F
100
AcDbEntity
  8
1
  6
________________
 62
     7
370
     9
100
AcDbEllipse
 10
640.8568224289811
 20
404.1268583943345
 30
0.0
 11
1.000000000000001
 21
-1.044879700414978E-16
 31
0.0
210
0.0
220
0.0
230
-1.0
 40
0.6691306063588576
 41
1.658062789394643
 42
2.937857859638387
  0
LINE
  5
56
330
1F
100
AcDbEntity
  8
1
  6
________________
 62
     7
370
     9
100
AcDbLine
 10
639.8568224289811
 20
404.1422342464756
 30
0.0
 11
639.8775046737424
 21
403.9914743473621
 31
0.0
  0
LINE
  5
57
330
1F
100
AcDbEntity
  8
1
  6
________________
 62
     7
370
     9
100
AcDbLine
 10
639.8568224289811
 20
422.1142501408436
 30
0.0
 11
639.8568224289811
 21
404.1422342464755
 31
0.0
  0
LINE
  5
58
330
1F
100
AcDbEntity
  8
1
  6
________________
 62
     7
370
     9
100
AcDbLine
 10
639.8775046737424
 20
443.8491981143576
 30
0.0
 11
639.8568224289811
 21
443.6984382152442
 31
0.0
  0
ELLIPSE
  5
59
330
1F
100
AcDbEntity
  8
1
  6
________________
 62
     7
370
     9
100
AcDbEllipse
 10
640.8568224289811
 20
443.7138140673853
 30
0.0
 11
1.000000000000001
 21
-1.476165040563230E-16
 31
-2.465190328815664E-32
210
2.465190328815661E-32
220
-3.639027781732250E-48
230
1.0
 40
0.6691306063588581
 41
1.658062789394658
 42
2.937857859638522
  0
LINE
  5
5A
330
1F
100
AcDbEntity
  8
1
  6
________________
 62
     7
370
     9
100
AcDbLine
 10
639.8568224289811
 20
443.6984382152442
 30
0.0
 11
639.8568224289811
 21
425.7264223208762
 31
0.0
  0
LINE
  5
5B
330
1F
100
AcDbEntity
  8
1
  6
________________
 62
     7
370
     9
100
AcDbLine
 10
627.3568224289811
 20
421.5314457501098
 30
0.0
 11
627.3568224289811
 21
422.753524492753
 31
0.0
  0
LINE
  5
5C
330
1F
100
AcDbEntity
  8
1
  6
________________
 62
     7
370
     9
100
AcDbLine
 10
627.3568224289811
 20
425.0814425430451
 30
0.0
 11
627.3568224289811
 21
426.3092267116101
 31
0.0
  0
LINE
  5
5D
330
1F
100
AcDbEntity
  8
1
  6
________________
 62
     7
370
     9
100
AcDbLine
 10
627.3568224289811
 20
421.5314457501098
 30
0.0
 11
627.3568224289811
 21
405.3150400703328
 31
0.0
  0
LINE
  5
5E
330
1F
100
AcDbEntity
  8
1
  6
________________
 62
     7
370
     9
100
AcDbLine
 10
627.3568224289811
 20
442.525632391387
 30
0.0
 11
627.3568224289811
 21
426.3092267116101
 31
0.0
  0
LINE
  5
5F
330
1F
100
AcDbEntity
  8
1
  6
________________
 62
     7
370
     9
100
AcDbLine
 10
627.3568224289811
 20
402.3286493556157
 30
0.0
 11
627.3568224289811
 21
403.6114787020929
 31
0.0
  0
LINE
  5
60
330
1F
100
AcDbEntity
  8
1
  6
________________
 62
     7
370
     9
100
AcDbLine
 10
627.3568224289811
 20
444.2291937596269
 30
0.0
 11
627.3568224289811
 21
445.5120231061041
 31
0.0
  0
LINE
  5
61
330
1F
100
AcDbEntity
  8
1
  6
________________
 62
     7
370
     9
100
AcDbLine
 10
627.3568224289811
 20
400.6875768458727
 30
0.0
 11
627.3568224289811
 21
402.3286493556157
 31
0.0
  0
LINE
  5
62
330
1F
100
AcDbEntity
  8
1
  6
________________
 62
     7
370
     9
100
AcDbLine
 10
627.3568224289811
 20
445.512023106104
 30
0.0
 11
627.3568224289811
 21
447.1530956158469
 31
0.0
  0
LINE
  5
63
330
1F
100
AcDbEntity
  8
1
  6
________________
 62
     7
370
     9
100
AcDbLine
 10
627.3568224289811
 20
444.1271100352291
 30
0.0
 11
627.3568224289811
 21
444.2291937596269
 31
0.0
  0
LINE
  5
64
330
1F
100
AcDbEntity
  8
1
  6
________________
 62
     7
370
     9
100
AcDbLine
 10
627.3568224289811
 20
442.5256323913871
 30
0.0
 11
627.3568224289811
 21
444.0277926683515
 31
0.0
  0
LINE
  5
65
330
1F
100
AcDbEntity
  8
1
  6
________________
 62
     7
370
     9
100
AcDbLine
 10
627.3568224289811
 20
444.0277926683515
 30
0.0
 11
627.3568224289811
 21
444.1271100352291
 31
0.0
  0
LINE
  5
66
330
1F
100
AcDbEntity
  8
1
  6
________________
 62
     7
370
     9
100
AcDbLine
 10
627.3568224289811
 20
403.7061886465109
 30
0.0
 11
627.3568224289811
 21
403.8043876567447
 31
0.0
  0
LINE
  5
67
330
1F
100
AcDbEntity
  8
1
  6
________________
 62
     7
370
     9
100
AcDbLine
 10
627.3568224289811
 20
403.8043876567447
 30
0.0
 11
627.3568224289811
 21
405.3150400703327
 31
0.0
  0
LINE
  5
68
330
1F
100
AcDbEntity
  8
1
  6
________________
 62
     7
370
     9
100
AcDbLine
 10
627.3568224289811
 20
403.6114787020929
 30
0.0
 11
627.3568224289811
 21
403.7061886465109
 31
0.0
  0
LINE
  5
69
330
1F
100
AcDbEntity
  8
1
  6
________________
 62
     7
370
     9
100
AcDbLine
 10
651.3568224289812
 20
455.380501270791
 30
0.0
 11
640.7696666862334
 21
454.4555145661196
 31
0.0
  0
LINE
  5
6A
330
1F
100
AcDbEntity
  8
1
  6
________________
 62
     7
370
     9
100
AcDbLine
 10
651.3568224289812
 20
392.4601711909288
 30
0.0
 11
640.7696666862334
 21
393.3851578956002
 31
0.0
  0
LINE
  5
6B
330
1F
100
AcDbEntity
  8
1
  6
________________
 62
     7
370
     9
100
AcDbLine
 10
639.8681350368889
 20
453.6103990058385
 30
0.0
 11
639.8568224289811
 21
453.4595953935922
 31
0.0
  0
LINE
  5
6C
330
1F
100
AcDbEntity
  8
1
  6
________________
 62
     7
370
     9
100
AcDbLine
 10
639.8775046737424
 20
453.6627361177846
 30
0.0
 11
639.8681274084215
 21
453.6104001615417
 31
0.0
  0
ELLIPSE
  5
6D
330
1F
100
AcDbEntity
  8
1
  6
________________
 62
     7
370
     9
100
AcDbEllipse
 10
640.8568224289811
 20
453.4606851182392
 30
0.0
 11
1.000000000000001
 21
3.298041289007601E-15
 31
-2.465190328815664E-32
210
2.465190328815661E-32
220
8.130299489696272E-47
230
1.0
 40
0.9986295347545737
 41
1.658062789394654
 42
2.937857859638417
  0
LINE
  5
6E
330
1F
100
AcDbEntity
  8
1
  6
________________
 62
     7
370
     9
100
AcDbLine
 10
639.8568224289811
 20
453.4595953935922
 30
0.0
 11
639.8568224289811
 21
449.7215747115343
 31
0.0
  0
ELLIPSE
  5
6F
330
1F
100
AcDbEntity
  8
1
  6
________________
 62
     7
370
     9
100
AcDbEllipse
 10
640.8568224289811
 20
394.3799873434806
 30
0.0
 11
1.000000000000001
 21
2.719620611693812E-14
 31
0.0
210
0.0
220
0.0
230
-1.0
 40
0.9986295347545744
 41
1.658062789394685
 42
2.937857859638448
  0
LINE
  5
70
330
1F
100
AcDbEntity
  8
1
  6
________________
 62
     7
370
     9
100
AcDbLine
 10
639.8681274084215
 20
394.2302723001781
 30
0.0
 11
639.8775046737424
 21
394.1779363439352
 31
0.0
  0
LINE
  5
71
330
1F
100
AcDbEntity
  8
1
  6
________________
 62
     7
370
     9
100
AcDbLine
 10
639.8568224289811
 20
394.3810770681276
 30
0.0
 11
639.8681350368889
 21
394.2302734558812
 31
0.0
  0
LINE
  5
72
330
1F
100
AcDbEntity
  8
1
  6
________________
 62
     7
370
     9
100
AcDbLine
 10
639.8568224289811
 20
398.1190977501855
 30
0.0
 11
639.8568224289811
 21
394.3810770681276
 31
0.0
  0
LINE
  5
73
330
1F
100
AcDbEntity
  8
1
  6
________________
 62
     7
370
     9
100
AcDbLine
 10
627.3568224289811
 20
400.6875768458728
 30
0.0
 11
627.3568224289811
 21
395.2195835879242
 31
0.0
  0
LINE
  5
74
330
1F
100
AcDbEntity
  8
1
  6
________________
 62
     7
370
     9
100
AcDbLine
 10
627.3568224289811
 20
452.6210888737957
 30
0.0
 11
627.3568224289811
 21
447.153095615847
 31
0.0
  0
LINE
  5
75
330
1F
100
AcDbEntity
  8
1
  6
________________
 62
     7
370
     9
100
AcDbLine
 10
627.3568224289811
 20
452.6210888737956
 30
0.0
 11
627.3568224289811
 21
453.7014751675372
 31
0.0
  0
LINE
  5
76
330
1F
100
AcDbEntity
  8
1
  6
________________
 62
     7
370
     9
100
AcDbLine
 10
627.3568224289811
 20
394.1391972941826
 30
0.0
 11
627.3568224289811
 21
395.2195835879242
 31
0.0
  0
LINE
  5
77
330
1F
100
AcDbEntity
  8
1
  6
________________
 62
     7
370
     9
100
AcDbLine
 10
627.3568224289811
 20
392.2246663173183
 30
0.0
 11
627.3568224289811
 21
394.1391972941826
 31
0.0
  0
LINE
  5
78
330
1F
100
AcDbEntity
  8
1
  6
________________
 62
     7
370
     9
100
AcDbLine
 10
627.3568224289811
 20
453.7014751675372
 30
0.0
 11
627.3568224289811
 21
455.6160061444015
 31
0.0
  0
LINE
  5
79
330
1F
100
AcDbEntity
  8
1
  6
________________
 62
     7
370
     9
100
AcDbLine
 10
627.3568224289811
 20
455.6160061444015
 30
0.0
 11
627.3568224289811
 21
455.6372410413754
 31
0.0
  0
LINE
  5
7A
330
1F
100
AcDbEntity
  8
1
  6
________________
 62
     7
370
     9
100
AcDbLine
 10
627.3568224289811
 20
392.2034314203444
 30
0.0
 11
627.3568224289811
 21
392.2246663173183
 31
0.0
  0
LWPOLYLINE
  5
7B
330
1F
100
AcDbEntity
  8
1
  6
________________
 62
     7
370
     9
100
AcDbPolyline
 90
       38
 70
     0
 43
0.0
 10
770.8567143383958
 20
457.9203362308599
 10
770.8548788539545
 20
457.9679705642997
 10
770.8508264925802
 20
458.0150165894356
 10
770.8446295528089
 20
458.0613750138567
 10
770.836363927221
 20
458.106952911427
 10
770.8261086371465
 20
458.1516637433701
 10
770.8139453813864
 20
458.1954273510066
 10
770.7999581002008
 20
458.2381699220344
 10
770.7842325556463
 20
458.279823932254
 10
770.7668559291749
 20
458.3203280646264
 10
770.7479164372583
 20
458.3596271075447
 10
770.7275029656446
 20
458.3976718341655
 10
770.7057047227219
 20
458.4344188646185
 10
770.6826109123219
 20
458.4698305128675
 10
770.658310426181
 20
458.5038746199462
 10
770.6328915561535
 20
458.5365243752399
 10
770.6064417261701
 20
458.5677581274209
 10
770.5790472438298
 20
458.5975591865845
 10
770.5507930714294
 20
458.6259156190612
 10
770.5217626161474
 20
458.6528200363114
 10
770.4920375390262
 20
458.6782693792358
 10
770.4580191785477
 20
458.7050466226401
 10
770.4233383896842
 20
458.7300072921977
 10
770.3881006022326
 20
458.7531643653113
 10
770.3524075366619
 20
458.7745361562853
 10
770.3163570283288
 20
458.794145927293
 10
770.2806931349621
 20
458.8117173245786
 10
770.2448599218048
 20
458.827646190397
 10
770.2089384220142
 20
458.8419663709464
 10
770.173005667494
 20
458.8547149342762
 10
770.1322517839919
 20
458.8673450747697
 10
770.0916782478671
 20
458.8780601122406
 10
770.0513790501759
 20
458.8869264590024
 10
770.0114414625837
 20
458.8940137234532
 10
769.9719461113309
 20
458.8993941895678
 10
769.9329670813576
 20
458.9031423233097
 10
769.894572047399
 20
458.9053343066896
 10
769.8568224289811
 20
458.9060475999317
  0
LINE
  5
7C
330
1F
100
AcDbEntity
  8
1
  6
________________
 62
     7
370
     9
100
AcDbLine
 10
770.8568224289811
 20
457.9203362308599
 30
0.0
 11
770.8568224289811
 21
389.9203362308599
 31
0.0
  0
LINE
  5
7D
330
1F
100
AcDbEntity
  8
1
  6
________________
 62
     7
370
     9
100
AcDbLine
 10
769.8568224289811
 20
458.9060475999317
 30
0.0
 11
765.3568224289811
 21
458.9060475999317
 31
0.0
  0
LINE
  5
7E
330
1F
100
AcDbEntity
  8
1
  6
________________
 62
     7
370
     9
100
AcDbLine
 10
765.3568224289811
 20
458.9060475999317
 30
0.0
 11
765.3568224289811
 21
388.9203362308598
 31
0.0
  0
LINE
  5
7F
330
1F
100
AcDbEntity
  8
1
  6
________________
 62
     7
370
     9
100
AcDbLine
 10
748.3568224289811
 20
449.9205516152844
 30
0.0
 11
748.3568224289811
 21
444.9549225477092
 31
0.0
  0
SPLINE
  5
80
330
1F
100
AcDbEntity
  8
1
  6
________________
 62
     7
370
     9
100
AcDbSpline
210
0.0
220
0.0
230
1.0
 70
    12
 71
     3
 72
     9
 73
     5
 74
     0
 42
0.000000001
 43
0.0001
 40
2.802824839288023
 40
2.802824839288023
 40
2.802824839288023
 40
2.802824839288023
 40
2.80540632869295
 40
2.811531152681884
 40
2.811531152681884
 40
2.811531152681884
 40
2.811531152681884
 10
587.3568773392641
 20
449.9198903289403
 30
0.0
 41
1.0
 10
587.3043018010402
 20
449.9200065033564
 30
0.0
 41
1.0
 10
587.1269859028012
 20
449.7772188934082
 30
0.0
 41
1.0
 10
586.9496700045621
 20
449.1494226673597
 30
0.0
 41
1.0
 10
586.8249296445471
 20
448.4813046365194
 30
0.0
 41
1.0
  0
SPLINE
  5
81
330
1F
100
AcDbEntity
  8
1
  6
________________
 62
     7
370
     9
100
AcDbSpline
210
0.0
220
0.0
230
1.0
 70
    12
 71
     3
 72
     9
 73
     5
 74
     0
 42
0.000000001
 43
0.0001
 40
2.72097539644958
 40
2.72097539644958
 40
2.72097539644958
 40
2.72097539644958
 40
2.7233332712046
 40
2.729696879388375
 40
2.729696879388375
 40
2.729696879388375
 40
2.729696879388375
 10
592.3578025830548
 20
397.9207530278605
 30
0.0
 41
1.0
 10
592.3097812609168
 20
397.9201755661929
 30
0.0
 41
1.0
 10
592.1321564142906
 20
398.0490994225535
 30
0.0
 41
1.0
 10
591.954531567664
 20
398.6651466028444
 30
0.0
 41
1.0
 10
591.8249280431756
 20
399.3593338427084
 30
0.0
 41
1.0
  0
SPLINE
  5
82
330
1F
100
AcDbEntity
  8
1
  6
________________
 62
     7
370
     9
100
AcDbSpline
210
0.0
220
0.0
230
1.0
 70
    12
 71
     3
 72
     9
 73
     5
 74
     0
 42
0.000000001
 43
0.0001
 40
2.639159335758796
 40
2.639159335758796
 40
2.639159335758796
 40
2.639159335758796
 40
2.64126021371624
 40
2.647866002354189
 40
2.647866002354189
 40
2.647866002354189
 40
2.647866002354189
 10
597.3566882085036
 20
449.919966801922
 30
0.0
 41
1.0
 10
597.3139009752324
 20
449.9200041244751
 30
0.0
 41
1.0
 10
597.1365778835647
 20
449.803515259842
 30
0.0
 41
1.0
 10
596.9592547918969
 20
449.2011758547365
 30
0.0
 41
1.0
 10
596.8247189335003
 20
448.4802577603535
 30
0.0
 41
1.0
  0
SPLINE
  5
83
330
1F
100
AcDbEntity
  8
1
  6
________________
 62
     7
370
     9
100
AcDbSpline
210
0.0
220
0.0
230
1.0
 70
    12
 71
     3
 72
     9
 73
     5
 74
     0
 42
0.000000001
 43
0.0001
 40
2.557319977408382
 40
2.557319977408382
 40
2.557319977408382
 40
2.557319977408382
 40
2.55918715622789
 40
2.566034197826122
 40
2.566034197826122
 40
2.566034197826122
 40
2.566034197826122
 10
602.3569972994052
 20
397.9206629220355
 30
0.0
 41
1.0
 10
602.3189696665168
 20
397.920502554063
 30
0.0
 41
1.0
 10
602.1414927309964
 20
398.0235753200468
 30
0.0
 41
1.0
 10
601.9640157954761
 20
398.6136826970774
 30
0.0
 41
1.0
 10
601.8245664928442
 20
399.3611975712415
 30
0.0
 41
1.0
  0
SPLINE
  5
84
330
1F
100
AcDbEntity
  8
1
  6
________________
 62
     7
370
     9
100
AcDbSpline
210
0.0
220
0.0
230
1.0
 70
    12
 71
     3
 72
     9
 73
     5
 74
     0
 42
0.000000001
 43
0.0001
 40
2.475488716196322
 40
2.475488716196322
 40
2.475488716196322
 40
2.475488716196322
 40
2.47711409873953
 40
2.484195199362118
 40
2.484195199362118
 40
2.484195199362118
 40
2.484195199362118
 10
607.356811662643
 20
449.9200555310031
 30
0.0
 41
1.0
 10
607.3237085393587
 20
449.9201346230683
 30
0.0
 41
1.0
 10
607.1463891834841
 20
449.8301976053149
 30
0.0
 41
1.0
 10
606.9690698276094
 20
449.2537912396894
 30
0.0
 41
1.0
 10
606.8248535950189
 20
448.4810402379492
 30
0.0
 41
1.0
  0
SPLINE
  5
85
330
1F
100
AcDbEntity
  8
1
  6
________________
 62
     7
370
     9
100
AcDbSpline
210
0.0
220
0.0
230
1.0
 70
    12
 71
     3
 72
     9
 73
     5
 74
     0
 42
0.000000001
 43
0.0001
 40
2.393660520463722
 40
2.393660520463722
 40
2.393660520463722
 40
2.393660520463722
 40
2.39504104125117
 40
2.402358374041527
 40
2.402358374041527
 40
2.402358374041527
 40
2.402358374041527
 10
612.3564387279215
 20
397.9205710907319
 30
0.0
 41
1.0
 10
612.328322546894
 20
397.9206126375806
 30
0.0
 41
1.0
 10
612.1511789443005
 20
397.9976083344058
 30
0.0
 41
1.0
 10
611.9740353417068
 20
398.560367347348
 30
0.0
 41
1.0
 10
611.8250079201406
 20
399.3587885263877
 30
0.0
 41
1.0
  0
ARC
  5
86
330
1F
100
AcDbEntity
  8
1
  6
________________
 62
     7
370
     9
100
AcDbCircle
 10
619.0786367324605
 20
448.4657924907814
 30
0.0
 40
2.253510410272193
100
AcDbArc
 50
139.8064784563954
 51
179.5658164132942
  0
ARC
  5
87
330
1F
100
AcDbEntity
  8
1
  6
________________
 62
     7
370
     9
100
AcDbCircle
 10
-623.9768671026907
 20
399.3360525977693
 30
0.0
 40
2.151920157719649
210
0.0
220
0.0
230
-1.0
100
AcDbArc
 50
318.866566301017
 51
0.5974880224855497
  0
ARC
  5
88
330
1F
100
AcDbEntity
  8
1
  6
________________
 62
     7
370
     9
100
AcDbCircle
 10
628.8594613945205
 20
448.5465698743521
 30
0.0
 40
2.035702043969127
100
AcDbArc
 50
137.562932985136
 51
181.8499205127618
  0
SPLINE
  5
89
330
1F
100
AcDbEntity
  8
1
  6
________________
 62
     7
370
     9
100
AcDbSpline
210
0.0
220
0.0
230
1.0
 70
    12
 71
     3
 72
     9
 73
     5
 74
     0
 42
0.000000001
 43
0.0001
 40
1.657151515928229
 40
1.657151515928229
 40
1.657151515928229
 40
1.657151515928229
 40
1.66384471090034
 40
1.665847611228646
 40
1.665847611228646
 40
1.665847611228646
 40
1.665847611228646
 10
657.3564576080886
 20
449.9202070656733
 30
0.0
 41
1.0
 10
657.2201416009708
 20
449.9192896993404
 30
0.0
 41
1.0
 10
657.0430338080846
 20
449.5452471316452
 30
0.0
 41
1.0
 10
656.8659260151982
 20
448.7009446579913
 30
0.0
 41
1.0
 10
656.8251342294295
 20
448.4823075038659
 30
0.0
 41
1.0
  0
SPLINE
  5
8A
330
1F
100
AcDbEntity
  8
1
  6
________________
 62
     7
370
     9
100
AcDbSpline
210
0.0
220
0.0
230
1.0
 70
    12
 71
     3
 72
     9
 73
     5
 74
     0
 42
0.000000001
 43
0.0001
 40
1.575302348270698
 40
1.575302348270698
 40
1.575302348270698
 40
1.575302348270698
 40
1.58177165341198
 40
1.584012900967146
 40
1.584012900967146
 40
1.584012900967146
 40
1.584012900967146
 10
662.3573660385808
 20
397.9205010269605
 30
0.0
 41
1.0
 10
662.2256098519824
 20
397.9202074846141
 30
0.0
 41
1.0
 10
662.0482076145881
 20
398.2804500614631
 30
0.0
 41
1.0
 10
661.8708053771938
 20
399.1136352134347
 30
0.0
 41
1.0
 10
661.8251593263982
 20
399.3582706587201
 30
0.0
 41
1.0
  0
SPLINE
  5
8B
330
1F
100
AcDbEntity
  8
1
  6
________________
 62
     7
370
     9
100
AcDbSpline
210
0.0
220
0.0
230
1.0
 70
    12
 71
     3
 72
     9
 73
     5
 74
     0
 42
0.000000001
 43
0.0001
 40
1.493492300636352
 40
1.493492300636352
 40
1.493492300636352
 40
1.493492300636352
 40
1.49969859592362
 40
1.502179018124266
 40
1.502179018124266
 40
1.502179018124266
 40
1.502179018124266
 10
667.3558842718434
 20
449.9201208441331
 30
0.0
 41
1.0
 10
667.2294846381737
 20
449.9184461886473
 30
0.0
 41
1.0
 10
667.0525678371771
 20
449.571422591068
 30
0.0
 41
1.0
 10
666.8756510361806
 20
448.7529690436177
 30
0.0
 41
1.0
 10
666.8251338688534
 20
448.4822284109654
 30
0.0
 41
1.0
  0
SPLINE
  5
8C
330
1F
100
AcDbEntity
  8
1
  6
________________
 62
     7
370
     9
100
AcDbSpline
210
0.0
220
0.0
230
1.0
 70
    12
 71
     3
 72
     9
 73
     5
 74
     0
 42
0.000000001
 43
0.0001
 40
1.411640703405588
 40
1.411640703405588
 40
1.411640703405588
 40
1.411640703405588
 40
1.41762553843527
 40
1.420344818319077
 40
1.420344818319077
 40
1.420344818319077
 40
1.420344818319077
 10
672.3569411470125
 20
397.9205883387622
 30
0.0
 41
1.0
 10
672.235051852303
 20
397.920893257328
 30
0.0
 41
1.0
 10
672.0577807291032
 20
398.2541244020011
 30
0.0
 41
1.0
 10
671.8805096059036
 20
399.0617123611578
 30
0.0
 41
1.0
 10
671.8251277774134
 20
399.3585093124971
 30
0.0
 41
1.0
  0
SPLINE
  5
8D
330
1F
100
AcDbEntity
  8
1
  6
________________
 62
     7
370
     9
100
AcDbSpline
210
0.0
220
0.0
230
1.0
 70
    12
 71
     3
 72
     9
 73
     5
 74
     0
 42
0.000000001
 43
0.0001
 40
1.329810184791929
 40
1.329810184791929
 40
1.329810184791929
 40
1.329810184791929
 40
1.33555248094691
 40
1.338512414639227
 40
1.338512414639227
 40
1.338512414639227
 40
1.338512414639227
 10
677.3567101381753
 20
449.9200375106447
 30
0.0
 41
1.0
 10
677.2397604770948
 20
449.9194686045952
 30
0.0
 41
1.0
 10
677.0625277458284
 20
449.5996193055477
 30
0.0
 41
1.0
 10
676.8852950145622
 20
448.8046222679088
 30
0.0
 41
1.0
 10
676.8250119443765
 20
448.4815149998705
 30
0.0
 41
1.0
  0
SPLINE
  5
8E
330
1F
100
AcDbEntity
  8
1
  6
________________
 62
     7
370
     9
100
AcDbSpline
210
0.0
220
0.0
230
1.0
 70
    12
 71
     3
 72
     9
 73
     5
 74
     0
 42
0.000000001
 43
0.0001
 40
1.247961095813743
 40
1.247961095813743
 40
1.247961095813743
 40
1.247961095813743
 40
1.25347942345855
 40
1.256675227177136
 40
1.256675227177136
 40
1.256675227177136
 40
1.256675227177136
 10
682.357613761432
 20
397.9206796812637
 30
0.0
 41
1.0
 10
682.2452255232824
 20
397.9201720316793
 30
0.0
 41
1.0
 10
682.0677504014747
 20
398.2261410973023
 30
0.0
 41
1.0
 10
681.8902752796673
 20
399.0095175184954
 30
0.0
 41
1.0
 10
681.8251883960094
 20
399.3582332649353
 30
0.0
 41
1.0
  0
ARC
  5
8F
330
1F
100
AcDbEntity
  8
1
  6
________________
 62
     7
370
     9
100
AcDbCircle
 10
689.2672019643842
 20
448.3960886333826
 30
0.0
 40
2.443634059745103
100
AcDbArc
 50
141.4201309883998
 51
177.9899663259458
  0
ARC
  5
90
330
1F
100
AcDbEntity
  8
1
  6
________________
 62
     7
370
     9
100
AcDbCircle
 10
-694.1451061395682
 20
399.4003615921853
 30
0.0
 40
2.320549170818947
210
0.0
220
0.0
230
-1.0
100
AcDbArc
 50
320.386304996294
 51
358.9968146993392
  0
ARC
  5
91
330
1F
100
AcDbEntity
  8
1
  6
________________
 62
     7
370
     9
100
AcDbCircle
 10
699.0331648353823
 20
448.4822152250234
 30
0.0
 40
2.20820292722791
100
AcDbArc
 50
139.3787514123067
 51
180.0262475115246
  0
SPLINE
  5
92
330
1F
100
AcDbEntity
  8
1
  6
________________
 62
     7
370
     9
100
AcDbSpline
210
0.0
220
0.0
230
1.0
 70
    12
 71
     3
 72
     9
 73
     5
 74
     0
 42
0.000000001
 43
0.0001
 40
0.9206381856444141
 40
0.9206381856444141
 40
0.9206381856444141
 40
0.9206381856444141
 40
0.925187193505118
 40
0.9293413624620762
 40
0.9293413624620762
 40
0.9293413624620762
 40
0.9293413624620762
 10
702.356740787477
 20
397.9208227237688
 30
0.0
 41
1.0
 10
702.2640940633786
 20
397.9211142236818
 30
0.0
 41
1.0
 10
702.0868420457748
 20
398.1737642760883
 30
0.0
 41
1.0
 10
701.9095900281709
 20
398.9060479404718
 30
0.0
 41
1.0
 10
701.8249847346653
 20
399.3593411318146
 30
0.0
 41
1.0
  0
SPLINE
  5
93
330
1F
100
AcDbEntity
  8
1
  6
________________
 62
     7
370
     9
100
AcDbSpline
210
0.0
220
0.0
230
1.0
 70
    12
 71
     3
 72
     9
 73
     5
 74
     0
 42
0.000000001
 43
0.0001
 40
0.8387990164867707
 40
0.8387990164867707
 40
0.8387990164867707
 40
0.8387990164867707
 40
0.843114136016762
 40
0.8475090182701388
 40
0.8475090182701388
 40
0.8475090182701388
 40
0.8475090182701388
 10
707.3570383188752
 20
449.9198285105442
 30
0.0
 41
1.0
 10
707.2691550483272
 20
449.9198602841029
 30
0.0
 41
1.0
 10
707.0917640310262
 20
449.6806645496705
 30
0.0
 41
1.0
 10
706.914373013725
 20
448.9603255881116
 30
0.0
 41
1.0
 10
706.824865266972
 20
448.4807049499825
 30
0.0
 41
1.0
  0
SPLINE
  5
94
330
1F
100
AcDbEntity
  8
1
  6
________________
 62
     7
370
     9
100
AcDbSpline
210
0.0
220
0.0
230
1.0
 70
    12
 71
     3
 72
     9
 73
     5
 74
     0
 42
0.000000001
 43
0.0001
 40
0.7569814599493891
 40
0.7569814599493891
 40
0.7569814599493891
 40
0.7569814599493891
 40
0.761041078528405
 40
0.7656757939574472
 40
0.7656757939574472
 40
0.7656757939574472
 40
0.7656757939574472
 10
712.3560153391676
 20
397.9208630761892
 30
0.0
 41
1.0
 10
712.2733356925388
 20
397.9216575423926
 30
0.0
 41
1.0
 10
712.0962637707637
 20
398.1480080780461
 30
0.0
 41
1.0
 10
711.9191918489887
 20
398.854486484349
 30
0.0
 41
1.0
 10
711.8247995738426
 20
399.3602989901162
 30
0.0
 41
1.0
  0
SPLINE
  5
95
330
1F
100
AcDbEntity
  8
1
  6
________________
 62
     7
370
     9
100
AcDbSpline
210
0.0
220
0.0
230
1.0
 70
    12
 71
     3
 72
     9
 73
     5
 74
     0
 42
0.000000001
 43
0.0001
 40
0.6751333723113894
 40
0.6751333723113894
 40
0.6751333723113894
 40
0.6751333723113894
 40
0.678968021040048
 40
0.6838409501551219
 40
0.6838409501551219
 40
0.6838409501551219
 40
0.6838409501551219
 10
717.3568577814655
 20
449.9198067274118
 30
0.0
 41
1.0
 10
717.2787599514205
 20
449.9197694068451
 30
0.0
 41
1.0
 10
717.1014183009427
 20
449.7071770748934
 30
0.0
 41
1.0
 10
716.9240766504646
 20
449.0123172376584
 30
0.0
 41
1.0
 10
716.8248328300317
 20
448.4805784622184
 30
0.0
 41
1.0
  0
SPLINE
  5
96
330
1F
100
AcDbEntity
  8
1
  6
________________
 62
     7
370
     9
100
AcDbSpline
210
0.0
220
0.0
230
1.0
 70
    12
 71
     3
 72
     9
 73
     5
 74
     0
 42
0.000000001
 43
0.0001
 40
0.5933085565339914
 40
0.5933085565339914
 40
0.5933085565339914
 40
0.5933085565339914
 40
0.596894963551691
 40
0.602006893722701
 40
0.602006893722701
 40
0.602006893722701
 40
0.602006893722701
 10
722.3562783346076
 20
397.9208669377435
 30
0.0
 41
1.0
 10
722.2832362841984
 20
397.9212968911745
 30
0.0
 41
1.0
 10
722.1060828322118
 20
398.1208808162885
 30
0.0
 41
1.0
 10
721.9289293802252
 20
398.802343132002
 30
0.0
 41
1.0
 10
721.824817978648
 20
399.3601412264427
 30
0.0
 41
1.0
  0
SPLINE
  5
97
330
1F
100
AcDbEntity
  8
1
  6
________________
 62
     7
370
     9
100
AcDbSpline
210
0.0
220
0.0
230
1.0
 70
    12
 71
     3
 72
     9
 73
     5
 74
     0
 42
0.000000001
 43
0.0001
 40
0.511451064226752
 40
0.511451064226752
 40
0.511451064226752
 40
0.511451064226752
 40
0.514821906063334
 40
0.5201734429644945
 40
0.5201734429644945
 40
0.5201734429644945
 40
0.5201734429644945
 10
727.3576953934966
 20
449.9198112575244
 30
0.0
 41
1.0
 10
727.2890436208075
 20
449.9204374303148
 30
0.0
 41
1.0
 10
727.1114005300188
 20
449.7349191727173
 30
0.0
 41
1.0
 10
726.93375743923
 20
449.0642583648033
 30
0.0
 41
1.0
 10
726.8247661211301
 20
448.480290412765
 30
0.0
 41
1.0
  0
SPLINE
  5
98
330
1F
100
AcDbEntity
  8
1
  6
________________
 62
     7
370
     9
100
AcDbSpline
210
0.0
220
0.0
230
1.0
 70
    12
 71
     3
 72
     9
 73
     5
 74
     0
 42
0.000000001
 43
0.0001
 40
0.4296293926574127
 40
0.4296293926574127
 40
0.4296293926574127
 40
0.4296293926574127
 40
0.432748848574977
 40
0.4383382544956482
 40
0.4383382544956482
 40
0.4383382544956482
 40
0.4383382544956482
 10
732.356923838435
 20
397.9208417539915
 30
0.0
 41
1.0
 10
732.2933918814498
 20
397.9207325094762
 30
0.0
 41
1.0
 10
732.1160240806797
 20
398.0933730621729
 30
0.0
 41
1.0
 10
731.9386562799098
 20
398.7502079461273
 30
0.0
 41
1.0
 10
731.8248204361249
 20
399.3600504417942
 30
0.0
 41
1.0
  0
SPLINE
  5
99
330
1F
100
AcDbEntity
  8
1
  6
________________
 62
     7
370
     9
100
AcDbSpline
210
0.0
220
0.0
230
1.0
 70
    12
 71
     3
 72
     9
 73
     5
 74
     0
 42
0.000000001
 43
0.0001
 40
0.3477804080128099
 40
0.3477804080128099
 40
0.3477804080128099
 40
0.3477804080128099
 40
0.35067579108662
 40
0.3565062940224675
 40
0.3565062940224675
 40
0.3565062940224675
 40
0.3565062940224675
 10
737.3578210870065
 20
449.9198471011788
 30
0.0
 41
1.0
 10
737.2988526778472
 20
449.9205170364783
 30
0.0
 41
1.0
 10
737.1211381567018
 20
449.761660607143
 30
0.0
 41
1.0
 10
736.9434236355565
 20
449.1161994009983
 30
0.0
 41
1.0
 10
736.8246775235705
 20
448.4798992554951
 30
0.0
 41
1.0
  0
SPLINE
  5
9A
330
1F
100
AcDbEntity
  8
1
  6
________________
 62
     7
370
     9
100
AcDbSpline
210
0.0
220
0.0
230
1.0
 70
    12
 71
     3
 72
     9
 73
     5
 74
     0
 42
0.000000001
 43
0.0001
 40
0.2659644598368864
 40
0.2659644598368864
 40
0.2659644598368864
 40
0.2659644598368864
 40
0.268602733598261
 40
0.2746708400813916
 40
0.2746708400813916
 40
0.2746708400813916
 40
0.2746708400813916
 10
742.3566998379016
 20
397.9207900659566
 30
0.0
 41
1.0
 10
742.3029678091272
 20
397.9207740625565
 30
0.0
 41
1.0
 10
742.1256505493843
 20
398.0670373820652
 30
0.0
 41
1.0
 10
741.9483332896414
 20
398.6982049850153
 30
0.0
 41
1.0
 10
741.8247480586728
 20
399.3603514672801
 30
0.0
 41
1.0
  0
SPLINE
  5
9B
330
1F
100
AcDbEntity
  8
1
  6
________________
 62
     7
370
     9
100
AcDbSpline
210
0.0
220
0.0
230
1.0
 70
    12
 71
     3
 72
     9
 73
     5
 74
     0
 42
0.000000001
 43
0.0001
 40
0.1841255030979867
 40
0.1841255030979867
 40
0.1841255030979867
 40
0.1841255030979867
 40
0.186529676109904
 40
0.1928318197450328
 40
0.1928318197450328
 40
0.1928318197450328
 40
0.1928318197450328
 10
747.3569843907109
 20
449.9199164328539
 30
0.0
 41
1.0
 10
747.3080201416833
 20
449.920091034836
 30
0.0
 41
1.0
 10
747.1307041771889
 20
449.78733487764
 30
0.0
 41
1.0
 10
746.9533882126947
 20
449.1692496865168
 30
0.0
 41
1.0
 10
746.825036497228
 20
448.4819090360234
 30
0.0
 41
1.0
  0
SPLINE
  5
9C
330
1F
100
AcDbEntity
  8
1
  6
________________
 62
     7
370
     9
100
AcDbSpline
210
0.0
220
0.0
230
1.0
 70
    12
 71
     3
 72
    16
 73
    12
 74
     0
 42
0.000000001
 43
0.0001
 40
2.884643201240406
 40
2.884643201240406
 40
2.884643201240406
 40
2.884643201240406
 40
2.88747938618131
 40
2.89494057322571
 40
2.9024017602701
 40
2.90986294731451
 40
2.9173241343589
 40
2.92478532140329
 40
2.93224650844769
 40
2.93970769549209
 40
2.94194404715177
 40
2.94194404715177
 40
2.94194404715177
 40
2.94194404715177
 10
585.8578511088509
 20
397.9208272188819
 30
0.0
 41
1.0
 10
585.8000883500783
 20
397.9201469508482
 30
0.0
 41
1.0
 10
585.5903683824555
 20
398.1036579094331
 30
0.0
 41
1.0
 10
585.228691205982
 20
399.5890983538401
 30
0.0
 41
1.0
 10
584.7728195794322
 20
403.4440160189209
 30
0.0
 41
1.0
 10
584.3169479528831
 20
408.967430889692
 30
0.0
 41
1.0
 10
583.8610763263331
 20
415.7092717530458
 30
0.0
 41
1.0
 10
583.4052046997831
 20
423.1201848908697
 30
0.0
 41
1.0
 10
582.9493330732331
 20
430.5962977452968
 30
0.0
 41
1.0
 10
582.5998723162992
 20
435.9103078742281
 30
0.0
 41
1.0
 10
582.4023687682152
 20
438.6014134120175
 30
0.0
 41
1.0
 10
582.3568224289811
 20
439.2032774487495
 30
0.0
 41
1.0
  0
ARC
  5
9D
330
1F
100
AcDbEntity
  8
1
  6
________________
 62
     7
370
     9
100
AcDbCircle
 10
-584.3338432415901
 20
399.2710116751248
 30
0.0
 40
2.036074174816024
210
0.0
220
0.0
230
-1.0
100
AcDbArc
 50
180.3140493404104
 51
221.5391208491007
  0
SPLINE
  5
9E
330
1F
100
AcDbEntity
  8
1
  6
________________
 62
     7
370
     9
100
AcDbSpline
210
0.0
220
0.0
230
1.0
 70
    12
 71
     3
 72
    18
 73
    14
 74
     0
 42
0.000000001
 43
0.0001
 40
2.720976889635603
 40
2.720976889635603
 40
2.720976889635603
 40
2.720976889635603
 40
2.7233332712046
 40
2.73079445824899
 40
2.73825564529339
 40
2.74571683233779
 40
2.75317801938218
 40
2.76063920642658
 40
2.76810039347097
 40
2.77556158051537
 40
2.78302276755977
 40
2.79048395460417
 40
2.793821117947497
 40
2.793821117947497
 40
2.793821117947497
 40
2.793821117947497
 10
595.857711350761
 20
397.9207600338662
 30
0.0
 41
1.0
 10
595.8097204393846
 20
397.9202277866343
 30
0.0
 41
1.0
 10
595.6097723191583
 20
398.0654481809747
 30
0.0
 41
1.0
 10
595.2578669900811
 20
399.4073955358093
 30
0.0
 41
1.0
 10
594.8019953635321
 20
403.1432236012508
 30
0.0
 41
1.0
 10
594.3461237369821
 20
408.5720587112191
 30
0.0
 41
1.0
 10
593.8902521104311
 20
415.2515364116826
 30
0.0
 41
1.0
 10
593.434380483882
 20
422.637384598898
 30
0.0
 41
1.0
 10
592.9785088573321
 20
430.1277731132228
 30
0.0
 41
1.0
 10
592.5226372307822
 20
437.1123534068561
 30
0.0
 41
1.0
 10
592.066765604232
 20
443.0219923258796
 30
0.0
 41
1.0
 10
591.6948853221045
 20
446.5731073227691
 30
0.0
 41
1.0
 10
591.4749622488266
 20
448.0059748980947
 30
0.0
 41
1.0
 10
591.406996384399
 20
448.3821038222835
 30
0.0
 41
1.0
  0
LINE
  5
9F
330
1F
100
AcDbEntity
  8
1
  6
________________
 62
     7
370
     9
100
AcDbLine
 10
591.406996384399
 20
448.3821038222835
 30
0.0
 11
591.3949334926103
 21
448.4481600244136
 31
0.0
  0
LINE
  5
A0
330
1F
100
AcDbEntity
  8
1
  6
________________
 62
     7
370
     9
100
AcDbLine
 10
591.3949334926104
 20
448.4481600244135
 30
0.0
 11
591.3827124955271
 21
448.5136500551465
 31
0.0
  0
LINE
  5
A1
330
1F
100
AcDbEntity
  8
1
  6
________________
 62
     7
370
     9
100
AcDbLine
 10
591.3827124955271
 20
448.5136500551466
 30
0.0
 11
591.3706496037385
 21
448.5768756741774
 31
0.0
  0
ARC
  5
A2
330
1F
100
AcDbEntity
  8
1
  6
________________
 62
     7
370
     9
100
AcDbCircle
 10
589.2313781525443
 20
448.5281527638924
 30
0.0
 40
2.139826222823113
100
AcDbArc
 50
1.304712677992353
 51
40.57129779411364
  0
LINE
  5
A3
330
1F
100
AcDbEntity
  8
1
  6
________________
 62
     7
370
     9
100
AcDbLine
 10
596.3826247031099
 20
399.3265508520503
 30
0.0
 11
596.3784274289809
 21
399.3043931708335
 31
0.0
  0
ARC
  5
A4
330
1F
100
AcDbEntity
  8
1
  6
________________
 62
     7
370
     9
100
AcDbCircle
 10
-594.069786142863
 20
399.383426902888
 30
0.0
 40
2.309993705353067
210
0.0
220
0.0
230
-1.0
100
AcDbArc
 50
181.9606907161014
 51
219.2859316975151
  0
SPLINE
  5
A5
330
1F
100
AcDbEntity
  8
1
  6
________________
 62
     7
370
     9
100
AcDbSpline
210
0.0
220
0.0
230
1.0
 70
    12
 71
     3
 72
    18
 73
    14
 74
     0
 42
0.000000001
 43
0.0001
 40
2.557321511040714
 40
2.557321511040714
 40
2.557321511040714
 40
2.557321511040714
 40
2.55918715622789
 40
2.56664834327228
 40
2.57410953031668
 40
2.58157071736107
 40
2.58903190440547
 40
2.59649309144987
 40
2.60395427849426
 40
2.61141546553865
 40
2.61887665258305
 40
2.62633783962745
 40
2.630213877569723
 40
2.630213877569723
 40
2.630213877569723
 40
2.630213877569723
 10
605.8569035958787
 20
397.9206706323799
 30
0.0
 41
1.0
 10
605.8189071974958
 20
397.9205469096156
 30
0.0
 41
1.0
 10
605.6289535902629
 20
398.0309574217549
 30
0.0
 41
1.0
 10
605.2870427741801
 20
399.2339300780762
 30
0.0
 41
1.0
 10
604.83117114763
 20
402.8494131513823
 30
0.0
 41
1.0
 10
604.3752995210812
 20
408.1818441877762
 30
0.0
 41
1.0
 10
603.9194278945312
 20
414.7967141450237
 30
0.0
 41
1.0
 10
603.4635562679811
 20
422.1550154316521
 30
0.0
 41
1.0
 10
603.0076846414312
 20
429.6571625260299
 30
0.0
 41
1.0
 10
602.5518130148811
 20
436.6918487415025
 30
0.0
 41
1.0
 10
602.0959413883311
 20
442.6858580816443
 30
0.0
 41
1.0
 10
601.7130861930318
 20
446.4356329968721
 30
0.0
 41
1.0
 10
601.4821882065814
 20
447.9686903586612
 30
0.0
 41
1.0
 10
601.4032474289813
 20
448.4027828680577
 30
0.0
 41
1.0
  0
LINE
  5
A6
330
1F
100
AcDbEntity
  8
1
  6
________________
 62
     7
370
     9
100
AcDbLine
 10
601.4032474289813
 20
448.4027828680577
 30
0.0
 11
601.3948277892736
 21
448.4487405243893
 31
0.0
  0
LINE
  5
A7
330
1F
100
AcDbEntity
  8
1
  6
________________
 62
     7
370
     9
100
AcDbLine
 10
601.3948277892736
 20
448.4487405243893
 30
0.0
 11
601.3826067851808
 21
448.5142299185104
 31
0.0
  0
LINE
  5
A8
330
1F
100
AcDbEntity
  8
1
  6
________________
 62
     7
370
     9
100
AcDbLine
 10
601.3826067851808
 20
448.5142299185105
 30
0.0
 11
601.3695188297128
 21
448.5827621014097
 31
0.0
  0
ARC
  5
A9
330
1F
100
AcDbEntity
  8
1
  6
________________
 62
     7
370
     9
100
AcDbCircle
 10
599.0157585606502
 20
448.4468737180624
 30
0.0
 40
2.357679591663409
100
AcDbArc
 50
3.30415890480198
 51
38.66772273237
  0
SPLINE
  5
AA
330
1F
100
AcDbEntity
  8
1
  6
________________
 62
     7
370
     9
100
AcDbSpline
210
0.0
220
0.0
230
1.0
 70
    12
 71
     3
 72
     9
 73
     5
 74
     0
 42
0.000000001
 43
0.0001
 40
2.548915710413516
 40
2.548915710413516
 40
2.548915710413516
 40
2.548915710413516
 40
2.55172596918349
 40
2.557321511040714
 40
2.557321511040714
 40
2.557321511040714
 40
2.557321511040714
 10
606.3704902385374
 20
399.2629146771013
 30
0.0
 41
1.0
 10
606.313255501452
 20
398.9662866603137
 30
0.0
 41
1.0
 10
606.1420599538991
 20
398.2217189003903
 30
0.0
 41
1.0
 10
605.9708644063462
 20
397.9210417082477
 30
0.0
 41
1.0
 10
605.8569035958787
 20
397.9206706323799
 30
0.0
 41
1.0
  0
SPLINE
  5
AB
330
1F
100
AcDbEntity
  8
1
  6
________________
 62
     7
370
     9
100
AcDbSpline
210
0.0
220
0.0
230
1.0
 70
    12
 71
     3
 72
    18
 73
    14
 74
     0
 42
0.000000001
 43
0.0001
 40
2.393662053433633
 40
2.393662053433633
 40
2.393662053433633
 40
2.393662053433633
 40
2.39504104125117
 40
2.40250222829557
 40
2.40996341533996
 40
2.41742460238435
 40
2.42488578942876
 40
2.43234697647315
 40
2.43980816351755
 40
2.44726935056194
 40
2.45473053760634
 40
2.46219172465073
 40
2.46649913525426
 40
2.46649913525426
 40
2.46649913525426
 40
2.46649913525426
 10
615.856345064869
 20
397.9205793346997
 30
0.0
 41
1.0
 10
615.828260104856
 20
397.9206478536682
 30
0.0
 41
1.0
 10
615.6482179359928
 20
397.9989904069758
 30
0.0
 41
1.0
 10
615.316218558279
 20
399.068760272197
 30
0.0
 41
1.0
 10
614.8603469317301
 20
402.5626834017601
 30
0.0
 41
1.0
 10
614.4044753051802
 20
407.796918447556
 30
0.0
 41
1.0
 10
613.9486036786301
 20
414.3449577921313
 30
0.0
 41
1.0
 10
613.4927320520801
 20
421.673239485091
 30
0.0
 41
1.0
 10
613.0368604255302
 20
429.1846241283086
 30
0.0
 41
1.0
 10
612.5809887989801
 20
436.2670523205657
 30
0.0
 41
1.0
 10
612.1251171724301
 20
442.3434178471734
 30
0.0
 41
1.0
 10
611.7334764869408
 20
446.2739643549255
 30
0.0
 41
1.0
 10
611.4937930103016
 20
447.902399265417
 30
0.0
 41
1.0
 10
611.4060667425122
 20
448.3872665308828
 30
0.0
 41
1.0
  0
LINE
  5
AC
330
1F
100
AcDbEntity
  8
1
  6
________________
 62
     7
370
     9
100
AcDbLine
 10
611.4060667425122
 20
448.3872665308828
 30
0.0
 11
611.3947207039653
 21
448.449356286286
 31
0.0
  0
LINE
  5
AD
330
1F
100
AcDbEntity
  8
1
  6
________________
 62
     7
370
     9
100
AcDbLine
 10
611.3947207039653
 20
448.449356286286
 30
0.0
 11
611.3824996908614
 21
448.5148437132203
 31
0.0
  0
LINE
  5
AE
330
1F
100
AcDbEntity
  8
1
  6
________________
 62
     7
370
     9
100
AcDbLine
 10
611.3824996908613
 20
448.5148437132203
 30
0.0
 11
611.3771795718378
 21
448.5429004689477
 31
0.0
  0
SPLINE
  5
AF
330
1F
100
AcDbEntity
  8
1
  6
________________
 62
     7
370
     9
100
AcDbSpline
210
0.0
220
0.0
230
1.0
 70
    12
 71
     3
 72
     9
 73
     5
 74
     0
 42
0.000000001
 43
0.0001
 40
2.466971927529613
 40
2.466971927529613
 40
2.466971927529613
 40
2.466971927529613
 40
2.46965291169513
 40
2.475491708613497
 40
2.475491708613497
 40
2.475491708613497
 40
2.475491708613497
 10
611.3771795718378
 20
448.5429004689477
 30
0.0
 41
1.0
 10
611.3225776876686
 20
448.8294471889682
 30
0.0
 41
1.0
 10
611.1490607732933
 20
449.6022565397766
 30
0.0
 41
1.0
 10
610.9755438589182
 20
449.919986746915
 30
0.0
 41
1.0
 10
610.8566288287121
 20
449.9200477358118
 30
0.0
 41
1.0
  0
SPLINE
  5
B0
330
1F
100
AcDbEntity
  8
1
  6
________________
 62
     7
370
     9
100
AcDbSpline
210
0.0
220
0.0
230
1.0
 70
    12
 71
     3
 72
     9
 73
     5
 74
     0
 42
0.000000001
 43
0.0001
 40
2.385267404301421
 40
2.385267404301421
 40
2.385267404301421
 40
2.385267404301421
 40
2.38757985420677
 40
2.393662053433633
 40
2.393662053433633
 40
2.393662053433633
 40
2.393662053433633
 10
616.3692503614989
 20
399.2564292028385
 30
0.0
 41
1.0
 10
616.3221541781261
 20
399.0128824323798
 30
0.0
 41
1.0
 10
616.1511857459161
 20
398.2461455164507
 30
0.0
 41
1.0
 10
615.9802173137061
 20
397.9202771231705
 30
0.0
 41
1.0
 10
615.856345064869
 20
397.9205793346997
 30
0.0
 41
1.0
  0
SPLINE
  5
B1
330
1F
100
AcDbEntity
  8
1
  6
________________
 62
     7
370
     9
100
AcDbSpline
210
0.0
220
0.0
230
1.0
 70
    12
 71
     3
 72
    18
 73
    14
 74
     0
 42
0.000000001
 43
0.0001
 40
2.230000719521012
 40
2.230000719521012
 40
2.230000719521012
 40
2.230000719521012
 40
2.23089492627445
 40
2.23835611331885
 40
2.24581730036325
 40
2.25327848740764
 40
2.26073967445204
 40
2.26820086149643
 40
2.27566204854083
 40
2.28312323558523
 40
2.29058442262962
 40
2.29804560967402
 40
2.30281193582197
 40
2.30281193582197
 40
2.30281193582197
 40
2.30281193582197
 10
625.8559011743913
 20
397.9204968008718
 30
0.0
 41
1.0
 10
625.8376894392372
 20
397.9206329672039
 30
0.0
 41
1.0
 10
625.6675204952332
 20
397.9697404507011
 30
0.0
 41
1.0
 10
625.3453943423791
 20
398.9119416220471
 30
0.0
 41
1.0
 10
624.8895227158291
 20
402.2831307054193
 30
0.0
 41
1.0
 10
624.4336510892791
 20
407.4174108415031
 30
0.0
 41
1.0
 10
623.9777794627291
 20
413.8964191617946
 30
0.0
 41
1.0
 10
623.5219078361791
 20
421.1922186558269
 30
0.0
 41
1.0
 10
623.0660362096291
 20
428.710316712473
 30
0.0
 41
1.0
 10
622.6101645830792
 20
435.8381068931841
 30
0.0
 41
1.0
 10
622.1542929565292
 20
441.9947866965272
 30
0.0
 41
1.0
 10
621.7533058326229
 20
446.1147676739694
 30
0.0
 41
1.0
 10
621.5042759175665
 20
447.8433628845636
 30
0.0
 41
1.0
 10
621.4072032113601
 20
448.3810289082007
 30
0.0
 41
1.0
  0
LINE
  5
B2
330
1F
100
AcDbEntity
  8
1
  6
________________
 62
     7
370
     9
100
AcDbLine
 10
621.4072032113601
 20
448.3810289082007
 30
0.0
 11
621.3948639182858
 21
448.4486397053628
 31
0.0
  0
LINE
  5
B3
330
1F
100
AcDbEntity
  8
1
  6
________________
 62
     7
370
     9
100
AcDbLine
 10
621.3948639182858
 20
448.4486397053628
 30
0.0
 11
621.3826427530827
 21
448.5141531806976
 31
0.0
  0
LINE
  5
B4
330
1F
100
AcDbEntity
  8
1
  6
________________
 62
     7
370
     9
100
AcDbLine
 10
621.3826427530828
 20
448.5141531806976
 30
0.0
 11
621.3703034600086
 21
448.5788312844867
 31
0.0
  0
SPLINE
  5
B5
330
1F
100
AcDbEntity
  8
1
  6
________________
 62
     7
370
     9
100
AcDbSpline
210
0.0
220
0.0
230
1.0
 70
    12
 71
     3
 72
     9
 73
     5
 74
     0
 42
0.000000001
 43
0.0001
 40
2.30341586888271
 40
2.30341586888271
 40
2.30341586888271
 40
2.30341586888271
 40
2.30550679671842
 40
2.311812971976695
 40
2.311812971976695
 40
2.311812971976695
 40
2.311812971976695
 10
621.3703034600085
 20
448.5788312844867
 30
0.0
 41
1.0
 10
621.3277188744819
 20
448.7994926356344
 30
0.0
 41
1.0
 10
621.1567004640071
 20
449.579458947057
 30
0.0
 41
1.0
 10
620.9856820535323
 20
449.9192776426565
 30
0.0
 41
1.0
 10
620.857248228584
 20
449.9201354320347
 30
0.0
 41
1.0
  0
LINE
  5
B6
330
1F
100
AcDbEntity
  8
1
  6
________________
 62
     7
370
     9
100
AcDbLine
 10
626.382508795899
 20
399.3257695164937
 30
0.0
 11
626.3709314519637
 21
399.2650554736419
 31
0.0
  0
SPLINE
  5
B7
330
1F
100
AcDbEntity
  8
1
  6
________________
 62
     7
370
     9
100
AcDbSpline
210
0.0
220
0.0
230
1.0
 70
    12
 71
     3
 72
     9
 73
     5
 74
     0
 42
0.000000001
 43
0.0001
 40
2.221571291123424
 40
2.221571291123424
 40
2.221571291123424
 40
2.221571291123424
 40
2.22343373923005
 40
2.230000719521012
 40
2.230000719521012
 40
2.230000719521012
 40
2.230000719521012
 10
626.3709314519637
 20
399.2650554736419
 30
0.0
 41
1.0
 10
626.3330001664689
 20
399.0682693287534
 30
0.0
 41
1.0
 10
626.161323407278
 20
398.2726233710866
 30
0.0
 41
1.0
 10
625.9896466480873
 20
397.9194968066129
 30
0.0
 41
1.0
 10
625.8559011743913
 20
397.9204968008718
 30
0.0
 41
1.0
  0
SPLINE
  5
B8
330
1F
100
AcDbEntity
  8
1
  6
________________
 62
     7
370
     9
100
AcDbSpline
210
0.0
220
0.0
230
1.0
 70
    12
 71
     3
 72
     9
 73
     5
 74
     0
 42
0.000000001
 43
0.0001
 40
1.738976716694475
 40
1.738976716694475
 40
1.738976716694475
 40
1.738976716694475
 40
1.7459177683887
 40
1.747184790575896
 40
1.747184790575896
 40
1.747184790575896
 40
1.747184790575896
 10
655.8570135324743
 20
397.9204405875969
 30
0.0
 41
1.0
 10
655.7156495865416
 20
397.9205050699163
 30
0.0
 41
1.0
 10
655.5484810127431
 20
398.2859514233284
 30
0.0
 41
1.0
 10
655.3813124389447
 20
399.0693292944788
 30
0.0
 41
1.0
 10
655.3555078110788
 20
399.2000129467003
 30
0.0
 41
1.0
  0
ARC
  5
B9
330
1F
100
AcDbEntity
  8
1
  6
________________
 62
     7
370
     9
100
AcDbCircle
 10
-654.4995813724182
 20
399.2093297025178
 30
0.0
 40
1.871859294849865
210
0.0
220
0.0
230
-1.0
100
AcDbArc
 50
178.3440027759056
 51
223.5162990732041
  0
SPLINE
  5
BA
330
1F
100
AcDbEntity
  8
1
  6
________________
 62
     7
370
     9
100
AcDbSpline
210
0.0
220
0.0
230
1.0
 70
    12
 71
     3
 72
    17
 73
    13
 74
     0
 42
0.000000001
 43
0.0001
 40
1.575303900155006
 40
1.575303900155006
 40
1.575303900155006
 40
1.575303900155006
 40
1.58177165341198
 40
1.58923284045638
 40
1.59669402750078
 40
1.60415521454517
 40
1.61161640158957
 40
1.61907758863397
 40
1.62653877567836
 40
1.63399996272276
 40
1.64146114976715
 40
1.648160785600287
 40
1.648160785600287
 40
1.648160785600287
 40
1.648160785600287
 10
665.8572712198754
 20
397.9205089224832
 30
0.0
 41
1.0
 10
665.7255466395088
 20
397.920343922857
 30
0.0
 41
1.0
 10
665.4418648502921
 20
398.4965380657487
 30
0.0
 41
1.0
 10
665.0062258522252
 20
401.2385324438956
 30
0.0
 41
1.0
 10
664.550354225675
 20
405.9560841571706
 30
0.0
 41
1.0
 10
664.0944825991251
 20
412.1374391357305
 30
0.0
 41
1.0
 10
663.6386109725752
 20
419.2789144227576
 30
0.0
 41
1.0
 10
663.1827393460251
 20
426.7985923964534
 30
0.0
 41
1.0
 10
662.7268677194761
 20
434.0837378799438
 30
0.0
 41
1.0
 10
662.2709960929252
 20
440.5407263959573
 30
0.0
 41
1.0
 10
661.8306344912248
 20
445.4698074886081
 30
0.0
 41
1.0
 10
661.5422300983731
 20
447.6353066332134
 30
0.0
 41
1.0
 10
661.4057829143718
 20
448.389195562604
 30
0.0
 41
1.0
  0
LINE
  5
BB
330
1F
100
AcDbEntity
  8
1
  6
________________
 62
     7
370
     9
100
AcDbLine
 10
661.4057829143718
 20
448.389195562604
 30
0.0
 11
661.3946580717801
 21
448.4500614719782
 31
0.0
  0
LINE
  5
BC
330
1F
100
AcDbEntity
  8
1
  6
________________
 62
     7
370
     9
100
AcDbLine
 10
661.39465807178
 20
448.4500614719782
 30
0.0
 11
661.3848574289801
 21
448.5026856114333
 31
0.0
  0
ARC
  5
BD
330
1F
100
AcDbEntity
  8
1
  6
________________
 62
     7
370
     9
100
AcDbCircle
 10
659.3356257660815
 20
448.5459456915974
 30
0.0
 40
2.049688230624886
100
AcDbArc
 50
358.7906433614794
 51
42.10328170495052
  0
SPLINE
  5
BE
330
1F
100
AcDbEntity
  8
1
  6
________________
 62
     7
370
     9
100
AcDbSpline
210
0.0
220
0.0
230
1.0
 70
    12
 71
     3
 72
     9
 73
     5
 74
     0
 42
0.000000001
 43
0.0001
 40
1.56691420425922
 40
1.56691420425922
 40
1.56691420425922
 40
1.56691420425922
 40
1.57431046636759
 40
1.575303900155006
 40
1.575303900155006
 40
1.575303900155006
 40
1.575303900155006
 10
666.3698738783418
 20
399.2593444486685
 30
0.0
 41
1.0
 10
666.2192389540029
 20
398.4799030137114
 30
0.0
 41
1.0
 10
666.0483714011808
 20
397.9740879531084
 30
0.0
 41
1.0
 10
665.8775038483586
 20
397.9205342660914
 30
0.0
 41
1.0
 10
665.8572712198754
 20
397.9205089224832
 30
0.0
 41
1.0
  0
SPLINE
  5
BF
330
1F
100
AcDbEntity
  8
1
  6
________________
 62
     7
370
     9
100
AcDbSpline
210
0.0
220
0.0
230
1.0
 70
    12
 71
     3
 72
    17
 73
    13
 74
     0
 42
0.000000001
 43
0.0001
 40
1.411643698088819
 40
1.411643698088819
 40
1.411643698088819
 40
1.411643698088819
 40
1.41762553843527
 40
1.42508672547966
 40
1.43254791252406
 40
1.44000909956845
 40
1.44747028661285
 40
1.45493147365725
 40
1.46239266070164
 40
1.46985384774604
 40
1.47731503479043
 40
1.484468719936919
 40
1.484468719936919
 40
1.484468719936919
 40
1.484468719936919
 10
675.856758174628
 20
397.9205970288662
 30
0.0
 41
1.0
 10
675.7349298707102
 20
397.9211306726575
 30
0.0
 41
1.0
 10
675.4611443579424
 20
398.4360397724767
 30
0.0
 41
1.0
 10
675.0354016363247
 20
400.9962248094106
 30
0.0
 41
1.0
 10
674.5795300097747
 20
405.6055422743238
 30
0.0
 41
1.0
 10
674.1236583832247
 20
411.7072266402712
 30
0.0
 41
1.0
 10
673.6677867566747
 20
418.8040868490343
 30
0.0
 41
1.0
 10
673.2119151301248
 20
426.3178407041573
 30
0.0
 41
1.0
 10
672.7560435035749
 20
433.6362357510118
 30
0.0
 41
1.0
 10
672.3001718770248
 20
440.1629381972259
 30
0.0
 41
1.0
 10
671.8505629443122
 20
445.2946441422486
 30
0.0
 41
1.0
 10
671.5529112204498
 20
447.5744777506896
 30
0.0
 41
1.0
 10
671.4072167054372
 20
448.3813094208963
 30
0.0
 41
1.0
  0
LINE
  5
C0
330
1F
100
AcDbEntity
  8
1
  6
________________
 62
     7
370
     9
100
AcDbLine
 10
671.4072167054372
 20
448.3813094208963
 30
0.0
 11
671.3951641409498
 21
448.4473485231811
 31
0.0
  0
LINE
  5
C1
330
1F
100
AcDbEntity
  8
1
  6
________________
 62
     7
370
     9
100
AcDbLine
 10
671.3951641409496
 20
448.4473485231811
 30
0.0
 11
671.3829425640035
 21
448.5128683935505
 31
0.0
  0
LINE
  5
C2
330
1F
100
AcDbEntity
  8
1
  6
________________
 62
     7
370
     9
100
AcDbLine
 10
671.3829425640035
 20
448.5128683935505
 30
0.0
 11
671.3708899995162
 21
448.5760530422118
 31
0.0
  0
SPLINE
  5
C3
330
1F
100
AcDbEntity
  8
1
  6
________________
 62
     7
370
     9
100
AcDbSpline
210
0.0
220
0.0
230
1.0
 70
    12
 71
     3
 72
     9
 73
     5
 74
     0
 42
0.000000001
 43
0.0001
 40
1.485063274043378
 40
1.485063274043378
 40
1.485063274043378
 40
1.485063274043378
 40
1.49223740887923
 40
1.493493816366155
 40
1.493493816366155
 40
1.493493816366155
 40
1.493493816366155
 10
671.3708899995162
 20
448.5760530422118
 30
0.0
 41
1.0
 10
671.2247789988024
 20
449.3334172122708
 30
0.0
 41
1.0
 10
671.0530795530119
 20
449.8551940327417
 30
0.0
 41
1.0
 10
670.8813801072216
 20
449.9204748816276
 30
0.0
 41
1.0
 10
670.8557916621452
 20
449.9201115125759
 30
0.0
 41
1.0
  0
SPLINE
  5
C4
330
1F
100
AcDbEntity
  8
1
  6
________________
 62
     7
370
     9
100
AcDbSpline
210
0.0
220
0.0
230
1.0
 70
    12
 71
     3
 72
     9
 73
     5
 74
     0
 42
0.000000001
 43
0.0001
 40
1.403035206027849
 40
1.403035206027849
 40
1.403035206027849
 40
1.403035206027849
 40
1.41016435139087
 40
1.411643698088819
 40
1.411643698088819
 40
1.411643698088819
 40
1.411643698088819
 10
676.3827290763928
 20
399.32668696011
 30
0.0
 41
1.0
 10
676.2375343474034
 20
398.5573816372055
 30
0.0
 41
1.0
 10
676.0622107134818
 20
398.0010518583496
 30
0.0
 41
1.0
 10
675.8868870795602
 20
397.9204650554041
 30
0.0
 41
1.0
 10
675.856758174628
 20
397.9205970288662
 30
0.0
 41
1.0
  0
SPLINE
  5
C5
330
1F
100
AcDbEntity
  8
1
  6
________________
 62
     7
370
     9
100
AcDbSpline
210
0.0
220
0.0
230
1.0
 70
    12
 71
     3
 72
    18
 73
    14
 74
     0
 42
0.000000001
 43
0.0001
 40
1.247962639543303
 40
1.247962639543303
 40
1.247962639543303
 40
1.247962639543303
 40
1.25347942345855
 40
1.26094061050295
 40
1.26840179754734
 40
1.27586298459174
 40
1.28332417163613
 40
1.29078535868053
 40
1.29824654572493
 40
1.30570773276932
 40
1.31316891981372
 40
1.32063010685812
 40
1.320791511585135
 40
1.320791511585135
 40
1.320791511585135
 40
1.320791511585135
 10
685.8575194409746
 20
397.9206873613106
 30
0.0
 41
1.0
 10
685.7451626429744
 20
397.9202885135905
 30
0.0
 41
1.0
 10
685.4808486361239
 20
398.3760945886257
 30
0.0
 41
1.0
 10
685.064577420424
 20
400.761620622979
 30
0.0
 41
1.0
 10
684.6087057938739
 20
405.2611549185278
 30
0.0
 41
1.0
 10
684.152834167324
 20
411.2811182539559
 30
0.0
 41
1.0
 10
683.6969625407739
 20
418.3309785463708
 30
0.0
 41
1.0
 10
683.2410909142241
 20
425.8362833513568
 30
0.0
 41
1.0
 10
682.785219287674
 20
433.1854686786382
 30
0.0
 41
1.0
 10
682.3293476611242
 20
439.7796918135208
 30
0.0
 41
1.0
 10
681.8734760345742
 20
445.0816275549738
 30
0.0
 41
1.0
 10
681.5662743903688
 20
447.492508096671
 30
0.0
 41
1.0
 10
681.4110299550135
 20
448.3601822203763
 30
0.0
 41
1.0
 10
681.4077427285083
 20
448.3783973650407
 30
0.0
 41
1.0
  0
LINE
  5
C6
330
1F
100
AcDbEntity
  8
1
  6
________________
 62
     7
370
     9
100
AcDbLine
 10
681.4077427285083
 20
448.3783973650407
 30
0.0
 11
681.3979365358534
 21
448.4322681077513
 31
0.0
  0
LINE
  5
C7
330
1F
100
AcDbEntity
  8
1
  6
________________
 62
     7
370
     9
100
AcDbLine
 10
681.3979365358534
 20
448.4322681077512
 30
0.0
 11
681.3947938653597
 21
448.4493346621817
 31
0.0
  0
LINE
  5
C8
330
1F
100
AcDbEntity
  8
1
  6
________________
 62
     7
370
     9
100
AcDbLine
 10
681.3947938653596
 20
448.4493346621817
 30
0.0
 11
681.382572327315
 21
448.5147908643075
 31
0.0
  0
LINE
  5
C9
330
1F
100
AcDbEntity
  8
1
  6
________________
 62
     7
370
     9
100
AcDbLine
 10
681.382572327315
 20
448.5147908643075
 30
0.0
 11
681.3696234641662
 21
448.5825540160231
 31
0.0
  0
SPLINE
  5
CA
330
1F
100
AcDbEntity
  8
1
  6
________________
 62
     7
370
     9
100
AcDbSpline
210
0.0
220
0.0
230
1.0
 70
    12
 71
     3
 72
     9
 73
     5
 74
     0
 42
0.000000001
 43
0.0001
 40
1.321415404244135
 40
1.321415404244135
 40
1.321415404244135
 40
1.321415404244135
 40
1.32809129390251
 40
1.32981173431801
 40
1.32981173431801
 40
1.32981173431801
 40
1.32981173431801
 10
681.3696234641662
 20
448.5825540160231
 30
0.0
 41
1.0
 10
681.233659903269
 20
449.2854793517768
 30
0.0
 41
1.0
 10
681.0626572363989
 20
449.8290200994434
 30
0.0
 41
1.0
 10
680.8916545695287
 20
449.9202334275245
 30
0.0
 41
1.0
 10
680.8566154635558
 20
449.920028943625
 30
0.0
 41
1.0
  0
SPLINE
  5
CB
330
1F
100
AcDbEntity
  8
1
  6
________________
 62
     7
370
     9
100
AcDbSpline
210
0.0
220
0.0
230
1.0
 70
    12
 71
     3
 72
     9
 73
     5
 74
     0
 42
0.000000001
 43
0.0001
 40
1.2395648300903
 40
1.2395648300903
 40
1.2395648300903
 40
1.2395648300903
 40
1.24601823641415
 40
1.247962639543303
 40
1.247962639543303
 40
1.247962639543303
 40
1.247962639543303
 10
686.3706178302816
 20
399.2633019319836
 30
0.0
 41
1.0
 10
686.2391854446959
 20
398.5825716468156
 30
0.0
 41
1.0
 10
686.0681526482601
 20
398.0256026922101
 30
0.0
 41
1.0
 10
685.8971198518244
 20
397.9208279361032
 30
0.0
 41
1.0
 10
685.8575194409746
 20
397.9206873613106
 30
0.0
 41
1.0
  0
SPLINE
  5
CC
330
1F
100
AcDbEntity
  8
1
  6
________________
 62
     7
370
     9
100
AcDbSpline
210
0.0
220
0.0
230
1.0
 70
    12
 71
     3
 72
    18
 73
    14
 74
     0
 42
0.000000001
 43
0.0001
 40
1.084296770901956
 40
1.084296770901956
 40
1.084296770901956
 40
1.084296770901956
 40
1.08933330848183
 40
1.09679449552623
 40
1.10425568257063
 40
1.11171686961502
 40
1.11917805665942
 40
1.12663924370381
 40
1.13410043074821
 40
1.14156161779261
 40
1.149022804837
 40
1.1564839918814
 40
1.15714318902699
 40
1.15714318902699
 40
1.15714318902699
 40
1.15714318902699
 10
695.8573526182278
 20
397.920768345241
 30
0.0
 41
1.0
 10
695.7547766891763
 20
397.9205286055009
 30
0.0
 41
1.0
 10
695.5002435512748
 20
398.321043662574
 30
0.0
 41
1.0
 10
695.0937532045232
 20
400.5347987212947
 30
0.0
 41
1.0
 10
694.6378815779733
 20
404.9230378181551
 30
0.0
 41
1.0
 10
694.1820099514231
 20
410.8592571667975
 30
0.0
 41
1.0
 10
693.7261383248733
 20
417.8597484986932
 30
0.0
 41
1.0
 10
693.2702666983232
 20
425.3540821612077
 30
0.0
 41
1.0
 10
692.8143950717734
 20
432.7315881391727
 30
0.0
 41
1.0
 10
692.3585234452235
 20
439.3911160314521
 30
0.0
 41
1.0
 10
691.9026518186733
 20
444.7900193290801
 30
0.0
 41
1.0
 10
691.5853119557021
 20
447.3645048543747
 30
0.0
 41
1.0
 10
691.4199293015804
 20
448.3109940254616
 30
0.0
 41
1.0
 10
691.4065038563087
 20
448.3852079053491
 30
0.0
 41
1.0
  0
LINE
  5
CD
330
1F
100
AcDbEntity
  8
1
  6
________________
 62
     7
370
     9
100
AcDbLine
 10
691.4065038563087
 20
448.3852079053491
 30
0.0
 11
691.3951119570906
 21
448.4475514107883
 31
0.0
  0
LINE
  5
CE
330
1F
100
AcDbEntity
  8
1
  6
________________
 62
     7
370
     9
100
AcDbLine
 10
691.3951119570906
 20
448.4475514107883
 30
0.0
 11
691.3828903623497
 21
448.5130345785315
 31
0.0
  0
LINE
  5
CF
330
1F
100
AcDbEntity
  8
1
  6
________________
 62
     7
370
     9
100
AcDbLine
 10
691.3828903623497
 20
448.5130345785315
 30
0.0
 11
691.3758402861234
 21
448.5501482478131
 31
0.0
  0
SPLINE
  5
D0
330
1F
100
AcDbEntity
  8
1
  6
________________
 62
     7
370
     9
100
AcDbSpline
210
0.0
220
0.0
230
1.0
 70
    12
 71
     3
 72
     9
 73
     5
 74
     0
 42
0.000000001
 43
0.0001
 40
1.157645055384265
 40
1.157645055384265
 40
1.157645055384265
 40
1.157645055384265
 40
1.1639451789258
 40
1.166141207442345
 40
1.166141207442345
 40
1.166141207442345
 40
1.166141207442345
 10
691.3758402861234
 20
448.5501482478132
 30
0.0
 41
1.0
 10
691.2475297126066
 20
449.2212105027779
 30
0.0
 41
1.0
 10
691.0744940354376
 20
449.8019268792794
 30
0.0
 41
1.0
 10
690.9014583582688
 20
449.9201346067036
 30
0.0
 41
1.0
 10
690.8567332546166
 20
449.9199423003774
 30
0.0
 41
1.0
  0
SPLINE
  5
D1
330
1F
100
AcDbEntity
  8
1
  6
________________
 62
     7
370
     9
100
AcDbSpline
210
0.0
220
0.0
230
1.0
 70
    12
 71
     3
 72
     9
 73
     5
 74
     0
 42
0.000000001
 43
0.0001
 40
1.075908909916426
 40
1.075908909916426
 40
1.075908909916426
 40
1.075908909916426
 40
1.08187212143744
 40
1.084296770901956
 40
1.084296770901956
 40
1.084296770901956
 40
1.084296770901956
 10
696.3698431653747
 20
399.2593782246389
 30
0.0
 41
1.0
 10
696.2483942627908
 20
398.6313055566582
 30
0.0
 41
1.0
 10
696.0775640804085
 20
398.0508817056095
 30
0.0
 41
1.0
 10
695.9067338980261
 20
397.9208837588209
 30
0.0
 41
1.0
 10
695.8573526182278
 20
397.920768345241
 30
0.0
 41
1.0
  0
SPLINE
  5
D2
330
1F
100
AcDbEntity
  8
1
  6
________________
 62
     7
370
     9
100
AcDbSpline
210
0.0
220
0.0
230
1.0
 70
    12
 71
     3
 72
    18
 73
    14
 74
     0
 42
0.000000001
 43
0.0001
 40
0.9206411849100032
 40
0.9206411849100032
 40
0.9206411849100032
 40
0.9206411849100032
 40
0.925187193505118
 40
0.932648380549514
 40
0.940109567593911
 40
0.947570754638307
 40
0.955031941682703
 40
0.962493128727099
 40
0.969954315771495
 40
0.977415502815892
 40
0.984876689860288
 40
0.992337876904684
 40
0.9934569663175278
 40
0.9934569663175278
 40
0.9934569663175278
 40
0.9934569663175278
 10
705.8565575351147
 20
397.9208315326157
 30
0.0
 41
1.0
 10
705.763971895134
 20
397.9212964761068
 30
0.0
 41
1.0
 10
705.5194290463033
 20
398.2700889228323
 30
0.0
 41
1.0
 10
705.1229289886226
 20
400.3158353258837
 30
0.0
 41
1.0
 10
704.6670573620722
 20
404.5913045945126
 30
0.0
 41
1.0
 10
704.2111857355228
 20
410.4417851415421
 30
0.0
 41
1.0
 10
703.7553141089725
 20
417.3905550587564
 30
0.0
 41
1.0
 10
703.2994424824225
 20
424.8713991732218
 30
0.0
 41
1.0
 10
702.8435708558728
 20
432.2747466552188
 30
0.0
 41
1.0
 10
702.3876992293226
 20
438.9973414285286
 30
0.0
 41
1.0
 10
701.9318276027726
 20
444.4913980278838
 30
0.0
 41
1.0
 10
701.605121409097
 20
447.2275011797999
 30
0.0
 41
1.0
 10
701.4303724242711
 20
448.2529637969895
 30
0.0
 41
1.0
 10
701.4075806482954
 20
448.3791754608372
 30
0.0
 41
1.0
  0
LINE
  5
D3
330
1F
100
AcDbEntity
  8
1
  6
________________
 62
     7
370
     9
100
AcDbLine
 10
701.4075806482954
 20
448.3791754608372
 30
0.0
 11
701.3952005124517
 21
448.4469900856928
 31
0.0
  0
LINE
  5
D4
330
1F
100
AcDbEntity
  8
1
  6
________________
 62
     7
370
     9
100
AcDbLine
 10
701.3952005124517
 20
448.4469900856928
 30
0.0
 11
701.3829791433842
 21
448.5124783524832
 31
0.0
  0
LINE
  5
D5
330
1F
100
AcDbEntity
  8
1
  6
________________
 62
     7
370
     9
100
AcDbLine
 10
701.3829791433842
 20
448.5124783524832
 30
0.0
 11
701.3705990075404
 21
448.5773388107352
 31
0.0
  0
SPLINE
  5
D6
330
1F
100
AcDbEntity
  8
1
  6
________________
 62
     7
370
     9
100
AcDbSpline
210
0.0
220
0.0
230
1.0
 70
    12
 71
     3
 72
     9
 73
     5
 74
     0
 42
0.000000001
 43
0.0001
 40
0.9940622396506592
 40
0.9940622396506592
 40
0.9940622396506592
 40
0.9940622396506592
 40
0.99979906394908
 40
1.002468595311758
 40
1.002468595311758
 40
1.002468595311758
 40
1.002468595311758
 10
701.3705990075404
 20
448.5773388107352
 30
0.0
 41
1.0
 10
701.2537607882513
 20
449.182431620772
 30
0.0
 41
1.0
 10
701.0825539366792
 20
449.777185309173
 30
0.0
 41
1.0
 10
700.9113470851072
 20
449.9199319252453
 30
0.0
 41
1.0
 10
700.8569784528244
 20
449.9198703254834
 30
0.0
 41
1.0
  0
LINE
  5
D7
330
1F
100
AcDbEntity
  8
1
  6
________________
 62
     7
370
     9
100
AcDbLine
 10
706.3827872340073
 20
399.3272208911422
 30
0.0
 11
706.3712028697574
 21
399.2665052204268
 31
0.0
  0
SPLINE
  5
D8
330
1F
100
AcDbEntity
  8
1
  6
________________
 62
     7
370
     9
100
AcDbSpline
210
0.0
220
0.0
230
1.0
 70
    12
 71
     3
 72
     9
 73
     5
 74
     0
 42
0.000000001
 43
0.0001
 40
0.912218056819414
 40
0.912218056819414
 40
0.912218056819414
 40
0.912218056819414
 40
0.917726006460722
 40
0.9206411849100032
 40
0.9206411849100032
 40
0.9206411849100032
 40
0.9206411849100032
 10
706.3712028697576
 20
399.2665052204268
 30
0.0
 41
1.0
 10
706.2590259937458
 20
398.6848788739717
 30
0.0
 41
1.0
 10
706.0874775488646
 20
398.076023390612
 30
0.0
 41
1.0
 10
705.9159291039838
 20
397.9205333824435
 30
0.0
 41
1.0
 10
705.8565575351147
 20
397.9208315326157
 30
0.0
 41
1.0
  0
SPLINE
  5
D9
330
1F
100
AcDbEntity
  8
1
  6
________________
 62
     7
370
     9
100
AcDbSpline
210
0.0
220
0.0
230
1.0
 70
    12
 71
     3
 72
    18
 73
    14
 74
     0
 42
0.000000001
 43
0.0001
 40
0.7569814947789305
 40
0.7569814947789305
 40
0.7569814947789305
 40
0.7569814947789305
 40
0.761041078528405
 40
0.768502265572801
 40
0.775963452617197
 40
0.783424639661593
 40
0.790885826705989
 40
0.798347013750385
 40
0.805808200794781
 40
0.813269387839177
 40
0.820730574883573
 40
0.828191761927969
 40
0.8299932799497639
 40
0.8299932799497639
 40
0.8299932799497639
 40
0.8299932799497639
 10
715.8560132111055
 20
397.9208711570809
 30
0.0
 41
1.0
 10
715.7733342738275
 20
397.9216674160961
 30
0.0
 41
1.0
 10
715.5386981276995
 20
398.2216045922434
 30
0.0
 41
1.0
 10
715.1521047727214
 20
400.1048040174886
 30
0.0
 41
1.0
 10
714.6962331461717
 20
404.2660667236642
 30
0.0
 41
1.0
 10
714.2403615196217
 20
410.0288424660302
 30
0.0
 41
1.0
 10
713.7844898930719
 20
416.9235558949324
 30
0.0
 41
1.0
 10
713.3286182665216
 20
424.3883965888162
 30
0.0
 41
1.0
 10
712.8727466399719
 20
431.8150977443818
 30
0.0
 41
1.0
 10
712.4168750134219
 20
438.5985003292781
 30
0.0
 41
1.0
 10
711.9610033868719
 20
444.1858640004745
 30
0.0
 41
1.0
 10
711.6203986076174
 20
447.1266808567967
 30
0.0
 41
1.0
 10
711.4317510372128
 20
448.2489295437803
 30
0.0
 41
1.0
 10
711.3950606756582
 20
448.44766059678
 30
0.0
 41
1.0
  0
LINE
  5
DA
330
1F
100
AcDbEntity
  8
1
  6
________________
 62
     7
370
     9
100
AcDbLine
 10
711.3950606756582
 20
448.44766059678
 30
0.0
 11
711.3828395785079
 21
448.5131323729179
 31
0.0
  0
LINE
  5
DB
330
1F
100
AcDbEntity
  8
1
  6
________________
 62
     7
370
     9
100
AcDbLine
 10
711.3828395785079
 20
448.5131323729179
 30
0.0
 11
711.3695490489015
 21
448.5826895416413
 31
0.0
  0
SPLINE
  5
DC
330
1F
100
AcDbEntity
  8
1
  6
________________
 62
     7
370
     9
100
AcDbSpline
210
0.0
220
0.0
230
1.0
 70
    12
 71
     3
 72
     9
 73
     5
 74
     0
 42
0.000000001
 43
0.0001
 40
0.8304108251707283
 40
0.8304108251707283
 40
0.8304108251707283
 40
0.8304108251707283
 40
0.835652948972365
 40
0.8388005376359154
 40
0.8388005376359154
 40
0.8388005376359154
 40
0.8388005376359154
 10
711.3695490489016
 20
448.5826895416413
 30
0.0
 41
1.0
 10
711.2627860771917
 20
449.134553546781
 30
0.0
 41
1.0
 10
711.0919181869112
 20
449.7518529611365
 30
0.0
 41
1.0
 10
710.9210502966308
 20
449.9198582219113
 30
0.0
 41
1.0
 10
710.8569453780602
 20
449.9198204395303
 30
0.0
 41
1.0
  0
SPLINE
  5
DD
330
1F
100
AcDbEntity
  8
1
  6
________________
 62
     7
370
     9
100
AcDbSpline
210
0.0
220
0.0
230
1.0
 70
    12
 71
     3
 72
     9
 73
     5
 74
     0
 42
0.000000001
 43
0.0001
 40
0.7485602344538441
 40
0.7485602344538441
 40
0.7485602344538441
 40
0.7485602344538441
 40
0.753579891484009
 40
0.7569814947789305
 40
0.7569814947789305
 40
0.7569814947789305
 40
0.7569814947789305
 10
716.3705444270038
 20
399.2631684092577
 30
0.0
 41
1.0
 10
716.2683122932764
 20
398.7337047381188
 30
0.0
 41
1.0
 10
716.096801887977
 20
398.1008761101093
 30
0.0
 41
1.0
 10
715.9252914826775
 20
397.920203956339
 30
0.0
 41
1.0
 10
715.8560132111056
 20
397.9208711570809
 30
0.0
 41
1.0
  0
SPLINE
  5
DE
330
1F
100
AcDbEntity
  8
1
  6
________________
 62
     7
370
     9
100
AcDbSpline
210
0.0
220
0.0
230
1.0
 70
    12
 71
     3
 72
    18
 73
    14
 74
     0
 42
0.000000001
 43
0.0001
 40
0.5933100614925778
 40
0.5933100614925778
 40
0.5933100614925778
 40
0.5933100614925778
 40
0.596894963551691
 40
0.604356150596087
 40
0.611817337640483
 40
0.619278524684879
 40
0.626739711729275
 40
0.634200898773671
 40
0.641662085818068
 40
0.649123272862464
 40
0.65658445990686
 40
0.664045646951256
 40
0.6661324043379018
 40
0.6661324043379018
 40
0.6661324043379018
 40
0.6661324043379018
 10
725.8561863830209
 20
397.9208755826683
 30
0.0
 41
1.0
 10
725.7831749831374
 20
397.9213740286133
 30
0.0
 41
1.0
 10
725.558206374404
 20
398.1749330750279
 30
0.0
 41
1.0
 10
725.1812805568209
 20
399.9017757113431
 30
0.0
 41
1.0
 10
724.7254089302706
 20
403.9474334989629
 30
0.0
 41
1.0
 10
724.2695373037207
 20
409.6205679060513
 30
0.0
 41
1.0
 10
723.813665677171
 20
416.4589079382229
 30
0.0
 41
1.0
 10
723.3577940506207
 20
423.9052367168032
 30
0.0
 41
1.0
 10
722.9019224240709
 20
431.3527958676746
 30
0.0
 41
1.0
 10
722.446050797521
 20
438.1947267607793
 30
0.0
 41
1.0
 10
721.990179170971
 20
443.8735199189013
 30
0.0
 41
1.0
 10
721.6437651046044
 20
446.95331161808
 30
0.0
 41
1.0
 10
721.449308247088
 20
448.1482435665578
 30
0.0
 41
1.0
 10
721.4068085984215
 20
448.3832778654816
 30
0.0
 41
1.0
  0
LINE
  5
DF
330
1F
100
AcDbEntity
  8
1
  6
________________
 62
     7
370
     9
100
AcDbLine
 10
721.4068085984215
 20
448.3832778654816
 30
0.0
 11
721.3951524378223
 21
448.447083993053
 31
0.0
  0
LINE
  5
E0
330
1F
100
AcDbEntity
  8
1
  6
________________
 62
     7
370
     9
100
AcDbLine
 10
721.3951524378223
 20
448.447083993053
 30
0.0
 11
721.3829312108694
 21
448.5125732909197
 31
0.0
  0
LINE
  5
E1
330
1F
100
AcDbEntity
  8
1
  6
________________
 62
     7
370
     9
100
AcDbLine
 10
721.3829312108694
 20
448.5125732909197
 30
0.0
 11
721.3712750502701
 21
448.5736867990167
 31
0.0
  0
SPLINE
  5
E2
330
1F
100
AcDbEntity
  8
1
  6
________________
 62
     7
370
     9
100
AcDbSpline
210
0.0
220
0.0
230
1.0
 70
    12
 71
     3
 72
     9
 73
     5
 74
     0
 42
0.000000001
 43
0.0001
 40
0.6667139769422679
 40
0.6667139769422679
 40
0.6667139769422679
 40
0.6667139769422679
 40
0.671506833995652
 40
0.6751348689897293
 40
0.6751348689897293
 40
0.6751348689897293
 40
0.6751348689897293
 10
721.3712750502701
 20
448.5736867990167
 30
0.0
 41
1.0
 10
721.2736620061371
 20
449.0799560656772
 30
0.0
 41
1.0
 10
721.1021591013118
 20
449.7257075330311
 30
0.0
 41
1.0
 10
720.9306561964864
 20
449.9199030066403
 30
0.0
 41
1.0
 10
720.8567663357941
 20
449.9197985805243
 30
0.0
 41
1.0
  0
LINE
  5
E3
330
1F
100
AcDbEntity
  8
1
  6
________________
 62
     7
370
     9
100
AcDbLine
 10
726.3914652861239
 20
399.3737106830891
 30
0.0
 11
726.3827560724826
 21
399.3272006249986
 31
0.0
  0
SPLINE
  5
E4
330
1F
100
AcDbEntity
  8
1
  6
________________
 62
     7
370
     9
100
AcDbSpline
210
0.0
220
0.0
230
1.0
 70
    12
 71
     3
 72
     9
 73
     5
 74
     0
 42
0.000000001
 43
0.0001
 40
0.5849135809745432
 40
0.5849135809745432
 40
0.5849135809745432
 40
0.5849135809745432
 40
0.589433776507295
 40
0.5933100614925778
 40
0.5933100614925778
 40
0.5933100614925778
 40
0.5933100614925778
 10
726.3692035756308
 20
399.2562868640888
 30
0.0
 41
1.0
 10
726.2771436537274
 20
398.7806315729561
 30
0.0
 41
1.0
 10
726.1061379228574
 20
398.1263109318231
 30
0.0
 41
1.0
 10
725.9351321919876
 20
397.9203366227467
 30
0.0
 41
1.0
 10
725.8561863830209
 20
397.9208755826683
 30
0.0
 41
1.0
  0
SPLINE
  5
E5
330
1F
100
AcDbEntity
  8
1
  6
________________
 62
     7
370
     9
100
AcDbSpline
210
0.0
220
0.0
230
1.0
 70
    12
 71
     3
 72
    18
 73
    14
 74
     0
 42
0.000000001
 43
0.0001
 40
0.4296308988645845
 40
0.4296308988645845
 40
0.4296308988645845
 40
0.4296308988645845
 40
0.432748848574977
 40
0.440210035619374
 40
0.447671222663769
 40
0.455132409708166
 40
0.462593596752562
 40
0.470054783796958
 40
0.477515970841354
 40
0.48497715788575
 40
0.492438344930146
 40
0.499899531974542
 40
0.5024505457451887
 40
0.5024505457451887
 40
0.5024505457451887
 40
0.5024505457451887
 10
735.8568318105608
 20
397.9208496995016
 30
0.0
 41
1.0
 10
735.7933305295305
 20
397.9208003011461
 30
0.0
 41
1.0
 10
735.5778720396502
 20
398.1306180019282
 30
0.0
 41
1.0
 10
735.2104563409199
 20
399.7068186333413
 30
0.0
 41
1.0
 10
734.7545847143698
 20
403.6355119943293
 30
0.0
 41
1.0
 10
734.29871308782
 20
409.2170986587162
 30
0.0
 41
1.0
 10
733.8428414612699
 20
415.9967673295278
 30
0.0
 41
1.0
 10
733.3869698347202
 20
423.4220819188504
 30
0.0
 41
1.0
 10
732.93109820817
 20
430.8879963776176
 30
0.0
 41
1.0
 10
732.4752265816202
 20
437.7861564076236
 30
0.0
 41
1.0
 10
732.0193549550701
 20
443.5544707436733
 30
0.0
 41
1.0
 10
731.6634856768342
 20
446.8085018216351
 30
0.0
 41
1.0
 10
731.4595736074481
 20
448.0909630417531
 30
0.0
 41
1.0
 10
731.4076187469119
 20
448.3787239638901
 30
0.0
 41
1.0
  0
LINE
  5
E6
330
1F
100
AcDbEntity
  8
1
  6
________________
 62
     7
370
     9
100
AcDbLine
 10
731.4076187469119
 20
448.3787239638901
 30
0.0
 11
731.4017341099518
 21
448.4111502053683
 31
0.0
  0
LINE
  5
E7
330
1F
100
AcDbEntity
  8
1
  6
________________
 62
     7
370
     9
100
AcDbLine
 10
731.4017341099517
 20
448.4111502053684
 30
0.0
 11
731.3949392877101
 21
448.4481764451071
 31
0.0
  0
LINE
  5
E8
330
1F
100
AcDbEntity
  8
1
  6
________________
 62
     7
370
     9
100
AcDbLine
 10
731.3949392877101
 20
448.4481764451071
 30
0.0
 11
731.3827182552985
 21
448.51364871607
 31
0.0
  0
LINE
  5
E9
330
1F
100
AcDbEntity
  8
1
  6
________________
 62
     7
370
     9
100
AcDbLine
 10
731.3827182552985
 20
448.51364871607
 30
0.0
 11
731.3700387960969
 21
448.5800488855478
 31
0.0
  0
SPLINE
  5
EA
330
1F
100
AcDbEntity
  8
1
  6
________________
 62
     7
370
     9
100
AcDbSpline
210
0.0
220
0.0
230
1.0
 70
    12
 71
     3
 72
     9
 73
     5
 74
     0
 42
0.000000001
 43
0.0001
 40
0.5030656115352505
 40
0.5030656115352505
 40
0.5030656115352505
 40
0.5030656115352505
 40
0.507360719018938
 40
0.5114510957554799
 40
0.5114510957554799
 40
0.5114510957554799
 40
0.5114510957554799
 10
731.3700387960969
 20
448.5800488855478
 30
0.0
 41
1.0
 10
731.2825630980547
 20
449.0327673402322
 30
0.0
 41
1.0
 10
731.1117813217261
 20
449.6991768567061
 30
0.0
 41
1.0
 10
730.9409995453975
 20
449.919045021869
 30
0.0
 41
1.0
 10
730.8576934671112
 20
449.9198032146552
 30
0.0
 41
1.0
  0
ARC
  5
EB
330
1F
100
AcDbEntity
  8
1
  6
________________
 62
     7
370
     9
100
AcDbCircle
 10
-734.4678022597321
 20
399.2225684460333
 30
0.0
 40
1.90364775842255
210
0.0
220
0.0
230
-1.0
100
AcDbArc
 50
178.7094387535055
 51
223.1414887563315
  0
SPLINE
  5
EC
330
1F
100
AcDbEntity
  8
1
  6
________________
 62
     7
370
     9
100
AcDbSpline
210
0.0
220
0.0
230
1.0
 70
    12
 71
     3
 72
    18
 73
    14
 74
     0
 42
0.000000001
 43
0.0001
 40
0.2659645002885428
 40
0.2659645002885428
 40
0.2659645002885428
 40
0.2659645002885428
 40
0.268602733598261
 40
0.276063920642658
 40
0.283525107687054
 40
0.29098629473145
 40
0.298447481775846
 40
0.305908668820242
 40
0.313369855864639
 40
0.320831042909035
 40
0.328292229953431
 40
0.335753416997827
 40
0.3388081956187672
 40
0.3388081956187672
 40
0.3388081956187672
 40
0.3388081956187672
 10
745.8566973663334
 20
397.9207981256947
 30
0.0
 41
1.0
 10
745.8029661614121
 20
397.920783482154
 30
0.0
 41
1.0
 10
745.5972777476405
 20
398.0904518173647
 30
0.0
 41
1.0
 10
745.239632125019
 20
399.5199982971118
 30
0.0
 41
1.0
 10
744.7837604984691
 20
403.3304070282692
 30
0.0
 41
1.0
 10
744.3278888719192
 20
408.8185703063519
 30
0.0
 41
1.0
 10
743.8720172453692
 20
415.5372893671739
 30
0.0
 41
1.0
 10
743.4161456188191
 20
422.9390945549199
 30
0.0
 41
1.0
 10
742.9602739922693
 20
430.4208554660315
 30
0.0
 41
1.0
 10
742.5044023657193
 20
437.37292656632
 30
0.0
 41
1.0
 10
742.0485307391693
 20
443.2288236884872
 30
0.0
 41
1.0
 10
741.6824016054825
 20
446.6683225385642
 30
0.0
 41
1.0
 10
741.4682296806455
 20
448.0438694337523
 30
0.0
 41
1.0
 10
741.4060149646587
 20
448.3875468130546
 30
0.0
 41
1.0
  0
LINE
  5
ED
330
1F
100
AcDbEntity
  8
1
  6
________________
 62
     7
370
     9
100
AcDbLine
 10
741.4060149646587
 20
448.3875468130546
 30
0.0
 11
741.394885607095
 21
448.4484291839751
 31
0.0
  0
LINE
  5
EE
330
1F
100
AcDbEntity
  8
1
  6
________________
 62
     7
370
     9
100
AcDbLine
 10
741.3948856070949
 20
448.4484291839751
 30
0.0
 11
741.3858599289811
 21
448.496925800016
 31
0.0
  0
ARC
  5
EF
330
1F
100
AcDbEntity
  8
1
  6
________________
 62
     7
370
     9
100
AcDbCircle
 10
739.2843125292829
 20
448.5263809250851
 30
0.0
 40
2.10175380993367
100
AcDbArc
 50
359.1969993854376
 51
41.52893982147202
  0
SPLINE
  5
F0
330
1F
100
AcDbEntity
  8
1
  6
________________
 62
     7
370
     9
100
AcDbSpline
210
0.0
220
0.0
230
1.0
 70
    12
 71
     3
 72
    10
 73
     6
 74
     0
 42
0.000000001
 43
0.0001
 40
0.167761294002341
 40
0.167761294002341
 40
0.167761294002341
 40
0.167761294002341
 40
0.171607302021111
 40
0.179068489065507
 40
0.1841255030979867
 40
0.1841255030979867
 40
0.1841255030979867
 40
0.1841255030979867
 10
748.3568224289809
 20
444.9549225477106
 30
0.0
 41
1.0
 10
748.2784932515632
 20
445.7070115969546
 30
0.0
 41
1.0
 10
748.0482068652956
 20
447.6942280648562
 30
0.0
 41
1.0
 10
747.7149275192056
 20
449.5152231011554
 30
0.0
 41
1.0
 10
747.4599773505332
 20
449.9195491694876
 30
0.0
 41
1.0
 10
747.3569843907109
 20
449.9199164328539
 30
0.0
 41
1.0
  0
LINE
  5
F1
330
1F
100
AcDbEntity
  8
1
  6
________________
 62
     7
370
     9
100
AcDbLine
 10
746.4846835428032
 20
399.9173661038707
 30
0.0
 11
746.4076840128554
 21
399.4623737114069
 31
0.0
  0
LINE
  5
F2
330
1F
100
AcDbEntity
  8
1
  6
________________
 62
     7
370
     9
100
AcDbLine
 10
746.4076840128554
 20
399.4623737114069
 30
0.0
 11
746.4005304677606
 21
399.4229852541777
 31
0.0
  0
LINE
  5
F3
330
1F
100
AcDbEntity
  8
1
  6
________________
 62
     7
370
     9
100
AcDbLine
 10
746.4005304677607
 20
399.4229852541777
 30
0.0
 11
746.3949489149888
 21
399.3925949361131
 31
0.0
  0
LINE
  5
F4
330
1F
100
AcDbEntity
  8
1
  6
________________
 62
     7
370
     9
100
AcDbLine
 10
746.3949489149888
 20
399.3925949361131
 30
0.0
 11
746.3827279673244
 21
399.3271048458857
 31
0.0
  0
LINE
  5
F5
330
1F
100
AcDbEntity
  8
1
  6
________________
 62
     7
370
     9
100
AcDbLine
 10
746.3827279673243
 20
399.3271048458856
 30
0.0
 11
746.3699928694576
 21
399.2603971097059
 31
0.0
  0
ARC
  5
F6
330
1F
100
AcDbEntity
  8
1
  6
________________
 62
     7
370
     9
100
AcDbCircle
 10
-744.2626248184134
 20
399.2997399943392
 30
0.0
 40
2.107735269224646
210
0.0
220
0.0
230
-1.0
100
AcDbArc
 50
181.0695423643865
 51
220.8612263800586
  0
LINE
  5
F7
330
1F
100
AcDbEntity
  8
1
  6
________________
 62
     7
370
     9
100
AcDbLine
 10
582.3568224289811
 20
397.9208124590594
 30
0.0
 11
582.3568224246889
 21
410.5546173652958
 31
0.0
  0
LINE
  5
F8
330
1F
100
AcDbEntity
  8
1
  6
________________
 62
     7
370
     9
100
AcDbLine
 10
582.3568224246889
 20
410.5546173652958
 30
0.0
 11
582.3568224239257
 21
414.8425243833064
 31
0.0
  0
LINE
  5
F9
330
1F
100
AcDbEntity
  8
1
  6
________________
 62
     7
370
     9
100
AcDbLine
 10
582.3568224239257
 20
414.8425243833064
 30
0.0
 11
582.3568224230673
 21
420.021017374283
 31
0.0
  0
LINE
  5
FA
330
1F
100
AcDbEntity
  8
1
  6
________________
 62
     7
370
     9
100
AcDbLine
 10
582.3568224230675
 20
420.021017374283
 30
0.0
 11
582.3568224224948
 21
423.580969764902
 31
0.0
  0
LINE
  5
FB
330
1F
100
AcDbEntity
  8
1
  6
________________
 62
     7
370
     9
100
AcDbLine
 10
582.3568224224948
 20
423.580969764902
 30
0.0
 11
582.3568224209695
 21
432.9141437756622
 31
0.0
  0
LINE
  5
FC
330
1F
100
AcDbEntity
  8
1
  6
________________
 62
     7
370
     9
100
AcDbLine
 10
582.3568224209695
 20
432.9141437756622
 30
0.0
 11
582.35682242011
 21
437.7230450036208
 31
0.0
  0
LINE
  5
FD
330
1F
100
AcDbEntity
  8
1
  6
________________
 62
     7
370
     9
100
AcDbLine
 10
582.35682242011
 20
437.7230450036208
 30
0.0
 11
582.3568224199194
 21
438.7175449004734
 31
0.0
  0
LINE
  5
FE
330
1F
100
AcDbEntity
  8
1
  6
________________
 62
     7
370
     9
100
AcDbLine
 10
582.3568224199194
 20
438.7175449004735
 30
0.0
 11
582.3568224198241
 21
439.2032775697526
 31
0.0
  0
ARC
  5
FF
330
1F
100
AcDbEntity
  8
1
  6
________________
 62
     7
370
     9
100
AcDbCircle
 10
-1019.328532464523
 20
436.614276205133
 30
0.0
 40
280.1120621404568
210
0.0
220
0.0
230
-1.0
100
AcDbArc
 50
352.7899910384813
 51
357.4026168238787
  0
ARC
  5
100
330
1F
100
AcDbEntity
  8
1
  6
________________
 62
     7
370
     9
100
AcDbCircle
 10
-1009.444783383055
 20
436.6224728438949
 30
0.0
 40
280.2285702273387
210
0.0
220
0.0
230
-1.0
100
AcDbArc
 50
352.7917746988425
 51
357.4020198390335
  0
ARC
  5
101
330
1F
100
AcDbEntity
  8
1
  6
________________
 62
     7
370
     9
100
AcDbCircle
 10
-999.359773027874
 20
436.6168020030981
 30
0.0
 40
280.1433957920303
210
0.0
220
0.0
230
-1.0
100
AcDbArc
 50
352.790422275412
 51
357.402390421599
  0
ARC
  5
102
330
1F
100
AcDbEntity
  8
1
  6
________________
 62
     7
370
     9
100
AcDbCircle
 10
-989.3790857117467
 20
436.6178606525707
 30
0.0
 40
280.162732476693
210
0.0
220
0.0
230
-1.0
100
AcDbArc
 50
352.7907639544252
 51
357.4023531042272
  0
ARC
  5
103
330
1F
100
AcDbEntity
  8
1
  6
________________
 62
     7
370
     9
100
AcDbCircle
 10
-979.3729271910263
 20
436.6174302002851
 30
0.0
 40
280.1565375438993
210
0.0
220
0.0
230
-1.0
100
AcDbArc
 50
352.7906682949584
 51
357.4023837484716
  0
ARC
  5
104
330
1F
100
AcDbEntity
  8
1
  6
________________
 62
     7
370
     9
100
AcDbCircle
 10
-969.3425594884689
 20
436.6156485741831
 30
0.0
 40
280.1261162048222
210
0.0
220
0.0
230
-1.0
100
AcDbArc
 50
352.7901482646988
 51
357.4024662381139
  0
ARC
  5
105
330
1F
100
AcDbEntity
  8
1
  6
________________
 62
     7
370
     9
100
AcDbCircle
 10
-959.3254496191375
 20
436.6140998828419
 30
0.0
 40
280.1089228528361
210
0.0
220
0.0
230
-1.0
100
AcDbArc
 50
352.7899362264305
 51
357.4026237975575
  0
ARC
  5
106
330
1F
100
AcDbEntity
  8
1
  6
________________
 62
     7
370
     9
100
AcDbCircle
 10
-949.305292632886
 20
436.6126187577213
 30
0.0
 40
280.0887395571779
210
0.0
220
0.0
230
-1.0
100
AcDbArc
 50
352.7896363467123
 51
357.4027397962851
  0
ARC
  5
107
330
1F
100
AcDbEntity
  8
1
  6
________________
 62
     7
370
     9
100
AcDbCircle
 10
-939.2843647797463
 20
436.6112385243545
 30
0.0
 40
280.0677751774249
210
0.0
220
0.0
230
-1.0
100
AcDbArc
 50
352.7893008958087
 51
357.4028279020691
  0
LINE
  5
108
330
1F
100
AcDbEntity
  8
1
  6
________________
 62
     7
370
     9
100
AcDbLine
 10
651.4315982964447
 20
401.4575055609865
 30
0.0
 11
651.3568224289811
 21
401.8792061444331
 31
0.0
  0
ARC
  5
109
330
1F
100
AcDbEntity
  8
1
  6
________________
 62
     7
370
     9
100
AcDbCircle
 10
-899.3166562124997
 20
436.6133772077725
 30
0.0
 40
280.1001069845904
210
0.0
220
0.0
230
-1.0
100
AcDbArc
 50
352.7898166981112
 51
357.4026899702869
  0
ARC
  5
10A
330
1F
100
AcDbEntity
  8
1
  6
________________
 62
     7
370
     9
100
AcDbCircle
 10
-889.2750645287637
 20
436.6104911924647
 30
0.0
 40
280.0584513632801
210
0.0
220
0.0
230
-1.0
100
AcDbArc
 50
352.7891718785323
 51
357.4028944269038
  0
ARC
  5
10B
330
1F
100
AcDbEntity
  8
1
  6
________________
 62
     7
370
     9
100
AcDbCircle
 10
-879.3736224431373
 20
436.6175498908399
 30
0.0
 40
280.1572298387326
210
0.0
220
0.0
230
-1.0
100
AcDbArc
 50
352.7906681637471
 51
357.4023656683808
  0
ARC
  5
10C
330
1F
100
AcDbEntity
  8
1
  6
________________
 62
     7
370
     9
100
AcDbCircle
 10
-869.3619818279205
 20
436.6166444259584
 30
0.0
 40
280.1455740369631
210
0.0
220
0.0
230
-1.0
100
AcDbArc
 50
352.7905026172698
 51
357.4024428939688
  0
SPLINE
  5
10D
330
1F
100
AcDbEntity
  8
1
  6
________________
 62
     7
370
     9
100
AcDbSpline
210
0.0
220
0.0
230
1.0
 70
    12
 71
     3
 72
    18
 73
    14
 74
     0
 42
0.000000001
 43
0.0001
 40
2.729696879388375
 40
2.729696879388375
 40
2.729696879388375
 40
2.729696879388375
 40
2.73079445824899
 40
2.73825564529339
 40
2.74571683233779
 40
2.75317801938218
 40
2.76063920642658
 40
2.76810039347097
 40
2.77556158051537
 40
2.78302276755977
 40
2.79048395460417
 40
2.79794514164856
 40
2.802824839288023
 40
2.802824839288023
 40
2.802824839288023
 40
2.802824839288023
 10
591.8249280431758
 20
399.3593338427084
 30
0.0
 41
1.0
 10
591.8025743588144
 20
399.4790654820205
 30
0.0
 41
1.0
 10
591.628263465603
 20
400.4694778011793
 30
0.0
 41
1.0
 10
591.3019953635421
 20
403.1432171598776
 30
0.0
 41
1.0
 10
590.8461237369911
 20
408.5720539529072
 30
0.0
 41
1.0
 10
590.3902521104411
 20
415.2515337241593
 30
0.0
 41
1.0
 10
589.9343804838911
 20
422.6373842011541
 30
0.0
 41
1.0
 10
589.4785088573411
 20
430.1277750376682
 30
0.0
 41
1.0
 10
589.0226372307911
 20
437.1123574966787
 30
0.0
 41
1.0
 10
588.5667656042411
 20
443.0219982478236
 30
0.0
 41
1.0
 10
588.1108939776911
 20
447.3751547591516
 30
0.0
 41
1.0
 10
587.707597889366
 20
449.5354830586652
 30
0.0
 41
1.0
 10
587.45625900989
 20
449.9196707285718
 30
0.0
 41
1.0
 10
587.3568773392641
 20
449.9198903289403
 30
0.0
 41
1.0
  0
SPLINE
  5
10E
330
1F
100
AcDbEntity
  8
1
  6
________________
 62
     7
370
     9
100
AcDbSpline
210
0.0
220
0.0
230
1.0
 70
    12
 71
     3
 72
    18
 73
    14
 74
     0
 42
0.000000001
 43
0.0001
 40
2.566034197826122
 40
2.566034197826122
 40
2.566034197826122
 40
2.566034197826122
 40
2.56664834327228
 40
2.57410953031668
 40
2.58157071736107
 40
2.58903190440547
 40
2.59649309144987
 40
2.60395427849426
 40
2.61141546553865
 40
2.61887665258305
 40
2.62633783962745
 40
2.63379902667185
 40
2.639159335758796
 40
2.639159335758796
 40
2.639159335758796
 40
2.639159335758796
 10
601.8245664928442
 20
399.3611975712415
 30
0.0
 41
1.0
 10
601.8120585866262
 20
399.4282459233389
 30
0.0
 41
1.0
 10
601.6475934715581
 20
400.3398845425604
 30
0.0
 41
1.0
 10
601.3311711476401
 20
402.8494066189212
 30
0.0
 41
1.0
 10
600.87529952109
 20
408.1818393084889
 30
0.0
 41
1.0
 10
600.4194278945401
 20
414.7967113164952
 30
0.0
 41
1.0
 10
599.9635562679902
 20
422.1550148843629
 30
0.0
 41
1.0
 10
599.50768464144
 20
429.6571643045754
 30
0.0
 41
1.0
 10
599.0518130148902
 20
436.6918527009592
 30
0.0
 41
1.0
 10
598.5959413883402
 20
442.6858638993791
 30
0.0
 41
1.0
 10
598.1400697617911
 20
447.1507805068682
 30
0.0
 41
1.0
 10
597.7269853685114
 20
449.4813790971677
 30
0.0
 41
1.0
 10
597.4658581840823
 20
449.9198715748672
 30
0.0
 41
1.0
 10
597.3566882085036
 20
449.919966801922
 30
0.0
 41
1.0
  0
SPLINE
  5
10F
330
1F
100
AcDbEntity
  8
1
  6
________________
 62
     7
370
     9
100
AcDbSpline
210
0.0
220
0.0
230
1.0
 70
    12
 71
     3
 72
    18
 73
    14
 74
     0
 42
0.000000001
 43
0.0001
 40
2.402358374041527
 40
2.402358374041527
 40
2.402358374041527
 40
2.402358374041527
 40
2.40250222829557
 40
2.40996341533996
 40
2.41742460238435
 40
2.42488578942876
 40
2.43234697647315
 40
2.43980816351755
 40
2.44726935056194
 40
2.45473053760634
 40
2.46219172465073
 40
2.46965291169513
 40
2.475488716196322
 40
2.475488716196322
 40
2.475488716196322
 40
2.475488716196322
 10
611.8250079201406
 20
399.3587885263877
 30
0.0
 41
1.0
 10
611.8220781328567
 20
399.374484994816
 30
0.0
 41
1.0
 10
611.667191136723
 20
400.2109392848073
 30
0.0
 41
1.0
 10
611.3603469317392
 20
402.5626767804063
 30
0.0
 41
1.0
 10
610.9044753051891
 20
407.7969134489331
 30
0.0
 41
1.0
 10
610.4486036786402
 20
414.3449548235482
 30
0.0
 41
1.0
 10
609.9927320520891
 20
421.6732387884403
 30
0.0
 41
1.0
 10
609.5368604255391
 20
429.1846257603565
 30
0.0
 41
1.0
 10
609.0809887989891
 20
436.2670561483259
 30
0.0
 41
1.0
 10
608.6251171724401
 20
442.343423558744
 30
0.0
 41
1.0
 10
608.1692455458891
 20
446.9185998660438
 30
0.0
 41
1.0
 10
607.7464770426236
 20
449.4236340962506
 30
0.0
 41
1.0
 10
607.4756657482085
 20
449.919771557343
 30
0.0
 41
1.0
 10
607.356811662643
 20
449.9200555310031
 30
0.0
 41
1.0
  0
SPLINE
  5
110
330
1F
100
AcDbEntity
  8
1
  6
________________
 62
     7
370
     9
100
AcDbSpline
210
0.0
220
0.0
230
1.0
 70
    12
 71
     3
 72
    17
 73
    13
 74
     0
 42
0.000000001
 43
0.0001
 40
2.238688857999101
 40
2.238688857999101
 40
2.238688857999101
 40
2.238688857999101
 40
2.24581730036325
 40
2.25327848740764
 40
2.26073967445204
 40
2.26820086149643
 40
2.27566204854083
 40
2.28312323558523
 40
2.29058442262962
 40
2.29804560967402
 40
2.30550679671842
 40
2.311812943384282
 40
2.311812943384282
 40
2.311812943384282
 40
2.311812943384282
 10
621.8250639502254
 20
399.3584927011652
 30
0.0
 41
1.0
 10
621.6798835387629
 20
400.1364777500107
 30
0.0
 41
1.0
 10
621.3827459184505
 20
402.3594480872815
 30
0.0
 41
1.0
 10
620.9336510892881
 20
407.4174057252243
 30
0.0
 41
1.0
 10
620.4777794627382
 20
413.8964160541543
 30
0.0
 41
1.0
 10
620.0219078361881
 20
421.1922178100489
 30
0.0
 41
1.0
 10
619.5660362096381
 20
428.7103181974749
 30
0.0
 41
1.0
 10
619.110164583089
 20
435.8381105879618
 30
0.0
 41
1.0
 10
618.6542929565381
 20
441.9947923000143
 30
0.0
 41
1.0
 10
618.1984213299882
 20
446.6786908589603
 30
0.0
 41
1.0
 10
617.7660736696639
 20
449.362136547162
 30
0.0
 41
1.0
 10
617.4856832181889
 20
449.9192833887208
 30
0.0
 41
1.0
 10
617.3572499755641
 20
449.9201434808751
 30
0.0
 41
1.0
  0
SPLINE
  5
111
330
1F
100
AcDbEntity
  8
1
  6
________________
 62
     7
370
     9
100
AcDbSpline
210
0.0
220
0.0
230
1.0
 70
    12
 71
     3
 72
    18
 73
    14
 74
     0
 42
0.000000001
 43
0.0001
 40
1.584012900967146
 40
1.584012900967146
 40
1.584012900967146
 40
1.584012900967146
 40
1.58923284045638
 40
1.59669402750078
 40
1.60415521454517
 40
1.61161640158957
 40
1.61907758863397
 40
1.62653877567836
 40
1.63399996272276
 40
1.64146114976715
 40
1.64892233681155
 40
1.65638352385595
 40
1.657151515928229
 40
1.657151515928229
 40
1.657151515928229
 40
1.657151515928229
 10
661.8251593263982
 20
399.3582706587201
 30
0.0
 41
1.0
 10
661.7188481683438
 20
399.9280346807124
 30
0.0
 41
1.0
 10
661.4605798014394
 20
401.7108901290942
 30
0.0
 41
1.0
 10
661.0503542256852
 20
405.9560785878476
 30
0.0
 41
1.0
 10
660.5944825991351
 20
412.1374354827669
 30
0.0
 41
1.0
 10
660.1386109725851
 20
419.2789129838122
 30
0.0
 41
1.0
 10
659.6827393460352
 20
426.7985932887777
 30
0.0
 41
1.0
 10
659.2268677194851
 20
434.0837410308274
 30
0.0
 41
1.0
 10
658.7709960929351
 20
440.5407315486528
 30
0.0
 41
1.0
 10
658.3151244663852
 20
445.6434219354896
 30
0.0
 41
1.0
 10
657.8592528398351
 20
448.9760233892571
 30
0.0
 41
1.0
 10
657.5396972204028
 20
449.88095556009
 30
0.0
 41
1.0
 10
657.3720988098207
 20
449.9203123263259
 30
0.0
 41
1.0
 10
657.3564576080886
 20
449.9202070656733
 30
0.0
 41
1.0
  0
SPLINE
  5
112
330
1F
100
AcDbEntity
  8
1
  6
________________
 62
     7
370
     9
100
AcDbSpline
210
0.0
220
0.0
230
1.0
 70
    12
 71
     3
 72
    18
 73
    14
 74
     0
 42
0.000000001
 43
0.0001
 40
1.420344818319077
 40
1.420344818319077
 40
1.420344818319077
 40
1.420344818319077
 40
1.42508672547966
 40
1.43254791252406
 40
1.44000909956845
 40
1.44747028661285
 40
1.45493147365725
 40
1.46239266070164
 40
1.46985384774604
 40
1.47731503479043
 40
1.48477622183483
 40
1.49223740887923
 40
1.493492300636352
 40
1.493492300636352
 40
1.493492300636352
 40
1.493492300636352
 10
671.8251277774134
 20
399.3585093124971
 30
0.0
 41
1.0
 10
671.7285523970537
 20
399.876066772167
 30
0.0
 41
1.0
 10
671.4800198078439
 20
401.5561834769301
 30
0.0
 41
1.0
 10
671.0795300097839
 20
405.6055365963249
 30
0.0
 41
1.0
 10
670.6236583832339
 20
411.7072228539319
 30
0.0
 41
1.0
 10
670.167786756684
 20
418.8040852628816
 30
0.0
 41
1.0
 10
669.711915130134
 20
426.3178414474377
 30
0.0
 41
1.0
 10
669.2560435035842
 20
433.6362387631597
 30
0.0
 41
1.0
 10
668.8001718770341
 20
440.1629432327986
 30
0.0
 41
1.0
 10
668.344300250484
 20
445.366131361838
 30
0.0
 41
1.0
 10
667.8884286239344
 20
448.8218253669585
 30
0.0
 41
1.0
 10
667.5589566310539
 20
449.8528827146338
 30
0.0
 41
1.0
 10
667.3814418470237
 20
449.9204594537653
 30
0.0
 41
1.0
 10
667.3558842718434
 20
449.9201208441331
 30
0.0
 41
1.0
  0
SPLINE
  5
113
330
1F
100
AcDbEntity
  8
1
  6
________________
 62
     7
370
     9
100
AcDbSpline
210
0.0
220
0.0
230
1.0
 70
    12
 71
     3
 72
    18
 73
    14
 74
     0
 42
0.000000001
 43
0.0001
 40
1.256675227177136
 40
1.256675227177136
 40
1.256675227177136
 40
1.256675227177136
 40
1.26094061050295
 40
1.26840179754734
 40
1.27586298459174
 40
1.28332417163613
 40
1.29078535868053
 40
1.29824654572493
 40
1.30570773276932
 40
1.31316891981372
 40
1.32063010685812
 40
1.32809129390251
 40
1.329810184791929
 40
1.329810184791929
 40
1.329810184791929
 40
1.329810184791929
 10
681.8251883960094
 20
399.3582332649353
 30
0.0
 41
1.0
 10
681.7383180708173
 20
399.8236580723674
 30
0.0
 41
1.0
 10
681.4994905367755
 20
401.4040327976227
 30
0.0
 41
1.0
 10
681.1087057938831
 20
405.261149133761
 30
0.0
 41
1.0
 10
680.6528341673335
 20
411.2811143355134
 30
0.0
 41
1.0
 10
680.1969625407831
 20
418.330976813544
 30
0.0
 41
1.0
 10
679.7410909142334
 20
425.8362839453435
 30
0.0
 41
1.0
 10
679.2852192876834
 20
433.1854715510381
 30
0.0
 41
1.0
 10
678.8293476611335
 20
439.7796967302784
 30
0.0
 41
1.0
 10
678.3734760345835
 20
445.0816341154511
 30
0.0
 41
1.0
 10
677.9176044080333
 20
448.6592594160422
 30
0.0
 41
1.0
 10
677.5786824425642
 20
449.8203889531601
 30
0.0
 41
1.0
 10
677.3917176859449
 20
449.9202078061849
 30
0.0
 41
1.0
 10
677.3567101381753
 20
449.9200375106447
 30
0.0
 41
1.0
  0
SPLINE
  5
114
330
1F
100
AcDbEntity
  8
1
  6
________________
 62
     7
370
     9
100
AcDbSpline
210
0.0
220
0.0
230
1.0
 70
    12
 71
     3
 72
    18
 73
    14
 74
     0
 42
0.000000001
 43
0.0001
 40
1.093011141190261
 40
1.093011141190261
 40
1.093011141190261
 40
1.093011141190261
 40
1.09679449552623
 40
1.10425568257063
 40
1.11171686961502
 40
1.11917805665942
 40
1.12663924370381
 40
1.13410043074821
 40
1.14156161779261
 40
1.149022804837
 40
1.1564839918814
 40
1.1639451789258
 40
1.166138210098418
 40
1.166138210098418
 40
1.166138210098418
 40
1.166138210098418
 10
691.8249126547233
 20
399.3597334360358
 30
0.0
 41
1.0
 10
691.7478595046597
 20
399.7726931449171
 30
0.0
 41
1.0
 10
691.518849145746
 20
401.2558212569197
 30
0.0
 41
1.0
 10
691.1378815779827
 20
404.9230319285643
 30
0.0
 41
1.0
 10
690.6820099514324
 20
410.8592531175687
 30
0.0
 41
1.0
 10
690.2261383248826
 20
417.8597466197745
 30
0.0
 41
1.0
 10
689.7702666983326
 20
425.3540826057013
 30
0.0
 41
1.0
 10
689.3143950717827
 20
432.7315908708593
 30
0.0
 41
1.0
 10
688.8585234452327
 20
439.3911208277426
 30
0.0
 41
1.0
 10
688.4026518186828
 20
444.7900257991522
 30
0.0
 41
1.0
 10
687.9467801921329
 20
448.4883801653795
 30
0.0
 41
1.0
 10
687.5982017157609
 20
449.7855537490736
 30
0.0
 41
1.0
 10
687.401580448239
 20
449.9200592050066
 30
0.0
 41
1.0
 10
687.3569163895672
 20
449.9199509764414
 30
0.0
 41
1.0
  0
SPLINE
  5
115
330
1F
100
AcDbEntity
  8
1
  6
________________
 62
     7
370
     9
100
AcDbSpline
210
0.0
220
0.0
230
1.0
 70
    12
 71
     3
 72
    18
 73
    14
 74
     0
 42
0.000000001
 43
0.0001
 40
0.9293413624620762
 40
0.9293413624620762
 40
0.9293413624620762
 40
0.9293413624620762
 40
0.932648380549514
 40
0.940109567593911
 40
0.947570754638307
 40
0.955031941682703
 40
0.962493128727099
 40
0.969954315771495
 40
0.977415502815892
 40
0.984876689860288
 40
0.992337876904684
 40
0.99979906394908
 40
1.002467051712253
 40
1.002467051712253
 40
1.002467051712253
 40
1.002467051712253
 10
701.8249847346653
 20
399.3593411318146
 30
0.0
 41
1.0
 10
701.7576328193209
 20
399.7201952035231
 30
0.0
 41
1.0
 10
701.5383236951263
 20
401.109313330189
 30
0.0
 41
1.0
 10
701.1670573620817
 20
404.5912986020771
 30
0.0
 41
1.0
 10
700.711185735532
 20
410.4417809628875
 30
0.0
 41
1.0
 10
700.2553141089818
 20
417.390553034377
 30
0.0
 41
1.0
 10
699.7994424824318
 20
424.8713994680728
 30
0.0
 41
1.0
 10
699.3435708558821
 20
432.2747492452743
 30
0.0
 41
1.0
 10
698.8876992293319
 20
438.99734610274
 30
0.0
 41
1.0
 10
698.4318276027818
 20
444.4914044053766
 30
0.0
 41
1.0
 10
697.9759559762322
 20
448.3092450374558
 30
0.0
 41
1.0
 10
697.61770436375
 20
449.7477860274835
 30
0.0
 41
1.0
 10
697.4114099601178
 20
449.9198875473507
 30
0.0
 41
1.0
 10
697.3570727653356
 20
449.9198784472505
 30
0.0
 41
1.0
  0
SPLINE
  5
116
330
1F
100
AcDbEntity
  8
1
  6
________________
 62
     7
370
     9
100
AcDbSpline
210
0.0
220
0.0
230
1.0
 70
    12
 71
     3
 72
    18
 73
    14
 74
     0
 42
0.000000001
 43
0.0001
 40
0.7656757939574472
 40
0.7656757939574472
 40
0.7656757939574472
 40
0.7656757939574472
 40
0.768502265572801
 40
0.775963452617197
 40
0.783424639661593
 40
0.790885826705989
 40
0.798347013750385
 40
0.805808200794781
 40
0.813269387839177
 40
0.820730574883573
 40
0.828191761927969
 40
0.835652948972365
 40
0.8387990164867707
 40
0.8387990164867707
 40
0.8387990164867707
 40
0.8387990164867707
 10
711.8247995738426
 20
399.3602989901162
 30
0.0
 41
1.0
 10
711.7672346401387
 20
399.6687677002517
 30
0.0
 41
1.0
 10
711.5577124975847
 20
400.9664233580093
 30
0.0
 41
1.0
 10
711.1962331461809
 20
404.2660606303977
 30
0.0
 41
1.0
 10
710.740361519631
 20
410.028838159354
 30
0.0
 41
1.0
 10
710.2844898930811
 20
416.9235537257728
 30
0.0
 41
1.0
 10
709.828618266531
 20
424.3883967339255
 30
0.0
 41
1.0
 10
709.3727466399812
 20
431.8151001919358
 30
0.0
 41
1.0
 10
708.9168750134312
 20
438.5985048798398
 30
0.0
 41
1.0
 10
708.4610033868811
 20
444.1858702832448
 30
0.0
 41
1.0
 10
708.0051317603312
 20
448.1219142290712
 30
0.0
 41
1.0
 10
707.6371434043292
 20
449.7072904087891
 30
0.0
 41
1.0
 10
707.4211122571771
 20
449.9198053450769
 30
0.0
 41
1.0
 10
707.3570383188752
 20
449.9198285105442
 30
0.0
 41
1.0
  0
SPLINE
  5
117
330
1F
100
AcDbEntity
  8
1
  6
________________
 62
     7
370
     9
100
AcDbSpline
210
0.0
220
0.0
230
1.0
 70
    12
 71
     3
 72
    18
 73
    14
 74
     0
 42
0.000000001
 43
0.0001
 40
0.602006893722701
 40
0.602006893722701
 40
0.602006893722701
 40
0.602006893722701
 40
0.604356150596087
 40
0.611817337640483
 40
0.619278524684879
 40
0.626739711729275
 40
0.634200898773671
 40
0.641662085818068
 40
0.649123272862464
 40
0.65658445990686
 40
0.664045646951256
 40
0.671506833995652
 40
0.6751333723113894
 40
0.6751333723113894
 40
0.6751333723113894
 40
0.6751333723113894
 10
721.824817978648
 20
399.3601412264427
 30
0.0
 41
1.0
 10
721.7769721713754
 20
399.6164849094528
 30
0.0
 41
1.0
 10
721.5771691552527
 20
400.8257109028916
 30
0.0
 41
1.0
 10
721.22540893028
 20
403.9474273069128
 30
0.0
 41
1.0
 10
720.7695373037302
 20
409.6205634728008
 30
0.0
 41
1.0
 10
720.3136656771803
 20
416.458905625012
 30
0.0
 41
1.0
 10
719.8577940506301
 20
423.905236712122
 30
0.0
 41
1.0
 10
719.4019224240802
 20
431.3527981719046
 30
0.0
 41
1.0
 10
718.9460507975303
 20
438.1947311861621
 30
0.0
 41
1.0
 10
718.4901791709804
 20
443.8735261048381
 30
0.0
 41
1.0
 10
718.0343075444302
 20
447.9264506911129
 30
0.0
 41
1.0
 10
717.6565337479253
 20
449.6640405470213
 30
0.0
 41
1.0
 10
717.4307171602705
 20
449.9198420225522
 30
0.0
 41
1.0
 10
717.3568577814655
 20
449.9198067274118
 30
0.0
 41
1.0
  0
SPLINE
  5
118
330
1F
100
AcDbEntity
  8
1
  6
________________
 62
     7
370
     9
100
AcDbSpline
210
0.0
220
0.0
230
1.0
 70
    12
 71
     3
 72
    18
 73
    14
 74
     0
 42
0.000000001
 43
0.0001
 40
0.4383382544956482
 40
0.4383382544956482
 40
0.4383382544956482
 40
0.4383382544956482
 40
0.440210035619374
 40
0.447671222663769
 40
0.455132409708166
 40
0.462593596752562
 40
0.470054783796958
 40
0.477515970841354
 40
0.48497715788575
 40
0.492438344930146
 40
0.499899531974542
 40
0.507360719018938
 40
0.511451064226752
 40
0.511451064226752
 40
0.511451064226752
 40
0.511451064226752
 10
731.8248204361249
 20
399.3600504417942
 30
0.0
 41
1.0
 10
731.7866990710596
 20
399.5642745915583
 30
0.0
 41
1.0
 10
731.5966204971445
 20
400.6878466557397
 30
0.0
 41
1.0
 10
731.2545847143791
 20
403.6355057055766
 30
0.0
 41
1.0
 10
730.7987130878292
 20
409.2170941003811
 30
0.0
 41
1.0
 10
730.3428414612795
 20
415.9967648730428
 30
0.0
 41
1.0
 10
729.8869698347294
 20
423.4220817643803
 30
0.0
 41
1.0
 10
729.4310982081793
 20
430.8879985377494
 30
0.0
 41
1.0
 10
728.9752265816295
 20
437.7861607063404
 30
0.0
 41
1.0
 10
728.5193549550795
 20
443.5544768306975
 30
0.0
 41
1.0
 10
728.0634833285295
 20
447.7229201074006
 30
0.0
 41
1.0
 10
727.6762634746685
 20
449.6161667870306
 30
0.0
 41
1.0
 10
727.4410008296576
 20
449.9190514286755
 30
0.0
 41
1.0
 10
727.3576953934966
 20
449.9198112575244
 30
0.0
 41
1.0
  0
SPLINE
  5
119
330
1F
100
AcDbEntity
  8
1
  6
________________
 62
     7
370
     9
100
AcDbSpline
210
0.0
220
0.0
230
1.0
 70
    12
 71
     3
 72
    18
 73
    14
 74
     0
 42
0.000000001
 43
0.0001
 40
0.2746708400813916
 40
0.2746708400813916
 40
0.2746708400813916
 40
0.2746708400813916
 40
0.276063920642658
 40
0.283525107687054
 40
0.29098629473145
 40
0.298447481775846
 40
0.305908668820242
 40
0.313369855864639
 40
0.320831042909035
 40
0.328292229953431
 40
0.335753416997827
 40
0.343214604042223
 40
0.3477804080128099
 40
0.3477804080128099
 40
0.3477804080128099
 40
0.3477804080128099
 10
741.8247480586728
 20
399.3603514672801
 30
0.0
 41
1.0
 10
741.7963760807913
 20
399.5123632020311
 30
0.0
 41
1.0
 10
741.6160468940599
 20
400.5529797620248
 30
0.0
 41
1.0
 10
741.2837604984784
 20
403.3304006449271
 30
0.0
 41
1.0
 10
740.8278888719285
 20
408.8185656244641
 30
0.0
 41
1.0
 10
740.3720172453786
 20
415.5372867682404
 30
0.0
 41
1.0
 10
739.9161456188285
 20
422.9390942507129
 30
0.0
 41
1.0
 10
739.4602739922788
 20
430.420857481339
 30
0.0
 41
1.0
 10
739.0044023657288
 20
437.3729307369262
 30
0.0
 41
1.0
 10
738.5485307391785
 20
443.2288296745535
 30
0.0
 41
1.0
 10
738.0926591126287
 20
447.5113908726144
 30
0.0
 41
1.0
 10
737.695755895238
 20
449.566345880579
 30
0.0
 41
1.0
 10
737.4508098866972
 20
449.91879066299
 30
0.0
 41
1.0
 10
737.3578210870065
 20
449.9198471011788
 30
0.0
 41
1.0
  0
LINE
  5
11A
330
1F
100
AcDbEntity
  8
1
  6
________________
 62
     7
370
     9
100
AcDbLine
 10
748.3568224289811
 20
444.9549225477092
 30
0.0
 11
748.3568224289811
 21
439.7631392075937
 31
0.0
  0
LWPOLYLINE
  5
11B
330
1F
100
AcDbEntity
  8
1
  6
________________
 62
     7
370
     9
100
AcDbPolyline
 90
        4
 70
     0
 43
0.0
 10
748.3568224289818
 20
439.7631392075962
 42
0.0513504912028777
 10
747.2314166474642
 20
447.6764025570292
 10
747.151030520213
 20
447.8184255879031
 10
747.0706443929618
 20
447.8994938474235
  0
LWPOLYLINE
  5
11C
330
1F
100
AcDbEntity
  8
1
  6
________________
 62
     7
370
     9
100
AcDbPolyline
 90
        6
 70
     0
 43
0.0
 10
739.5042460908978
 20
423.9203362308599
 42
0.0268412791825857
 10
737.3748437989882
 20
447.2728159809624
 10
737.2987937171342
 20
447.5106583092905
 10
737.2227436352804
 20
447.694644767861
 10
737.1466935534264
 20
447.8243553221057
 10
737.0706434715726
 20
447.8994938474235
  0
LWPOLYLINE
  5
11D
330
1F
100
AcDbEntity
  8
1
  6
________________
 62
     7
370
     9
100
AcDbPolyline
 90
        7
 70
     0
 43
0.0
 10
729.5042409510548
 20
423.9203362308705
 42
0.0251193139361664
 10
727.3949015278696
 20
447.2010863075305
 10
727.3167778455294
 20
447.4591829605386
 10
727.2386541631892
 20
447.6605724700155
 10
727.160530480849
 20
447.8047696709932
 10
727.0824067985088
 20
447.8914271797843
 10
727.004283116169
 20
447.9203362308599
  0
LWPOLYLINE
  5
11E
330
1F
100
AcDbEntity
  8
1
  6
________________
 62
     7
370
     9
100
AcDbPolyline
 90
        7
 70
     0
 43
0.0
 10
719.5042353610554
 20
423.9203362308442
 42
0.0251196555966463
 10
717.39486671023
 20
447.2010863075267
 10
717.3167419453845
 20
447.4591829605357
 10
717.2386171805391
 20
447.6605724700134
 10
717.1604924156937
 20
447.8047696709918
 10
717.0823676508484
 20
447.8914271797836
 10
717.0042428860025
 20
447.9203362308599
  0
LWPOLYLINE
  5
11F
330
1F
100
AcDbEntity
  8
1
  6
________________
 62
     7
370
     9
100
AcDbPolyline
 90
        7
 70
     0
 43
0.0
 10
709.5042394994315
 20
423.92033623086
 42
0.0251195504980272
 10
707.394879839362
 20
447.201086307529
 10
707.3167554075076
 20
447.4591829605374
 10
707.2386309756532
 20
447.6605724700146
 10
707.1605065437986
 20
447.8047696709926
 10
707.0823821119443
 20
447.891427179784
 10
707.0042576800898
 20
447.9203362308599
  0
LWPOLYLINE
  5
120
330
1F
100
AcDbEntity
  8
1
  6
________________
 62
     7
370
     9
100
AcDbPolyline
 90
        7
 70
     0
 43
0.0
 10
699.5042627547986
 20
423.9203362308597
 42
0.025119176946105
 10
697.3949350505353
 20
447.2010863075289
 10
697.3168118022293
 20
447.4591829605374
 10
697.2386885539232
 20
447.6605724700146
 10
697.1605653056172
 20
447.8047696709926
 10
697.0824420573111
 20
447.891427179784
 10
697.004318809005
 20
447.9203362308599
  0
LWPOLYLINE
  5
121
330
1F
100
AcDbEntity
  8
1
  6
________________
 62
     7
370
     9
100
AcDbPolyline
 90
        7
 70
     0
 43
0.0
 10
689.504266854128
 20
423.9203362308599
 42
0.0251194568259668
 10
687.3949152073144
 20
447.201086307529
 10
687.3167910722473
 20
447.4591829605374
 10
687.2386669371801
 20
447.6605724700146
 10
687.160542802113
 20
447.8047696709926
 10
687.0824186670458
 20
447.891427179784
 10
687.0042945319786
 20
447.9203362308599
  0
LWPOLYLINE
  5
122
330
1F
100
AcDbEntity
  8
1
  6
________________
 62
     7
370
     9
100
AcDbPolyline
 90
        7
 70
     0
 43
0.0
 10
679.5042977629497
 20
423.9203362308599
 42
0.0251197715184807
 10
677.394919195491
 20
447.201086307529
 10
677.3167940633629
 20
447.4591829605374
 10
677.2386689312348
 20
447.6605724700146
 10
677.1605437991067
 20
447.8047696709926
 10
677.0824186669786
 20
447.891427179784
 10
677.0042935348505
 20
447.9203362308599
  0
LWPOLYLINE
  5
123
330
1F
100
AcDbEntity
  8
1
  6
________________
 62
     7
370
     9
100
AcDbPolyline
 90
        7
 70
     0
 43
0.0
 10
669.5042776401112
 20
423.9203362308599
 42
0.0251195624404265
 10
667.3949169584188
 20
447.201086307529
 10
667.3167924887264
 20
447.4591829605374
 10
667.2386680190342
 20
447.6605724700146
 10
667.1605435493418
 20
447.8047696709926
 10
667.0824190796496
 20
447.891427179784
 10
667.0042946099572
 20
447.9203362308599
  0
LWPOLYLINE
  5
124
330
1F
100
AcDbEntity
  8
1
  6
________________
 62
     7
370
     9
100
AcDbPolyline
 90
        7
 70
     0
 43
0.0
 10
659.5042731152221
 20
423.9203362308599
 42
0.0251195448737368
 10
657.3949139362874
 20
447.201086307529
 10
657.3167895222526
 20
447.4591829605374
 10
657.238665108218
 20
447.6605724700146
 10
657.1605406941835
 20
447.8047696709926
 10
657.0824162801489
 20
447.891427179784
 10
657.0042918661142
 20
447.9203362308599
  0
LWPOLYLINE
  5
125
330
1F
100
AcDbEntity
  8
1
  6
________________
 62
     7
370
     9
100
AcDbPolyline
 90
        6
 70
     0
 43
0.0
 10
627.356822428981
 20
447.3339988448973
 10
627.3167961750388
 20
447.4591829605374
 10
627.2386711754932
 20
447.6605724700146
 10
627.1605461759478
 20
447.8047696709926
 10
627.0824211764024
 20
447.891427179784
 10
627.0042961768568
 20
447.9203362308599
  0
LWPOLYLINE
  5
126
330
1F
100
AcDbEntity
  8
1
  6
________________
 62
     7
370
     9
100
AcDbPolyline
 90
        7
 70
     0
 43
0.0
 10
619.504296507755
 20
423.92033623086
 42
0.0251197671403098
 10
617.3949183148311
 20
447.201086307529
 10
617.3167931965746
 20
447.4591829605374
 10
617.2386680783181
 20
447.6605724700146
 10
617.1605429600617
 20
447.8047696709926
 10
617.0824178418053
 20
447.891427179784
 10
617.0042927235488
 20
447.9203362308599
  0
LWPOLYLINE
  5
127
330
1F
100
AcDbEntity
  8
1
  6
________________
 62
     7
370
     9
100
AcDbPolyline
 90
        7
 70
     0
 43
0.0
 10
609.5042723665916
 20
423.9203362308599
 42
0.0251195865475943
 10
607.3949096226307
 20
447.201086307529
 10
607.3167850765582
 20
447.4591829605374
 10
607.2386605304855
 20
447.6605724700146
 10
607.1605359844128
 20
447.8047696709926
 10
607.0824114383403
 20
447.891427179784
 10
607.0042868922676
 20
447.9203362308599
  0
LWPOLYLINE
  5
128
330
1F
100
AcDbEntity
  8
1
  6
________________
 62
     7
370
     9
100
AcDbPolyline
 90
        6
 70
     0
 43
0.0
 10
599.5042704301217
 20
423.92033623086
 42
0.0268415535491712
 10
597.374845944815
 20
447.2728159809625
 10
597.2987950703398
 20
447.5106583092906
 10
597.2227441958646
 20
447.6946447678611
 10
597.1466933213893
 20
447.8243553221058
 10
597.0706424469141
 20
447.8994938474236
  0
LWPOLYLINE
  5
129
330
1F
100
AcDbEntity
  8
1
  6
________________
 62
     7
370
     9
100
AcDbPolyline
 90
        6
 70
     0
 43
0.0
 10
589.504256526805
 20
423.92033623086
 42
0.0268413795353506
 10
587.3748461174043
 20
447.2728159809624
 10
587.2987957456401
 20
447.5106583092905
 10
587.2227453738758
 20
447.694644767861
 10
587.1466950021114
 20
447.8243553221057
 10
587.070644630347
 20
447.8994938474235
  0
LINE
  5
12A
330
1F
100
AcDbEntity
  8
1
  6
________________
 62
     7
370
     9
100
AcDbLine
 10
582.3568224289809
 20
399.8228460399268
 30
0.0
 11
582.3568224289816
 21
397.9208124590596
 31
0.0
  0
ARC
  5
12B
330
1F
100
AcDbEntity
  8
1
  6
________________
 62
     7
370
     9
100
AcDbCircle
 10
-585.7792247794424
 20
426.8677291292512
 30
0.0
 40
137.4053825734881
210
0.0
220
0.0
230
-1.0
100
AcDbArc
 50
171.9367008636976
 51
176.5502863115357
  0
LINE
  5
12C
330
1F
100
AcDbEntity
  8
1
  6
________________
 62
     7
370
     9
100
AcDbLine
 10
722.9356279689057
 20
435.1357533367613
 30
0.0
 11
723.7095163384192
 21
423.9203362308709
 31
0.0
  0
ARC
  5
12D
330
1F
100
AcDbEntity
  8
1
  6
________________
 62
     7
370
     9
100
AcDbCircle
 10
-623.017290210627
 20
432.5518316284351
 30
0.0
 40
89.84077599963796
210
0.0
220
0.0
230
-1.0
100
AcDbArc
 50
171.2507117759809
 51
175.7909817469149
  0
LINE
  5
12E
330
1F
100
AcDbEntity
  8
1
  6
________________
 62
     7
370
     9
100
AcDbLine
 10
712.6157600052404
 20
439.1457108115018
 30
0.0
 11
713.7095031753888
 21
423.92033623086
 31
0.0
  0
LINE
  5
12F
330
1F
100
AcDbEntity
  8
1
  6
________________
 62
     7
370
     9
100
AcDbLine
 10
701.7760703497952
 20
446.4157781388524
 30
0.0
 11
702.2303110175029
 21
443.1508886836997
 31
0.0
  0
LINE
  5
130
330
1F
100
AcDbEntity
  8
1
  6
________________
 62
     7
370
     9
100
AcDbLine
 10
702.230311017503
 20
443.1508886836997
 30
0.0
 11
702.3532374288412
 21
441.9855920240425
 31
0.0
  0
ARC
  5
131
330
1F
100
AcDbEntity
  8
1
  6
________________
 62
     7
370
     9
100
AcDbCircle
 10
-104.3860672209894
 20
388.0086099273585
 30
0.0
 40
600.3984104264865
210
0.0
220
0.0
230
-1.0
100
AcDbArc
 50
174.8420341803014
 51
176.5709116259269
  0
LINE
  5
132
330
1F
100
AcDbEntity
  8
1
  6
________________
 62
     7
370
     9
100
AcDbLine
 10
691.7757433671414
 20
446.4174695799408
 30
0.0
 11
692.173267529764
 21
443.6530993735576
 31
0.0
  0
ARC
  5
133
330
1F
100
AcDbEntity
  8
1
  6
________________
 62
     7
370
     9
100
AcDbCircle
 10
-211.5571232639368
 20
396.3089343937503
 30
0.0
 40
482.9423858873702
210
0.0
220
0.0
230
-1.0
100
AcDbArc
 50
174.3741019235481
 51
176.7224248961563
  0
LINE
  5
134
330
1F
100
AcDbEntity
  8
1
  6
________________
 62
     7
370
     9
100
AcDbLine
 10
681.7889544511467
 20
446.3470553318789
 30
0.0
 11
681.8843515935441
 21
445.7948122479629
 31
0.0
  0
ARC
  5
135
330
1F
100
AcDbEntity
  8
1
  6
________________
 62
     7
370
     9
100
AcDbCircle
 10
-475.7133589854002
 20
419.4850306161222
 30
0.0
 40
207.8429281994999
210
0.0
220
0.0
230
-1.0
100
AcDbArc
 50
172.7277075382687
 51
176.9033984942135
  0
LINE
  5
136
330
1F
100
AcDbEntity
  8
1
  6
________________
 62
     7
370
     9
100
AcDbLine
 10
683.25281078912
 20
430.7126192955295
 30
0.0
 11
683.7094780756577
 21
423.9203362308599
 31
0.0
  0
LINE
  5
137
330
1F
100
AcDbEntity
  8
1
  6
________________
 62
     7
370
     9
100
AcDbLine
 10
671.7889497592103
 20
446.3469857523738
 30
0.0
 11
671.8859222036183
 21
445.7849490451825
 31
0.0
  0
ARC
  5
138
330
1F
100
AcDbEntity
  8
1
  6
________________
 62
     7
370
     9
100
AcDbCircle
 10
-559.8744028546612
 20
429.9912711608117
 30
0.0
 40
113.1194975588961
210
0.0
220
0.0
230
-1.0
100
AcDbArc
 50
171.9741760577307
 51
175.8598701939383
  0
LINE
  5
139
330
1F
100
AcDbEntity
  8
1
  6
________________
 62
     7
370
     9
100
AcDbLine
 10
672.6987107489945
 20
438.1580499714428
 30
0.0
 11
673.7094663599001
 21
423.9203362308598
 31
0.0
  0
LINE
  5
13A
330
1F
100
AcDbEntity
  8
1
  6
________________
 62
     7
370
     9
100
AcDbLine
 10
661.8160228470074
 20
446.1984976778088
 30
0.0
 11
661.9907752714298
 21
445.0861839353474
 31
0.0
  0
ARC
  5
13B
330
1F
100
AcDbEntity
  8
1
  6
________________
 62
     7
370
     9
100
AcDbCircle
 10
-278.1963851201635
 20
403.268156530074
 30
0.0
 40
386.0659028296214
210
0.0
220
0.0
230
-1.0
100
AcDbArc
 50
173.7816142517904
 51
176.9335603045371
  0
LINE
  5
13C
330
1F
100
AcDbEntity
  8
1
  6
________________
 62
     7
370
     9
100
AcDbLine
 10
621.7888485423204
 20
446.3475102333449
 30
0.0
 11
621.9216550733261
 21
445.5572434326325
 31
0.0
  0
LINE
  5
13D
330
1F
100
AcDbEntity
  8
1
  6
________________
 62
     7
370
     9
100
AcDbLine
 10
621.9216550733261
 20
445.5572434326325
 30
0.0
 11
622.5616354060903
 21
439.7671959777451
 31
0.0
  0
LINE
  5
13E
330
1F
100
AcDbEntity
  8
1
  6
________________
 62
     7
370
     9
100
AcDbLine
 10
622.5616354060904
 20
439.7671959777451
 30
0.0
 11
623.7094607374806
 21
423.9203362308598
 31
0.0
  0
LINE
  5
13F
330
1F
100
AcDbEntity
  8
1
  6
________________
 62
     7
370
     9
100
AcDbLine
 10
611.7889225210815
 20
446.347108290307
 30
0.0
 11
611.8392094818887
 21
446.0659277139796
 31
0.0
  0
ARC
  5
140
330
1F
100
AcDbEntity
  8
1
  6
________________
 62
     7
370
     9
100
AcDbCircle
 10
-298.8998848538492
 20
408.485659352145
 30
0.0
 40
315.1877178266962
210
0.0
220
0.0
230
-1.0
100
AcDbArc
 50
173.1522542455771
 51
177.1931150132321
  0
LINE
  5
141
330
1F
100
AcDbEntity
  8
1
  6
________________
 62
     7
370
     9
100
AcDbLine
 10
601.788838630059
 20
446.3477206820246
 30
0.0
 11
601.9071774312787
 21
445.6510019252428
 31
0.0
  0
LINE
  5
142
330
1F
100
AcDbEntity
  8
1
  6
________________
 62
     7
370
     9
100
AcDbLine
 10
601.9071774312787
 20
445.6510019252428
 30
0.0
 11
602.5301960638666
 21
440.1204741802321
 31
0.0
  0
LINE
  5
143
330
1F
100
AcDbEntity
  8
1
  6
________________
 62
     7
370
     9
100
AcDbLine
 10
602.5301960638666
 20
440.1204741802321
 30
0.0
 11
603.7094937715415
 21
423.9203362308599
 31
0.0
  0
LINE
  5
144
330
1F
100
AcDbEntity
  8
1
  6
________________
 62
     7
370
     9
100
AcDbLine
 10
597.0706424469141
 20
447.8994938474235
 30
0.0
 11
591.4976505718722
 21
447.8994938474235
 31
0.0
  0
LINE
  5
145
330
1F
100
AcDbEntity
  8
1
  6
________________
 62
     7
370
     9
100
AcDbLine
 10
591.4976505718722
 20
447.8994938474235
 30
0.0
 11
591.4873192867856
 21
447.8994938474235
 31
0.0
  0
LINE
  5
146
330
1F
100
AcDbEntity
  8
1
  6
________________
 62
     7
370
     9
100
AcDbLine
 10
591.7890611891953
 20
446.3463281077161
 30
0.0
 11
592.2482993448222
 21
442.9867325760038
 31
0.0
  0
ARC
  5
147
330
1F
100
AcDbEntity
  8
1
  6
________________
 62
     7
370
     9
100
AcDbCircle
 10
-70.36857653161876
 20
393.4024565768464
 30
0.0
 40
524.2299548003209
210
0.0
220
0.0
230
-1.0
100
AcDbArc
 50
174.5725670578006
 51
176.6626576388798
  0
LWPOLYLINE
  5
148
330
1F
100
AcDbEntity
  8
1
  6
________________
 62
     7
370
     9
100
AcDbPolyline
 90
        7
 70
     0
 43
0.0
 10
593.709483141612
 20
423.9203362308599
 42
0.0251197120111992
 10
595.8188566184675
 20
400.6395861541909
 10
595.8969815620549
 20
400.3814895011823
 10
595.975106505642
 20
400.1800999917052
 10
596.0532314492293
 20
400.0359027907272
 10
596.1313563928165
 20
399.9492452819358
 10
596.2094813364037
 20
399.9203362308599
  0
LINE
  5
149
330
1F
100
AcDbEntity
  8
1
  6
________________
 62
     7
370
     9
100
AcDbLine
 10
603.7094937715415
 20
423.9203362308599
 30
0.0
 11
604.389755172418
 21
413.971664665807
 31
0.0
  0
LINE
  5
14A
330
1F
100
AcDbEntity
  8
1
  6
________________
 62
     7
370
     9
100
AcDbLine
 10
604.389755172418
 20
413.971664665807
 30
0.0
 11
604.7611011328231
 21
409.1913280801047
 31
0.0
  0
LWPOLYLINE
  5
14B
330
1F
100
AcDbEntity
  8
1
  6
________________
 62
     7
370
     9
100
AcDbPolyline
 90
        5
 70
     0
 43
0.0
 10
604.7611011328231
 20
409.1913280801048
 42
0.0477080249256889
 10
605.9751017173983
 20
400.1800999917052
 10
606.0532261293243
 20
400.0359027907272
 10
606.1313505412504
 20
399.9492452819358
 10
606.2094749531766
 20
399.9203362308599
  0
ARC
  5
14C
330
1F
100
AcDbEntity
  8
1
  6
________________
 62
     7
370
     9
100
AcDbCircle
 10
913.2229153904012
 20
438.2795056847717
 30
0.0
 40
299.857459593445
100
AcDbArc
 50
182.7447526806322
 51
187.0480090318778
  0
LINE
  5
14D
330
1F
100
AcDbEntity
  8
1
  6
________________
 62
     7
370
     9
100
AcDbLine
 10
615.6312726214508
 20
401.4867043791911
 30
0.0
 11
616.0275890196087
 21
400.0768618058564
 31
0.0
  0
LINE
  5
14E
330
1F
100
AcDbEntity
  8
1
  6
________________
 62
     7
370
     9
100
AcDbLine
 10
616.0275890196087
 20
400.0768618058564
 30
0.0
 11
616.2094578227351
 21
399.9203362308598
 31
0.0
  0
LINE
  5
14F
330
1F
100
AcDbEntity
  8
1
  6
________________
 62
     7
370
     9
100
AcDbLine
 10
623.7094607374805
 20
423.9203362308598
 30
0.0
 11
624.4185224919256
 21
413.5780218129211
 31
0.0
  0
LWPOLYLINE
  5
150
330
1F
100
AcDbEntity
  8
1
  6
________________
 62
     7
370
     9
100
AcDbPolyline
 90
        5
 70
     0
 43
0.0
 10
624.4185224919256
 20
413.5780218129211
 42
0.0433900861374791
 10
625.9750540662588
 20
400.1800999917052
 10
626.0531779741477
 20
400.0359027907272
 10
626.1313018820367
 20
399.9492452819358
 10
626.1331932231316
 20
399.9478627423268
  0
LINE
  5
151
330
1F
100
AcDbEntity
  8
1
  6
________________
 62
     7
370
     9
100
AcDbLine
 10
626.1331932231316
 20
399.9478627423268
 30
0.0
 11
626.2094257899255
 21
399.9203362308599
 31
0.0
  0
LWPOLYLINE
  5
152
330
1F
100
AcDbEntity
  8
1
  6
________________
 62
     7
370
     9
100
AcDbPolyline
 90
        5
 70
     0
 43
0.0
 10
655.355507811079
 20
403.2927975958878
 42
0.0561491510413451
 10
655.9750690002675
 20
400.1800999917052
 10
656.0531941305921
 20
400.0359027907272
 10
656.1313192609168
 20
399.9492452819358
 10
656.2094443912415
 20
399.9203362308599
  0
LWPOLYLINE
  5
153
330
1F
100
AcDbEntity
  8
1
  6
________________
 62
     7
370
     9
100
AcDbPolyline
 90
        7
 70
     0
 43
0.0
 10
663.7095091526115
 20
423.9203362308489
 42
0.0251194699592236
 10
665.8188619229185
 20
400.6395861541893
 10
665.8969860995965
 20
400.3814895011812
 10
665.9751102762746
 20
400.1800999917043
 10
666.0532344529526
 20
400.0359027907266
 10
666.1313586296307
 20
399.9492452819355
 10
666.2094828063083
 20
399.9203362308599
  0
ARC
  5
154
330
1F
100
AcDbEntity
  8
1
  6
________________
 62
     7
370
     9
100
AcDbCircle
 10
1247.867204444944
 20
458.1080835771088
 30
0.0
 40
575.1746780514112
100
AcDbArc
 50
183.4076063417982
 51
185.2600684982667
  0
LWPOLYLINE
  5
155
330
1F
100
AcDbEntity
  8
1
  6
________________
 62
     7
370
     9
100
AcDbPolyline
 90
        5
 70
     0
 43
0.0
 10
675.1146831538313
 20
405.3780197973424
 42
0.0509489796073781
 10
675.9750991822392
 20
400.1800999917052
 10
676.053224451975
 20
400.0359027907272
 10
676.1313497217109
 20
399.9492452819358
 10
676.1802671414467
 20
399.9243775669967
  0
LINE
  5
156
330
1F
100
AcDbEntity
  8
1
  6
________________
 62
     7
370
     9
100
AcDbLine
 10
676.1802671414467
 20
399.9243775669967
 30
0.0
 11
676.2094749914468
 21
399.9203362308598
 31
0.0
  0
LWPOLYLINE
  5
157
330
1F
100
AcDbEntity
  8
1
  6
________________
 62
     7
370
     9
100
AcDbPolyline
 90
        5
 70
     0
 43
0.0
 10
683.7094780756577
 20
423.9203362308599
 42
0.025119822902253
 10
685.8188610387876
 20
400.6395861541909
 10
685.8969863337182
 20
400.3814895011823
 10
685.9751116286491
 20
400.1800999917052
 10
686.0458341248102
 20
400.0471028820733
  0
LINE
  5
158
330
1F
100
AcDbEntity
  8
1
  6
________________
 62
     7
370
     9
100
AcDbLine
 10
686.0458341248102
 20
400.0471028820733
 30
0.0
 11
686.1661679760188
 21
399.9292257549798
 31
0.0
  0
LINE
  5
159
330
1F
100
AcDbEntity
  8
1
  6
________________
 62
     7
370
     9
100
AcDbLine
 10
686.1661679760189
 20
399.9292257549798
 30
0.0
 11
686.2094875134413
 21
399.9203362308599
 31
0.0
  0
LWPOLYLINE
  5
15A
330
1F
100
AcDbEntity
  8
1
  6
________________
 62
     7
370
     9
100
AcDbPolyline
 90
        7
 70
     0
 43
0.0
 10
693.709545818439
 20
423.9203362308598
 42
0.0251197672985116
 10
695.8189240248965
 20
400.6395861541908
 10
695.8970491436543
 20
400.3814895011823
 10
695.975174262412
 20
400.1800999917052
 10
696.0532993811696
 20
400.0359027907272
 10
696.1314244999273
 20
399.9492452819358
 10
696.2095496186851
 20
399.9203362308599
  0
ARC
  5
15B
330
1F
100
AcDbEntity
  8
1
  6
________________
 62
     7
370
     9
100
AcDbCircle
 10
994.1981305845355
 20
437.6449387420951
 30
0.0
 40
290.8126519112097
100
AcDbArc
 50
182.7050198604202
 51
187.1747845787813
  0
LINE
  5
15C
330
1F
100
AcDbEntity
  8
1
  6
________________
 62
     7
370
     9
100
AcDbLine
 10
705.6626105427376
 20
401.3234274046023
 30
0.0
 11
706.0505750244897
 21
400.0399115131527
 31
0.0
  0
LINE
  5
15D
330
1F
100
AcDbEntity
  8
1
  6
________________
 62
     7
370
     9
100
AcDbLine
 10
706.0505750244897
 20
400.0399115131527
 30
0.0
 11
706.2095138122
 21
399.9203362308599
 31
0.0
  0
LWPOLYLINE
  5
15E
330
1F
100
AcDbEntity
  8
1
  6
________________
 62
     7
370
     9
100
AcDbPolyline
 90
        7
 70
     0
 43
0.0
 10
713.7095031753888
 20
423.92033623086
 42
0.0251196008059642
 10
715.8188671390943
 20
400.6395861541909
 10
715.8969917303427
 20
400.3814895011824
 10
715.975116321591
 20
400.1800999917052
 10
716.0532409128393
 20
400.0359027907272
 10
716.1313655040877
 20
399.9492452819358
 10
716.2094900953362
 20
399.9203362308599
  0
LINE
  5
15F
330
1F
100
AcDbEntity
  8
1
  6
________________
 62
     7
370
     9
100
AcDbLine
 10
723.7095163384193
 20
423.9203362308709
 30
0.0
 11
724.0872625114549
 21
418.277363838239
 31
0.0
  0
LWPOLYLINE
  5
160
330
1F
100
AcDbEntity
  8
1
  6
________________
 62
     7
370
     9
100
AcDbPolyline
 90
        6
 70
     0
 43
0.0
 10
724.0872625114549
 20
418.277363838239
 42
0.0324727541665182
 10
725.897006498716
 20
400.3814895011836
 10
725.975131147298
 20
400.1800999917061
 10
726.0532557958801
 20
400.0359027907277
 10
726.1313804444621
 20
399.949245281936
 10
726.2095050930445
 20
399.9203362308599
  0
LINE
  5
161
330
1F
100
AcDbEntity
  8
1
  6
________________
 62
     7
370
     9
100
AcDbLine
 10
737.0706434715726
 20
447.8994938474235
 30
0.0
 11
731.4976604895145
 21
447.8994938474235
 31
0.0
  0
LINE
  5
162
330
1F
100
AcDbEntity
  8
1
  6
________________
 62
     7
370
     9
100
AcDbLine
 10
731.4976604895145
 20
447.8994938474235
 30
0.0
 11
731.4879738622982
 21
447.8994938474235
 31
0.0
  0
LINE
  5
163
330
1F
100
AcDbEntity
  8
1
  6
________________
 62
     7
370
     9
100
AcDbLine
 10
731.7889266499773
 20
446.347103546002
 30
0.0
 11
732.0549827927949
 21
444.6124984574036
 31
0.0
  0
ARC
  5
164
330
1F
100
AcDbEntity
  8
1
  6
________________
 62
     7
370
     9
100
AcDbCircle
 10
-549.1259274000226
 20
422.9213767031332
 30
0.0
 40
184.2105970617611
210
0.0
220
0.0
230
-1.0
100
AcDbArc
 50
173.2376321266037
 51
176.0119767030638
  0
LINE
  5
165
330
1F
100
AcDbEntity
  8
1
  6
________________
 62
     7
370
     9
100
AcDbLine
 10
732.8904787390564
 20
435.7328458231889
 30
0.0
 11
733.7095152578285
 21
423.9203362308601
 31
0.0
  0
LINE
  5
166
330
1F
100
AcDbEntity
  8
1
  6
________________
 62
     7
370
     9
100
AcDbLine
 10
733.7095152578286
 20
423.9203362308601
 30
0.0
 11
734.3101347856702
 21
415.0766430678222
 31
0.0
  0
LWPOLYLINE
  5
167
330
1F
100
AcDbEntity
  8
1
  6
________________
 62
     7
370
     9
100
AcDbPolyline
 90
        4
 70
     0
 43
0.0
 10
734.3101347856701
 20
415.0766430678221
 42
0.0407048199303929
 10
735.9751353188962
 20
400.1800999917052
 10
736.053260148588
 20
400.0359027907272
 10
736.0708048599216
 20
400.0114222838776
  0
LINE
  5
168
330
1F
100
AcDbEntity
  8
1
  6
________________
 62
     7
370
     9
100
AcDbLine
 10
736.0708048599216
 20
400.0114222838776
 30
0.0
 11
736.209509807972
 21
399.9203362308599
 31
0.0
  0
LINE
  5
169
330
1F
100
AcDbEntity
  8
1
  6
________________
 62
     7
370
     9
100
AcDbLine
 10
581.3568224289811
 20
401.1223100005039
 30
0.0
 11
581.3568224289811
 21
399.9203362308599
 31
0.0
  0
LINE
  5
16A
330
1F
100
AcDbEntity
  8
1
  6
________________
 62
     7
370
     9
100
AcDbLine
 10
581.3568224289811
 20
401.1223100005039
 30
0.0
 11
580.3568224289811
 21
401.1223100005039
 31
0.0
  0
LINE
  5
16B
330
1F
100
AcDbEntity
  8
1
  6
________________
 62
     7
370
     9
100
AcDbLine
 10
580.3568224289811
 20
416.4203362308599
 30
0.0
 11
580.3568224289811
 21
401.1223100005039
 31
0.0
  0
LINE
  5
16C
330
1F
100
AcDbEntity
  8
1
  6
________________
 62
     7
370
     9
100
AcDbLine
 10
581.3568224289811
 20
416.4203362308599
 30
0.0
 11
580.3568224289811
 21
416.4203362308599
 31
0.0
  0
LINE
  5
16D
330
1F
100
AcDbEntity
  8
1
  6
________________
 62
     7
370
     9
100
AcDbLine
 10
581.3568224289811
 20
431.4203362308599
 30
0.0
 11
581.3568224289811
 21
416.4203362308599
 31
0.0
  0
LINE
  5
16E
330
1F
100
AcDbEntity
  8
1
  6
________________
 62
     7
370
     9
100
AcDbLine
 10
580.3568224289811
 20
431.4203362308599
 30
0.0
 11
581.3568224289811
 21
431.4203362308599
 31
0.0
  0
LINE
  5
16F
330
1F
100
AcDbEntity
  8
1
  6
________________
 62
     7
370
     9
100
AcDbLine
 10
580.3568224289811
 20
446.7183624612159
 30
0.0
 11
580.3568224289811
 21
431.4203362308599
 31
0.0
  0
LINE
  5
170
330
1F
100
AcDbEntity
  8
1
  6
________________
 62
     7
370
     9
100
AcDbLine
 10
581.3568224289811
 20
446.7183624612159
 30
0.0
 11
580.3568224289811
 21
446.7183624612159
 31
0.0
  0
LINE
  5
171
330
1F
100
AcDbEntity
  8
1
  6
________________
 62
     7
370
     9
100
AcDbLine
 10
581.3568224289811
 20
447.8994938474235
 30
0.0
 11
581.3568224289811
 21
446.7183624612159
 31
0.0
  0
LINE
  5
172
330
1F
100
AcDbEntity
  8
1
  6
________________
 62
     7
370
     9
100
AcDbLine
 10
587.070644630348
 20
447.8994938474235
 30
0.0
 11
581.3568224289811
 21
447.8994938474235
 31
0.0
  0
LINE
  5
173
330
1F
100
AcDbEntity
  8
1
  6
________________
 62
     7
370
     9
100
AcDbLine
 10
582.3568224289811
 20
441.9497962180663
 30
0.0
 11
582.3568224289811
 21
439.3044246556694
 31
0.0
  0
LINE
  5
174
330
1F
100
AcDbEntity
  8
1
  6
________________
 62
     7
370
     9
100
AcDbLine
 10
582.4418724780396
 20
441.0779365550177
 30
0.0
 11
583.236751029918
 21
430.9449719037579
 31
0.0
  0
LINE
  5
175
330
1F
100
AcDbEntity
  8
1
  6
________________
 62
     7
370
     9
100
AcDbLine
 10
583.236751029918
 20
430.9449719037579
 30
0.0
 11
583.7095063155544
 21
423.9203362308599
 31
0.0
  0
ARC
  5
176
330
1F
100
AcDbEntity
  8
1
  6
________________
 62
     7
370
     9
100
AcDbCircle
 10
1165.685670400318
 20
458.6435894515513
 30
0.0
 40
583.0111147114128
100
AcDbArc
 50
183.4144699572288
 51
185.2273800315699
  0
LWPOLYLINE
  5
177
330
1F
100
AcDbEntity
  8
1
  6
________________
 62
     7
370
     9
100
AcDbPolyline
 90
        4
 70
     0
 43
0.0
 10
585.0993139790237
 20
405.5263359976145
 42
0.0514003407884059
 10
585.975126103054
 20
400.1800999917052
 10
586.0532509233126
 20
400.0359027907272
 10
586.0859643008928
 20
399.9925988736104
  0
LINE
  5
178
330
1F
100
AcDbEntity
  8
1
  6
________________
 62
     7
370
     9
100
AcDbLine
 10
586.0859643008928
 20
399.9925988736104
 30
0.0
 11
586.2095005638298
 21
399.9203362308599
 31
0.0
  0
LINE
  5
179
330
1F
100
AcDbEntity
  8
1
  6
________________
 62
     7
370
     9
100
AcDbLine
 10
747.0706443929618
 20
447.8994938474235
 30
0.0
 11
741.4976527810599
 21
447.8994938474235
 31
0.0
  0
LINE
  5
17A
330
1F
100
AcDbEntity
  8
1
  6
________________
 62
     7
370
     9
100
AcDbLine
 10
741.4976527810597
 20
447.8994938474235
 30
0.0
 11
741.487503900688
 21
447.8994938474235
 31
0.0
  0
LINE
  5
17B
330
1F
100
AcDbEntity
  8
1
  6
________________
 62
     7
370
     9
100
AcDbLine
 10
750.3568224289811
 20
447.8994938474235
 30
0.0
 11
748.3568224289811
 21
447.8994938474235
 31
0.0
  0
LINE
  5
17C
330
1F
100
AcDbEntity
  8
1
  6
________________
 62
     7
370
     9
100
AcDbLine
 10
750.3568224289811
 20
447.8994938474235
 30
0.0
 11
750.3568224289811
 21
399.92033623086
 31
0.0
  0
LINE
  5
17D
330
1F
100
AcDbEntity
  8
1
  6
________________
 62
     7
370
     9
100
AcDbLine
 10
741.7758418762932
 20
446.4165743325085
 30
0.0
 11
741.7890772889212
 21
446.3462619793315
 31
0.0
  0
LINE
  5
17E
330
1F
100
AcDbEntity
  8
1
  6
________________
 62
     7
370
     9
100
AcDbLine
 10
741.7890772889214
 20
446.3462619793315
 30
0.0
 11
742.1002824437471
 21
444.2580466405844
 31
0.0
  0
ARC
  5
17F
330
1F
100
AcDbEntity
  8
1
  6
________________
 62
     7
370
     9
100
AcDbCircle
 10
-375.5503707344288
 20
405.6734255340237
 30
0.0
 40
368.5751087092642
210
0.0
220
0.0
230
-1.0
100
AcDbArc
 50
173.9909291308355
 51
176.7372484471713
  0
LINE
  5
180
330
1F
100
AcDbEntity
  8
1
  6
________________
 62
     7
370
     9
100
AcDbLine
 10
743.5280296889662
 20
426.650872241955
 30
0.0
 11
743.7095012579085
 21
423.9203362308598
 31
0.0
  0
LWPOLYLINE
  5
181
330
1F
100
AcDbEntity
  8
1
  6
________________
 62
     7
370
     9
100
AcDbPolyline
 90
        5
 70
     0
 43
0.0
 10
743.7095012579085
 20
423.9203362308598
 42
0.0281260300097861
 10
745.8671860873351
 20
400.4733486806489
 10
745.9501739653899
 20
400.2382424549852
 10
746.0331618434449
 20
400.0675098776578
 10
746.0714576710001
 20
400.0105652273591
  0
LINE
  5
182
330
1F
100
AcDbEntity
  8
1
  6
________________
 62
     7
370
     9
100
AcDbLine
 10
746.0714576710001
 20
400.0105652273591
 30
0.0
 11
746.2095072832382
 21
399.9203362308712
 31
0.0
  0
LINE
  5
183
330
1F
100
AcDbEntity
  8
1
  6
________________
 62
     7
370
     9
100
AcDbLine
 10
591.7824462122416
 20
446.3816440132431
 30
0.0
 11
592.2482993448224
 21
442.9867220804034
 31
0.0
  0
ARC
  5
184
330
1F
100
AcDbEntity
  8
1
  6
________________
 62
     7
370
     9
100
AcDbCircle
 10
-70.44083391424793
 20
393.4074809223189
 30
0.0
 40
524.1575451454377
210
0.0
220
0.0
230
-1.0
100
AcDbArc
 50
174.5723678733923
 51
176.6627460973774
  0
LINE
  5
185
330
1F
100
AcDbEntity
  8
1
  6
________________
 62
     7
370
     9
100
AcDbLine
 10
601.7822254870697
 20
446.3827924782485
 30
0.0
 11
601.9071774312787
 21
445.6510010715461
 31
0.0
  0
LINE
  5
186
330
1F
100
AcDbEntity
  8
1
  6
________________
 62
     7
370
     9
100
AcDbLine
 10
601.9071774312787
 20
445.6510010715462
 30
0.0
 11
602.5301960638667
 21
440.120477131324
 31
0.0
  0
LINE
  5
187
330
1F
100
AcDbEntity
  8
1
  6
________________
 62
     7
370
     9
100
AcDbLine
 10
602.5301960638667
 20
440.1204771313239
 30
0.0
 11
603.7094722531721
 21
423.9203348031551
 31
0.0
  0
LINE
  5
188
330
1F
100
AcDbEntity
  8
1
  6
________________
 62
     7
370
     9
100
AcDbLine
 10
611.7823672722518
 20
446.3820420082445
 30
0.0
 11
611.8392094818888
 21
446.0659062020213
 31
0.0
  0
ARC
  5
189
330
1F
100
AcDbEntity
  8
1
  6
________________
 62
     7
370
     9
100
AcDbCircle
 10
-298.9327685267996
 20
408.4878071524371
 30
0.0
 40
315.1548100844427
210
0.0
220
0.0
230
-1.0
100
AcDbArc
 50
173.1519330144258
 51
177.1932121314907
  0
LINE
  5
18A
330
1F
100
AcDbEntity
  8
1
  6
________________
 62
     7
370
     9
100
AcDbLine
 10
621.7822123260927
 20
446.3828928594575
 30
0.0
 11
621.9216550733262
 21
445.5572471370653
 31
0.0
  0
LINE
  5
18B
330
1F
100
AcDbEntity
  8
1
  6
________________
 62
     7
370
     9
100
AcDbLine
 10
621.9216550733261
 20
445.5572471370653
 30
0.0
 11
622.5616354060905
 21
439.7672076746655
 31
0.0
  0
LINE
  5
18C
330
1F
100
AcDbEntity
  8
1
  6
________________
 62
     7
370
     9
100
AcDbLine
 10
622.5616354060905
 20
439.7672076746655
 30
0.0
 11
623.7094300242379
 21
423.9203341934904
 31
0.0
  0
LINE
  5
18D
330
1F
100
AcDbEntity
  8
1
  6
________________
 62
     7
370
     9
100
AcDbLine
 10
661.7822315599868
 20
446.3830630579673
 30
0.0
 11
661.8160228470074
 21
446.1985174236349
 31
0.0
  0
LINE
  5
18E
330
1F
100
AcDbEntity
  8
1
  6
________________
 62
     7
370
     9
100
AcDbLine
 10
661.8160228470073
 20
446.1985174236349
 30
0.0
 11
661.9907752714298
 21
445.0861929602572
 31
0.0
  0
ARC
  5
18F
330
1F
100
AcDbEntity
  8
1
  6
________________
 62
     7
370
     9
100
AcDbCircle
 10
-278.238624378475
 20
403.2687969873418
 30
0.0
 40
386.0238437207277
210
0.0
220
0.0
230
-1.0
100
AcDbArc
 50
173.7810283317308
 51
176.9333195650175
  0
LINE
  5
190
330
1F
100
AcDbEntity
  8
1
  6
________________
 62
     7
370
     9
100
AcDbLine
 10
671.7823150069885
 20
446.3826813122736
 30
0.0
 11
671.8859222036184
 21
445.7849379021638
 31
0.0
  0
ARC
  5
191
330
1F
100
AcDbEntity
  8
1
  6
________________
 62
     7
370
     9
100
AcDbCircle
 10
-559.8772686159049
 20
429.9915479194523
 30
0.0
 40
113.1166196704906
210
0.0
220
0.0
230
-1.0
100
AcDbArc
 50
171.9741177906736
 51
175.8599025878526
  0
LINE
  5
192
330
1F
100
AcDbEntity
  8
1
  6
________________
 62
     7
370
     9
100
AcDbLine
 10
672.6987107489945
 20
438.1580551709239
 30
0.0
 11
673.7094503023889
 21
423.9203351664808
 31
0.0
  0
LINE
  5
193
330
1F
100
AcDbEntity
  8
1
  6
________________
 62
     7
370
     9
100
AcDbLine
 10
681.7823418428636
 20
446.3825728425747
 30
0.0
 11
681.8843515935441
 21
445.794810970755
 31
0.0
  0
ARC
  5
194
330
1F
100
AcDbEntity
  8
1
  6
________________
 62
     7
370
     9
100
AcDbCircle
 10
-475.699618052334
 20
419.4837819187006
 30
0.0
 40
207.8567165025895
210
0.0
220
0.0
230
-1.0
100
AcDbArc
 50
172.7278459173172
 51
176.9032595107423
  0
LINE
  5
195
330
1F
100
AcDbEntity
  8
1
  6
________________
 62
     7
370
     9
100
AcDbLine
 10
683.25281078912
 20
430.7126189023085
 30
0.0
 11
683.7094759399655
 21
423.9203360893031
 31
0.0
  0
LINE
  5
196
330
1F
100
AcDbEntity
  8
1
  6
________________
 62
     7
370
     9
100
AcDbLine
 10
691.7823995609826
 20
446.3822567515589
 30
0.0
 11
692.173267529764
 21
443.6530996759523
 31
0.0
  0
ARC
  5
197
330
1F
100
AcDbEntity
  8
1
  6
________________
 62
     7
370
     9
100
AcDbCircle
 10
-211.5327783171483
 20
396.3046290961251
 30
0.0
 40
482.9670356626746
210
0.0
220
0.0
230
-1.0
100
AcDbArc
 50
174.3738767275867
 51
176.7220799995275
  0
LINE
  5
198
330
1F
100
AcDbEntity
  8
1
  6
________________
 62
     7
370
     9
100
AcDbLine
 10
701.7827359304297
 20
446.3804206215808
 30
0.0
 11
702.230311017503
 21
443.1508870450028
 31
0.0
  0
LINE
  5
199
330
1F
100
AcDbEntity
  8
1
  6
________________
 62
     7
370
     9
100
AcDbLine
 10
702.2303110175029
 20
443.1508870450027
 30
0.0
 11
702.3532374288412
 21
441.9856060433514
 31
0.0
  0
ARC
  5
19A
330
1F
100
AcDbEntity
  8
1
  6
________________
 62
     7
370
     9
100
AcDbCircle
 10
-104.328686335703
 20
388.0059101780994
 30
0.0
 40
600.4558029329509
210
0.0
220
0.0
230
-1.0
100
AcDbArc
 50
174.8422685209177
 51
176.5709819999889
  0
LINE
  5
19B
330
1F
100
AcDbEntity
  8
1
  6
________________
 62
     7
370
     9
100
AcDbLine
 10
711.7825361632711
 20
446.3814089847754
 30
0.0
 11
711.8126250537983
 21
446.2176269070227
 31
0.0
  0
ARC
  5
19C
330
1F
100
AcDbEntity
  8
1
  6
________________
 62
     7
370
     9
100
AcDbCircle
 10
-630.0671109149187
 20
433.3524840471428
 30
0.0
 40
82.75168265742329
210
0.0
220
0.0
230
-1.0
100
AcDbArc
 50
171.056127385685
 51
175.9855877238221
  0
LINE
  5
19D
330
1F
100
AcDbEntity
  8
1
  6
________________
 62
     7
370
     9
100
AcDbLine
 10
712.6157600052404
 20
439.1457142339912
 30
0.0
 11
713.7095379804476
 21
423.9203385384112
 31
0.0
  0
LINE
  5
19E
330
1F
100
AcDbEntity
  8
1
  6
________________
 62
     7
370
     9
100
AcDbLine
 10
721.7826742627025
 20
446.3805958759872
 30
0.0
 11
721.8261777581303
 21
446.1411899861901
 31
0.0
  0
ARC
  5
19F
330
1F
100
AcDbEntity
  8
1
  6
________________
 62
     7
370
     9
100
AcDbCircle
 10
-585.8012493168662
 20
426.8699766790227
 30
0.0
 40
137.3832625168777
210
0.0
220
0.0
230
-1.0
100
AcDbArc
 50
171.9363346667964
 51
176.5506705657931
  0
LINE
  5
1A0
330
1F
100
AcDbEntity
  8
1
  6
________________
 62
     7
370
     9
100
AcDbLine
 10
722.9356279689057
 20
435.1357501758224
 30
0.0
 11
723.7094981968869
 21
423.9203350277712
 31
0.0
  0
LINE
  5
1A1
330
1F
100
AcDbEntity
  8
1
  6
________________
 62
     7
370
     9
100
AcDbLine
 10
731.7823061421186
 20
446.3824754882159
 30
0.0
 11
732.054982792795
 21
444.6124898832642
 31
0.0
  0
ARC
  5
1A2
330
1F
100
AcDbEntity
  8
1
  6
________________
 62
     7
370
     9
100
AcDbCircle
 10
-549.1189901173602
 20
422.9206960891029
 30
0.0
 40
184.2175652161193
210
0.0
220
0.0
230
-1.0
100
AcDbArc
 50
173.237678628389
 51
176.0119140988996
  0
LINE
  5
1A3
330
1F
100
AcDbEntity
  8
1
  6
________________
 62
     7
370
     9
100
AcDbLine
 10
732.8904787390564
 20
435.7328506277004
 30
0.0
 11
733.7095065515921
 21
423.920335653328
 31
0.0
  0
LINE
  5
1A4
330
1F
100
AcDbEntity
  8
1
  6
________________
 62
     7
370
     9
100
AcDbLine
 10
741.7824585548623
 20
446.3816058057658
 30
0.0
 11
742.1002824437471
 21
444.2580417183697
 31
0.0
  0
ARC
  5
1A5
330
1F
100
AcDbEntity
  8
1
  6
________________
 62
     7
370
     9
100
AcDbCircle
 10
-375.569938711534
 20
405.675004041339
 30
0.0
 40
368.5554824891926
210
0.0
220
0.0
230
-1.0
100
AcDbArc
 50
173.9908554795475
 51
176.737320638596
  0
LINE
  5
1A6
330
1F
100
AcDbEntity
  8
1
  6
________________
 62
     7
370
     9
100
AcDbLine
 10
743.5280296889665
 20
426.6508701041517
 30
0.0
 11
743.7095012557882
 21
423.9203362307192
 31
0.0
  0
ARC
  5
1A7
330
1F
100
AcDbEntity
  8
1
  6
________________
 62
     7
370
     9
100
AcDbCircle
 10
-583.6348934284973
 20
399.4814948258609
 30
0.0
 40
2.756660329578786
210
0.0
220
0.0
230
-1.0
100
AcDbArc
 50
182.529775434225
 51
213.9323303552754
  0
LINE
  5
1A8
330
1F
100
AcDbEntity
  8
1
  6
________________
 62
     7
370
     9
100
AcDbLine
 10
585.9220874289813
 20
397.9426901674251
 30
0.0
 11
585.8732079061266
 21
397.922214808345
 31
0.0
  0
LINE
  5
1A9
330
1F
100
AcDbEntity
  8
1
  6
________________
 62
     7
370
     9
100
AcDbLine
 10
585.8732079061266
 20
397.9222148083451
 30
0.0
 11
585.8639622286223
 21
397.9210902981599
 31
0.0
  0
LINE
  5
1AA
330
1F
100
AcDbEntity
  8
1
  6
________________
 62
     7
370
     9
100
AcDbLine
 10
585.8639622286223
 20
397.9210902981599
 30
0.0
 11
585.8517399890794
 21
397.9209463748862
 31
0.0
  0
LINE
  5
1AB
330
1F
100
AcDbEntity
  8
1
  6
________________
 62
     7
370
     9
100
AcDbLine
 10
585.8517399890794
 20
397.9209463748862
 30
0.0
 11
585.8407474289813
 21
397.9221230354505
 31
0.0
  0
SPLINE
  5
1AC
330
1F
100
AcDbEntity
  8
1
  6
________________
 62
     7
370
     9
100
AcDbSpline
210
0.0
220
0.0
230
1.0
 70
    12
 71
     3
 72
    16
 73
    12
 74
     0
 42
0.000000001
 43
0.0001
 40
2.884923134772616
 40
2.884923134772616
 40
2.884923134772616
 40
2.884923134772616
 40
2.88747938618131
 40
2.89494057322571
 40
2.9024017602701
 40
2.90986294731451
 40
2.9173241343589
 40
2.92478532140329
 40
2.93224650844769
 40
2.93970769549209
 40
2.94194404715177
 40
2.94194404715177
 40
2.94194404715177
 40
2.94194404715177
 10
585.8407474289813
 20
397.9221230354505
 30
0.0
 41
1.0
 10
585.7886858968319
 20
397.9306253521329
 30
0.0
 41
1.0
 10
585.5846671558323
 20
398.127073356024
 30
0.0
 41
1.0
 10
585.228691205982
 20
399.5890983538401
 30
0.0
 41
1.0
 10
584.7728195794322
 20
403.4440160189209
 30
0.0
 41
1.0
 10
584.3169479528831
 20
408.967430889692
 30
0.0
 41
1.0
 10
583.8610763263331
 20
415.7092717530458
 30
0.0
 41
1.0
 10
583.4052046997831
 20
423.1201848908697
 30
0.0
 41
1.0
 10
582.9493330732331
 20
430.5962977452968
 30
0.0
 41
1.0
 10
582.5998723162992
 20
435.9103078742281
 30
0.0
 41
1.0
 10
582.4023687682152
 20
438.6014134120175
 30
0.0
 41
1.0
 10
582.3568224289811
 20
439.2032774487495
 30
0.0
 41
1.0
  0
ARC
  5
1AD
330
1F
100
AcDbEntity
  8
1
  6
________________
 62
     7
370
     9
100
AcDbCircle
 10
589.0298092742638
 20
448.440691086707
 30
0.0
 40
2.359359538890408
100
AcDbArc
 50
0.98100303358791
 51
38.80291847701135
  0
LINE
  5
1AE
330
1F
100
AcDbEntity
  8
1
  6
________________
 62
     7
370
     9
100
AcDbLine
 10
590.8684724289808
 20
449.9191684241185
 30
0.0
 11
590.8628953868637
 21
449.9196835684724
 31
0.0
  0
ARC
  5
1AF
330
1F
100
AcDbEntity
  8
1
  6
________________
 62
     7
370
     9
100
AcDbCircle
 10
-593.6352638177111
 20
399.5072948559007
 30
0.0
 40
2.757455795065802
210
0.0
220
0.0
230
-1.0
100
AcDbArc
 50
183.0804737167332
 51
214.9217453542665
  0
LINE
  5
1B0
330
1F
100
AcDbEntity
  8
1
  6
________________
 62
     7
370
     9
100
AcDbLine
 10
595.8961974289809
 20
397.9287697002023
 30
0.0
 11
595.8638225464042
 21
397.921019075053
 31
0.0
  0
LINE
  5
1B1
330
1F
100
AcDbEntity
  8
1
  6
________________
 62
     7
370
     9
100
AcDbLine
 10
595.8638225464043
 20
397.921019075053
 30
0.0
 11
595.8554385004096
 21
397.9207612850796
 31
0.0
  0
LINE
  5
1B2
330
1F
100
AcDbEntity
  8
1
  6
________________
 62
     7
370
     9
100
AcDbLine
 10
595.8554385004096
 20
397.9207612850797
 30
0.0
 11
595.8516001551176
 21
397.9208835478132
 31
0.0
  0
LINE
  5
1B3
330
1F
100
AcDbEntity
  8
1
  6
________________
 62
     7
370
     9
100
AcDbLine
 10
595.8516001551176
 20
397.9208835478131
 30
0.0
 11
595.8146795718382
 21
397.9297713348984
 31
0.0
  0
SPLINE
  5
1B4
330
1F
100
AcDbEntity
  8
1
  6
________________
 62
     7
370
     9
100
AcDbSpline
210
0.0
220
0.0
230
1.0
 70
    12
 71
     3
 72
    18
 73
    14
 74
     0
 42
0.000000001
 43
0.0001
 40
2.721681184732506
 40
2.721681184732506
 40
2.721681184732506
 40
2.721681184732506
 40
2.7233332712046
 40
2.73079445824899
 40
2.73825564529339
 40
2.74571683233779
 40
2.75317801938218
 40
2.76063920642658
 40
2.76810039347097
 40
2.77556158051537
 40
2.78302276755977
 40
2.79048395460417
 40
2.794118559280951
 40
2.794118559280951
 40
2.794118559280951
 40
2.794118559280951
 10
595.814679571838
 20
397.9297713348984
 30
0.0
 41
1.0
 10
595.7810325867694
 20
397.9442401337081
 30
0.0
 41
1.0
 10
595.5954283928507
 20
398.1201469660627
 30
0.0
 41
1.0
 10
595.2578669900811
 20
399.4073955358093
 30
0.0
 41
1.0
 10
594.8019953635321
 20
403.1432236012508
 30
0.0
 41
1.0
 10
594.3461237369821
 20
408.5720587112191
 30
0.0
 41
1.0
 10
593.8902521104311
 20
415.2515364116826
 30
0.0
 41
1.0
 10
593.434380483882
 20
422.637384598898
 30
0.0
 41
1.0
 10
592.9785088573321
 20
430.1277731132228
 30
0.0
 41
1.0
 10
592.5226372307822
 20
437.1123534068561
 30
0.0
 41
1.0
 10
592.066765604232
 20
443.0219923258796
 30
0.0
 41
1.0
 10
591.6888275253277
 20
446.6309537158583
 30
0.0
 41
1.0
 10
591.4628466552731
 20
448.0844055556669
 30
0.0
 41
1.0
 10
591.3888229940687
 20
448.4810854368729
 30
0.0
 41
1.0
  0
ARC
  5
1B5
330
1F
100
AcDbEntity
  8
1
  6
________________
 62
     7
370
     9
100
AcDbCircle
 10
598.2375839840905
 20
448.2269361934021
 30
0.0
 40
3.161412372636375
100
AcDbArc
 50
4.621593035355057
 51
31.92988927078819
  0
LINE
  5
1B6
330
1F
100
AcDbEntity
  8
1
  6
________________
 62
     7
370
     9
100
AcDbLine
 10
600.9206617146951
 20
449.8989475813394
 30
0.0
 11
600.8718692320191
 21
449.9187647021214
 31
0.0
  0
ARC
  5
1B7
330
1F
100
AcDbEntity
  8
1
  6
________________
 62
     7
370
     9
100
AcDbCircle
 10
-603.7167764117992
 20
399.5206376245992
 30
0.0
 40
2.676855936031173
210
0.0
220
0.0
230
-1.0
100
AcDbArc
 50
183.4569681523086
 51
216.6999780086426
  0
LINE
  5
1B8
330
1F
100
AcDbEntity
  8
1
  6
________________
 62
     7
370
     9
100
AcDbLine
 10
605.8630149184792
 20
397.9208820261688
 30
0.0
 11
605.8507922732783
 21
397.9208422623744
 31
0.0
  0
LINE
  5
1B9
330
1F
100
AcDbEntity
  8
1
  6
________________
 62
     7
370
     9
100
AcDbLine
 10
605.8507922732783
 20
397.9208422623744
 30
0.0
 11
605.8332322762557
 21
397.9234678072141
 31
0.0
  0
LINE
  5
1BA
330
1F
100
AcDbEntity
  8
1
  6
________________
 62
     7
370
     9
100
AcDbLine
 10
605.8332322762557
 20
397.9234678072141
 30
0.0
 11
605.7820902861235
 21
397.9491594170365
 31
0.0
  0
SPLINE
  5
1BB
330
1F
100
AcDbEntity
  8
1
  6
________________
 62
     7
370
     9
100
AcDbSpline
210
0.0
220
0.0
230
1.0
 70
    12
 71
     3
 72
    18
 73
    14
 74
     0
 42
0.000000001
 43
0.0001
 40
2.558545970000176
 40
2.558545970000176
 40
2.558545970000176
 40
2.558545970000176
 40
2.55918715622789
 40
2.56664834327228
 40
2.57410953031668
 40
2.58157071736107
 40
2.58903190440547
 40
2.59649309144987
 40
2.60395427849426
 40
2.61141546553865
 40
2.61887665258305
 40
2.62633783962745
 40
2.630451690364148
 40
2.630451690364148
 40
2.630451690364148
 40
2.630451690364148
 10
605.7820902861235
 20
397.9491594170366
 30
0.0
 41
1.0
 10
605.7690316576591
 20
397.9591529865395
 30
0.0
 41
1.0
 10
605.6040158203444
 20
398.1186980076338
 30
0.0
 41
1.0
 10
605.2870427741801
 20
399.2339300780762
 30
0.0
 41
1.0
 10
604.83117114763
 20
402.8494131513823
 30
0.0
 41
1.0
 10
604.3752995210812
 20
408.1818441877762
 30
0.0
 41
1.0
 10
603.9194278945312
 20
414.7967141450237
 30
0.0
 41
1.0
 10
603.4635562679811
 20
422.1550154316521
 30
0.0
 41
1.0
 10
603.0076846414312
 20
429.6571625260299
 30
0.0
 41
1.0
 10
602.5518130148811
 20
436.6918487415025
 30
0.0
 41
1.0
 10
602.0959413883311
 20
442.6858580816443
 30
0.0
 41
1.0
 10
601.7082428124471
 20
446.4830702192069
 30
0.0
 41
1.0
 10
601.472501445412
 20
448.0326855319452
 30
0.0
 41
1.0
 10
601.3887172872272
 20
448.4816656493383
 30
0.0
 41
1.0
  0
ARC
  5
1BC
330
1F
100
AcDbEntity
  8
1
  6
________________
 62
     7
370
     9
100
AcDbCircle
 10
608.320230568147
 20
448.2140529674421
 30
0.0
 40
3.080081097819135
100
AcDbArc
 50
4.995906806621179
 51
33.52001769551286
  0
ARC
  5
1BD
330
1F
100
AcDbEntity
  8
1
  6
________________
 62
     7
370
     9
100
AcDbCircle
 10
-612.8906365074679
 20
399.7385362040873
 30
0.0
 40
3.518539606347034
210
0.0
220
0.0
230
-1.0
100
AcDbArc
 50
186.2097912846443
 51
210.8009062198083
  0
LINE
  5
1BE
330
1F
100
AcDbEntity
  8
1
  6
________________
 62
     7
370
     9
100
AcDbLine
 10
615.9128924289811
 20
397.936845302098
 30
0.0
 11
615.8683608202444
 21
397.9212913134792
 31
0.0
  0
LINE
  5
1BF
330
1F
100
AcDbEntity
  8
1
  6
________________
 62
     7
370
     9
100
AcDbLine
 10
615.8683608202444
 20
397.9212913134791
 30
0.0
 11
615.8624563416042
 21
397.9207562037145
 31
0.0
  0
LINE
  5
1C0
330
1F
100
AcDbEntity
  8
1
  6
________________
 62
     7
370
     9
100
AcDbLine
 10
615.8624563416042
 20
397.9207562037145
 30
0.0
 11
615.8502337881337
 21
397.9207860673396
 31
0.0
  0
LINE
  5
1C1
330
1F
100
AcDbEntity
  8
1
  6
________________
 62
     7
370
     9
100
AcDbLine
 10
615.8502337881337
 20
397.9207860673396
 30
0.0
 11
615.831552428981
 21
397.9237979880134
 31
0.0
  0
SPLINE
  5
1C2
330
1F
100
AcDbEntity
  8
1
  6
________________
 62
     7
370
     9
100
AcDbSpline
210
0.0
220
0.0
230
1.0
 70
    12
 71
     3
 72
    18
 73
    14
 74
     0
 42
0.000000001
 43
0.0001
 40
2.394067831031776
 40
2.394067831031776
 40
2.394067831031776
 40
2.394067831031776
 40
2.39504104125117
 40
2.40250222829557
 40
2.40996341533996
 40
2.41742460238435
 40
2.42488578942876
 40
2.43234697647315
 40
2.43980816351755
 40
2.44726935056194
 40
2.45473053760634
 40
2.46219172465073
 40
2.466784844082242
 40
2.466784844082242
 40
2.466784844082242
 40
2.466784844082242
 10
615.831552428981
 20
397.9237979880133
 30
0.0
 41
1.0
 10
615.8117316809306
 20
397.9288971877804
 30
0.0
 41
1.0
 10
615.6399537240301
 20
398.0256193873623
 30
0.0
 41
1.0
 10
615.316218558279
 20
399.068760272197
 30
0.0
 41
1.0
 10
614.8603469317301
 20
402.5626834017601
 30
0.0
 41
1.0
 10
614.4044753051802
 20
407.796918447556
 30
0.0
 41
1.0
 10
613.9486036786301
 20
414.3449577921313
 30
0.0
 41
1.0
 10
613.4927320520801
 20
421.673239485091
 30
0.0
 41
1.0
 10
613.0368604255302
 20
429.1846241283086
 30
0.0
 41
1.0
 10
612.5809887989801
 20
436.2670523205657
 30
0.0
 41
1.0
 10
612.1251171724301
 20
442.3434178471734
 30
0.0
 41
1.0
 10
611.7276576385744
 20
446.3323629201733
 30
0.0
 41
1.0
 10
611.4821553135689
 20
447.9810090265491
 30
0.0
 41
1.0
 10
611.3886101974133
 20
448.4822805198057
 30
0.0
 41
1.0
  0
ARC
  5
1C3
330
1F
100
AcDbEntity
  8
1
  6
________________
 62
     7
370
     9
100
AcDbCircle
 10
617.4221266327679
 20
447.9828144615682
 30
0.0
 40
3.997860875301126
100
AcDbArc
 50
7.166744981965956
 51
28.4339349118799
  0
LINE
  5
1C4
330
1F
100
AcDbEntity
  8
1
  6
________________
 62
     7
370
     9
100
AcDbLine
 10
620.8633594835304
 20
449.9199026840014
 30
0.0
 11
620.8563724289806
 21
449.9201373389791
 31
0.0
  0
ARC
  5
1C5
330
1F
100
AcDbEntity
  8
1
  6
________________
 62
     7
370
     9
100
AcDbCircle
 10
-622.9422191416766
 20
399.7651727039668
 30
0.0
 40
3.47032969340859
210
0.0
220
0.0
230
-1.0
100
AcDbArc
 50
186.7323817333793
 51
212.0351330725381
  0
LINE
  5
1C6
330
1F
100
AcDbEntity
  8
1
  6
________________
 62
     7
370
     9
100
AcDbLine
 10
625.8840974289808
 20
397.9243738763809
 30
0.0
 11
625.8620125394884
 21
397.9206432439803
 31
0.0
  0
LINE
  5
1C7
330
1F
100
AcDbEntity
  8
1
  6
________________
 62
     7
370
     9
100
AcDbLine
 10
625.8620125394884
 20
397.9206432439803
 30
0.0
 11
625.8497898092942
 21
397.920734684652
 31
0.0
  0
LINE
  5
1C8
330
1F
100
AcDbEntity
  8
1
  6
________________
 62
     7
370
     9
100
AcDbLine
 10
625.8497898092942
 20
397.920734684652
 30
0.0
 11
625.8441536789807
 21
397.9212948674109
 31
0.0
  0
LINE
  5
1C9
330
1F
100
AcDbEntity
  8
1
  6
________________
 62
     7
370
     9
100
AcDbLine
 10
625.8441536789807
 20
397.9212948674109
 30
0.0
 11
625.8042099289806
 21
397.9346470307708
 31
0.0
  0
SPLINE
  5
1CA
330
1F
100
AcDbEntity
  8
1
  6
________________
 62
     7
370
     9
100
AcDbSpline
210
0.0
220
0.0
230
1.0
 70
    12
 71
     3
 72
    18
 73
    14
 74
     0
 42
0.000000001
 43
0.0001
 40
2.230846742892733
 40
2.230846742892733
 40
2.230846742892733
 40
2.230846742892733
 40
2.23089492627445
 40
2.23835611331885
 40
2.24581730036325
 40
2.25327848740764
 40
2.26073967445204
 40
2.26820086149643
 40
2.27566204854083
 40
2.28312323558523
 40
2.29058442262962
 40
2.29804560967402
 40
2.30311390235234
 40
2.30311390235234
 40
2.30311390235234
 40
2.30311390235234
 10
625.8042099289808
 20
397.9346470307708
 30
0.0
 41
1.0
 10
625.8032286089635
 20
397.9351772624646
 30
0.0
 41
1.0
 10
625.6502900800963
 20
398.0201384614832
 30
0.0
 41
1.0
 10
625.3453943423791
 20
398.9119416220471
 30
0.0
 41
1.0
 10
624.8895227158291
 20
402.2831307054193
 30
0.0
 41
1.0
 10
624.4336510892791
 20
407.4174108415031
 30
0.0
 41
1.0
 10
623.9777794627291
 20
413.8964191617946
 30
0.0
 41
1.0
 10
623.5219078361791
 20
421.1922186558269
 30
0.0
 41
1.0
 10
623.0660362096291
 20
428.710316712473
 30
0.0
 41
1.0
 10
622.6101645830792
 20
435.8381068931841
 30
0.0
 41
1.0
 10
622.1542929565292
 20
441.9947866965272
 30
0.0
 41
1.0
 10
621.7471558740642
 20
446.1779560178413
 30
0.0
 41
1.0
 10
621.4919760004492
 20
447.9282342402241
 30
0.0
 41
1.0
 10
621.3887533356843
 20
448.4815771085001
 30
0.0
 41
1.0
  0
ARC
  5
1CB
330
1F
100
AcDbEntity
  8
1
  6
________________
 62
     7
370
     9
100
AcDbCircle
 10
-654.2937823022264
 20
399.3003238689316
 30
0.0
 40
2.095630336755957
210
0.0
220
0.0
230
-1.0
100
AcDbArc
 50
178.4205642065736
 51
221.1405417797084
  0
LINE
  5
1CC
330
1F
100
AcDbEntity
  8
1
  6
________________
 62
     7
370
     9
100
AcDbLine
 10
655.8719974289803
 20
397.9215912907944
 30
0.0
 11
655.8631248744073
 21
397.9206303128529
 31
0.0
  0
LINE
  5
1CD
330
1F
100
AcDbEntity
  8
1
  6
________________
 62
     7
370
     9
100
AcDbLine
 10
655.8631248744073
 20
397.9206303128529
 30
0.0
 11
655.8509021905413
 21
397.9206358276684
 31
0.0
  0
LINE
  5
1CE
330
1F
100
AcDbEntity
  8
1
  6
________________
 62
     7
370
     9
100
AcDbLine
 10
655.8509021905412
 20
397.9206358276684
 30
0.0
 11
655.8337349639655
 21
397.9232422776312
 31
0.0
  0
LINE
  5
1CF
330
1F
100
AcDbEntity
  8
1
  6
________________
 62
     7
370
     9
100
AcDbLine
 10
655.8337349639655
 20
397.9232422776312
 30
0.0
 11
655.7921099289803
 21
397.9421437778088
 31
0.0
  0
ARC
  5
1D0
330
1F
100
AcDbEntity
  8
1
  6
________________
 62
     7
370
     9
100
AcDbCircle
 10
-659.2118955394507
 20
399.833845893458
 30
0.0
 40
3.908128774225894
210
0.0
220
0.0
230
-1.0
100
AcDbArc
 50
331.0502129822029
 51
350.6663585409244
  0
ARC
  5
1D1
330
1F
100
AcDbEntity
  8
1
  6
________________
 62
     7
370
     9
100
AcDbCircle
 10
658.9257896632975
 20
448.4374683533258
 30
0.0
 40
2.463178210846926
100
AcDbArc
 50
1.058763252906153
 51
36.73826410832529
  0
ARC
  5
1D2
330
1F
100
AcDbEntity
  8
1
  6
________________
 62
     7
370
     9
100
AcDbCircle
 10
-660.9926438500028
 20
400.3389854535969
 30
0.0
 40
5.484418039340649
210
0.0
220
0.0
230
-1.0
100
AcDbArc
 50
190.2883152520319
 51
205.8700237065858
  0
LINE
  5
1D3
330
1F
100
AcDbEntity
  8
1
  6
________________
 62
     7
370
     9
100
AcDbLine
 10
665.9274474289803
 20
397.9459633335244
 30
0.0
 11
665.8752360041785
 21
397.9221919000075
 31
0.0
  0
LINE
  5
1D4
330
1F
100
AcDbEntity
  8
1
  6
________________
 62
     7
370
     9
100
AcDbLine
 10
665.8752360041785
 20
397.9221919000075
 30
0.0
 11
665.8633826270374
 21
397.9207086911302
 31
0.0
  0
LINE
  5
1D5
330
1F
100
AcDbEntity
  8
1
  6
________________
 62
     7
370
     9
100
AcDbLine
 10
665.8633826270373
 20
397.9207086911302
 30
0.0
 11
665.8511598127135
 21
397.9206933291782
 31
0.0
  0
LINE
  5
1D6
330
1F
100
AcDbEntity
  8
1
  6
________________
 62
     7
370
     9
100
AcDbLine
 10
665.8511598127136
 20
397.9206933291783
 30
0.0
 11
665.8459295718374
 21
397.9211561113797
 31
0.0
  0
SPLINE
  5
1D7
330
1F
100
AcDbEntity
  8
1
  6
________________
 62
     7
370
     9
100
AcDbSpline
210
0.0
220
0.0
230
1.0
 70
    12
 71
     3
 72
    17
 73
    13
 74
     0
 42
0.000000001
 43
0.0001
 40
1.575489527319487
 40
1.575489527319487
 40
1.575489527319487
 40
1.575489527319487
 40
1.58177165341198
 40
1.58923284045638
 40
1.59669402750078
 40
1.60415521454517
 40
1.61161640158957
 40
1.61907758863397
 40
1.62653877567836
 40
1.63399996272276
 40
1.64146114976715
 40
1.648442877905369
 40
1.648442877905369
 40
1.648442877905369
 40
1.648442877905369
 10
665.8459295718372
 20
397.9211561113797
 30
0.0
 41
1.0
 10
665.7179855408167
 20
397.9359162682636
 30
0.0
 41
1.0
 10
665.4380843009461
 20
398.5203335594926
 30
0.0
 41
1.0
 10
665.0062258522252
 20
401.2385324438956
 30
0.0
 41
1.0
 10
664.550354225675
 20
405.9560841571706
 30
0.0
 41
1.0
 10
664.0944825991251
 20
412.1374391357305
 30
0.0
 41
1.0
 10
663.6386109725752
 20
419.2789144227576
 30
0.0
 41
1.0
 10
663.1827393460251
 20
426.7985923964534
 30
0.0
 41
1.0
 10
662.7268677194761
 20
434.0837378799438
 30
0.0
 41
1.0
 10
662.2709960929252
 20
440.5407263959573
 30
0.0
 41
1.0
 10
661.8248892982599
 20
445.5341149166584
 30
0.0
 41
1.0
 10
661.530739712443
 20
447.7211610775308
 30
0.0
 41
1.0
 10
661.3885473354767
 20
448.4829825985025
 30
0.0
 41
1.0
  0
ARC
  5
1D8
330
1F
100
AcDbEntity
  8
1
  6
________________
 62
     7
370
     9
100
AcDbCircle
 10
668.9592654264292
 20
448.4174207596215
 30
0.0
 40
2.430601159071427
100
AcDbArc
 50
1.482178102132442
 51
38.16095926452881
  0
LINE
  5
1D9
330
1F
100
AcDbEntity
  8
1
  6
________________
 62
     7
370
     9
100
AcDbLine
 10
670.8703938575517
 20
449.9192230482849
 30
0.0
 11
670.8619029358136
 21
449.9200063875601
 31
0.0
  0
SPLINE
  5
1DA
330
1F
100
AcDbEntity
  8
1
  6
________________
 62
     7
370
     9
100
AcDbSpline
210
0.0
220
0.0
230
1.0
 70
    12
 71
     3
 72
     9
 73
     5
 74
     0
 42
0.000000001
 43
0.0001
 40
1.402935191719725
 40
1.402935191719725
 40
1.402935191719725
 40
1.402935191719725
 40
1.41016435139087
 40
1.411020121239905
 40
1.411020121239905
 40
1.411020121239905
 40
1.411020121239905
 10
676.3888398581024
 20
399.3592467069171
 30
0.0
 41
1.0
 10
676.2416082018765
 20
398.5703728413568
 30
0.0
 41
1.0
 10
676.0769476302643
 20
398.0426875888733
 30
0.0
 41
1.0
 10
675.9122870586522
 20
397.9346363616926
 30
0.0
 41
1.0
 10
675.894858143266
 20
397.9278875396702
 30
0.0
 41
1.0
  0
LINE
  5
1DB
330
1F
100
AcDbEntity
  8
1
  6
________________
 62
     7
370
     9
100
AcDbLine
 10
675.894858143266
 20
397.9278875396702
 30
0.0
 11
675.8628694694474
 21
397.9207620172082
 31
0.0
  0
LINE
  5
1DC
330
1F
100
AcDbEntity
  8
1
  6
________________
 62
     7
370
     9
100
AcDbLine
 10
675.8628694694474
 20
397.9207620172083
 30
0.0
 11
675.8540992146945
 21
397.9206449703738
 31
0.0
  0
LINE
  5
1DD
330
1F
100
AcDbEntity
  8
1
  6
________________
 62
     7
370
     9
100
AcDbLine
 10
675.8540992146945
 20
397.9206449703738
 30
0.0
 11
675.8506468798084
 21
397.9208155132084
 31
0.0
  0
LINE
  5
1DE
330
1F
100
AcDbEntity
  8
1
  6
________________
 62
     7
370
     9
100
AcDbLine
 10
675.8506468798084
 20
397.9208155132083
 30
0.0
 11
675.8133402861231
 21
397.9304573568266
 31
0.0
  0
SPLINE
  5
1DF
330
1F
100
AcDbEntity
  8
1
  6
________________
 62
     7
370
     9
100
AcDbSpline
210
0.0
220
0.0
230
1.0
 70
    12
 71
     3
 72
    17
 73
    13
 74
     0
 42
0.000000001
 43
0.0001
 40
1.412354312587158
 40
1.412354312587158
 40
1.412354312587158
 40
1.412354312587158
 40
1.41762553843527
 40
1.42508672547966
 40
1.43254791252406
 40
1.44000909956845
 40
1.44747028661285
 40
1.45493147365725
 40
1.46239266070164
 40
1.46985384774604
 40
1.47731503479043
 40
1.484765996990149
 40
1.484765996990149
 40
1.484765996990149
 40
1.484765996990149
 10
675.8133402861232
 20
397.9304573568266
 30
0.0
 41
1.0
 10
675.7059846117069
 20
397.9787298174163
 30
0.0
 41
1.0
 10
675.4466717284408
 20
398.5230702902372
 30
0.0
 41
1.0
 10
675.0354016363247
 20
400.9962248094106
 30
0.0
 41
1.0
 10
674.5795300097747
 20
405.6055422743238
 30
0.0
 41
1.0
 10
674.1236583832247
 20
411.7072266402712
 30
0.0
 41
1.0
 10
673.6677867566747
 20
418.8040868490343
 30
0.0
 41
1.0
 10
673.2119151301248
 20
426.3178407041573
 30
0.0
 41
1.0
 10
672.7560435035749
 20
433.6362357510118
 30
0.0
 41
1.0
 10
672.3001718770248
 20
440.1629381972259
 30
0.0
 41
1.0
 10
671.8445084933253
 20
445.3637478896664
 30
0.0
 41
1.0
 10
671.5408023184762
 20
447.666762323828
 30
0.0
 41
1.0
 10
671.3890533524767
 20
448.4802906961028
 30
0.0
 41
1.0
  0
SPLINE
  5
1E0
330
1F
100
AcDbEntity
  8
1
  6
________________
 62
     7
370
     9
100
AcDbSpline
210
0.0
220
0.0
230
1.0
 70
    12
 71
     3
 72
     9
 73
     5
 74
     0
 42
0.000000001
 43
0.0001
 40
1.321103457914635
 40
1.321103457914635
 40
1.321103457914635
 40
1.321103457914635
 40
1.32809129390251
 40
1.328785418200113
 40
1.328785418200113
 40
1.328785418200113
 40
1.328785418200113
 10
681.3886830963373
 20
448.4822445937654
 30
0.0
 41
1.0
 10
681.2463663247163
 20
449.2444669814898
 30
0.0
 41
1.0
 10
681.0899127689308
 20
449.7571380129077
 30
0.0
 41
1.0
 10
680.9334592131452
 20
449.8911764266084
 30
0.0
 41
1.0
 10
680.9193224289804
 20
449.9002028347838
 30
0.0
 41
1.0
  0
LINE
  5
1E1
330
1F
100
AcDbEntity
  8
1
  6
________________
 62
     7
370
     9
100
AcDbLine
 10
680.9193224289804
 20
449.9002028347838
 30
0.0
 11
680.8714038127475
 21
449.9189930974273
 31
0.0
  0
SPLINE
  5
1E2
330
1F
100
AcDbEntity
  8
1
  6
________________
 62
     7
370
     9
100
AcDbSpline
210
0.0
220
0.0
230
1.0
 70
    12
 71
     3
 72
     9
 73
     5
 74
     0
 42
0.000000001
 43
0.0001
 40
1.239266190444296
 40
1.239266190444296
 40
1.239266190444296
 40
1.239266190444296
 40
1.24601823641415
 40
1.247862600863728
 40
1.247862600863728
 40
1.247862600863728
 40
1.247862600863728
 10
686.3888644364002
 20
399.3594291082487
 30
0.0
 41
1.0
 10
686.2513498487749
 20
398.6227569327179
 30
0.0
 41
1.0
 10
686.0762722738939
 20
398.0361550907656
 30
0.0
 41
1.0
 10
685.9011946990129
 20
397.9233883585693
 30
0.0
 41
1.0
 10
685.8636317117573
 20
397.920900605953
 30
0.0
 41
1.0
  0
LINE
  5
1E3
330
1F
100
AcDbEntity
  8
1
  6
________________
 62
     7
370
     9
100
AcDbLine
 10
685.8636317117573
 20
397.920900605953
 30
0.0
 11
685.8514082697004
 21
397.9208571123456
 31
0.0
  0
LINE
  5
1E4
330
1F
100
AcDbEntity
  8
1
  6
________________
 62
     7
370
     9
100
AcDbLine
 10
685.8514082697004
 20
397.9208571123456
 30
0.0
 11
685.8336780490669
 21
397.9235157733982
 31
0.0
  0
LINE
  5
1E5
330
1F
100
AcDbEntity
  8
1
  6
________________
 62
     7
370
     9
100
AcDbLine
 10
685.8336780490669
 20
397.9235157733983
 30
0.0
 11
685.7814624289804
 21
397.9500409344242
 31
0.0
  0
SPLINE
  5
1E6
330
1F
100
AcDbEntity
  8
1
  6
________________
 62
     7
370
     9
100
AcDbSpline
210
0.0
220
0.0
230
1.0
 70
    12
 71
     3
 72
    18
 73
    14
 74
     0
 42
0.000000001
 43
0.0001
 40
1.24920745400307
 40
1.24920745400307
 40
1.24920745400307
 40
1.24920745400307
 40
1.25347942345855
 40
1.26094061050295
 40
1.26840179754734
 40
1.27586298459174
 40
1.28332417163613
 40
1.29078535868053
 40
1.29824654572493
 40
1.30570773276932
 40
1.31316891981372
 40
1.32063010685812
 40
1.321103457914635
 40
1.321103457914635
 40
1.321103457914635
 40
1.321103457914635
 10
685.7814624289803
 20
397.9500409344242
 30
0.0
 41
1.0
 10
685.6944579683114
 20
398.0174701094908
 30
0.0
 41
1.0
 10
685.4554962987925
 20
398.5213812634058
 30
0.0
 41
1.0
 10
685.064577420424
 20
400.761620622979
 30
0.0
 41
1.0
 10
684.6087057938739
 20
405.2611549185278
 30
0.0
 41
1.0
 10
684.152834167324
 20
411.2811182539559
 30
0.0
 41
1.0
 10
683.6969625407739
 20
418.3309785463708
 30
0.0
 41
1.0
 10
683.2410909142241
 20
425.8362833513568
 30
0.0
 41
1.0
 10
682.785219287674
 20
433.1854686786382
 30
0.0
 41
1.0
 10
682.3293476611242
 20
439.7796918135208
 30
0.0
 41
1.0
 10
681.8734760345742
 20
445.0816275549738
 30
0.0
 41
1.0
 10
681.5599211796451
 20
447.542367309341
 30
0.0
 41
1.0
 10
681.3983235335662
 20
448.4306121895196
 30
0.0
 41
1.0
 10
681.3886830963373
 20
448.4822445937654
 30
0.0
 41
1.0
  0
SPLINE
  5
1E7
330
1F
100
AcDbEntity
  8
1
  6
________________
 62
     7
370
     9
100
AcDbSpline
210
0.0
220
0.0
230
1.0
 70
    12
 71
     3
 72
     9
 73
     5
 74
     0
 42
0.000000001
 43
0.0001
 40
1.157429653209938
 40
1.157429653209938
 40
1.157429653209938
 40
1.157429653209938
 40
1.1639451789258
 40
1.165635648653087
 40
1.165635648653087
 40
1.165635648653087
 40
1.165635648653087
 10
691.3890011597201
 20
448.4804744246109
 30
0.0
 41
1.0
 10
691.2563036283378
 20
449.191467516593
 30
0.0
 41
1.0
 10
691.0891773847579
 20
449.7636770198739
 30
0.0
 41
1.0
 10
690.922051141178
 20
449.9044291961825
 30
0.0
 41
1.0
 10
690.8876224289805
 20
449.9151847468999
 30
0.0
 41
1.0
  0
SPLINE
  5
1E8
330
1F
100
AcDbEntity
  8
1
  6
________________
 62
     7
370
     9
100
AcDbSpline
210
0.0
220
0.0
230
1.0
 70
    12
 71
     3
 72
     9
 73
     5
 74
     0
 42
0.000000001
 43
0.0001
 40
1.075592394288649
 40
1.075592394288649
 40
1.075592394288649
 40
1.075592394288649
 40
1.08187212143744
 40
1.083347577959406
 40
1.083347577959406
 40
1.083347577959406
 40
1.083347577959406
 10
696.3891819774437
 20
399.3612077885159
 30
0.0
 41
1.0
 10
696.2612868041701
 20
398.6757514760937
 30
0.0
 41
1.0
 10
696.1033419546824
 20
398.123392904028
 30
0.0
 41
1.0
 10
695.9453971051946
 20
397.9560736563511
 30
0.0
 41
1.0
 10
695.9153474289806
 20
397.9381382381877
 30
0.0
 41
1.0
  0
LINE
  5
1E9
330
1F
100
AcDbEntity
  8
1
  6
________________
 62
     7
370
     9
100
AcDbLine
 10
695.9153474289806
 20
397.9381382381877
 30
0.0
 11
695.870692336848
 21
397.9217109174631
 31
0.0
  0
LINE
  5
1EA
330
1F
100
AcDbEntity
  8
1
  6
________________
 62
     7
370
     9
100
AcDbLine
 10
695.870692336848
 20
397.9217109174631
 30
0.0
 11
695.8634638093697
 21
397.9209738917181
 31
0.0
  0
LINE
  5
1EB
330
1F
100
AcDbEntity
  8
1
  6
________________
 62
     7
370
     9
100
AcDbLine
 10
695.8634638093696
 20
397.9209738917181
 30
0.0
 11
695.8512414270858
 21
397.9209453011253
 31
0.0
  0
LINE
  5
1EC
330
1F
100
AcDbEntity
  8
1
  6
________________
 62
     7
370
     9
100
AcDbLine
 10
695.8512414270858
 20
397.9209453011253
 30
0.0
 11
695.8354599289804
 21
397.9231710437934
 31
0.0
  0
SPLINE
  5
1ED
330
1F
100
AcDbEntity
  8
1
  6
________________
 62
     7
370
     9
100
AcDbSpline
210
0.0
220
0.0
230
1.0
 70
    12
 71
     3
 72
    18
 73
    14
 74
     0
 42
0.000000001
 43
0.0001
 40
1.084655085479714
 40
1.084655085479714
 40
1.084655085479714
 40
1.084655085479714
 40
1.08933330848183
 40
1.09679449552623
 40
1.10425568257063
 40
1.11171686961502
 40
1.11917805665942
 40
1.12663924370381
 40
1.13410043074821
 40
1.14156161779261
 40
1.149022804837
 40
1.1564839918814
 40
1.157429653209938
 40
1.157429653209938
 40
1.157429653209938
 40
1.157429653209938
 10
695.8354599289804
 20
397.9231710437934
 30
0.0
 41
1.0
 10
695.7401815630114
 20
397.9443046656194
 30
0.0
 41
1.0
 10
695.4929459881924
 20
398.3607863460575
 30
0.0
 41
1.0
 10
695.0937532045232
 20
400.5347987212947
 30
0.0
 41
1.0
 10
694.6378815779733
 20
404.9230378181551
 30
0.0
 41
1.0
 10
694.1820099514231
 20
410.8592571667975
 30
0.0
 41
1.0
 10
693.7261383248733
 20
417.8597484986932
 30
0.0
 41
1.0
 10
693.2702666983232
 20
425.3540821612077
 30
0.0
 41
1.0
 10
692.8143950717734
 20
432.7315881391727
 30
0.0
 41
1.0
 10
692.3585234452235
 20
439.3911160314521
 30
0.0
 41
1.0
 10
691.9026518186733
 20
444.7900193290801
 30
0.0
 41
1.0
 10
691.5794777235058
 20
447.4118362743848
 30
0.0
 41
1.0
 10
691.408260837188
 20
448.3772811135465
 30
0.0
 41
1.0
 10
691.3890011597201
 20
448.4804744246109
 30
0.0
 41
1.0
  0
SPLINE
  5
1EE
330
1F
100
AcDbEntity
  8
1
  6
________________
 62
     7
370
     9
100
AcDbSpline
210
0.0
220
0.0
230
1.0
 70
    12
 71
     3
 72
     9
 73
     5
 74
     0
 42
0.000000001
 43
0.0001
 40
0.9937596029840935
 40
0.9937596029840935
 40
0.9937596029840935
 40
0.9937596029840935
 40
0.99979906394908
 40
1.002368542234717
 40
1.002368542234717
 40
1.002368542234717
 40
1.002368542234717
 10
701.3890898279179
 20
448.4799153104068
 30
0.0
 41
1.0
 10
701.2660880018364
 20
449.139022411012
 30
0.0
 41
1.0
 10
701.0907552602899
 20
449.7647738157377
 30
0.0
 41
1.0
 10
700.9154225187436
 20
449.9164699322861
 30
0.0
 41
1.0
 10
700.8630916032789
 20
449.9196859504945
 30
0.0
 41
1.0
  0
SPLINE
  5
1EF
330
1F
100
AcDbEntity
  8
1
  6
________________
 62
     7
370
     9
100
AcDbSpline
210
0.0
220
0.0
230
1.0
 70
    12
 71
     3
 72
     9
 73
     5
 74
     0
 42
0.000000001
 43
0.0001
 40
0.9119284444388858
 40
0.9119284444388858
 40
0.9119284444388858
 40
0.9119284444388858
 40
0.917726006460722
 40
0.9201589955731861
 40
0.9201589955731861
 40
0.9201589955731861
 40
0.9201589955731861
 10
706.388897918306
 20
399.3597727580965
 30
0.0
 41
1.0
 10
706.2708226927781
 20
398.7272833897488
 30
0.0
 41
1.0
 10
706.1031963391932
 20
398.1171164201104
 30
0.0
 41
1.0
 10
705.9355699856087
 20
397.9398214251025
 30
0.0
 41
1.0
 10
705.886018857552
 20
397.9251258538749
 30
0.0
 41
1.0
  0
LINE
  5
1F0
330
1F
100
AcDbEntity
  8
1
  6
________________
 62
     7
370
     9
100
AcDbLine
 10
705.886018857552
 20
397.9251258538749
 30
0.0
 11
705.8626686640059
 21
397.9209919506693
 31
0.0
  0
LINE
  5
1F1
330
1F
100
AcDbEntity
  8
1
  6
________________
 62
     7
370
     9
100
AcDbLine
 10
705.8626686640059
 20
397.9209919506693
 30
0.0
 11
705.8504464062233
 21
397.9210533124885
 31
0.0
  0
LINE
  5
1F2
330
1F
100
AcDbEntity
  8
1
  6
________________
 62
     7
370
     9
100
AcDbLine
 10
705.8504464062233
 20
397.9210533124885
 30
0.0
 11
705.8452599289805
 21
397.9215413305274
 31
0.0
  0
LINE
  5
1F3
330
1F
100
AcDbEntity
  8
1
  6
________________
 62
     7
370
     9
100
AcDbLine
 10
705.8452599289805
 20
397.9215413305274
 30
0.0
 11
705.804501000409
 21
397.9349546265199
 31
0.0
  0
SPLINE
  5
1F4
330
1F
100
AcDbEntity
  8
1
  6
________________
 62
     7
370
     9
100
AcDbSpline
210
0.0
220
0.0
230
1.0
 70
    12
 71
     3
 72
    18
 73
    14
 74
     0
 42
0.000000001
 43
0.0001
 40
0.9214931869204394
 40
0.9214931869204394
 40
0.9214931869204394
 40
0.9214931869204394
 40
0.925187193505118
 40
0.932648380549514
 40
0.940109567593911
 40
0.947570754638307
 40
0.955031941682703
 40
0.962493128727099
 40
0.969954315771495
 40
0.977415502815892
 40
0.984876689860288
 40
0.992337876904684
 40
0.9937596029840935
 40
0.9937596029840935
 40
0.9937596029840935
 40
0.9937596029840935
 10
705.8045010004091
 20
397.9349546265199
 30
0.0
 41
1.0
 10
705.7292675386636
 20
397.9753920219606
 30
0.0
 41
1.0
 10
705.5020768680681
 20
398.3596176770458
 30
0.0
 41
1.0
 10
705.1229289886226
 20
400.3158353258837
 30
0.0
 41
1.0
 10
704.6670573620722
 20
404.5913045945126
 30
0.0
 41
1.0
 10
704.2111857355228
 20
410.4417851415421
 30
0.0
 41
1.0
 10
703.7553141089725
 20
417.3905550587564
 30
0.0
 41
1.0
 10
703.2994424824225
 20
424.8713991732218
 30
0.0
 41
1.0
 10
702.8435708558728
 20
432.2747466552188
 30
0.0
 41
1.0
 10
702.3876992293226
 20
438.9973414285286
 30
0.0
 41
1.0
 10
701.9318276027726
 20
444.4913980278838
 30
0.0
 41
1.0
 10
701.5989578023045
 20
447.2791202317144
 30
0.0
 41
1.0
 10
701.4180452106862
 20
448.3247574644521
 30
0.0
 41
1.0
 10
701.3890898279179
 20
448.4799153104068
 30
0.0
 41
1.0
  0
SPLINE
  5
1F5
330
1F
100
AcDbEntity
  8
1
  6
________________
 62
     7
370
     9
100
AcDbSpline
210
0.0
220
0.0
230
1.0
 70
    12
 71
     3
 72
     9
 73
     5
 74
     0
 42
0.000000001
 43
0.0001
 40
0.83009329044221
 40
0.83009329044221
 40
0.83009329044221
 40
0.83009329044221
 40
0.835652948972365
 40
0.8379242925333948
 40
0.8379242925333948
 40
0.8379242925333948
 40
0.8379242925333948
 10
711.3889501270831
 20
448.4805773075063
 30
0.0
 41
1.0
 10
711.2757201293127
 20
449.0871827146711
 30
0.0
 41
1.0
 10
711.1162311347072
 20
449.6792457549728
 30
0.0
 41
1.0
 10
710.9567421401016
 20
449.8798633053579
 30
0.0
 41
1.0
 10
710.9104831432664
 20
449.9051850360781
 30
0.0
 41
1.0
  0
SPLINE
  5
1F6
330
1F
100
AcDbEntity
  8
1
  6
________________
 62
     7
370
     9
100
AcDbSpline
210
0.0
220
0.0
230
1.0
 70
    12
 71
     3
 72
     9
 73
     5
 74
     0
 42
0.000000001
 43
0.0001
 40
0.748256904140905
 40
0.748256904140905
 40
0.748256904140905
 40
0.748256904140905
 40
0.753579891484009
 40
0.7556895894936038
 40
0.7556895894936038
 40
0.7556895894936038
 40
0.7556895894936038
 10
716.389077628533
 20
399.3608185436741
 30
0.0
 41
1.0
 10
716.2806677609625
 20
398.7798798214648
 30
0.0
 41
1.0
 10
716.1292910277784
 20
398.2069645763348
 30
0.0
 41
1.0
 10
715.9779142945944
 20
397.9862791055156
 30
0.0
 41
1.0
 10
715.9349474289808
 20
397.951986736621
 30
0.0
 41
1.0
  0
LINE
  5
1F7
330
1F
100
AcDbEntity
  8
1
  6
________________
 62
     7
370
     9
100
AcDbLine
 10
715.9349474289808
 20
397.951986736621
 30
0.0
 11
715.8780910869865
 21
397.9231518398793
 31
0.0
  0
LINE
  5
1F8
330
1F
100
AcDbEntity
  8
1
  6
________________
 62
     7
370
     9
100
AcDbLine
 10
715.8780910869865
 20
397.9231518398793
 30
0.0
 11
715.8621243595711
 21
397.9210033262229
 31
0.0
  0
LINE
  5
1F9
330
1F
100
AcDbEntity
  8
1
  6
________________
 62
     7
370
     9
100
AcDbLine
 10
715.8621243595711
 20
397.9210033262229
 30
0.0
 11
715.8536074289807
 21
397.9209239301366
 31
0.0
  0
LINE
  5
1FA
330
1F
100
AcDbEntity
  8
1
  6
________________
 62
     7
370
     9
100
AcDbLine
 10
715.8536074289807
 20
397.9209239301366
 30
0.0
 11
715.8498972876941
 21
397.9211213740545
 31
0.0
  0
SPLINE
  5
1FB
330
1F
100
AcDbEntity
  8
1
  6
________________
 62
     7
370
     9
100
AcDbSpline
210
0.0
220
0.0
230
1.0
 70
    12
 71
     3
 72
    18
 73
    14
 74
     0
 42
0.000000001
 43
0.0001
 40
0.7570815932405653
 40
0.7570815932405653
 40
0.7570815932405653
 40
0.7570815932405653
 40
0.761041078528405
 40
0.768502265572801
 40
0.775963452617197
 40
0.783424639661593
 40
0.790885826705989
 40
0.798347013750385
 40
0.805808200794781
 40
0.813269387839177
 40
0.820730574883573
 40
0.828191761927969
 40
0.83009329044221
 40
0.83009329044221
 40
0.83009329044221
 40
0.83009329044221
 10
715.8498972876943
 20
397.9211213740545
 30
0.0
 41
1.0
 10
715.7692569915533
 20
397.9269430784278
 30
0.0
 41
1.0
 10
715.5366594865625
 20
398.2315353573955
 30
0.0
 41
1.0
 10
715.1521047727214
 20
400.1048040174886
 30
0.0
 41
1.0
 10
714.6962331461717
 20
404.2660667236642
 30
0.0
 41
1.0
 10
714.2403615196217
 20
410.0288424660302
 30
0.0
 41
1.0
 10
713.7844898930719
 20
416.9235558949324
 30
0.0
 41
1.0
 10
713.3286182665216
 20
424.3883965888162
 30
0.0
 41
1.0
 10
712.8727466399719
 20
431.8150977443818
 30
0.0
 41
1.0
 10
712.4168750134219
 20
438.5985003292781
 30
0.0
 41
1.0
 10
711.9610033868719
 20
444.1858640004745
 30
0.0
 41
1.0
 10
711.6183617580923
 20
447.1442672260492
 30
0.0
 41
1.0
 10
711.4276773381627
 20
448.2731045873095
 30
0.0
 41
1.0
 10
711.3889501270831
 20
448.4805773075063
 30
0.0
 41
1.0
  0
SPLINE
  5
1FC
330
1F
100
AcDbEntity
  8
1
  6
________________
 62
     7
370
     9
100
AcDbSpline
210
0.0
220
0.0
230
1.0
 70
    12
 71
     3
 72
     9
 73
     5
 74
     0
 42
0.000000001
 43
0.0001
 40
0.6664231906400848
 40
0.6664231906400848
 40
0.6664231906400848
 40
0.6664231906400848
 40
0.671506833995652
 40
0.6747803449122475
 40
0.6747803449122475
 40
0.6747803449122475
 40
0.6747803449122475
 10
721.3890418243458
 20
448.4800092646668
 30
0.0
 41
1.0
 10
721.2855065221876
 20
449.0348200434953
 30
0.0
 41
1.0
 10
721.1153017237326
 20
449.691158711965
 30
0.0
 41
1.0
 10
720.9450969252777
 20
449.9027511764068
 30
0.0
 41
1.0
 10
720.8784274289809
 20
449.917429410667
 30
0.0
 41
1.0
  0
LINE
  5
1FD
330
1F
100
AcDbEntity
  8
1
  6
________________
 62
     7
370
     9
100
AcDbLine
 10
720.8784274289809
 20
449.917429410667
 30
0.0
 11
720.862877445805
 21
449.9196162117394
 31
0.0
  0
SPLINE
  5
1FE
330
1F
100
AcDbEntity
  8
1
  6
________________
 62
     7
370
     9
100
AcDbSpline
210
0.0
220
0.0
230
1.0
 70
    12
 71
     3
 72
     9
 73
     5
 74
     0
 42
0.000000001
 43
0.0001
 40
0.5845917592855028
 40
0.5845917592855028
 40
0.5845917592855028
 40
0.5845917592855028
 40
0.589433776507295
 40
0.5925398199465773
 40
0.5925398199465773
 40
0.5925398199465773
 40
0.5925398199465773
 10
726.3888665831346
 20
399.3597559559139
 30
0.0
 41
1.0
 10
726.2902523253966
 20
398.8314480340673
 30
0.0
 41
1.0
 10
726.1283792740121
 20
398.1958052868347
 30
0.0
 41
1.0
 10
725.9665062226275
 20
397.9618991379958
 30
0.0
 41
1.0
 10
725.9032474289808
 20
397.9318811080537
 30
0.0
 41
1.0
  0
LINE
  5
1FF
330
1F
100
AcDbEntity
  8
1
  6
________________
 62
     7
370
     9
100
AcDbLine
 10
725.9032474289808
 20
397.9318811080537
 30
0.0
 11
725.8622974675449
 21
397.9210248656087
 31
0.0
  0
LINE
  5
200
330
1F
100
AcDbEntity
  8
1
  6
________________
 62
     7
370
     9
100
AcDbLine
 10
725.8622974675449
 20
397.9210248656087
 30
0.0
 11
725.850075298497
 21
397.9211083084126
 31
0.0
  0
LINE
  5
201
330
1F
100
AcDbEntity
  8
1
  6
________________
 62
     7
370
     9
100
AcDbLine
 10
725.8500752984971
 20
397.9211083084126
 30
0.0
 11
725.8233599289808
 21
397.9266111912808
 31
0.0
  0
SPLINE
  5
202
330
1F
100
AcDbEntity
  8
1
  6
________________
 62
     7
370
     9
100
AcDbSpline
210
0.0
220
0.0
230
1.0
 70
    12
 71
     3
 72
    18
 73
    14
 74
     0
 42
0.000000001
 43
0.0001
 40
0.5938473274668855
 40
0.5938473274668855
 40
0.5938473274668855
 40
0.5938473274668855
 40
0.596894963551691
 40
0.604356150596087
 40
0.611817337640483
 40
0.619278524684879
 40
0.626739711729275
 40
0.634200898773671
 40
0.641662085818068
 40
0.649123272862464
 40
0.65658445990686
 40
0.664045646951256
 40
0.6664231906400848
 40
0.6664231906400848
 40
0.6664231906400848
 40
0.6664231906400848
 10
725.8233599289808
 20
397.9266111912808
 30
0.0
 41
1.0
 10
725.7612906804441
 20
397.9478779421178
 30
0.0
 41
1.0
 10
725.5472642230573
 20
398.2250632932221
 30
0.0
 41
1.0
 10
725.1812805568209
 20
399.9017757113431
 30
0.0
 41
1.0
 10
724.7254089302706
 20
403.9474334989629
 30
0.0
 41
1.0
 10
724.2695373037207
 20
409.6205679060513
 30
0.0
 41
1.0
 10
723.813665677171
 20
416.4589079382229
 30
0.0
 41
1.0
 10
723.3577940506207
 20
423.9052367168032
 30
0.0
 41
1.0
 10
722.9019224240709
 20
431.3527958676746
 30
0.0
 41
1.0
 10
722.446050797521
 20
438.1947267607793
 30
0.0
 41
1.0
 10
721.990179170971
 20
443.8735199189013
 30
0.0
 41
1.0
 10
721.6378428465791
 20
447.0059634093247
 30
0.0
 41
1.0
 10
721.4374637310375
 20
448.2205325914549
 30
0.0
 41
1.0
 10
721.3890418243458
 20
448.4800092646668
 30
0.0
 41
1.0
  0
ARC
  5
203
330
1F
100
AcDbEntity
  8
1
  6
________________
 62
     7
370
     9
100
AcDbCircle
 10
728.841795681282
 20
448.4339587455815
 30
0.0
 40
2.547469176850573
100
AcDbArc
 50
1.060170564160603
 51
34.90530168806156
  0
LINE
  5
204
330
1F
100
AcDbEntity
  8
1
  6
________________
 62
     7
370
     9
100
AcDbLine
 10
730.9309724289809
 20
449.8916760446068
 30
0.0
 11
730.8777966475249
 21
449.9175532284706
 31
0.0
  0
SPLINE
  5
205
330
1F
100
AcDbEntity
  8
1
  6
________________
 62
     7
370
     9
100
AcDbSpline
210
0.0
220
0.0
230
1.0
 70
    12
 71
     3
 72
     9
 73
     5
 74
     0
 42
0.000000001
 43
0.0001
 40
0.4209216592632067
 40
0.4209216592632067
 40
0.4209216592632067
 40
0.4209216592632067
 40
0.425287661530581
 40
0.4292978699064678
 40
0.4292978699064678
 40
0.4292978699064678
 40
0.4292978699064678
 10
736.3889582938496
 20
399.3602931030767
 30
0.0
 41
1.0
 10
736.3000387272396
 20
398.8837685836715
 30
0.0
 41
1.0
 10
736.1294458199026
 20
398.1894650608589
 30
0.0
 41
1.0
 10
735.9588529125654
 20
397.9400483192329
 30
0.0
 41
1.0
 10
735.8771795718382
 20
397.9229834556518
 30
0.0
 41
1.0
  0
LINE
  5
206
330
1F
100
AcDbEntity
  8
1
  6
________________
 62
     7
370
     9
100
AcDbLine
 10
735.8771795718382
 20
397.9229834556518
 30
0.0
 11
735.8629429612395
 21
397.921045506671
 31
0.0
  0
LINE
  5
207
330
1F
100
AcDbEntity
  8
1
  6
________________
 62
     7
370
     9
100
AcDbLine
 10
735.8629429612395
 20
397.921045506671
 30
0.0
 11
735.8507206598822
 21
397.9210360103684
 31
0.0
  0
LINE
  5
208
330
1F
100
AcDbEntity
  8
1
  6
________________
 62
     7
370
     9
100
AcDbLine
 10
735.8507206598822
 20
397.9210360103684
 30
0.0
 11
735.8364206432667
 21
397.9229653989403
 31
0.0
  0
LINE
  5
209
330
1F
100
AcDbEntity
  8
1
  6
________________
 62
     7
370
     9
100
AcDbLine
 10
735.8364206432667
 20
397.9229653989403
 30
0.0
 11
735.7956617146953
 21
397.93995046625
 31
0.0
  0
SPLINE
  5
20A
330
1F
100
AcDbEntity
  8
1
  6
________________
 62
     7
370
     9
100
AcDbSpline
210
0.0
220
0.0
230
1.0
 70
    12
 71
     3
 72
    18
 73
    14
 74
     0
 42
0.000000001
 43
0.0001
 40
0.4306320612537211
 40
0.4306320612537211
 40
0.4306320612537211
 40
0.4306320612537211
 40
0.432748848574977
 40
0.440210035619374
 40
0.447671222663769
 40
0.455132409708166
 40
0.462593596752562
 40
0.470054783796958
 40
0.477515970841354
 40
0.48497715788575
 40
0.492438344930146
 40
0.499899531974542
 40
0.5027580786402196
 40
0.5027580786402196
 40
0.5027580786402196
 40
0.5027580786402196
 10
735.7956617146953
 20
397.9399504662501
 30
0.0
 41
1.0
 10
735.7525504656202
 20
397.966911634006
 30
0.0
 41
1.0
 10
735.557482007695
 20
398.2180905333234
 30
0.0
 41
1.0
 10
735.2104563409199
 20
399.7068186333413
 30
0.0
 41
1.0
 10
734.7545847143698
 20
403.6355119943293
 30
0.0
 41
1.0
 10
734.29871308782
 20
409.2170986587162
 30
0.0
 41
1.0
 10
733.8428414612699
 20
415.9967673295278
 30
0.0
 41
1.0
 10
733.3869698347202
 20
423.4220819188504
 30
0.0
 41
1.0
 10
732.93109820817
 20
430.8879963776176
 30
0.0
 41
1.0
 10
732.4752265816202
 20
437.7861564076236
 30
0.0
 41
1.0
 10
732.0193549550701
 20
443.5544707436733
 30
0.0
 41
1.0
 10
731.6572223516982
 20
446.8657730048754
 30
0.0
 41
1.0
 10
731.4470469571763
 20
448.1691975430216
 30
0.0
 41
1.0
 10
731.3888287715043
 20
448.4810930676356
 30
0.0
 41
1.0
  0
ARC
  5
20B
330
1F
100
AcDbEntity
  8
1
  6
________________
 62
     7
370
     9
100
AcDbCircle
 10
738.8693466386688
 20
448.4191631434959
 30
0.0
 40
2.520195765287863
100
AcDbArc
 50
1.413898400883751
 51
36.25388528471107
  0
ARC
  5
20C
330
1F
100
AcDbEntity
  8
1
  6
________________
 62
     7
370
     9
100
AcDbCircle
 10
-743.4924367099385
 20
399.5245717035056
 30
0.0
 40
2.901092161065624
210
0.0
220
0.0
230
-1.0
100
AcDbArc
 50
183.2585299755243
 51
212.9778437111235
  0
LINE
  5
20D
330
1F
100
AcDbEntity
  8
1
  6
________________
 62
     7
370
     9
100
AcDbLine
 10
745.9261081432668
 20
397.9454646515301
 30
0.0
 11
745.8743464424315
 21
397.9223972098918
 31
0.0
  0
LINE
  5
20E
330
1F
100
AcDbEntity
  8
1
  6
________________
 62
     7
370
     9
100
AcDbLine
 10
745.8743464424315
 20
397.9223972098918
 30
0.0
 11
745.8628084948289
 21
397.9209909551547
 31
0.0
  0
LINE
  5
20F
330
1F
100
AcDbEntity
  8
1
  6
________________
 62
     7
370
     9
100
AcDbLine
 10
745.8628084948289
 20
397.9209909551546
 30
0.0
 11
745.850586237838
 21
397.9209876447649
 31
0.0
  0
LINE
  5
210
330
1F
100
AcDbEntity
  8
1
  6
________________
 62
     7
370
     9
100
AcDbLine
 10
745.850586237838
 20
397.9209876447649
 30
0.0
 11
745.8445902861238
 21
397.921545258814
 31
0.0
  0
SPLINE
  5
211
330
1F
100
AcDbEntity
  8
1
  6
________________
 62
     7
370
     9
100
AcDbSpline
210
0.0
220
0.0
230
1.0
 70
    12
 71
     3
 72
    18
 73
    14
 74
     0
 42
0.000000001
 43
0.0001
 40
0.2661626551741387
 40
0.2661626551741387
 40
0.2661626551741387
 40
0.2661626551741387
 40
0.268602733598261
 40
0.276063920642658
 40
0.283525107687054
 40
0.29098629473145
 40
0.298447481775846
 40
0.305908668820242
 40
0.313369855864639
 40
0.320831042909035
 40
0.328292229953431
 40
0.335753416997827
 40
0.3390903582402973
 40
0.3390903582402973
 40
0.3390903582402973
 40
0.3390903582402973
 10
745.8445902861238
 20
397.921545258814
 30
0.0
 41
1.0
 10
745.7948947746056
 20
397.9276925936745
 30
0.0
 41
1.0
 10
745.5932420542374
 20
398.1065829005738
 30
0.0
 41
1.0
 10
745.239632125019
 20
399.5199982971118
 30
0.0
 41
1.0
 10
744.7837604984691
 20
403.3304070282692
 30
0.0
 41
1.0
 10
744.3278888719192
 20
408.8185703063519
 30
0.0
 41
1.0
 10
743.8720172453692
 20
415.5372893671739
 30
0.0
 41
1.0
 10
743.4161456188191
 20
422.9390945549199
 30
0.0
 41
1.0
 10
742.9602739922693
 20
430.4208554660315
 30
0.0
 41
1.0
 10
742.5044023657193
 20
437.37292656632
 30
0.0
 41
1.0
 10
742.0485307391693
 20
443.2288236884872
 30
0.0
 41
1.0
 10
741.6766549804274
 20
446.7223076177342
 30
0.0
 41
1.0
 10
741.4567364305356
 20
448.1172281220605
 30
0.0
 41
1.0
 10
741.3887750894935
 20
448.4813481621918
 30
0.0
 41
1.0
  0
LINE
  5
212
330
1F
100
AcDbEntity
  8
1
  6
________________
 62
     7
370
     9
100
AcDbLine
 10
582.3568224289811
 20
439.2032774487524
 30
0.0
 11
582.3568224289811
 21
441.9497962180631
 31
0.0
  0
LWPOLYLINE
  5
213
330
1F
100
AcDbEntity
  8
1
  6
________________
 62
     7
370
     9
100
AcDbPolyline
 90
        5
 70
     0
 43
0.0
 10
743.7095012557882
 20
423.9203362307192
 42
0.0281271010218024
 10
745.8671860861991
 20
400.4736731279887
 10
745.9501739642919
 20
400.2383735265594
 10
746.0331618423846
 20
400.067460687085
 10
746.0714576710001
 20
400.0105274867247
  0
LINE
  5
214
330
1F
100
AcDbEntity
  8
1
  6
________________
 62
     7
370
     9
100
AcDbLine
 10
746.0714576710001
 20
400.0105274867247
 30
0.0
 11
746.2028908710532
 21
399.9208351867015
 31
0.0
  0
LINE
  5
215
330
1F
100
AcDbEntity
  8
1
  6
________________
 62
     7
370
     9
100
AcDbLine
 10
741.7789947370563
 20
446.3999485386457
 30
0.0
 11
741.7824585548623
 21
446.3816058057658
 31
0.0
  0
LINE
  5
216
330
1F
100
AcDbEntity
  8
1
  6
________________
 62
     7
370
     9
100
AcDbLine
 10
733.7095065515922
 20
423.920335653328
 30
0.0
 11
734.3101347856701
 21
415.076646508052
 31
0.0
  0
LWPOLYLINE
  5
217
330
1F
100
AcDbEntity
  8
1
  6
________________
 62
     7
370
     9
100
AcDbPolyline
 90
        4
 70
     0
 43
0.0
 10
734.3101347856701
 20
415.076646508052
 42
0.0407056753919969
 10
735.9751291019329
 20
400.1800761603625
 10
736.0532540174619
 20
400.0358642059925
 10
736.0708048599216
 20
400.0114120941432
  0
LINE
  5
218
330
1F
100
AcDbEntity
  8
1
  6
________________
 62
     7
370
     9
100
AcDbLine
 10
736.0708048599216
 20
400.0114120941432
 30
0.0
 11
736.1860623232343
 21
399.923233968136
 31
0.0
  0
LINE
  5
219
330
1F
100
AcDbEntity
  8
1
  6
________________
 62
     7
370
     9
100
AcDbLine
 10
731.767645140286
 20
446.4593562103096
 30
0.0
 11
731.7823061421186
 21
446.3824754882159
 31
0.0
  0
LINE
  5
21A
330
1F
100
AcDbEntity
  8
1
  6
________________
 62
     7
370
     9
100
AcDbLine
 10
723.7094981968869
 20
423.9203350277712
 30
0.0
 11
724.0872625114541
 21
418.2773621903145
 31
0.0
  0
LWPOLYLINE
  5
21B
330
1F
100
AcDbEntity
  8
1
  6
________________
 62
     7
370
     9
100
AcDbPolyline
 90
        6
 70
     0
 43
0.0
 10
724.0872625114542
 20
418.2773621903145
 42
0.032476476882339
 10
725.8970945562729
 20
400.3820868317938
 10
725.9752229976796
 20
400.1805559419131
 10
726.0533514390862
 20
400.0364761150853
 10
726.1314798804929
 20
399.9500546153689
 10
726.1861699874379
 20
399.9238588127073
  0
LINE
  5
21C
330
1F
100
AcDbEntity
  8
1
  6
________________
 62
     7
370
     9
100
AcDbLine
 10
721.7695487903658
 20
446.4495397360279
 30
0.0
 11
721.7826742627025
 21
446.3805958759872
 31
0.0
  0
LWPOLYLINE
  5
21D
330
1F
100
AcDbEntity
  8
1
  6
________________
 62
     7
370
     9
100
AcDbPolyline
 90
        7
 70
     0
 43
0.0
 10
713.7095379804477
 20
423.9203385384113
 42
0.0251213157288001
 10
715.8189507533552
 20
400.6401935174839
 10
715.8970771523517
 20
400.3819021927936
 10
715.9752035513484
 20
400.1804405830139
 10
716.0533299503448
 20
400.0364285921295
 10
716.1314563493415
 20
399.9499758883696
 10
716.1861441176687
 20
399.9237269950115
  0
LINE
  5
21E
330
1F
100
AcDbEntity
  8
1
  6
________________
 62
     7
370
     9
100
AcDbLine
 10
711.7694669472344
 20
446.4500474468448
 30
0.0
 11
711.782536163271
 21
446.3814089847754
 31
0.0
  0
ARC
  5
21F
330
1F
100
AcDbEntity
  8
1
  6
________________
 62
     7
370
     9
100
AcDbCircle
 10
976.431980636906
 20
436.1099611273243
 30
0.0
 40
272.9947876371613
100
AcDbArc
 50
182.5591936444861
 51
187.3208527936991
  0
LINE
  5
220
330
1F
100
AcDbEntity
  8
1
  6
________________
 62
     7
370
     9
100
AcDbLine
 10
705.6626105427376
 20
401.3234364968586
 30
0.0
 11
706.0505750244898
 21
400.039921464892
 31
0.0
  0
LINE
  5
221
330
1F
100
AcDbEntity
  8
1
  6
________________
 62
     7
370
     9
100
AcDbLine
 10
706.0505750244897
 20
400.0399214648919
 30
0.0
 11
706.1860616696338
 21
399.9231545580584
 31
0.0
  0
LINE
  5
222
330
1F
100
AcDbEntity
  8
1
  6
________________
 62
     7
370
     9
100
AcDbLine
 10
701.7695978943347
 20
446.4494370132677
 30
0.0
 11
701.7827359304297
 21
446.3804206215808
 31
0.0
  0
LWPOLYLINE
  5
223
330
1F
100
AcDbEntity
  8
1
  6
________________
 62
     7
370
     9
100
AcDbPolyline
 90
        7
 70
     0
 43
0.0
 10
693.7096441002687
 20
423.920342745383
 42
0.0251209001007302
 10
695.8190692098211
 20
400.6406764861302
 10
695.8971960657306
 20
400.3824626135616
 10
695.9753229216399
 20
400.1812199968223
 10
696.0534497775492
 20
400.0372519299482
 10
696.1315766334586
 20
399.9507002750381
 10
696.1862992674082
 20
399.9243452665432
  0
LINE
  5
224
330
1F
100
AcDbEntity
  8
1
  6
________________
 62
     7
370
     9
100
AcDbLine
 10
691.7694209466323
 20
446.4504203805022
 30
0.0
 11
691.7823995609826
 21
446.3822567515589
 31
0.0
  0
LWPOLYLINE
  5
225
330
1F
100
AcDbEntity
  8
1
  6
________________
 62
     7
370
     9
100
AcDbPolyline
 90
        5
 70
     0
 43
0.0
 10
683.7094759399656
 20
423.9203360893031
 42
0.0251173747328422
 10
685.8188394054678
 20
400.6393301377073
 10
685.896963978264
 20
400.3811824765395
 10
685.9750885510605
 20
400.179980870897
 10
686.0458341248102
 20
400.0471154886427
  0
LINE
  5
226
330
1F
100
AcDbEntity
  8
1
  6
________________
 62
     7
370
     9
100
AcDbLine
 10
686.0458341248102
 20
400.0471154886427
 30
0.0
 11
686.1661679760188
 21
399.9292423171815
 31
0.0
  0
LINE
  5
227
330
1F
100
AcDbEntity
  8
1
  6
________________
 62
     7
370
     9
100
AcDbLine
 10
681.7693518749991
 20
446.4508194658089
 30
0.0
 11
681.7823418428635
 21
446.3825728425747
 31
0.0
  0
ARC
  5
228
330
1F
100
AcDbEntity
  8
1
  6
________________
 62
     7
370
     9
100
AcDbCircle
 10
1247.737633181935
 20
458.0987696123613
 30
0.0
 40
575.0447983602362
100
AcDbArc
 50
183.407447339327
 51
185.2603277197326
  0
LWPOLYLINE
  5
229
330
1F
100
AcDbEntity
  8
1
  6
________________
 62
     7
370
     9
100
AcDbPolyline
 90
        5
 70
     0
 43
0.0
 10
675.1146831538312
 20
405.3780220619248
 42
0.050954017135302
 10
675.9751001117861
 20
400.1801283138498
 10
676.0532259672825
 20
400.0360680128169
 10
676.131351822779
 20
399.9493644300905
 10
676.1802671414467
 20
399.9243862315835
  0
LINE
  5
22A
330
1F
100
AcDbEntity
  8
1
  6
________________
 62
     7
370
     9
100
AcDbLine
 10
671.4736511148323
 20
447.5904231761256
 30
0.0
 11
671.5700180715888
 21
447.3070787365059
 31
0.0
  0
LINE
  5
22B
330
1F
100
AcDbEntity
  8
1
  6
________________
 62
     7
370
     9
100
AcDbLine
 10
671.5700180715888
 20
447.3070787365059
 30
0.0
 11
671.5826181208888
 21
447.2636893722297
 31
0.0
  0
LINE
  5
22C
330
1F
100
AcDbEntity
  8
1
  6
________________
 62
     7
370
     9
100
AcDbLine
 10
671.7693177429571
 20
446.4509858390444
 30
0.0
 11
671.7823150069885
 21
446.3826813122736
 31
0.0
  0
LWPOLYLINE
  5
22D
330
1F
100
AcDbEntity
  8
1
  6
________________
 62
     7
370
     9
100
AcDbPolyline
 90
        7
 70
     0
 43
0.0
 10
663.7096627551553
 20
423.9203464141693
 42
0.0251155671211582
 10
665.8189433572567
 20
400.6398478011556
 10
665.8970648610382
 20
400.3818883563302
 10
665.9751863648198
 20
400.1806859241872
 10
666.0533078686012
 20
400.0365387080654
 10
666.1314293723829
 20
399.9497449122932
 10
666.186108831778
 20
399.9232754886969
  0
LINE
  5
22E
330
1F
100
AcDbEntity
  8
1
  6
________________
 62
     7
370
     9
100
AcDbLine
 10
661.7693426866107
 20
446.4507872935886
 30
0.0
 11
661.7822315599868
 21
446.3830630579673
 31
0.0
  0
LWPOLYLINE
  5
22F
330
1F
100
AcDbEntity
  8
1
  6
________________
 62
     7
370
     9
100
AcDbPolyline
 90
        5
 70
     0
 43
0.0
 10
655.3555078110788
 20
403.2922048214197
 42
0.0561588294656954
 10
655.9750538210627
 20
400.1799914923513
 10
656.0531793948463
 20
400.0357912777526
 10
656.1313049686299
 20
399.9489639734308
 10
656.2107174876912
 20
399.9198653016606
  0
LINE
  5
230
330
1F
100
AcDbEntity
  8
1
  6
________________
 62
     7
370
     9
100
AcDbLine
 10
623.7094300242379
 20
423.9203341934904
 30
0.0
 11
624.4185224919255
 21
413.5780232942236
 31
0.0
  0
LWPOLYLINE
  5
231
330
1F
100
AcDbEntity
  8
1
  6
________________
 62
     7
370
     9
100
AcDbPolyline
 90
        5
 70
     0
 43
0.0
 10
624.4185224919255
 20
413.5780232942236
 42
0.043400841881436
 10
625.9751281041233
 20
400.1804113560574
 10
626.0532556241194
 20
400.0360420553647
 10
626.1313831441153
 20
399.9492133995504
 10
626.1331932231316
 20
399.9478877658688
  0
LINE
  5
232
330
1F
100
AcDbEntity
  8
1
  6
________________
 62
     7
370
     9
100
AcDbLine
 10
626.202887487428
 20
399.9205724688351
 30
0.0
 11
626.2161408052434
 21
399.9206070586189
 31
0.0
  0
LINE
  5
233
330
1F
100
AcDbEntity
  8
1
  6
________________
 62
     7
370
     9
100
AcDbLine
 10
621.7692620910875
 20
446.4509412004986
 30
0.0
 11
621.7822123260927
 21
446.3828928594575
 31
0.0
  0
ARC
  5
234
330
1F
100
AcDbEntity
  8
1
  6
________________
 62
     7
370
     9
100
AcDbCircle
 10
913.2544553990402
 20
438.2816107433111
 30
0.0
 40
299.8890225685074
100
AcDbArc
 50
182.7448656971232
 51
187.0476734189172
  0
LINE
  5
235
330
1F
100
AcDbEntity
  8
1
  6
________________
 62
     7
370
     9
100
AcDbLine
 10
615.6312726214508
 20
401.4866799724513
 30
0.0
 11
616.0275890196086
 21
400.076861901395
 31
0.0
  0
LINE
  5
236
330
1F
100
AcDbEntity
  8
1
  6
________________
 62
     7
370
     9
100
AcDbLine
 10
616.0275890196086
 20
400.076861901395
 30
0.0
 11
616.202853286231
 21
399.9204473030924
 31
0.0
  0
LINE
  5
237
330
1F
100
AcDbEntity
  8
1
  6
________________
 62
     7
370
     9
100
AcDbLine
 10
611.4896142640847
 20
447.5494772934983
 30
0.0
 11
611.581915785892
 21
447.2663328963083
 31
0.0
  0
LINE
  5
238
330
1F
100
AcDbEntity
  8
1
  6
________________
 62
     7
370
     9
100
AcDbLine
 10
611.7693799846229
 20
446.4502794062212
 30
0.0
 11
611.7823672722518
 21
446.3820420082445
 31
0.0
  0
LINE
  5
239
330
1F
100
AcDbEntity
  8
1
  6
________________
 62
     7
370
     9
100
AcDbLine
 10
603.709472253172
 20
423.9203348031551
 30
0.0
 11
604.3897551724181
 21
413.9716682252697
 31
0.0
  0
LINE
  5
23A
330
1F
100
AcDbEntity
  8
1
  6
________________
 62
     7
370
     9
100
AcDbLine
 10
604.3897551724181
 20
413.9716682252697
 30
0.0
 11
604.761101132823
 21
409.1913118184548
 31
0.0
  0
LWPOLYLINE
  5
23B
330
1F
100
AcDbEntity
  8
1
  6
________________
 62
     7
370
     9
100
AcDbPolyline
 90
        5
 70
     0
 43
0.0
 10
604.761101132823
 20
409.1913118184548
 42
0.0477048512993841
 10
605.975130140243
 20
400.180295779161
 10
606.0532562742799
 20
400.0358979245559
 10
606.1313824083168
 20
399.9492354988467
 10
606.1860333443108
 20
399.9230773567519
  0
LINE
  5
23C
330
1F
100
AcDbEntity
  8
1
  6
________________
 62
     7
370
     9
100
AcDbLine
 10
601.460434227181
 20
447.6226270542056
 30
0.0
 11
601.5825383472567
 21
447.2641655893573
 31
0.0
  0
LINE
  5
23D
330
1F
100
AcDbEntity
  8
1
  6
________________
 62
     7
370
     9
100
AcDbLine
 10
601.7692956232197
 20
446.4507072380209
 30
0.0
 11
601.7822254870697
 21
446.3827924782485
 31
0.0
  0
LWPOLYLINE
  5
23E
330
1F
100
AcDbEntity
  8
1
  6
________________
 62
     7
370
     9
100
AcDbPolyline
 90
        7
 70
     0
 43
0.0
 10
593.7095007789843
 20
423.920337401073
 42
0.0251222585934494
 10
595.8188841587383
 20
400.6399695039779
 10
595.8970094690998
 20
400.3818216713039
 10
595.9751347794611
 20
400.1802381043283
 10
596.0532600898223
 20
400.0358769145959
 10
596.1313854001836
 20
399.9493184233704
 10
596.1860443585198
 20
399.9231718507052
  0
ARC
  5
23F
330
1F
100
AcDbEntity
  8
1
  6
________________
 62
     7
370
     9
100
AcDbCircle
 10
1165.817253394081
 20
458.6534014025477
 30
0.0
 40
583.1430456788719
100
AcDbArc
 50
183.4146623011701
 51
185.2271635547904
  0
LWPOLYLINE
  5
240
330
1F
100
AcDbEntity
  8
1
  6
________________
 62
     7
370
     9
100
AcDbPolyline
 90
        4
 70
     0
 43
0.0
 10
585.0993139790237
 20
405.5263220064337
 42
0.0513970823194813
 10
585.9751269620054
 20
400.1801099649744
 10
586.0532517144841
 20
400.0358290750179
 10
586.0859643008929
 20
399.9925802411185
  0
LINE
  5
241
330
1F
100
AcDbEntity
  8
1
  6
________________
 62
     7
370
     9
100
AcDbLine
 10
586.0859643008929
 20
399.9925802411185
 30
0.0
 11
586.1860509766026
 21
399.9231863250221
 31
0.0
  0
LINE
  5
242
330
1F
100
AcDbEntity
  8
1
  6
________________
 62
     7
370
     9
100
AcDbLine
 10
582.4418724780397
 20
441.077943488256
 30
0.0
 11
583.2367510299181
 21
430.9449718911732
 31
0.0
  0
LINE
  5
243
330
1F
100
AcDbEntity
  8
1
  6
________________
 62
     7
370
     9
100
AcDbLine
 10
583.2367510299181
 20
430.9449718911732
 30
0.0
 11
583.7095091401262
 21
423.9203364182495
 31
0.0
  0
LINE
  5
244
330
1F
100
AcDbEntity
  8
1
  6
________________
 62
     7
370
     9
100
AcDbLine
 10
582.3568224289811
 20
397.9208124590596
 30
0.0
 11
582.3568224289811
 21
410.4973077605539
 31
0.0
  0
LINE
  5
245
330
1F
100
AcDbEntity
  8
1
  6
________________
 62
     7
370
     9
100
AcDbLine
 10
582.3568224289811
 20
410.4973077605539
 30
0.0
 11
582.3568224289811
 21
414.7909615919602
 31
0.0
  0
LINE
  5
246
330
1F
100
AcDbEntity
  8
1
  6
________________
 62
     7
370
     9
100
AcDbLine
 10
582.3568224289811
 20
414.7909615919602
 30
0.0
 11
582.3568224289811
 21
419.9736582248797
 31
0.0
  0
LINE
  5
247
330
1F
100
AcDbEntity
  8
1
  6
________________
 62
     7
370
     9
100
AcDbLine
 10
582.3568224289811
 20
419.9736582248797
 30
0.0
 11
582.3568224289811
 21
423.5203113036687
 31
0.0
  0
LINE
  5
248
330
1F
100
AcDbEntity
  8
1
  6
________________
 62
     7
370
     9
100
AcDbLine
 10
582.3568224289811
 20
423.5203113036687
 30
0.0
 11
582.3568224289811
 21
432.8508004501467
 31
0.0
  0
LINE
  5
249
330
1F
100
AcDbEntity
  8
1
  6
________________
 62
     7
370
     9
100
AcDbLine
 10
582.3568224289811
 20
432.8508004501467
 30
0.0
 11
582.3568224289811
 21
437.6721568623799
 31
0.0
  0
LINE
  5
24A
330
1F
100
AcDbEntity
  8
1
  6
________________
 62
     7
370
     9
100
AcDbLine
 10
582.3568224289811
 20
437.6721568623799
 30
0.0
 11
582.3568224289811
 21
439.2032774487525
 31
0.0
  0
LINE
  5
24B
330
1F
100
AcDbEntity
  8
1
  6
________________
 62
     7
370
     9
100
AcDbLine
 10
582.3568224289811
 20
439.2032774487524
 30
0.0
 11
582.3568224289811
 21
441.9497962180631
 31
0.0
  0
LINE
  5
24C
330
1F
100
AcDbEntity
  8
1
  6
________________
 62
     7
370
     9
100
AcDbLine
 10
758.6145859483739
 20
387.1137594107015
 30
0.0
 11
765.3568224289811
 21
388.9203362308599
 31
0.0
  0
LINE
  5
24D
330
1F
100
AcDbEntity
  8
1
  6
________________
 62
     7
370
     9
100
AcDbLine
 10
759.3568224289811
 20
460.5280313854466
 30
0.0
 11
756.0409979647718
 21
461.4165038728748
 31
0.0
  0
LINE
  5
24E
330
1F
100
AcDbEntity
  8
1
  6
________________
 62
     7
370
     9
100
AcDbLine
 10
756.3980797959077
 20
451.3912336214302
 30
0.0
 11
752.3568224289811
 21
449.9203362308599
 31
0.0
  0
LINE
  5
24F
330
1F
100
AcDbEntity
  8
1
  6
________________
 62
     7
370
     9
100
AcDbLine
 10
752.3568224289811
 20
397.9203362308599
 30
0.0
 11
758.3198383134187
 21
395.7499759424681
 31
0.0
  0
LINE
  5
250
330
1F
100
AcDbEntity
  8
1
  6
________________
 62
     7
370
     9
100
AcDbLine
 10
632.4953144114553
 20
388.9203362308599
 30
0.0
 11
655.355507811079
 21
388.9203362308599
 31
0.0
  0
LINE
  5
251
330
1F
100
AcDbEntity
  8
1
  6
________________
 62
     7
370
     9
100
AcDbLine
 10
655.3555078110788
 20
458.9203362308599
 30
0.0
 11
632.4953144114552
 21
458.9203362308599
 31
0.0
  0
LINE
  5
252
330
1F
100
AcDbEntity
  8
1
  6
________________
 62
     7
370
     9
100
AcDbLine
 10
632.4953144114553
 20
422.1142501408436
 30
0.0
 11
651.3568224289812
 21
422.1142501408436
 31
0.0
  0
LINE
  5
253
330
1F
100
AcDbEntity
  8
1
  6
________________
 62
     7
370
     9
100
AcDbLine
 10
651.3568224289812
 20
425.7264223208762
 30
0.0
 11
632.4953144114553
 21
425.7264223208762
 31
0.0
  0
LINE
  5
254
330
1F
100
AcDbEntity
  8
1
  6
________________
 62
     7
370
     9
100
AcDbLine
 10
632.4417304857271
 20
425.7194601066305
 30
0.0
 11
627.8032105104156
 21
425.5737786091448
 31
0.0
  0
LINE
  5
255
330
1F
100
AcDbEntity
  8
1
  6
________________
 62
     7
370
     9
100
AcDbLine
 10
627.8032105104156
 20
422.2668938525749
 30
0.0
 11
632.441730485727
 21
422.1212123550893
 31
0.0
  0
ARC
  5
256
330
1F
100
AcDbEntity
  8
1
  6
________________
 62
     7
370
     9
100
AcDbCircle
 10
627.8568224289811
 20
425.0807497309179
 30
0.0
 40
0.5000000000000001
100
AcDbArc
 50
91.79881001600604
 51
180.0000000000153
  0
ARC
  5
257
330
1F
100
AcDbEntity
  8
1
  6
________________
 62
     7
370
     9
100
AcDbCircle
 10
627.8568224289811
 20
422.7599227308019
 30
0.0
 40
0.5000000000000004
100
AcDbArc
 50
180.0
 51
268.2011899839939
  0
LINE
  5
258
330
1F
100
AcDbEntity
  8
1
  6
________________
 62
     7
370
     9
100
AcDbLine
 10
632.4953144114553
 20
398.1190977501855
 30
0.0
 11
651.3568224289812
 21
398.1190977501855
 31
0.0
  0
LINE
  5
259
330
1F
100
AcDbEntity
  8
1
  6
________________
 62
     7
370
     9
100
AcDbLine
 10
651.3568224289812
 20
449.7215747115343
 30
0.0
 11
632.4953144114553
 21
449.7215747115343
 31
0.0
  0
ARC
  5
25A
330
1F
100
AcDbEntity
  8
1
  6
________________
 62
     7
370
     9
100
AcDbCircle
 10
632.4953144114553
 20
398.6190977501855
 30
0.0
 40
0.5
100
AcDbArc
 50
245.9662956775342
 51
270.0
  0
ARC
  5
25B
330
1F
100
AcDbEntity
  8
1
  6
________________
 62
     7
370
     9
100
AcDbCircle
 10
632.4953144114553
 20
449.2215747115343
 30
0.0
 40
0.5000000000000004
100
AcDbArc
 50
90.0
 51
114.0337043224658
  0
LINE
  5
25C
330
1F
100
AcDbEntity
  8
1
  6
________________
 62
     7
370
     9
100
AcDbLine
 10
627.6528438689878
 20
400.2310774221052
 30
0.0
 11
632.2913388801834
 21
398.162596974722
 31
0.0
  0
LINE
  5
25D
330
1F
100
AcDbEntity
  8
1
  6
________________
 62
     7
370
     9
100
AcDbLine
 10
632.2913388801823
 20
449.6780754869972
 30
0.0
 11
627.6528438689875
 21
447.6095950396143
 31
0.0
  0
LINE
  5
25E
330
1F
100
AcDbEntity
  8
1
  6
________________
 62
     7
370
     9
100
AcDbLine
 10
627.3660687372454
 20
444.1606949777264
 30
0.0
 11
627.3569788671172
 21
444.138961926448
 31
0.0
  0
LINE
  5
25F
330
1F
100
AcDbEntity
  8
1
  6
________________
 62
     7
370
     9
100
AcDbLine
 10
627.3569503569491
 20
403.7017729049458
 30
0.0
 11
627.3660687372686
 21
403.6799774840802
 31
0.0
  0
ARC
  5
260
330
1F
100
AcDbEntity
  8
1
  6
________________
 62
     7
370
     9
100
AcDbCircle
 10
627.8568224289811
 20
447.153095615847
 30
0.0
 40
0.4999999999999989
100
AcDbArc
 50
114.0341144464344
 51
180.0000000000008
  0
ARC
  5
261
330
1F
100
AcDbEntity
  8
1
  6
________________
 62
     7
370
     9
100
AcDbCircle
 10
627.8568224289811
 20
400.6875768458728
 30
0.0
 40
0.5000000000000004
100
AcDbArc
 50
180.0
 51
245.9658855535655
  0
ARC
  5
262
330
1F
100
AcDbEntity
  8
1
  6
________________
 62
     7
370
     9
100
AcDbCircle
 10
632.4953144114553
 20
458.4203362308599
 30
0.0
 40
0.5000000000000004
100
AcDbArc
 50
90.0
 51
120.9637565320678
  0
ARC
  5
263
330
1F
100
AcDbEntity
  8
1
  6
________________
 62
     7
370
     9
100
AcDbCircle
 10
632.4953144114553
 20
389.4203362308599
 30
0.0
 40
0.4999999999999996
100
AcDbArc
 50
239.0362434679322
 51
270.0
  0
LINE
  5
264
330
1F
100
AcDbEntity
  8
1
  6
________________
 62
     7
370
     9
100
AcDbLine
 10
632.2380665337416
 20
458.8490826937162
 30
0.0
 11
627.5995745512672
 21
456.0659875042316
 31
0.0
  0
LINE
  5
265
330
1F
100
AcDbEntity
  8
1
  6
________________
 62
     7
370
     9
100
AcDbLine
 10
627.5995745512673
 20
391.7746849574881
 30
0.0
 11
632.2380665337417
 21
388.9915897680036
 31
0.0
  0
ARC
  5
266
330
1F
100
AcDbEntity
  8
1
  6
________________
 62
     7
370
     9
100
AcDbCircle
 10
627.8568224289811
 20
455.6372410413754
 30
0.0
 40
0.5000000000000068
100
AcDbArc
 50
120.963756532078
 51
180.0
  0
ARC
  5
267
330
1F
100
AcDbEntity
  8
1
  6
________________
 62
     7
370
     9
100
AcDbCircle
 10
627.8568224289811
 20
392.2034314203444
 30
0.0
 40
0.5000000000000004
100
AcDbArc
 50
180.0
 51
239.036243467922
  0
ARC
  5
268
330
1F
100
AcDbEntity
  8
1
  6
________________
 62
     7
370
     9
100
AcDbCircle
 10
769.8568224289811
 20
389.9203362308599
 30
0.0
 40
1.000000000000001
100
AcDbArc
 50
270.0
 51
0.0
  0
LINE
  5
269
330
1F
100
AcDbEntity
  8
1
  6
________________
 62
     7
370
     9
100
AcDbLine
 10
765.3568224289811
 20
388.9203362308599
 30
0.0
 11
769.8568224289811
 21
388.9203362308599
 31
0.0
  0
LINE
  5
26A
330
1F
100
AcDbEntity
  8
1
  6
________________
 62
     7
370
     9
100
AcDbLine
 10
590.8568760782601
 20
449.9198822712732
 30
0.0
 11
587.3568760782704
 21
449.9198903317185
 31
0.0
  0
LINE
  5
26B
330
1F
100
AcDbEntity
  8
1
  6
________________
 62
     7
370
     9
100
AcDbLine
 10
600.8565954226001
 20
449.9199587782697
 30
0.0
 11
597.3565954226087
 21
449.9199668387386
 31
0.0
  0
LINE
  5
26C
330
1F
100
AcDbEntity
  8
1
  6
________________
 62
     7
370
     9
100
AcDbLine
 10
610.8567204704073
 20
449.9200476457162
 30
0.0
 11
607.356720470417
 21
449.9200557062127
 31
0.0
  0
LINE
  5
26D
330
1F
100
AcDbEntity
  8
1
  6
________________
 62
     7
370
     9
100
AcDbLine
 10
620.8572484255081
 20
449.9201354307193
 30
0.0
 11
617.3572484255183
 21
449.9201434912431
 31
0.0
  0
LINE
  5
26E
330
1F
100
AcDbEntity
  8
1
  6
________________
 62
     7
370
     9
100
AcDbLine
 10
660.8563663593371
 20
449.9201983481901
 30
0.0
 11
657.3563663593465
 21
449.9202064087333
 31
0.0
  0
LINE
  5
26F
330
1F
100
AcDbEntity
  8
1
  6
________________
 62
     7
370
     9
100
AcDbLine
 10
670.8558828918771
 20
449.9201127653236
 30
0.0
 11
667.3558828918864
 21
449.9201208258403
 31
0.0
  0
LINE
  5
270
330
1F
100
AcDbEntity
  8
1
  6
________________
 62
     7
370
     9
100
AcDbLine
 10
680.8566169546133
 20
449.9200289523152
 30
0.0
 11
677.3566169546226
 21
449.9200370128059
 31
0.0
  0
LINE
  5
271
330
1F
100
AcDbEntity
  8
1
  6
________________
 62
     7
370
     9
100
AcDbLine
 10
690.856824534971
 20
449.91994265017
 30
0.0
 11
687.3568245349802
 21
449.919950710634
 31
0.0
  0
LINE
  5
272
330
1F
100
AcDbEntity
  8
1
  6
________________
 62
     7
370
     9
100
AcDbLine
 10
700.8570710884336
 20
449.9198703865137
 30
0.0
 11
697.3570710884429
 21
449.9198784469554
 31
0.0
  0
LINE
  5
273
330
1F
100
AcDbEntity
  8
1
  6
________________
 62
     7
370
     9
100
AcDbLine
 10
710.8569465017202
 20
449.9198204401861
 30
0.0
 11
707.3569465017296
 21
449.9198285006122
 31
0.0
  0
LINE
  5
274
330
1F
100
AcDbEntity
  8
1
  6
________________
 62
     7
370
     9
100
AcDbLine
 10
720.8568574682092
 20
449.9197986668422
 30
0.0
 11
717.3568574682185
 21
449.9198067272616
 31
0.0
  0
LINE
  5
275
330
1F
100
AcDbEntity
  8
1
  6
________________
 62
     7
370
     9
100
AcDbLine
 10
730.857694522019
 20
449.9198032050485
 30
0.0
 11
727.3576945220283
 21
449.9198112654692
 31
0.0
  0
LINE
  5
276
330
1F
100
AcDbEntity
  8
1
  6
________________
 62
     7
370
     9
100
AcDbLine
 10
740.8577299365742
 20
449.9198400337841
 30
0.0
 11
737.3577299365834
 21
449.9198480942163
 31
0.0
  0
LINE
  5
277
330
1F
100
AcDbEntity
  8
1
  6
________________
 62
     7
370
     9
100
AcDbLine
 10
748.3568224406803
 20
449.9199141335865
 30
0.0
 11
747.3569834504104
 21
449.9199164362024
 31
0.0
  0
LINE
  5
278
330
1F
100
AcDbEntity
  8
1
  6
________________
 62
     7
370
     9
100
AcDbLine
 10
742.3566990185169
 20
397.9207900657161
 30
0.0
 11
745.8566990185077
 21
397.9207981261589
 31
0.0
  0
LINE
  5
279
330
1F
100
AcDbEntity
  8
1
  6
________________
 62
     7
370
     9
100
AcDbLine
 10
732.3569230529898
 20
397.9208417526441
 30
0.0
 11
735.8249355268638
 21
397.9208497394042
 31
0.0
  0
LINE
  5
27A
330
1F
100
AcDbEntity
  8
1
  6
________________
 62
     7
370
     9
100
AcDbLine
 10
735.8249355268638
 20
397.9208497394042
 30
0.0
 11
735.8569230529805
 21
397.9208498130708
 31
0.0
  0
LINE
  5
27B
330
1F
100
AcDbEntity
  8
1
  6
________________
 62
     7
370
     9
100
AcDbLine
 10
722.3561871144417
 20
397.9208675172589
 30
0.0
 11
725.8561871144325
 21
397.9208755776777
 31
0.0
  0
LINE
  5
27C
330
1F
100
AcDbEntity
  8
1
  6
________________
 62
     7
370
     9
100
AcDbLine
 10
712.3560136697779
 20
397.9208630922445
 30
0.0
 11
715.8560136697686
 21
397.9208711526647
 31
0.0
  0
LINE
  5
27D
330
1F
100
AcDbEntity
  8
1
  6
________________
 62
     7
370
     9
100
AcDbLine
 10
702.356648654607
 20
397.9208230570876
 30
0.0
 11
705.829869410742
 21
397.9208310558481
 31
0.0
  0
LINE
  5
27E
330
1F
100
AcDbEntity
  8
1
  6
________________
 62
     7
370
     9
100
AcDbLine
 10
705.829869410742
 20
397.9208310558481
 30
0.0
 11
705.856648654598
 21
397.9208311175202
 31
0.0
  0
LINE
  5
27F
330
1F
100
AcDbEntity
  8
1
  6
________________
 62
     7
370
     9
100
AcDbLine
 10
692.3573539245883
 20
397.9207602878508
 30
0.0
 11
695.857353924579
 21
397.9207683483029
 31
0.0
  0
LINE
  5
280
330
1F
100
AcDbEntity
  8
1
  6
________________
 62
     7
370
     9
100
AcDbLine
 10
682.3576119293457
 20
397.9206796730055
 30
0.0
 11
685.8167580644835
 21
397.9206876393964
 31
0.0
  0
LINE
  5
281
330
1F
100
AcDbEntity
  8
1
  6
________________
 62
     7
370
     9
100
AcDbLine
 10
685.8167580644835
 20
397.9206876393963
 30
0.0
 11
685.8576119293366
 21
397.9206877334825
 31
0.0
  0
LINE
  5
282
330
1F
100
AcDbEntity
  8
1
  6
________________
 62
     7
370
     9
100
AcDbLine
 10
672.3568497728257
 20
397.9205886102077
 30
0.0
 11
675.8349046361878
 21
397.9205966201733
 31
0.0
  0
LINE
  5
283
330
1F
100
AcDbEntity
  8
1
  6
________________
 62
     7
370
     9
100
AcDbLine
 10
675.834904636188
 20
397.9205966201733
 30
0.0
 11
675.8568497728166
 21
397.920596670713
 31
0.0
  0
LINE
  5
284
330
1F
100
AcDbEntity
  8
1
  6
________________
 62
     7
370
     9
100
AcDbLine
 10
662.3572726760214
 20
397.9205008637857
 30
0.0
 11
665.8572726760116
 21
397.9205089243182
 31
0.0
  0
LINE
  5
285
330
1F
100
AcDbEntity
  8
1
  6
________________
 62
     7
370
     9
100
AcDbLine
 10
655.3555078110788
 20
397.9204394337482
 30
0.0
 11
655.8228714304242
 21
397.9204405100938
 31
0.0
  0
LINE
  5
286
330
1F
100
AcDbEntity
  8
1
  6
________________
 62
     7
370
     9
100
AcDbLine
 10
655.8228714304242
 20
397.9204405100938
 30
0.0
 11
655.8571048806226
 21
397.920440588934
 31
0.0
  0
LINE
  5
287
330
1F
100
AcDbEntity
  8
1
  6
________________
 62
     7
370
     9
100
AcDbLine
 10
622.3559927187258
 20
397.9204880989902
 30
0.0
 11
625.8293622484781
 21
397.9204960981965
 31
0.0
  0
LINE
  5
288
330
1F
100
AcDbEntity
  8
1
  6
________________
 62
     7
370
     9
100
AcDbLine
 10
625.829362248478
 20
397.9204960981965
 30
0.0
 11
625.8559927187168
 21
397.9204961595267
 31
0.0
  0
LINE
  5
289
330
1F
100
AcDbEntity
  8
1
  6
________________
 62
     7
370
     9
100
AcDbLine
 10
612.3563467763711
 20
397.9205712700286
 30
0.0
 11
615.8563467763623
 21
397.9205793305392
 31
0.0
  0
LINE
  5
28A
330
1F
100
AcDbEntity
  8
1
  6
________________
 62
     7
370
     9
100
AcDbLine
 10
602.3569959951323
 20
397.9206629165439
 30
0.0
 11
605.8168832139789
 21
397.9206708846467
 31
0.0
  0
LINE
  5
28B
330
1F
100
AcDbEntity
  8
1
  6
________________
 62
     7
370
     9
100
AcDbLine
 10
605.8168832139789
 20
397.9206708846467
 30
0.0
 11
605.856995995122
 21
397.9206709770262
 31
0.0
  0
LINE
  5
28C
330
1F
100
AcDbEntity
  8
1
  6
________________
 62
     7
370
     9
100
AcDbLine
 10
592.3577113488928
 20
397.9207519733907
 30
0.0
 11
595.8361417350083
 21
397.9207599841708
 31
0.0
  0
LINE
  5
28D
330
1F
100
AcDbEntity
  8
1
  6
________________
 62
     7
370
     9
100
AcDbLine
 10
595.8361417350083
 20
397.9207599841708
 30
0.0
 11
595.857711348884
 21
397.9207600338454
 31
0.0
  0
LINE
  5
28E
330
1F
100
AcDbEntity
  8
1
  6
________________
 62
     7
370
     9
100
AcDbLine
 10
582.357852885672
 20
397.9208191793896
 30
0.0
 11
585.8578528856629
 21
397.9208272398234
 31
0.0
  0
LINE
  5
28F
330
1F
100
AcDbEntity
  8
1
  6
________________
 62
     7
370
     9
100
AcDbLine
 10
586.8249780807047
 20
448.4815640525607
 30
0.0
 11
586.7160549002724
 21
447.898722811459
 31
0.0
  0
LINE
  5
290
330
1F
100
AcDbEntity
  8
1
  6
________________
 62
     7
370
     9
100
AcDbLine
 10
596.824886762575
 20
448.4811569451489
 30
0.0
 11
596.7160412776797
 21
447.8987235490281
 31
0.0
  0
LINE
  5
291
330
1F
100
AcDbEntity
  8
1
  6
________________
 62
     7
370
     9
100
AcDbLine
 10
606.824927733594
 20
448.4814374664416
 30
0.0
 11
606.7199328587186
 21
447.9195717199572
 31
0.0
  0
LINE
  5
292
330
1F
100
AcDbEntity
  8
1
  6
________________
 62
     7
370
     9
100
AcDbLine
 10
616.8253066526894
 20
448.4834885897457
 30
0.0
 11
616.7199319110845
 21
447.9195705049287
 31
0.0
  0
LINE
  5
293
330
1F
100
AcDbEntity
  8
1
  6
________________
 62
     7
370
     9
100
AcDbLine
 10
626.8249837427524
 20
448.4817302143
 30
0.0
 11
626.7199398804353
 21
447.9195690580482
 31
0.0
  0
LINE
  5
294
330
1F
100
AcDbEntity
  8
1
  6
________________
 62
     7
370
     9
100
AcDbLine
 10
656.8252768073909
 20
448.4830715994565
 30
0.0
 11
656.7199825882202
 21
447.9195656120781
 31
0.0
  0
LINE
  5
295
330
1F
100
AcDbEntity
  8
1
  6
________________
 62
     7
370
     9
100
AcDbLine
 10
666.8251935850411
 20
448.4825484353804
 30
0.0
 11
666.7199956613141
 21
447.9195643478042
 31
0.0
  0
LINE
  5
296
330
1F
100
AcDbEntity
  8
1
  6
________________
 62
     7
370
     9
100
AcDbLine
 10
676.825178591246
 20
448.4824080652325
 30
0.0
 11
676.7200051334335
 21
447.9195646248755
 31
0.0
  0
LINE
  5
297
330
1F
100
AcDbEntity
  8
1
  6
________________
 62
     7
370
     9
100
AcDbLine
 10
686.8251573960831
 20
448.4822582750086
 30
0.0
 11
686.7200099397802
 21
447.9195644710244
 31
0.0
  0
LINE
  5
298
330
1F
100
AcDbEntity
  8
1
  6
________________
 62
     7
370
     9
100
AcDbLine
 10
696.8250692488016
 20
448.4817775170616
 30
0.0
 11
696.7200097361911
 21
447.9195654402068
 31
0.0
  0
LINE
  5
299
330
1F
100
AcDbEntity
  8
1
  6
________________
 62
     7
370
     9
100
AcDbLine
 10
706.8250265106208
 20
448.4815688364955
 30
0.0
 11
706.72000418074
 21
447.9195650201888
 31
0.0
  0
LINE
  5
29A
330
1F
100
AcDbEntity
  8
1
  6
________________
 62
     7
370
     9
100
AcDbLine
 10
716.8248352643968
 20
448.4805915052825
 30
0.0
 11
716.7199942725916
 21
447.9195661666053
 31
0.0
  0
LINE
  5
29B
330
1F
100
AcDbEntity
  8
1
  6
________________
 62
     7
370
     9
100
AcDbLine
 10
726.8249085145321
 20
448.4810532486359
 30
0.0
 11
726.7199804739123
 21
447.919566529841
 31
0.0
  0
LINE
  5
29C
330
1F
100
AcDbEntity
  8
1
  6
________________
 62
     7
370
     9
100
AcDbLine
 10
736.8248172591899
 20
448.4806479331258
 30
0.0
 11
736.7160647581511
 21
447.8987220205276
 31
0.0
  0
LINE
  5
29D
330
1F
100
AcDbEntity
  8
1
  6
________________
 62
     7
370
     9
100
AcDbLine
 10
746.8251004467245
 20
448.4822514742999
 30
0.0
 11
746.7160492918338
 21
447.8987231878565
 31
0.0
  0
LINE
  5
29E
330
1F
100
AcDbEntity
  8
1
  6
________________
 62
     7
370
     9
100
AcDbLine
 10
741.4301562478526
 20
401.464820117901
 30
0.0
 11
741.8249082974746
 21
399.3594930623815
 31
0.0
  0
LINE
  5
29F
330
1F
100
AcDbEntity
  8
1
  6
________________
 62
     7
370
     9
100
AcDbLine
 10
731.4297399853193
 20
401.4671024265534
 30
0.0
 11
731.8248304942684
 21
399.3599965586992
 31
0.0
  0
LINE
  5
2A0
330
1F
100
AcDbEntity
  8
1
  6
________________
 62
     7
370
     9
100
AcDbLine
 10
721.430052172229
 20
401.4655239477661
 30
0.0
 11
721.8249668892121
 21
399.3593435149605
 31
0.0
  0
LINE
  5
2A1
330
1F
100
AcDbEntity
  8
1
  6
________________
 62
     7
370
     9
100
AcDbLine
 10
711.4300092121147
 20
401.4658276966099
 30
0.0
 11
711.8249371868968
 21
399.3595616653415
 31
0.0
  0
LINE
  5
2A2
330
1F
100
AcDbEntity
  8
1
  6
________________
 62
     7
370
     9
100
AcDbLine
 10
701.4300435779865
 20
401.4657069165285
 30
0.0
 11
701.825042241364
 21
399.3590330418367
 31
0.0
  0
LINE
  5
2A3
330
1F
100
AcDbEntity
  8
1
  6
________________
 62
     7
370
     9
100
AcDbLine
 10
691.4301458450427
 20
401.4652046598144
 30
0.0
 11
691.8250802530672
 21
399.3588353428871
 31
0.0
  0
LINE
  5
2A4
330
1F
100
AcDbEntity
  8
1
  6
________________
 62
     7
370
     9
100
AcDbLine
 10
681.4302291493998
 20
401.4647781429502
 30
0.0
 11
681.8252893392109
 21
399.3576924911785
 31
0.0
  0
LINE
  5
2A5
330
1F
100
AcDbEntity
  8
1
  6
________________
 62
     7
370
     9
100
AcDbLine
 10
671.4303038406651
 20
401.4643709675211
 30
0.0
 11
671.8252367244903
 21
399.3579255112331
 31
0.0
  0
LINE
  5
2A6
330
1F
100
AcDbEntity
  8
1
  6
________________
 62
     7
370
     9
100
AcDbLine
 10
661.4303698280457
 20
401.4639848854304
 30
0.0
 11
661.8253192044845
 21
399.3574139318247
 31
0.0
  0
LINE
  5
2A7
330
1F
100
AcDbEntity
  8
1
  6
________________
 62
     7
370
     9
100
AcDbLine
 10
621.4302079459385
 20
401.4645652564762
 30
0.0
 11
621.8251301939632
 21
399.3581377391399
 31
0.0
  0
LINE
  5
2A8
330
1F
100
AcDbEntity
  8
1
  6
________________
 62
     7
370
     9
100
AcDbLine
 10
611.4303485196925
 20
401.4637632291498
 30
0.0
 11
611.8251730059595
 21
399.3579042045485
 31
0.0
  0
LINE
  5
2A9
330
1F
100
AcDbEntity
  8
1
  6
________________
 62
     7
370
     9
100
AcDbLine
 10
601.4299761907993
 20
401.4657191959649
 30
0.0
 11
601.8246618030462
 21
399.3606867072308
 31
0.0
  0
LINE
  5
2AA
330
1F
100
AcDbEntity
  8
1
  6
________________
 62
     7
370
     9
100
AcDbLine
 10
591.4300265624472
 20
401.4654751759019
 30
0.0
 11
591.8250455930495
 21
399.3587042847808
 31
0.0
  0
LINE
  5
2AB
330
1F
100
AcDbEntity
  8
1
  6
________________
 62
     7
370
     9
100
AcDbLine
 10
726.2095050930446
 20
399.9203362308599
 30
0.0
 11
731.7199728492291
 21
399.9203362308599
 31
0.0
  0
LINE
  5
2AC
330
1F
100
AcDbEntity
  8
1
  6
________________
 62
     7
370
     9
100
AcDbLine
 10
716.209490095336
 20
399.9203362308599
 30
0.0
 11
721.7199876409344
 21
399.9203362308599
 31
0.0
  0
LINE
  5
2AD
330
1F
100
AcDbEntity
  8
1
  6
________________
 62
     7
370
     9
100
AcDbLine
 10
706.2095138122
 20
399.9203362308599
 30
0.0
 11
711.7199997369186
 21
399.9203362308599
 31
0.0
  0
LINE
  5
2AE
330
1F
100
AcDbEntity
  8
1
  6
________________
 62
     7
370
     9
100
AcDbLine
 10
696.209549618685
 20
399.9203362308599
 30
0.0
 11
701.7200075534236
 21
399.9203362308599
 31
0.0
  0
LINE
  5
2AF
330
1F
100
AcDbEntity
  8
1
  6
________________
 62
     7
370
     9
100
AcDbLine
 10
686.2094875134412
 20
399.9203362308599
 30
0.0
 11
691.7200105034935
 21
399.9203362308599
 31
0.0
  0
LINE
  5
2B0
330
1F
100
AcDbEntity
  8
1
  6
________________
 62
     7
370
     9
100
AcDbLine
 10
676.2094749914468
 20
399.9203362308599
 30
0.0
 11
681.7200080260051
 21
399.9203362308599
 31
0.0
  0
LINE
  5
2B1
330
1F
100
AcDbEntity
  8
1
  6
________________
 62
     7
370
     9
100
AcDbLine
 10
666.2094828063083
 20
399.9203362308599
 30
0.0
 11
671.7200008837364
 21
399.9203362308599
 31
0.0
  0
LINE
  5
2B2
330
1F
100
AcDbEntity
  8
1
  6
________________
 62
     7
370
     9
100
AcDbLine
 10
656.2094443912415
 20
399.9203362308599
 30
0.0
 11
661.7199894087762
 21
399.9203362308599
 31
0.0
  0
LINE
  5
2B3
330
1F
100
AcDbEntity
  8
1
  6
________________
 62
     7
370
     9
100
AcDbLine
 10
626.2094257899255
 20
399.9203362308599
 30
0.0
 11
627.356822428981
 21
399.9203362308599
 31
0.0
  0
LINE
  5
2B4
330
1F
100
AcDbEntity
  8
1
  6
________________
 62
     7
370
     9
100
AcDbLine
 10
616.2094578227351
 20
399.9203362308599
 30
0.0
 11
621.7199350206562
 21
399.9203362308599
 31
0.0
  0
LINE
  5
2B5
330
1F
100
AcDbEntity
  8
1
  6
________________
 62
     7
370
     9
100
AcDbLine
 10
606.2094749531766
 20
399.9203362308599
 30
0.0
 11
611.7199312246402
 21
399.9203362308599
 31
0.0
  0
LINE
  5
2B6
330
1F
100
AcDbEntity
  8
1
  6
________________
 62
     7
370
     9
100
AcDbLine
 10
596.2094813364037
 20
399.9203362308599
 30
0.0
 11
601.7199366072198
 21
399.9203362308599
 31
0.0
  0
LINE
  5
2B7
330
1F
100
AcDbEntity
  8
1
  6
________________
 62
     7
370
     9
100
AcDbLine
 10
607.0042868922676
 20
447.9203362308599
 30
0.0
 11
601.4937511467219
 21
447.9203362308599
 31
0.0
  0
LINE
  5
2B8
330
1F
100
AcDbEntity
  8
1
  6
________________
 62
     7
370
     9
100
AcDbLine
 10
617.0042927235488
 20
447.9203362308599
 30
0.0
 11
611.493757019039
 21
447.9203362308599
 31
0.0
  0
LINE
  5
2B9
330
1F
100
AcDbEntity
  8
1
  6
________________
 62
     7
370
     9
100
AcDbLine
 10
611.493757019039
 20
447.9203362308599
 30
0.0
 11
611.4840972395162
 21
447.9203362308599
 31
0.0
  0
LINE
  5
2BA
330
1F
100
AcDbEntity
  8
1
  6
________________
 62
     7
370
     9
100
AcDbLine
 10
627.0042961768568
 20
447.9203362308599
 30
0.0
 11
621.4937671251384
 21
447.9203362308599
 31
0.0
  0
LINE
  5
2BB
330
1F
100
AcDbEntity
  8
1
  6
________________
 62
     7
370
     9
100
AcDbLine
 10
621.4937671251384
 20
447.9203362308599
 30
0.0
 11
621.4841035300497
 21
447.9203362308599
 31
0.0
  0
LINE
  5
2BC
330
1F
100
AcDbEntity
  8
1
  6
________________
 62
     7
370
     9
100
AcDbLine
 10
657.0042918661142
 20
447.9203362308599
 30
0.0
 11
655.3555078110788
 21
447.9203362308599
 31
0.0
  0
LINE
  5
2BD
330
1F
100
AcDbEntity
  8
1
  6
________________
 62
     7
370
     9
100
AcDbLine
 10
667.0042946099572
 20
447.9203362308599
 30
0.0
 11
661.4938229919387
 21
447.9203362308599
 31
0.0
  0
LINE
  5
2BE
330
1F
100
AcDbEntity
  8
1
  6
________________
 62
     7
370
     9
100
AcDbLine
 10
661.4938229919386
 20
447.9203362308599
 30
0.0
 11
661.4842989731611
 21
447.9203362308599
 31
0.0
  0
LINE
  5
2BF
330
1F
100
AcDbEntity
  8
1
  6
________________
 62
     7
370
     9
100
AcDbLine
 10
677.0042935348505
 20
447.9203362308599
 30
0.0
 11
671.4938288295123
 21
447.9203362308599
 31
0.0
  0
LINE
  5
2C0
330
1F
100
AcDbEntity
  8
1
  6
________________
 62
     7
370
     9
100
AcDbLine
 10
671.4938288295122
 20
447.9203362308599
 30
0.0
 11
671.483981173011
 21
447.9203362308599
 31
0.0
  0
LINE
  5
2C1
330
1F
100
AcDbEntity
  8
1
  6
________________
 62
     7
370
     9
100
AcDbLine
 10
687.0042945319786
 20
447.9203362308599
 30
0.0
 11
681.4938270132465
 21
447.9203362308599
 31
0.0
  0
LINE
  5
2C2
330
1F
100
AcDbEntity
  8
1
  6
________________
 62
     7
370
     9
100
AcDbLine
 10
697.004318809005
 20
447.9203362308599
 30
0.0
 11
691.4938167900688
 21
447.9203362308599
 31
0.0
  0
LINE
  5
2C3
330
1F
100
AcDbEntity
  8
1
  6
________________
 62
     7
370
     9
100
AcDbLine
 10
691.4938167900688
 20
447.9203362308599
 30
0.0
 11
691.484090010711
 21
447.9203362308599
 31
0.0
  0
LINE
  5
2C4
330
1F
100
AcDbEntity
  8
1
  6
________________
 62
     7
370
     9
100
AcDbLine
 10
707.0042576800898
 20
447.9203362308599
 30
0.0
 11
701.493802547947
 21
447.9203362308599
 31
0.0
  0
LINE
  5
2C5
330
1F
100
AcDbEntity
  8
1
  6
________________
 62
     7
370
     9
100
AcDbLine
 10
701.493802547947
 20
447.9203362308599
 30
0.0
 11
701.4841945956539
 21
447.9203362308599
 31
0.0
  0
LINE
  5
2C6
330
1F
100
AcDbEntity
  8
1
  6
________________
 62
     7
370
     9
100
AcDbLine
 10
717.0042428860025
 20
447.9203362308599
 30
0.0
 11
711.4937868027872
 21
447.9203362308599
 31
0.0
  0
LINE
  5
2C7
330
1F
100
AcDbEntity
  8
1
  6
________________
 62
     7
370
     9
100
AcDbLine
 10
727.0042831161691
 20
447.9203362308599
 30
0.0
 11
721.493772065938
 21
447.9203362308599
 31
0.0
  0
LINE
  5
2C8
330
1F
100
AcDbEntity
  8
1
  6
________________
 62
     7
370
     9
100
AcDbLine
 10
721.4937720659378
 20
447.9203362308599
 30
0.0
 11
721.4839536344019
 21
447.9203362308599
 31
0.0
  0
LINE
  5
2C9
330
1F
100
AcDbEntity
  8
1
  6
________________
 62
     7
370
     9
100
AcDbLine
 10
736.209509807972
 20
399.9203362308599
 30
0.0
 11
741.7199571364706
 21
399.9203362308599
 31
0.0
  0
LINE
  5
2CA
330
1F
100
AcDbEntity
  8
1
  6
________________
 62
     7
370
     9
100
AcDbLine
 10
586.2095005638298
 20
399.9203362308599
 30
0.0
 11
591.7199477643578
 21
399.9203362308599
 31
0.0
  0
LINE
  5
2CB
330
1F
100
AcDbEntity
  8
1
  6
________________
 62
     7
370
     9
100
AcDbLine
 10
581.3568224289811
 20
399.9203362308599
 30
0.0
 11
582.3568224289811
 21
399.9203362308599
 31
0.0
  0
LINE
  5
2CC
330
1F
100
AcDbEntity
  8
1
  6
________________
 62
     7
370
     9
100
AcDbLine
 10
746.2095072832382
 20
399.9203362308599
 30
0.0
 11
750.356822428981
 21
399.9203362308599
 31
0.0
  0
LINE
  5
2CD
330
1F
100
AcDbEntity
  8
1
  6
________________
 62
     7
370
     9
100
AcDbLine
 10
750.3568224289811
 20
400.2203362308599
 30
0.0
 11
752.3568224289811
 21
400.2203362308599
 31
0.0
  0
LINE
  5
2CE
330
1F
100
AcDbEntity
  8
1
  6
________________
 62
     7
370
     9
100
AcDbLine
 10
752.3568224289811
 20
447.6203362308599
 30
0.0
 11
750.3568224289811
 21
447.6203362308599
 31
0.0
  0
LINE
  5
2CF
330
1F
100
AcDbEntity
  8
1
  6
________________
 62
     7
370
     9
100
AcDbLine
 10
591.7836123772095
 20
446.375453664923
 30
0.0
 11
591.4135819178643
 21
448.3484728372769
 31
0.0
  0
LINE
  5
2D0
330
1F
100
AcDbEntity
  8
1
  6
________________
 62
     7
370
     9
100
AcDbLine
 10
591.4135819178642
 20
448.3484728372769
 30
0.0
 11
591.3886577743208
 21
448.4819706887783
 31
0.0
  0
LINE
  5
2D1
330
1F
100
AcDbEntity
  8
1
  6
________________
 62
     7
370
     9
100
AcDbLine
 10
601.7834330627862
 20
446.3763823679033
 30
0.0
 11
601.3965097518839
 21
448.4399196427316
 31
0.0
  0
LINE
  5
2D2
330
1F
100
AcDbEntity
  8
1
  6
________________
 62
     7
370
     9
100
AcDbLine
 10
601.3965097518839
 20
448.4399196427316
 30
0.0
 11
601.3886249344802
 21
448.4821605053463
 31
0.0
  0
LINE
  5
2D3
330
1F
100
AcDbEntity
  8
1
  6
________________
 62
     7
370
     9
100
AcDbLine
 10
611.7835773121285
 20
446.3756185592786
 30
0.0
 11
611.4262295291079
 21
448.2808050240928
 31
0.0
  0
LINE
  5
2D4
330
1F
100
AcDbEntity
  8
1
  6
________________
 62
     7
370
     9
100
AcDbLine
 10
611.4262295291079
 20
448.2808050240928
 30
0.0
 11
611.3885264302778
 21
448.4827293610198
 31
0.0
  0
LINE
  5
2D5
330
1F
100
AcDbEntity
  8
1
  6
________________
 62
     7
370
     9
100
AcDbLine
 10
621.7834210673522
 20
446.3764761437319
 30
0.0
 11
621.4088160903302
 21
448.3741070067102
 31
0.0
  0
LINE
  5
2D6
330
1F
100
AcDbEntity
  8
1
  6
________________
 62
     7
370
     9
100
AcDbLine
 10
621.4088160903302
 20
448.3741070067102
 30
0.0
 11
621.3885879128916
 21
448.4824637534583
 31
0.0
  0
LINE
  5
2D7
330
1F
100
AcDbEntity
  8
1
  6
________________
 62
     7
370
     9
100
AcDbLine
 10
661.7834415526469
 20
446.3766395144009
 30
0.0
 11
661.4302272661535
 21
448.2597672089822
 31
0.0
  0
LINE
  5
2D8
330
1F
100
AcDbEntity
  8
1
  6
________________
 62
     7
370
     9
100
AcDbLine
 10
661.4302272661535
 20
448.2597672089822
 30
0.0
 11
661.3885170792028
 21
448.4831446975343
 31
0.0
  0
LINE
  5
2D9
330
1F
100
AcDbEntity
  8
1
  6
________________
 62
     7
370
     9
100
AcDbLine
 10
671.7835316337997
 20
446.3762225160289
 30
0.0
 11
671.4134408264729
 21
448.3496654611007
 31
0.0
  0
LINE
  5
2DA
330
1F
100
AcDbEntity
  8
1
  6
________________
 62
     7
370
     9
100
AcDbLine
 10
671.4134408264729
 20
448.3496654611007
 30
0.0
 11
671.3888940881451
 21
448.4811443906501
 31
0.0
  0
LINE
  5
2DB
330
1F
100
AcDbEntity
  8
1
  6
________________
 62
     7
370
     9
100
AcDbLine
 10
681.7835604115472
 20
446.3761040033079
 30
0.0
 11
681.399286264586
 21
448.4254444081367
 31
0.0
  0
LINE
  5
2DC
330
1F
100
AcDbEntity
  8
1
  6
________________
 62
     7
370
     9
100
AcDbLine
 10
681.399286264586
 20
448.4254444081368
 30
0.0
 11
681.3885623105463
 21
448.4828914291507
 31
0.0
  0
LINE
  5
2DD
330
1F
100
AcDbEntity
  8
1
  6
________________
 62
     7
370
     9
100
AcDbLine
 10
691.7836177091116
 20
446.3757905338139
 30
0.0
 11
691.4257074708541
 21
448.2839018427919
 31
0.0
  0
LINE
  5
2DE
330
1F
100
AcDbEntity
  8
1
  6
________________
 62
     7
370
     9
100
AcDbLine
 10
691.4257074708541
 20
448.2839018427919
 30
0.0
 11
691.3889073895867
 21
448.480976802066
 31
0.0
  0
LINE
  5
2DF
330
1F
100
AcDbEntity
  8
1
  6
________________
 62
     7
370
     9
100
AcDbLine
 10
701.7839593428354
 20
446.3739265028245
 30
0.0
 11
701.408534594949
 21
448.3757652796763
 31
0.0
  0
LINE
  5
2E0
330
1F
100
AcDbEntity
  8
1
  6
________________
 62
     7
370
     9
100
AcDbLine
 10
701.408534594949
 20
448.3757652796763
 30
0.0
 11
701.388925335811
 21
448.4807966125661
 31
0.0
  0
LINE
  5
2E1
330
1F
100
AcDbEntity
  8
1
  6
________________
 62
     7
370
     9
100
AcDbLine
 10
711.7837545754664
 20
446.3749416020307
 30
0.0
 11
711.3937818073517
 21
448.4546937905735
 31
0.0
  0
LINE
  5
2E2
330
1F
100
AcDbEntity
  8
1
  6
________________
 62
     7
370
     9
100
AcDbLine
 10
711.3937818073517
 20
448.4546937905735
 30
0.0
 11
711.3888882656368
 21
448.480908698394
 31
0.0
  0
LINE
  5
2E3
330
1F
100
AcDbEntity
  8
1
  6
________________
 62
     7
370
     9
100
AcDbLine
 10
721.7838933547724
 20
446.3741248492339
 30
0.0
 11
721.4209740921993
 21
448.3089953649621
 31
0.0
  0
LINE
  5
2E4
330
1F
100
AcDbEntity
  8
1
  6
________________
 62
     7
370
     9
100
AcDbLine
 10
721.4209740921993
 20
448.3089953649622
 30
0.0
 11
721.3889063815009
 21
448.4807349684703
 31
0.0
  0
LINE
  5
2E5
330
1F
100
AcDbEntity
  8
1
  6
________________
 62
     7
370
     9
100
AcDbLine
 10
731.783476040627
 20
446.3762656511312
 30
0.0
 11
731.4034709949469
 21
448.4026606719284
 31
0.0
  0
LINE
  5
2E6
330
1F
100
AcDbEntity
  8
1
  6
________________
 62
     7
370
     9
100
AcDbLine
 10
731.4034709949468
 20
448.4026606719283
 30
0.0
 11
731.3886827112756
 21
448.4818754611005
 31
0.0
  0
LINE
  5
2E7
330
1F
100
AcDbEntity
  8
1
  6
________________
 62
     7
370
     9
100
AcDbLine
 10
741.7836247145028
 20
446.3754155770761
 30
0.0
 11
741.4300306257845
 21
448.2604181072527
 31
0.0
  0
LINE
  5
2E8
330
1F
100
AcDbEntity
  8
1
  6
________________
 62
     7
370
     9
100
AcDbLine
 10
741.4300306257845
 20
448.2604181072527
 30
0.0
 11
741.3887514131561
 21
448.4814750114379
 31
0.0
  0
LINE
  5
2E9
330
1F
100
AcDbEntity
  8
1
  6
________________
 62
     7
370
     9
100
AcDbLine
 10
746.3887030766963
 20
399.3589441853607
 30
0.0
 11
746.4937508128494
 21
399.9211079758014
 31
0.0
  0
LINE
  5
2EA
330
1F
100
AcDbEntity
  8
1
  6
________________
 62
     7
370
     9
100
AcDbLine
 10
736.3888022624295
 20
399.3594570403442
 30
0.0
 11
736.4937558905848
 21
399.9211071398065
 31
0.0
  0
LINE
  5
2EB
330
1F
100
AcDbEntity
  8
1
  6
________________
 62
     7
370
     9
100
AcDbLine
 10
726.3888468569473
 20
399.3596502783411
 30
0.0
 11
726.4937657520414
 21
399.9211067610466
 31
0.0
  0
LINE
  5
2EC
330
1F
100
AcDbEntity
  8
1
  6
________________
 62
     7
370
     9
100
AcDbLine
 10
716.3889149140073
 20
399.3599467293334
 30
0.0
 11
716.493779140684
 21
399.9211053931788
 31
0.0
  0
LINE
  5
2ED
330
1F
100
AcDbEntity
  8
1
  6
________________
 62
     7
370
     9
100
AcDbLine
 10
706.3887790416147
 20
399.3591360440295
 30
0.0
 11
706.4937948174356
 21
399.921104835697
 31
0.0
  0
LINE
  5
2EE
330
1F
100
AcDbEntity
  8
1
  6
________________
 62
     7
370
     9
100
AcDbLine
 10
696.3891050855202
 20
399.3607957136685
 30
0.0
 11
696.4938098365707
 21
399.9211035700799
 31
0.0
  0
LINE
  5
2EF
330
1F
100
AcDbEntity
  8
1
  6
________________
 62
     7
370
     9
100
AcDbLine
 10
686.3886967493758
 20
399.3585309376618
 30
0.0
 11
686.4938226906274
 21
399.9211018541948
 31
0.0
  0
LINE
  5
2F0
330
1F
100
AcDbEntity
  8
1
  6
________________
 62
     7
370
     9
100
AcDbLine
 10
676.3887894157212
 20
399.3589764467649
 30
0.0
 11
676.4938290069746
 21
399.9211011246007
 31
0.0
  0
LINE
  5
2F1
330
1F
100
AcDbEntity
  8
1
  6
________________
 62
     7
370
     9
100
AcDbLine
 10
666.3887570916445
 20
399.3587980122095
 30
0.0
 11
666.4938267301321
 21
399.9211014507001
 31
0.0
  0
LINE
  5
2F2
330
1F
100
AcDbEntity
  8
1
  6
________________
 62
     7
370
     9
100
AcDbLine
 10
656.3884611352123
 20
399.3572532375742
 30
0.0
 11
656.4938175875169
 21
399.9211041854276
 31
0.0
  0
LINE
  5
2F3
330
1F
100
AcDbEntity
  8
1
  6
________________
 62
     7
370
     9
100
AcDbLine
 10
626.3884949973827
 20
399.3576724685672
 30
0.0
 11
626.4937736850621
 21
399.9211071812142
 31
0.0
  0
LINE
  5
2F4
330
1F
100
AcDbEntity
  8
1
  6
________________
 62
     7
370
     9
100
AcDbLine
 10
616.388443562401
 20
399.3574696410865
 30
0.0
 11
616.4937616966647
 21
399.921107623916
 31
0.0
  0
LINE
  5
2F5
330
1F
100
AcDbEntity
  8
1
  6
________________
 62
     7
370
     9
100
AcDbLine
 10
606.3886005225642
 20
399.3583638144265
 30
0.0
 11
606.4937534737571
 21
399.9211079319024
 31
0.0
  0
LINE
  5
2F6
330
1F
100
AcDbEntity
  8
1
  6
________________
 62
     7
370
     9
100
AcDbLine
 10
596.3886585457763
 20
399.358702536824
 30
0.0
 11
596.49375020007
 21
399.9211078804699
 31
0.0
  0
LINE
  5
2F7
330
1F
100
AcDbEntity
  8
1
  6
________________
 62
     7
370
     9
100
AcDbLine
 10
586.388739625242
 20
399.359136397824
 30
0.0
 11
586.493752118928
 21
399.9211075930124
 31
0.0
  0
LINE
  5
2F8
330
1F
100
AcDbEntity
  8
1
  6
________________
 62
     7
370
     9
100
AcDbLine
 10
834.7181724255389
 20
458.9060475999317
 30
0.0
 11
834.7181724255389
 21
460.514370506014
 31
0.0
  0
ARC
  5
2F9
330
1F
100
AcDbEntity
  8
1
  6
________________
 62
     7
370
     9
100
AcDbCircle
 10
-833.7181724255389
 20
423.9203362308599
 30
0.0
 40
36.60769515458681
210
0.0
220
0.0
230
-1.0
100
AcDbArc
 50
88.43467589670067
 51
91.5653241032994
  0
LINE
  5
2FA
330
1F
100
AcDbEntity
  8
1
  6
________________
 62
     7
370
     9
100
AcDbLine
 10
832.7181724255389
 20
458.9060475999317
 30
0.0
 11
832.7181724255389
 21
460.514370506014
 31
0.0
  0
ARC
  5
2FB
330
1F
100
AcDbEntity
  8
1
  6
________________
 62
     7
370
     9
100
AcDbCircle
 10
833.7175461347074
 20
424.2549847731307
 30
0.0
 40
37.14122536770958
100
AcDbArc
 50
234.7798065081652
 51
270.0009661453288
  0
ARC
  5
2FC
330
1F
100
AcDbEntity
  8
1
  6
________________
 62
     7
370
     9
100
AcDbCircle
 10
833.723194483663
 20
424.2635563788542
 30
0.0
 40
37.15148538859214
100
AcDbArc
 50
180.5293286515433
 51
234.7803139713213
  0
ARC
  5
2FD
330
1F
100
AcDbEntity
  8
1
  6
________________
 62
     7
370
     9
100
AcDbCircle
 10
833.720809186731
 20
424.2656522670621
 30
0.0
 40
37.14911961646638
100
AcDbArc
 50
90.00406672592985
 51
180.5325950280651
  0
ARC
  5
2FE
330
1F
100
AcDbEntity
  8
1
  6
________________
 62
     7
370
     9
100
AcDbCircle
 10
833.7156093239975
 20
424.2657234622694
 30
0.0
 40
37.14904841610411
100
AcDbArc
 50
359.4672941404761
 51
89.99604687314572
  0
ARC
  5
2FF
330
1F
100
AcDbEntity
  8
1
  6
________________
 62
     7
370
     9
100
AcDbCircle
 10
833.7160505401966
 20
424.26233522159
 30
0.0
 40
37.14857587148829
100
AcDbArc
 50
270.003272671211
 51
359.4725134109582
  0
LINE
  5
300
330
1F
100
AcDbEntity
  8
1
  6
________________
 62
     7
370
     9
100
AcDbLine
 10
834.7181724255389
 20
459.4927552050365
 30
0.0
 11
832.7181724255389
 21
459.4927552050365
 31
0.0
  0
ARC
  5
301
330
1F
100
AcDbEntity
  8
1
  6
________________
 62
     7
370
     9
100
AcDbCircle
 10
833.7181724255389
 20
423.9203362308599
 30
0.0
 40
35.00000000000003
100
AcDbArc
 50
0.0
 51
88.36275492222224
  0
LINE
  5
302
330
1F
100
AcDbEntity
  8
1
  6
________________
 62
     7
370
     9
100
AcDbLine
 10
832.7181724255389
 20
457.9203362308598
 30
0.0
 11
832.7181724255389
 21
458.9060475999317
 31
0.0
  0
LINE
  5
303
330
1F
100
AcDbEntity
  8
1
  6
________________
 62
     7
370
     9
100
AcDbLine
 10
833.7181724255389
 20
457.9203362308599
 30
0.0
 11
832.7181724255389
 21
457.9203362308599
 31
0.0
  0
LINE
  5
304
330
1F
100
AcDbEntity
  8
1
  6
________________
 62
     7
370
     9
100
AcDbLine
 10
834.7181724255389
 20
457.9203362308599
 30
0.0
 11
833.7181724255389
 21
457.9203362308599
 31
0.0
  0
LINE
  5
305
330
1F
100
AcDbEntity
  8
1
  6
________________
 62
     7
370
     9
100
AcDbLine
 10
834.7181724255389
 20
458.9060475999317
 30
0.0
 11
834.7181724255389
 21
457.9203362308598
 31
0.0
  0
ARC
  5
306
330
1F
100
AcDbEntity
  8
1
  6
________________
 62
     7
370
     9
100
AcDbCircle
 10
833.7181724255389
 20
423.9203362308599
 30
0.0
 40
34.99999999999999
100
AcDbArc
 50
91.63724507777775
 51
0.0
  0
CIRCLE
  5
307
330
1F
100
AcDbEntity
  8
1
  6
________________
 62
     7
370
     9
100
AcDbCircle
 10
833.7181724255389
 20
423.9203362308599
 30
0.0
 40
20.7
  0
ARC
  5
308
330
1F
100
AcDbEntity
  8
1
  6
________________
 62
     7
370
     9
100
AcDbCircle
 10
833.7181724255389
 20
423.9203362308599
 30
0.0
 40
17.49999999999996
100
AcDbArc
 50
180.0
 51
0.0
  0
ARC
  5
309
330
1F
100
AcDbEntity
  8
1
  6
________________
 62
     7
370
     9
100
AcDbCircle
 10
833.7181724255389
 20
423.9203362308599
 30
0.0
 40
17.49999999999996
100
AcDbArc
 50
0.0
 51
180.0
  0
MTEXT
  5
30A
330
1F
100
AcDbEntity
  8
1
 62
     7
100
AcDbMText
 10
740.2498181818181
 20
371.6181818181817
 30
0.0
 40
6.0
 41
0.0
 46
0.0
 71
     1
 72
     1
  1
{\FＭＳ ゴシック;BMHM-30P}
 73
     1
 44
1.0
  0
ENDSEC
  0
SECTION
  2
OBJECTS
  0
DICTIONARY
  5
C
330
0
100
AcDbDictionary
281
     1
  3
ACAD_GROUP
350
D
  3
ACAD_LAYOUT
350
1A
  3
ACAD_MLEADERSTYLE
350
30C
  3
ACAD_MLINESTYLE
350
17
  3
ACAD_PLOTSETTINGS
350
19
  3
ACAD_PLOTSTYLENAME
350
E
  3
ACAD_TABLESTYLE
350
30B
  3
ACAD_VISUALSTYLE
350
2A
  0
DICTIONARY
  5
D
102
{ACAD_REACTORS
330
C
102
}
330
C
100
AcDbDictionary
281
     1
  0
DICTIONARY
  5
1A
102
{ACAD_REACTORS
330
C
102
}
330
C
100
AcDbDictionary
281
     1
  3
Layout1
350
1E
  3
Layout2
350
26
  3
Model
350
22
  0
DICTIONARY
  5
30C
102
{ACAD_REACTORS
330
C
102
}
330
C
100
AcDbDictionary
281
     1
  0
DICTIONARY
  5
17
102
{ACAD_REACTORS
330
C
102
}
330
C
100
AcDbDictionary
281
     1
  3
Standard
350
18
  0
DICTIONARY
  5
19
102
{ACAD_REACTORS
330
C
102
}
330
C
100
AcDbDictionary
281
     1
  0
ACDBDICTIONARYWDFLT
  5
E
102
{ACAD_REACTORS
330
C
102
}
330
C
100
AcDbDictionary
281
     1
  3
Normal
350
F
100
AcDbDictionaryWithDefault
340
F
  0
DICTIONARY
  5
30B
102
{ACAD_REACTORS
330
C
102
}
330
C
100
AcDbDictionary
281
     1
  0
DICTIONARY
  5
2A
102
{ACAD_REACTORS
330
C
102
}
330
C
100
AcDbDictionary
281
     1
  3
2dWireframe
350
2F
  3
3D Hidden
350
31
  3
3dWireframe
350
30
  3
Basic
350
32
  3
Brighten
350
36
  3
ColorChange
350
3A
  3
Conceptual
350
34
  3
Dim
350
35
  3
Facepattern
350
39
  3
Flat
350
2B
  3
FlatWithEdges
350
2C
  3
Gouraud
350
2D
  3
GouraudWithEdges
350
2E
  3
Linepattern
350
38
  3
Realistic
350
33
  3
Thicken
350
37
  0
LAYOUT
  5
1E
102
{ACAD_REACTORS
330
1A
102
}
330
1A
100
AcDbPlotSettings
  1

  2
none_device
  4

  6

 40
0.0
 41
0.0
 42
0.0
 43
0.0
 44
0.0
 45
0.0
 46
0.0
 47
0.0
 48
0.0
 49
0.0
140
0.0
141
0.0
142
1.0
143
1.0
 70
   688
 72
     0
 73
     0
 74
     5
  7

 75
    16
 76
     0
 77
     2
 78
   300
147
1.0
148
0.0
149
0.0
100
AcDbLayout
  1
Layout1
 70
     1
 71
     1
 10
0.0
 20
0.0
 11
12.0
 21
9.0
 12
0.0
 22
0.0
 32
0.0
 14
1.000000000000000E+20
 24
1.000000000000000E+20
 34
1.000000000000000E+20
 15
-1.000000000000000E+20
 25
-1.000000000000000E+20
 35
-1.000000000000000E+20
146
0.0
 13
0.0
 23
0.0
 33
0.0
 16
1.0
 26
0.0
 36
0.0
 17
0.0
 27
1.0
 37
0.0
 76
     0
330
1B
  0
LAYOUT
  5
26
102
{ACAD_REACTORS
330
1A
102
}
330
1A
100
AcDbPlotSettings
  1

  2
none_device
  4

  6

 40
0.0
 41
0.0
 42
0.0
 43
0.0
 44
0.0
 45
0.0
 46
0.0
 47
0.0
 48
0.0
 49
0.0
140
0.0
141
0.0
142
1.0
143
1.0
 70
   688
 72
     0
 73
     0
 74
     5
  7

 75
    16
 76
     0
 77
     2
 78
   300
147
1.0
148
0.0
149
0.0
100
AcDbLayout
  1
Layout2
 70
     1
 71
     2
 10
0.0
 20
0.0
 11
0.0
 21
0.0
 12
0.0
 22
0.0
 32
0.0
 14
0.0
 24
0.0
 34
0.0
 15
0.0
 25
0.0
 35
0.0
146
0.0
 13
0.0
 23
0.0
 33
0.0
 16
1.0
 26
0.0
 36
0.0
 17
0.0
 27
1.0
 37
0.0
 76
     0
330
23
  0
LAYOUT
  5
22
102
{ACAD_REACTORS
330
1A
102
}
330
1A
100
AcDbPlotSettings
  1

  2
none_device
  4

  6

 40
0.0
 41
0.0
 42
0.0
 43
0.0
 44
0.0
 45
0.0
 46
0.0
 47
0.0
 48
0.0
 49
0.0
140
0.0
141
0.0
142
1.0
143
1.0
 70
  1712
 72
     0
 73
     0
 74
     0
  7

 75
     0
 76
     0
 77
     2
 78
   300
147
1.0
148
0.0
149
0.0
100
AcDbLayout
  1
Model
 70
     1
 71
     0
 10
0.0
 20
0.0
 11
12.0
 21
9.0
 12
0.0
 22
0.0
 32
0.0
 14
0.0
 24
0.0
 34
0.0
 15
870.8646577401015
 25
461.4165038728748
 35
10.0
146
0.0
 13
0.0
 23
0.0
 33
0.0
 16
1.0
 26
0.0
 36
0.0
 17
0.0
 27
1.0
 37
0.0
 76
     0
330
1F
331
29
  0
MLINESTYLE
  5
18
102
{ACAD_REACTORS
330
17
102
}
330
17
100
AcDbMlineStyle
  2
Standard
 70
     0
  3

 62
   256
 51
90.0
 52
90.0
 71
     2
 49
0.5
 62
   256
  6
BYLAYER
 49
-0.5
 62
   256
  6
BYLAYER
  0
ACDBPLACEHOLDER
  5
F
102
{ACAD_REACTORS
330
E
102
}
330
E
  0
VISUALSTYLE
  5
2F
102
{ACAD_REACTORS
330
2A
102
}
330
2A
100
AcDbVisualStyle
  2
2dWireframe
 70
     4
 71
     0
 72
     2
 73
     0
 90
        0
 40
-0.6
 41
-30.0
 62
     5
 63
     7
421
 16777215
 74
     1
 91
        4
 64
     7
 65
   257
 75
     1
175
     1
 42
1.0
 92
        0
 66
   257
 43
1.0
 76
     1
 77
     6
 78
     2
 67
     7
 79
     5
170
     0
171
     0
290
     0
174
     0
 93
        1
 44
0.0
173
     0
291
     0
 45
0.0
  0
VISUALSTYLE
  5
31
102
{ACAD_REACTORS
330
2A
102
}
330
2A
100
AcDbVisualStyle
  2
3D Hidden
 70
     6
 71
     1
 72
     2
 73
     2
 90
        0
 40
-0.6
 41
-30.0
 62
     5
 63
     7
421
 16777215
 74
     2
 91
        2
 64
     7
 65
   257
 75
     2
175
     1
 42
40.0
 92
        0
 66
   257
 43
1.0
 76
     1
 77
     6
 78
     2
 67
     7
 79
     3
170
     0
171
     0
290
     0
174
     0
 93
        1
 44
0.0
173
     0
291
     0
 45
0.0
  0
VISUALSTYLE
  5
30
102
{ACAD_REACTORS
330
2A
102
}
330
2A
100
AcDbVisualStyle
  2
3dWireframe
 70
     5
 71
     0
 72
     2
 73
     0
 90
        0
 40
-0.6
 41
-30.0
 62
     5
 63
     7
421
 16777215
 74
     1
 91
        4
 64
     7
 65
   257
 75
     1
175
     1
 42
1.0
 92
        0
 66
   257
 43
1.0
 76
     1
 77
     6
 78
     2
 67
     7
 79
     5
170
     0
171
     0
290
     0
174
     0
 93
        1
 44
0.0
173
     0
291
     0
 45
0.0
  0
VISUALSTYLE
  5
32
102
{ACAD_REACTORS
330
2A
102
}
330
2A
100
AcDbVisualStyle
  2
Basic
 70
     7
 71
     1
 72
     0
 73
     1
 90
        0
 40
-0.6
 41
-30.0
 62
     5
 63
     7
421
 16777215
 74
     0
 91
        4
 64
     7
 65
   257
 75
     1
175
     1
 42
1.0
 92
        8
 66
     7
 43
1.0
 76
     1
 77
     6
 78
     2
 67
     7
 79
     5
170
     0
171
     0
290
     0
174
     0
 93
        1
 44
0.0
173
     0
291
     1
 45
0.0
  0
VISUALSTYLE
  5
36
102
{ACAD_REACTORS
330
2A
102
}
330
2A
100
AcDbVisualStyle
  2
Brighten
 70
    12
 71
     2
 72
     2
 73
     0
 90
        0
 40
-0.6
 41
-30.0
 62
     5
 63
     7
421
 16777215
 74
     1
 91
        4
 64
     7
 65
   257
 75
     1
175
     1
 42
1.0
 92
        8
 66
     7
 43
1.0
 76
     1
 77
     6
 78
     2
 67
     7
 79
     5
170
     0
171
     0
290
     0
174
     0
 93
        1
 44
50.0
173
     0
291
     1
 45
0.0
  0
VISUALSTYLE
  5
3A
102
{ACAD_REACTORS
330
2A
102
}
330
2A
100
AcDbVisualStyle
  2
ColorChange
 70
    16
 71
     2
 72
     2
 73
     3
 90
        0
 40
-0.6
 41
-30.0
 62
     5
 63
     8
421
  8421504
 74
     1
 91
        4
 64
     7
 65
   257
 75
     1
175
     1
 42
1.0
 92
        8
 66
     8
424
  8421504
 43
1.0
 76
     1
 77
     6
 78
     2
 67
     7
 79
     5
170
     0
171
     0
290
     0
174
     0
 93
        1
 44
0.0
173
     0
291
     1
 45
0.0
  0
VISUALSTYLE
  5
34
102
{ACAD_REACTORS
330
2A
102
}
330
2A
100
AcDbVisualStyle
  2
Conceptual
 70
     9
 71
     3
 72
     2
 73
     0
 90
        0
 40
-0.6
 41
-30.0
 62
     5
 63
     7
421
 16777215
 74
     2
 91
        2
 64
     7
 65
   257
 75
     1
175
     1
 42
40.0
 92
        8
 66
     7
 43
1.0
 76
     1
 77
     6
 78
     2
 67
     7
 79
     3
170
     0
171
     0
290
     0
174
     0
 93
        1
 44
0.0
173
     0
291
     0
 45
0.0
  0
VISUALSTYLE
  5
35
102
{ACAD_REACTORS
330
2A
102
}
330
2A
100
AcDbVisualStyle
  2
Dim
 70
    11
 71
     2
 72
     2
 73
     0
 90
        0
 40
-0.6
 41
-30.0
 62
     5
 63
     7
421
 16777215
 74
     1
 91
        4
 64
     7
 65
   257
 75
     1
175
     1
 42
1.0
 92
        8
 66
     7
 43
1.0
 76
     1
 77
     6
 78
     2
 67
     7
 79
     5
170
     0
171
     0
290
     0
174
     0
 93
        1
 44
-50.0
173
     0
291
     1
 45
0.0
  0
VISUALSTYLE
  5
39
102
{ACAD_REACTORS
330
2A
102
}
330
2A
100
AcDbVisualStyle
  2
Facepattern
 70
    15
 71
     2
 72
     2
 73
     0
 90
        0
 40
-0.6
 41
-30.0
 62
     5
 63
     7
421
 16777215
 74
     1
 91
        4
 64
     7
 65
   257
 75
     1
175
     1
 42
1.0
 92
        8
 66
     7
 43
1.0
 76
     1
 77
     6
 78
     2
 67
     7
 79
     5
170
     0
171
     0
290
     0
174
     0
 93
        1
 44
0.0
173
     0
291
     1
 45
0.0
  0
VISUALSTYLE
  5
2B
102
{ACAD_REACTORS
330
2A
102
}
330
2A
100
AcDbVisualStyle
  2
Flat
 70
     0
 71
     2
 72
     1
 73
     1
 90
        2
 40
-0.6
 41
30.0
 62
     5
 63
     7
421
 16777215
 74
     0
 91
        4
 64
     7
 65
   257
 75
     1
175
     1
 42
1.0
 92
        8
 66
     7
 43
1.0
 76
     1
 77
     6
 78
     2
 67
     7
 79
     5
170
     0
171
     0
290
     0
174
     0
 93
       13
 44
0.0
173
     0
291
     1
 45
0.0
  0
VISUALSTYLE
  5
2C
102
{ACAD_REACTORS
330
2A
102
}
330
2A
100
AcDbVisualStyle
  2
FlatWithEdges
 70
     1
 71
     2
 72
     1
 73
     1
 90
        2
 40
-0.6
 41
30.0
 62
     5
 63
     7
421
 16777215
 74
     1
 91
        4
 64
     7
 65
   257
 75
     1
175
     1
 42
1.0
 92
        0
 66
   257
 43
1.0
 76
     1
 77
     6
 78
     2
 67
     7
 79
     5
170
     0
171
     0
290
     0
174
     0
 93
       13
 44
0.0
173
     0
291
     1
 45
0.0
  0
VISUALSTYLE
  5
2D
102
{ACAD_REACTORS
330
2A
102
}
330
2A
100
AcDbVisualStyle
  2
Gouraud
 70
     2
 71
     2
 72
     2
 73
     1
 90
        2
 40
-0.6
 41
30.0
 62
     5
 63
     7
421
 16777215
 74
     0
 91
        4
 64
     7
 65
   257
 75
     1
175
     1
 42
1.0
 92
        0
 66
     7
 43
1.0
 76
     1
 77
     6
 78
     2
 67
     7
 79
     5
170
     0
171
     0
290
     0
174
     0
 93
       13
 44
0.0
173
     0
291
     1
 45
0.0
  0
VISUALSTYLE
  5
2E
102
{ACAD_REACTORS
330
2A
102
}
330
2A
100
AcDbVisualStyle
  2
GouraudWithEdges
 70
     3
 71
     2
 72
     2
 73
     1
 90
        2
 40
-0.6
 41
30.0
 62
     5
 63
     7
421
 16777215
 74
     1
 91
        4
 64
     7
 65
   257
 75
     1
175
     1
 42
1.0
 92
        0
 66
   257
 43
1.0
 76
     1
 77
     6
 78
     2
 67
     7
 79
     5
170
     0
171
     0
290
     0
174
     0
 93
       13
 44
0.0
173
     0
291
     1
 45
0.0
  0
VISUALSTYLE
  5
38
102
{ACAD_REACTORS
330
2A
102
}
330
2A
100
AcDbVisualStyle
  2
Linepattern
 70
    14
 71
     2
 72
     2
 73
     0
 90
        0
 40
-0.6
 41
-30.0
 62
     5
 63
     7
421
 16777215
 74
     1
 91
        4
 64
     7
 65
   257
 75
     7
175
     7
 42
1.0
 92
        8
 66
     7
 43
1.0
 76
     1
 77
     6
 78
     2
 67
     7
 79
     5
170
     0
171
     0
290
     0
174
     0
 93
        1
 44
0.0
173
     0
291
     1
 45
0.0
  0
VISUALSTYLE
  5
33
102
{ACAD_REACTORS
330
2A
102
}
330
2A
100
AcDbVisualStyle
  2
Realistic
 70
     8
 71
     2
 72
     2
 73
     0
 90
        0
 40
-0.6
 41
-30.0
 62
     5
 63
     7
421
 16777215
 74
     1
 91
        0
 64
     7
 65
   257
 75
     1
175
     1
 42
1.0
 92
        8
 66
     8
424
  7895160
 43
1.0
 76
     1
 77
     6
 78
     2
 67
     7
 79
     5
170
     0
171
     0
290
     0
174
     0
 93
       13
 44
0.0
173
     0
291
     0
 45
0.0
  0
VISUALSTYLE
  5
37
102
{ACAD_REACTORS
330
2A
102
}
330
2A
100
AcDbVisualStyle
  2
Thicken
 70
    13
 71
     2
 72
     2
 73
     0
 90
        0
 40
-0.6
 41
-30.0
 62
     5
 63
     7
421
 16777215
 74
     1
 91
        4
 64
     7
 65
   257
 75
     1
175
     1
 42
1.0
 92
       12
 66
     7
 43
1.0
 76
     1
 77
     6
 78
     2
 67
     7
 79
     5
170
     0
171
     0
290
     0
174
     0
 93
        1
 44
0.0
173
     0
291
     1
 45
0.0
  0
ENDSEC
  0
EOF
