  0
SECTION
  2
HEADER
  9
$ACADVER
  1
AC1021
  9
$ACADMAINTVER
 70
    25
  9
$DWGCODEPAGE
  3
ANSI_932
  9
$INSBASE
 10
0.0
 20
0.0
 30
0.0
  9
$EXTMIN
 10
0.0
 20
0.0
 30
0.0
  9
$EXTMAX
 10
1445.0
 20
287.5000125
 30
10.0
  9
$LIMMIN
 10
0.0
 20
0.0
  9
$LIMMAX
 10
12.0
 20
9.0
  9
$ORTHOMODE
 70
     0
  9
$REGENMODE
 70
     1
  9
$FILLMODE
 70
     1
  9
$QTEXTMODE
 70
     0
  9
$MIRRTEXT
 70
     1
  9
$LTSCALE
 40
1.0
  9
$ATTMODE
 70
     1
  9
$TEXTSIZE
 40
0.2
  9
$TRACEWID
 40
0.05
  9
$TEXTSTYLE
  7
Standard
  9
$CLAYER
  8
0
  9
$CELTYPE
  6
ByLayer
  9
$CECOLOR
 62
   256
  9
$CELTSCALE
 40
1.0
  9
$DISPSILH
 70
     0
  9
$DIMSCALE
 40
1.0
  9
$DIMASZ
 40
3.0
  9
$DIMEXO
 40
0.0625
  9
$DIMDLI
 40
0.38
  9
$DIMRND
 40
0.0
  9
$DIMDLE
 40
0.0
  9
$DIMEXE
 40
0.18
  9
$DIMTP
 40
0.0
  9
$DIMTM
 40
0.0
  9
$DIMTXT
 40
3.0
  9
$DIMCEN
 40
0.09
  9
$DIMTSZ
 40
0.0
  9
$DIMTOL
 70
     0
  9
$DIMLIM
 70
     0
  9
$DIMTIH
 70
     1
  9
$DIMTOH
 70
     1
  9
$DIMSE1
 70
     0
  9
$DIMSE2
 70
     0
  9
$DIMTAD
 70
     1
  9
$DIMZIN
 70
     0
  9
$DIMBLK
  1

  9
$DIMASO
 70
     1
  9
$DIMSHO
 70
     1
  9
$DIMPOST
  1

  9
$DIMAPOST
  1

  9
$DIMALT
 70
     0
  9
$DIMALTD
 70
     2
  9
$DIMALTF
 40
25.4
  9
$DIMLFAC
 40
1.0
  9
$DIMTOFL
 70
     0
  9
$DIMTVP
 40
0.0
  9
$DIMTIX
 70
     0
  9
$DIMSOXD
 70
     0
  9
$DIMSAH
 70
     0
  9
$DIMBLK1
  1

  9
$DIMBLK2
  1

  9
$DIMSTYLE
  2
Standard
  9
$DIMCLRD
 70
     0
  9
$DIMCLRE
 70
     0
  9
$DIMCLRT
 70
     0
  9
$DIMTFAC
 40
1.0
  9
$DIMGAP
 40
0.09
  9
$DIMJUST
 70
     0
  9
$DIMSD1
 70
     0
  9
$DIMSD2
 70
     0
  9
$DIMTOLJ
 70
     1
  9
$DIMTZIN
 70
     0
  9
$DIMALTZ
 70
     0
  9
$DIMALTTZ
 70
     0
  9
$DIMUPT
 70
     0
  9
$DIMDEC
 70
     2
  9
$DIMTDEC
 70
     4
  9
$DIMALTU
 70
     2
  9
$DIMALTTD
 70
     2
  9
$DIMTXSTY
  7
Standard
  9
$DIMAUNIT
 70
     0
  9
$DIMADEC
 70
     2
  9
$DIMALTRND
 40
0.0
  9
$DIMAZIN
 70
     0
  9
$DIMDSEP
 70
    46
  9
$DIMATFIT
 70
     3
  9
$DIMFRAC
 70
     0
  9
$DIMLDRBLK
  1

  9
$DIMLUNIT
 70
     2
  9
$DIMLWD
 70
    -2
  9
$DIMLWE
 70
    -2
  9
$DIMTMOVE
 70
     0
  9
$DIMFXL
 40
1.0
  9
$DIMFXLON
 70
     0
  9
$DIMJOGANG
 40
0.7853981633974483
  9
$DIMTFILL
 70
     0
  9
$DIMTFILLCLR
 70
     0
  9
$DIMARCSYM
 70
     0
  9
$DIMLTYPE
  6

  9
$DIMLTEX1
  6

  9
$DIMLTEX2
  6

  9
$LUNITS
 70
     2
  9
$LUPREC
 70
     4
  9
$SKETCHINC
 40
0.1
  9
$FILLETRAD
 40
0.5
  9
$AUNITS
 70
     0
  9
$AUPREC
 70
     0
  9
$MENU
  1
.
  9
$ELEVATION
 40
0.0
  9
$PELEVATION
 40
0.0
  9
$THICKNESS
 40
0.0
  9
$LIMCHECK
 70
     0
  9
$CHAMFERA
 40
0.5
  9
$CHAMFERB
 40
0.5
  9
$CHAMFERC
 40
1.0
  9
$CHAMFERD
 40
0.0
  9
$SKPOLY
 70
     0
  9
$TDCREATE
 40
2459298.583213218
  9
$TDUCREATE
 40
2459298.208213218
  9
$TDUPDATE
 40
2459298.583213229
  9
$TDUUPDATE
 40
2459298.208213229
  9
$TDINDWG
 40
0.0000000116
  9
$TDUSRTIMER
 40
0.0000000116
  9
$USRTIMER
 70
     1
  9
$ANGBASE
 50
0.0
  9
$ANGDIR
 70
     0
  9
$PDMODE
 70
     0
  9
$PDSIZE
 40
0.0
  9
$PLINEWID
 40
0.0
  9
$SPLFRAME
 70
     0
  9
$SPLINETYPE
 70
     6
  9
$SPLINESEGS
 70
     8
  9
$HANDSEED
  5
1D8
  9
$SURFTAB1
 70
     6
  9
$SURFTAB2
 70
     6
  9
$SURFTYPE
 70
     6
  9
$SURFU
 70
     6
  9
$SURFV
 70
     6
  9
$UCSBASE
  2

  9
$UCSNAME
  2

  9
$UCSORG
 10
0.0
 20
0.0
 30
0.0
  9
$UCSXDIR
 10
1.0
 20
0.0
 30
0.0
  9
$UCSYDIR
 10
0.0
 20
1.0
 30
0.0
  9
$UCSORTHOREF
  2

  9
$UCSORTHOVIEW
 70
     0
  9
$UCSORGTOP
 10
0.0
 20
0.0
 30
0.0
  9
$UCSORGBOTTOM
 10
0.0
 20
0.0
 30
0.0
  9
$UCSORGLEFT
 10
0.0
 20
0.0
 30
0.0
  9
$UCSORGRIGHT
 10
0.0
 20
0.0
 30
0.0
  9
$UCSORGFRONT
 10
0.0
 20
0.0
 30
0.0
  9
$UCSORGBACK
 10
0.0
 20
0.0
 30
0.0
  9
$PUCSBASE
  2

  9
$PUCSNAME
  2

  9
$PUCSORG
 10
0.0
 20
0.0
 30
0.0
  9
$PUCSXDIR
 10
1.0
 20
0.0
 30
0.0
  9
$PUCSYDIR
 10
0.0
 20
1.0
 30
0.0
  9
$PUCSORTHOREF
  2

  9
$PUCSORTHOVIEW
 70
     0
  9
$PUCSORGTOP
 10
0.0
 20
0.0
 30
0.0
  9
$PUCSORGBOTTOM
 10
0.0
 20
0.0
 30
0.0
  9
$PUCSORGLEFT
 10
0.0
 20
0.0
 30
0.0
  9
$PUCSORGRIGHT
 10
0.0
 20
0.0
 30
0.0
  9
$PUCSORGFRONT
 10
0.0
 20
0.0
 30
0.0
  9
$PUCSORGBACK
 10
0.0
 20
0.0
 30
0.0
  9
$USERI1
 70
     0
  9
$USERI2
 70
     0
  9
$USERI3
 70
     0
  9
$USERI4
 70
     0
  9
$USERI5
 70
     0
  9
$USERR1
 40
0.0
  9
$USERR2
 40
0.0
  9
$USERR3
 40
0.0
  9
$USERR4
 40
0.0
  9
$USERR5
 40
0.0
  9
$WORLDVIEW
 70
     1
  9
$SHADEDGE
 70
     3
  9
$SHADEDIF
 70
    70
  9
$TILEMODE
 70
     1
  9
$MAXACTVP
 70
    64
  9
$PINSBASE
 10
0.0
 20
0.0
 30
0.0
  9
$PLIMCHECK
 70
     0
  9
$PEXTMIN
 10
1.000000000000000E+20
 20
1.000000000000000E+20
 30
1.000000000000000E+20
  9
$PEXTMAX
 10
-1.000000000000000E+20
 20
-1.000000000000000E+20
 30
-1.000000000000000E+20
  9
$PLIMMIN
 10
0.0
 20
0.0
  9
$PLIMMAX
 10
12.0
 20
9.0
  9
$UNITMODE
 70
     0
  9
$VISRETAIN
 70
     1
  9
$PLINEGEN
 70
     0
  9
$PSLTSCALE
 70
     1
  9
$TREEDEPTH
 70
  3020
  9
$CMLSTYLE
  2
Standard
  9
$CMLJUST
 70
     0
  9
$CMLSCALE
 40
1.0
  9
$PROXYGRAPHICS
 70
     1
  9
$MEASUREMENT
 70
     1
  9
$CELWEIGHT
370
    -1
  9
$ENDCAPS
280
     0
  9
$JOINSTYLE
280
     0
  9
$LWDISPLAY
290
     1
  9
$INSUNITS
 70
     4
  9
$HYPERLINKBASE
  1

  9
$STYLESHEET
  1

  9
$XEDIT
290
     1
  9
$CEPSNTYPE
380
     0
  9
$PSTYLEMODE
290
     1
  9
$FINGERPRINTGUID
  2
{F3194BE4-5240-4382-A956-31C7D70572D2}
  9
$VERSIONGUID
  2
{FAEB1C32-E019-11D5-929B-00C0DF256EC4}
  9
$EXTNAMES
290
     1
  9
$PSVPSCALE
 40
0.0
  9
$OLESTARTUP
290
     0
  9
$SORTENTS
280
   127
  9
$INDEXCTL
280
     0
  9
$HIDETEXT
280
     1
  9
$XCLIPFRAME
290
     0
  9
$HALOGAP
280
     0
  9
$OBSCOLOR
 70
   257
  9
$OBSLTYPE
280
     0
  9
$INTERSECTIONDISPLAY
280
     0
  9
$INTERSECTIONCOLOR
 70
   257
  9
$DIMASSOC
280
     2
  9
$PROJECTNAME
  1

  9
$CAMERADISPLAY
290
     0
  9
$LENSLENGTH
 40
50.0
  9
$CAMERAHEIGHT
 40
0.0
  9
$STEPSPERSEC
 40
2.0
  9
$STEPSIZE
 40
6.0
  9
$3DDWFPREC
 40
2.0
  9
$PSOLWIDTH
 40
0.25
  9
$PSOLHEIGHT
 40
4.0
  9
$LOFTANG1
 40
1.570796326794897
  9
$LOFTANG2
 40
1.570796326794897
  9
$LOFTMAG1
 40
0.0
  9
$LOFTMAG2
 40
0.0
  9
$LOFTPARAM
 70
     7
  9
$LOFTNORMALS
280
     1
  9
$LATITUDE
 40
37.795
  9
$LONGITUDE
 40
-122.394
  9
$NORTHDIRECTION
 40
0.0
  9
$TIMEZONE
 70
 -8000
  9
$LIGHTGLYPHDISPLAY
280
     1
  9
$TILEMODELIGHTSYNCH
280
     1
  9
$SOLIDHIST
280
     1
  9
$SHOWHIST
280
     1
  9
$DWFFRAME
280
     2
  9
$DGNFRAME
280
     2
  9
$REALWORLDSCALE
290
     1
  9
$INTERFERECOLOR
 62
   256
  9
$CSHADOW
280
     0
  9
$SHADOWPLANELOCATION
 40
0.0
  0
ENDSEC
  0
SECTION
  2
CLASSES
  0
CLASS
  1
ACDBDICTIONARYWDFLT
  2
AcDbDictionaryWithDefault
  3
ObjectDBX Classes
 90
        0
 91
        4
280
     0
281
     0
  0
CLASS
  1
VISUALSTYLE
  2
AcDbVisualStyle
  3
ObjectDBX Classes
 90
     4095
 91
        4
280
     0
281
     0
  0
ENDSEC
  0
SECTION
  2
TABLES
  0
TABLE
  2
VPORT
  5
8
330
0
100
AcDbSymbolTable
 70
     1
  0
VPORT
  5
29
330
8
100
AcDbSymbolTableRecord
100
AcDbViewportTableRecord
  2
*Active
 70
     0
 10
0.0
 20
0.0
 11
1.0
 21
1.0
 12
722.5
 22
143.75000625
 13
0.0
 23
0.0
 14
0.5
 24
0.5
 15
0.5
 25
0.5
 16
0.0
 26
0.0
 36
1.0
 17
0.0
 27
0.0
 37
0.0
 40
287.5000125
 41
1.6
 42
50.0
 43
0.0
 44
0.0
 50
0.0
 51
0.0
 71
     0
 72
   100
 73
     1
 74
     3
 75
     0
 76
     0
 77
     0
 78
     0
281
     0
 65
     1
110
0.0
120
0.0
130
0.0
111
1.0
121
0.0
131
0.0
112
0.0
122
1.0
132
0.0
 79
     0
146
0.0
 60
     3
 61
     5
292
     1
282
     1
141
0.0
142
0.0
 63
   250
  0
ENDTAB
  0
TABLE
  2
LTYPE
  5
5
330
0
100
AcDbSymbolTable
 70
     2
  0
LTYPE
  5
14
330
5
100
AcDbSymbolTableRecord
100
AcDbLinetypeTableRecord
  2
ByBlock
 70
     0
  3

 72
    65
 73
     0
 40
0.0
  0
LTYPE
  5
15
330
5
100
AcDbSymbolTableRecord
100
AcDbLinetypeTableRecord
  2
ByLayer
 70
     0
  3

 72
    65
 73
     0
 40
0.0
  0
LTYPE
  5
16
330
5
100
AcDbSymbolTableRecord
100
AcDbLinetypeTableRecord
  2
Continuous
 70
     0
  3
Solid line
 72
    65
 73
     0
 40
0.0
  0
LTYPE
  5
3D
330
5
100
AcDbSymbolTableRecord
100
AcDbLinetypeTableRecord
  2
________________
 70
     0
  3

 72
    65
 73
     0
 40
0.0
  0
ENDTAB
  0
TABLE
  2
LAYER
  5
2
330
0
100
AcDbSymbolTable
 70
     2
  0
LAYER
  5
10
330
2
100
AcDbSymbolTableRecord
100
AcDbLayerTableRecord
  2
0
 70
     0
 62
     7
  6
Continuous
370
    -3
390
F
347
0
  0
LAYER
  5
3B
330
2
100
AcDbSymbolTableRecord
100
AcDbLayerTableRecord
  2
8
 70
     0
 62
     7
  6
Continuous
370
    -3
390
F
347
0
  0
ENDTAB
  0
TABLE
  2
STYLE
  5
3
330
0
100
AcDbSymbolTable
 70
     1
  0
STYLE
  5
11
330
3
100
AcDbSymbolTableRecord
100
AcDbTextStyleTableRecord
  2
Standard
 70
     0
 40
0.0
 41
1.0
 50
0.0
 71
     0
 42
0.2
  3
txt
  4

  0
ENDTAB
  0
TABLE
  2
VIEW
  5
6
330
0
100
AcDbSymbolTable
 70
     0
  0
ENDTAB
  0
TABLE
  2
UCS
  5
7
330
0
100
AcDbSymbolTable
 70
     0
  0
ENDTAB
  0
TABLE
  2
APPID
  5
9
330
0
100
AcDbSymbolTable
 70
     1
  0
APPID
  5
12
330
9
100
AcDbSymbolTableRecord
100
AcDbRegAppTableRecord
  2
ACAD
 70
     0
  0
ENDTAB
  0
TABLE
  2
DIMSTYLE
  5
A
330
0
100
AcDbSymbolTable
 70
     1
100
AcDbDimStyleTable
  0
DIMSTYLE
105
27
330
A
100
AcDbSymbolTableRecord
100
AcDbDimStyleTableRecord
  2
Standard
 70
     0
340
11
  0
ENDTAB
  0
TABLE
  2
BLOCK_RECORD
  5
1
330
0
100
AcDbSymbolTable
 70
     1
  0
BLOCK_RECORD
  5
1F
330
1
100
AcDbSymbolTableRecord
100
AcDbBlockTableRecord
  2
*Model_Space
340
22
 70
     0
280
     1
281
     0
  0
BLOCK_RECORD
  5
1B
330
1
100
AcDbSymbolTableRecord
100
AcDbBlockTableRecord
  2
*Paper_Space
340
1E
 70
     0
280
     1
281
     0
  0
BLOCK_RECORD
  5
23
330
1
100
AcDbSymbolTableRecord
100
AcDbBlockTableRecord
  2
*Paper_Space0
340
26
 70
     0
280
     1
281
     0
  0
ENDTAB
  0
ENDSEC
  0
SECTION
  2
BLOCKS
  0
BLOCK
  5
20
330
1F
100
AcDbEntity
  8
0
100
AcDbBlockBegin
  2
*Model_Space
 70
     0
 10
0.0
 20
0.0
 30
0.0
  3
*Model_Space
  1

  0
ENDBLK
  5
21
330
1F
100
AcDbEntity
  8
0
100
AcDbBlockEnd
  0
BLOCK
  5
1C
330
1B
100
AcDbEntity
 67
     1
  8
0
100
AcDbBlockBegin
  2
*Paper_Space
 70
     0
 10
0.0
 20
0.0
 30
0.0
  3
*Paper_Space
  1

  0
ENDBLK
  5
1D
330
1B
100
AcDbEntity
 67
     1
  8
0
100
AcDbBlockEnd
  0
BLOCK
  5
24
330
23
100
AcDbEntity
  8
0
100
AcDbBlockBegin
  2
*Paper_Space0
 70
     0
 10
0.0
 20
0.0
 30
0.0
  3
*Paper_Space0
  1

  0
ENDBLK
  5
25
330
23
100
AcDbEntity
  8
0
100
AcDbBlockEnd
  0
ENDSEC
  0
SECTION
  2
ENTITIES
  0
LINE
  5
3C
330
1F
100
AcDbEntity
  8
8
  6
________________
 62
     7
370
     0
100
AcDbLine
 10
1224.311350810776
 20
287.5000125
 30
0.0
 11
1224.311350810776
 21
212.5000125
 31
0.0
  0
LINE
  5
3E
330
1F
100
AcDbEntity
  8
8
  6
________________
 62
     7
370
     0
100
AcDbLine
 10
1220.356409760441
 20
222.473712668469
 30
0.0
 11
1220.356409760441
 21
212.5283028429992
 31
0.0
  0
LINE
  5
3F
330
1F
100
AcDbEntity
  8
8
  6
________________
 62
     7
370
     0
100
AcDbLine
 10
1220.356409760441
 20
248.5436556133015
 30
0.0
 11
1220.356409760441
 21
224.5333123292936
 31
0.0
  0
LINE
  5
40
330
1F
100
AcDbEntity
  8
8
  6
________________
 62
     7
370
     0
100
AcDbLine
 10
1220.356409760441
 20
275.4667126707064
 30
0.0
 11
1220.356409760441
 21
251.4563693866985
 31
0.0
  0
LINE
  5
41
330
1F
100
AcDbEntity
  8
8
  6
________________
 62
     7
370
     0
100
AcDbLine
 10
1220.356409760441
 20
287.4717221570008
 30
0.0
 11
1220.356409760441
 21
277.5263123315309
 31
0.0
  0
ELLIPSE
  5
42
330
1F
100
AcDbEntity
  8
8
  6
________________
 62
     7
370
     0
100
AcDbEllipse
 10
1201.494901742916
 20
251.4369512948759
 30
0.0
 11
-0.01569448332139345
 21
0.4997536224913833
 31
0.0
210
0.0
220
0.0
230
1.0
 40
0.513825155168338
 41
0.0
 42
0.1486904386372672
  0
ELLIPSE
  5
43
330
1F
100
AcDbEntity
  8
8
  6
________________
 62
     7
370
     0
100
AcDbEllipse
 10
1201.494901742916
 20
251.4369512948759
 30
0.0
 11
-0.01569448332139345
 21
0.4997536224913833
 31
0.0
210
0.0
220
0.0
230
1.0
 40
0.513825155168338
 41
-0.0610429918220368
 42
0.0
  0
ELLIPSE
  5
44
330
1F
100
AcDbEntity
  8
8
  6
________________
 62
     7
370
     0
100
AcDbEllipse
 10
1201.494901742916
 20
248.5630737051241
 30
0.0
 11
0.01569448332094936
 21
0.4997536224914111
 31
0.0
210
0.0
220
0.0
230
0.9999999999999998
 40
0.5138251551683204
 41
3.141592653589793
 42
3.202635645411817
  0
ELLIPSE
  5
45
330
1F
100
AcDbEntity
  8
8
  6
________________
 62
     7
370
     0
100
AcDbEllipse
 10
1201.494901742916
 20
248.5630737051241
 30
0.0
 11
0.01569448332094936
 21
0.4997536224914111
 31
3.851859888774471E-34
210
-2.418118031202229E-35
220
-7.699923730977508E-34
230
0.9999999999999998
 40
0.5138251551683221
 41
2.99290099815425
 42
3.141592653589793
  0
ELLIPSE
  5
46
330
1F
100
AcDbEntity
  8
8
  6
________________
 62
     7
370
     0
100
AcDbEllipse
 10
1196.856409760441
 20
248.7087440365376
 30
0.0
 11
0.01569472572793273
 21
0.4997536148786952
 31
0.0
210
0.0
220
0.0
230
0.9999999999999999
 40
0.5138309960505166
 41
2.99280768889843
 42
3.141592653589809
  0
LINE
  5
47
330
1F
100
AcDbEntity
  8
8
  6
________________
 62
     7
370
     0
100
AcDbLine
 10
1196.356409760441
 20
248.7087440365376
 30
0.0
 11
1196.356409760441
 21
251.2912809634624
 31
0.0
  0
ELLIPSE
  5
48
330
1F
100
AcDbEntity
  8
8
  6
________________
 62
     7
370
     0
100
AcDbEllipse
 10
1196.856409760441
 20
251.2912809634624
 30
0.0
 11
-0.01569472572793273
 21
0.4997536148786397
 31
0.0
210
0.0
220
0.0
230
1.0
 40
0.5138309960505771
 41
0.0
 42
0.1487837355245512
  0
LINE
  5
49
330
1F
100
AcDbEntity
  8
8
  6
________________
 62
     7
370
     0
100
AcDbLine
 10
1220.356409760441
 20
226.912772171844
 30
0.0
 11
1209.769254017694
 21
227.5325584820124
 31
0.0
  0
LINE
  5
4A
330
1F
100
AcDbEntity
  8
8
  6
________________
 62
     7
370
     0
100
AcDbLine
 10
1220.356409760441
 20
273.087252828156
 30
0.0
 11
1209.769254017694
 21
272.4674665179876
 31
0.0
  0
LINE
  5
4B
330
1F
100
AcDbEntity
  8
8
  6
________________
 62
     7
370
     0
100
AcDbLine
 10
1208.877410560146
 20
271.9372938555075
 30
0.0
 11
1208.856409760441
 21
271.7852699429407
 31
0.0
  0
ELLIPSE
  5
4C
330
1F
100
AcDbEntity
  8
8
  6
________________
 62
     7
370
     0
100
AcDbEllipse
 10
1209.856409760441
 20
271.800882155602
 30
0.0
 11
1.000000000000112
 21
0.0
 31
-2.465190328815664E-32
210
2.465190328815388E-32
220
0.0
230
1.0
 40
0.669130606358795
 41
1.658062789394658
 42
2.936289366968462
  0
LINE
  5
4D
330
1F
100
AcDbEntity
  8
8
  6
________________
 62
     7
370
     0
100
AcDbLine
 10
1208.856409760441
 20
271.7852699429407
 30
0.0
 11
1208.856409760441
 21
251.9369512948758
 31
0.0
  0
ELLIPSE
  5
4E
330
1F
100
AcDbEntity
  8
8
  6
________________
 62
     7
370
     0
100
AcDbEllipse
 10
1209.856409760441
 20
228.199142844398
 30
0.0
 11
1.000000000000112
 21
0.0
 31
-2.465190328815664E-32
210
-2.465190328815388E-32
220
0.0
230
-1.0
 40
0.669130606358795
 41
1.658062789394658
 42
2.936289366968456
  0
LINE
  5
4F
330
1F
100
AcDbEntity
  8
8
  6
________________
 62
     7
370
     0
100
AcDbLine
 10
1208.856409760441
 20
228.2147550570593
 30
0.0
 11
1208.877410560146
 21
228.0627311444925
 31
0.0
  0
LINE
  5
50
330
1F
100
AcDbEntity
  8
8
  6
________________
 62
     7
370
     0
100
AcDbLine
 10
1208.856409760441
 20
248.0630737051241
 30
0.0
 11
1208.856409760441
 21
228.2147550570593
 31
0.0
  0
LINE
  5
51
330
1F
100
AcDbEntity
  8
8
  6
________________
 62
     7
370
     0
100
AcDbLine
 10
1196.356409760441
 20
247.4512491840741
 30
0.0
 11
1196.356409760441
 21
248.6805115666077
 31
0.0
  0
LINE
  5
52
330
1F
100
AcDbEntity
  8
8
  6
________________
 62
     7
370
     0
100
AcDbLine
 10
1196.356409760441
 20
251.2926750267998
 30
0.0
 11
1196.356409760441
 21
252.5487758159259
 31
0.0
  0
LINE
  5
53
330
1F
100
AcDbEntity
  8
8
  6
________________
 62
     7
370
     0
100
AcDbLine
 10
1196.356409760441
 20
247.4512491840741
 30
0.0
 11
1196.356409760441
 21
229.3886059417965
 31
0.0
  0
LINE
  5
54
330
1F
100
AcDbEntity
  8
8
  6
________________
 62
     7
370
     0
100
AcDbLine
 10
1196.356409760441
 20
270.6114190582035
 30
0.0
 11
1196.356409760441
 21
252.5487758159259
 31
0.0
  0
LINE
  5
55
330
1F
100
AcDbEntity
  8
8
  6
________________
 62
     7
370
     0
100
AcDbLine
 10
1196.356409760441
 20
272.3165186127291
 30
0.0
 11
1196.356409760441
 21
273.2647186012879
 31
0.0
  0
LINE
  5
56
330
1F
100
AcDbEntity
  8
8
  6
________________
 62
     7
370
     0
100
AcDbLine
 10
1196.356409760441
 20
226.735306398712
 30
0.0
 11
1196.356409760441
 21
227.6835063872709
 31
0.0
  0
LINE
  5
57
330
1F
100
AcDbEntity
  8
8
  6
________________
 62
     7
370
     0
100
AcDbLine
 10
1196.356409760441
 20
273.2647186012879
 30
0.0
 11
1196.356409760441
 21
275.0908479749812
 31
0.0
  0
LINE
  5
58
330
1F
100
AcDbEntity
  8
8
  6
________________
 62
     7
370
     0
100
AcDbLine
 10
1196.356409760441
 20
224.9091770250188
 30
0.0
 11
1196.356409760441
 21
226.7353063987122
 31
0.0
  0
LINE
  5
59
330
1F
100
AcDbEntity
  8
8
  6
________________
 62
     7
370
     0
100
AcDbLine
 10
1196.356409760441
 20
272.2149259318294
 30
0.0
 11
1196.356409760441
 21
272.3165186127291
 31
0.0
  0
LINE
  5
5A
330
1F
100
AcDbEntity
  8
8
  6
________________
 62
     7
370
     0
100
AcDbLine
 10
1196.356409760441
 20
270.6114190582035
 30
0.0
 11
1196.356409760441
 21
272.1157542340017
 31
0.0
  0
LINE
  5
5B
330
1F
100
AcDbEntity
  8
8
  6
________________
 62
     7
370
     0
100
AcDbLine
 10
1196.356409760441
 20
272.1157542340016
 30
0.0
 11
1196.356409760441
 21
272.2149259318294
 31
0.0
  0
LINE
  5
5C
330
1F
100
AcDbEntity
  8
8
  6
________________
 62
     7
370
     0
100
AcDbLine
 10
1196.356409760441
 20
227.7780419511615
 30
0.0
 11
1196.356409760441
 21
227.8765050196207
 31
0.0
  0
LINE
  5
5D
330
1F
100
AcDbEntity
  8
8
  6
________________
 62
     7
370
     0
100
AcDbLine
 10
1196.356409760441
 20
227.8765050196207
 30
0.0
 11
1196.356409760441
 21
229.3886059417965
 31
0.0
  0
LINE
  5
5E
330
1F
100
AcDbEntity
  8
8
  6
________________
 62
     7
370
     0
100
AcDbLine
 10
1196.356409760441
 20
227.6835063872709
 30
0.0
 11
1196.356409760441
 21
227.7780419511616
 31
0.0
  0
LINE
  5
5F
330
1F
100
AcDbEntity
  8
8
  6
________________
 62
     7
370
     0
100
AcDbLine
 10
1220.356409760441
 20
215.5439588558051
 30
0.0
 11
1209.769254017694
 21
216.4689455604766
 31
0.0
  0
LINE
  5
60
330
1F
100
AcDbEntity
  8
8
  6
________________
 62
     7
370
     0
100
AcDbLine
 10
1220.356409760441
 20
284.4560661441949
 30
0.0
 11
1209.769254017694
 21
283.5310794395234
 31
0.0
  0
ELLIPSE
  5
61
330
1F
100
AcDbEntity
  8
8
  6
________________
 62
     7
370
     0
100
AcDbEllipse
 10
1209.856409760441
 20
217.463775008357
 30
0.0
 11
1.000000000000112
 21
0.0
 31
0.0
210
0.0
220
0.0
230
-1.0
 40
0.998629534754463
 41
1.658062789394671
 42
2.936289366968407
  0
LINE
  5
62
330
1F
100
AcDbEntity
  8
8
  6
________________
 62
     7
370
     0
100
AcDbLine
 10
1208.867948782163
 20
217.3125262666095
 30
0.0
 11
1208.877410560146
 21
217.2601903103665
 31
0.0
  0
LINE
  5
63
330
1F
100
AcDbEntity
  8
8
  6
________________
 62
     7
370
     0
100
AcDbLine
 10
1208.856409760441
 20
217.4648809389844
 30
0.0
 11
1208.86795657366
 21
217.3125274593804
 31
0.0
  0
LINE
  5
64
330
1F
100
AcDbEntity
  8
8
  6
________________
 62
     7
370
     0
100
AcDbLine
 10
1208.856409760441
 20
222.3407299995561
 30
0.0
 11
1208.856409760441
 21
217.4648809389844
 31
0.0
  0
LINE
  5
65
330
1F
100
AcDbEntity
  8
8
  6
________________
 62
     7
370
     0
100
AcDbLine
 10
1208.86795657366
 20
282.6874975406196
 30
0.0
 11
1208.856409760441
 21
282.5351440610155
 31
0.0
  0
LINE
  5
66
330
1F
100
AcDbEntity
  8
8
  6
________________
 62
     7
370
     0
100
AcDbLine
 10
1208.877410560146
 20
282.7398346896335
 30
0.0
 11
1208.867948782163
 21
282.6874987333905
 31
0.0
  0
ELLIPSE
  5
67
330
1F
100
AcDbEntity
  8
8
  6
________________
 62
     7
370
     0
100
AcDbEllipse
 10
1209.856409760441
 20
282.536249991643
 30
0.0
 11
1.000000000000112
 21
0.0
 31
-2.465190328815664E-32
210
2.465190328815388E-32
220
0.0
230
1.0
 40
0.9986295347544353
 41
1.658062789394671
 42
2.936289366968408
  0
LINE
  5
68
330
1F
100
AcDbEntity
  8
8
  6
________________
 62
     7
370
     0
100
AcDbLine
 10
1208.856409760441
 20
282.5351440610157
 30
0.0
 11
1208.856409760441
 21
277.6592950004439
 31
0.0
  0
LINE
  5
69
330
1F
100
AcDbEntity
  8
8
  6
________________
 62
     7
370
     0
100
AcDbLine
 10
1196.356409760441
 20
224.9091770250188
 30
0.0
 11
1196.356409760441
 21
218.3023184898769
 31
0.0
  0
LINE
  5
6A
330
1F
100
AcDbEntity
  8
8
  6
________________
 62
     7
370
     0
100
AcDbLine
 10
1196.356409760441
 20
281.6977065101231
 30
0.0
 11
1196.356409760441
 21
275.0908479749812
 31
0.0
  0
LINE
  5
6B
330
1F
100
AcDbEntity
  8
8
  6
________________
 62
     7
370
     0
100
AcDbLine
 10
1196.356409760441
 20
281.697706510123
 30
0.0
 11
1196.356409760441
 21
282.7774232441538
 31
0.0
  0
LINE
  5
6C
330
1F
100
AcDbEntity
  8
8
  6
________________
 62
     7
370
     0
100
AcDbLine
 10
1196.356409760441
 20
217.2226017558462
 30
0.0
 11
1196.356409760441
 21
218.302318489877
 31
0.0
  0
LINE
  5
6D
330
1F
100
AcDbEntity
  8
8
  6
________________
 62
     7
370
     0
100
AcDbLine
 10
1196.356409760441
 20
282.7774232441538
 30
0.0
 11
1196.356409760441
 21
284.1925438565278
 31
0.0
  0
LINE
  5
6E
330
1F
100
AcDbEntity
  8
8
  6
________________
 62
     7
370
     0
100
AcDbLine
 10
1196.356409760441
 20
215.8074811434721
 30
0.0
 11
1196.356409760441
 21
217.2226017558462
 31
0.0
  0
LINE
  5
6F
330
1F
100
AcDbEntity
  8
8
  6
________________
 62
     7
370
     0
100
AcDbLine
 10
1196.356409760441
 20
284.1925438565279
 30
0.0
 11
1196.356409760441
 21
284.2169173105154
 31
0.0
  0
LINE
  5
70
330
1F
100
AcDbEntity
  8
8
  6
________________
 62
     7
370
     0
100
AcDbLine
 10
1196.356409760441
 20
215.7831076894845
 30
0.0
 11
1196.356409760441
 21
215.807481143472
 31
0.0
  0
LINE
  5
71
330
1F
100
AcDbEntity
  8
8
  6
________________
 62
     7
370
     0
100
AcDbLine
 10
1339.356409760441
 20
287.4866767954532
 30
0.0
 11
1334.356409760442
 21
287.4866767954532
 31
0.0
  0
LINE
  5
72
330
1F
100
AcDbEntity
  8
8
  6
________________
 62
     7
370
     0
100
AcDbLine
 10
1334.356409760441
 20
287.4866767954531
 30
0.0
 11
1334.356409760441
 21
212.5000125
 31
0.0
  0
LWPOLYLINE
  5
73
330
1F
100
AcDbEntity
  8
8
  6
________________
 62
     7
370
     0
100
AcDbPolyline
 90
       38
 70
     0
 43
0.0
 10
1340.356315965006
 20
286.5000125
 10
1340.354520026209
 20
286.5477824574756
 10
1340.350494364989
 20
286.5949596472938
 10
1340.344312258451
 20
286.6414439232158
 10
1340.336050608379
 20
286.6871416149842
 10
1340.325789466586
 20
286.7319655474682
 10
1340.313611574808
 20
286.775835030841
 10
1340.29960192043
 20
286.8186758237505
 10
1340.283847309116
 20
286.8604200714441
 10
1340.266435955299
 20
286.9010062208055
 10
1340.24745709127
 20
286.9403789142406
 10
1340.227000595501
 20
286.9784888643215
 10
1340.205156640656
 20
287.0152927110622
 10
1340.182015361623
 20
287.0507528636517
 10
1340.157666543769
 20
287.0848373284207
 10
1340.132199331511
 20
287.1175195247596
 10
1340.105701957157
 20
287.1487780906402
 10
1340.078261489912
 20
287.1785966793282
 10
1340.049963604809
 20
287.2069637488009
 10
1340.020892371274
 20
287.2338723453116
 10
1339.991130060936
 20
287.2593198824634
 10
1339.957074895143
 20
287.286088623165
 10
1339.922363152253
 20
287.3110346684298
 10
1339.887100884756
 20
287.3341717822265
 10
1339.851390353617
 20
287.3555190927331
 10
1339.815329853833
 20
287.3751006956536
 10
1339.779663791211
 20
287.3926416569399
 10
1339.74383627449
 20
287.4085381525355
 10
1339.707928556822
 20
287.422824835042
 10
1339.672017824289
 20
287.435539573152
 10
1339.631299081246
 20
287.4481318806739
 10
1339.590771484127
 20
287.458810817606
 10
1339.550528974001
 20
287.4676438989103
 10
1339.510658687866
 20
287.4747017964627
 10
1339.471241040032
 20
287.4800578128618
 10
1339.432349833796
 20
287.4837873830338
 10
1339.394052400164
 20
287.4859676043169
 10
1339.356409760441
 20
287.4866767954531
  0
LINE
  5
74
330
1F
100
AcDbEntity
  8
8
  6
________________
 62
     7
370
     0
100
AcDbLine
 10
1340.356409760441
 20
286.5000125
 30
0.0
 11
1340.356409760441
 21
213.5000125
 31
0.0
  0
LINE
  5
75
330
1F
100
AcDbEntity
  8
8
  6
________________
 62
     7
370
     0
100
AcDbLine
 10
1340.356409760441
 20
253.4998913333054
 30
0.0
 11
1340.556409760442
 21
253.4998913333054
 31
0.0
  0
LINE
  5
76
330
1F
100
AcDbEntity
  8
8
  6
________________
 62
     7
370
     0
100
AcDbLine
 10
1340.356409760441
 20
255.0000125
 30
0.0
 11
1340.556409760442
 21
255.0000125
 31
0.0
  0
LINE
  5
77
330
1F
100
AcDbEntity
  8
8
  6
________________
 62
     7
370
     0
100
AcDbLine
 10
1340.556409760442
 20
255.0000125
 30
0.0
 11
1340.556409760442
 21
253.4998913333054
 31
0.0
  0
LINE
  5
78
330
1F
100
AcDbEntity
  8
8
  6
________________
 62
     7
370
     0
100
AcDbLine
 10
1340.356409760441
 20
253.2672226296255
 30
0.0
 11
1340.556409760442
 21
253.2672226296255
 31
0.0
  0
LINE
  5
79
330
1F
100
AcDbEntity
  8
8
  6
________________
 62
     7
370
     0
100
AcDbLine
 10
1340.556409760442
 20
253.4998913333062
 30
0.0
 11
1340.556409760442
 21
253.2672226296255
 31
0.0
  0
LINE
  5
7A
330
1F
100
AcDbEntity
  8
8
  6
________________
 62
     7
370
     0
100
AcDbLine
 10
1340.556409760442
 20
252.461522482054
 30
0.0
 11
1340.556409760442
 21
247.5000124999999
 31
0.0
  0
LINE
  5
7B
330
1F
100
AcDbEntity
  8
8
  6
________________
 62
     7
370
     0
100
AcDbLine
 10
1340.356409760441
 20
247.5000125
 30
0.0
 11
1340.556409760442
 21
247.5000125
 31
0.0
  0
LINE
  5
7C
330
1F
100
AcDbEntity
  8
8
  6
________________
 62
     7
370
     0
100
AcDbLine
 10
1340.356409760441
 20
252.8494124894825
 30
0.0
 11
1340.556409760442
 21
252.8494124894828
 31
0.0
  0
LINE
  5
7D
330
1F
100
AcDbEntity
  8
8
  6
________________
 62
     7
370
     0
100
AcDbLine
 10
1340.556409760442
 20
253.2672226296255
 30
0.0
 11
1340.556409760442
 21
252.8494124894828
 31
0.0
  0
LINE
  5
7E
330
1F
100
AcDbEntity
  8
8
  6
________________
 62
     7
370
     0
100
AcDbLine
 10
1340.356409760441
 20
252.71080684901
 30
0.0
 11
1340.556409760442
 21
252.71080684901
 31
0.0
  0
LINE
  5
7F
330
1F
100
AcDbEntity
  8
8
  6
________________
 62
     7
370
     0
100
AcDbLine
 10
1340.556409760442
 20
252.8494124894825
 30
0.0
 11
1340.556409760442
 21
252.7108068490101
 31
0.0
  0
LINE
  5
80
330
1F
100
AcDbEntity
  8
8
  6
________________
 62
     7
370
     0
100
AcDbLine
 10
1340.556409760442
 20
252.71080684901
 30
0.0
 11
1340.556409760442
 21
252.6312960944581
 31
0.0
  0
LINE
  5
81
330
1F
100
AcDbEntity
  8
8
  6
________________
 62
     7
370
     0
100
AcDbLine
 10
1340.356409760441
 20
252.6312960944581
 30
0.0
 11
1340.556409760442
 21
252.6312960944581
 31
0.0
  0
LINE
  5
82
330
1F
100
AcDbEntity
  8
8
  6
________________
 62
     7
370
     0
100
AcDbLine
 10
1340.356409760441
 20
252.5541804852074
 30
0.0
 11
1340.556409760442
 21
252.5541804852074
 31
0.0
  0
LINE
  5
83
330
1F
100
AcDbEntity
  8
8
  6
________________
 62
     7
370
     0
100
AcDbLine
 10
1340.556409760442
 20
252.6312960944581
 30
0.0
 11
1340.556409760442
 21
252.5541804852074
 31
0.0
  0
LINE
  5
84
330
1F
100
AcDbEntity
  8
8
  6
________________
 62
     7
370
     0
100
AcDbLine
 10
1340.556409760442
 20
252.5541804852074
 30
0.0
 11
1340.556409760442
 21
252.5171825642482
 31
0.0
  0
LINE
  5
85
330
1F
100
AcDbEntity
  8
8
  6
________________
 62
     7
370
     0
100
AcDbLine
 10
1340.356409760441
 20
252.5171825642482
 30
0.0
 11
1340.556409760442
 21
252.5171825642482
 31
0.0
  0
LINE
  5
86
330
1F
100
AcDbEntity
  8
8
  6
________________
 62
     7
370
     0
100
AcDbLine
 10
1340.556409760442
 20
252.5171825642483
 30
0.0
 11
1340.556409760442
 21
252.5000125
 31
0.0
  0
LINE
  5
87
330
1F
100
AcDbEntity
  8
8
  6
________________
 62
     7
370
     0
100
AcDbLine
 10
1340.356409760441
 20
252.5000125
 30
0.0
 11
1340.556409760442
 21
252.5000125
 31
0.0
  0
LINE
  5
88
330
1F
100
AcDbEntity
  8
8
  6
________________
 62
     7
370
     0
100
AcDbLine
 10
1340.556409760442
 20
247.2500125
 30
0.0
 11
1340.556409760442
 21
247.5000125
 31
0.0
  0
LINE
  5
89
330
1F
100
AcDbEntity
  8
8
  6
________________
 62
     7
370
     0
100
AcDbLine
 10
1340.356409760441
 20
245.0000125
 30
0.0
 11
1340.556409760442
 21
245.0000125
 31
0.0
  0
LINE
  5
8A
330
1F
100
AcDbEntity
  8
8
  6
________________
 62
     7
370
     0
100
AcDbLine
 10
1340.556409760442
 20
247.2500125
 30
0.0
 11
1340.556409760442
 21
245.0000125
 31
0.0
  0
LINE
  5
8B
330
1F
100
AcDbEntity
  8
8
  6
________________
 62
     7
370
     0
100
AcDbLine
 10
1340.556409760442
 20
252.4756108064143
 30
0.0
 11
1340.556409760442
 21
252.461522482054
 31
0.0
  0
LINE
  5
8C
330
1F
100
AcDbEntity
  8
8
  6
________________
 62
     7
370
     0
100
AcDbLine
 10
1317.356409760441
 20
279.0002691681956
 30
0.0
 11
1317.356409760441
 21
273.4617465346158
 31
0.0
  0
SPLINE
  5
8D
330
1F
100
AcDbEntity
  8
8
  6
________________
 62
     7
370
     0
100
AcDbSpline
210
0.0
220
0.0
230
1.0
 70
    12
 71
     3
 72
     9
 73
     5
 74
     0
 42
0.000000001
 43
0.0001
 40
2.802824840045191
 40
2.802824840045191
 40
2.802824840045191
 40
2.802824840045191
 40
2.80540632869295
 40
2.810691430748807
 40
2.810691430748807
 40
2.810691430748807
 40
2.810691430748807
 10
1156.356471533516
 20
278.9995226548161
 30
0.0
 41
1.0
 10
1156.303896010713
 20
278.9996522061907
 30
0.0
 41
1.0
 10
1156.143682205674
 20
278.8557499267294
 30
0.0
 41
1.0
 10
1155.983468400636
 20
278.2701971403928
 30
0.0
 41
1.0
 10
1155.8758301184
 20
277.6871702263854
 30
0.0
 41
1.0
  0
SPLINE
  5
8E
330
1F
100
AcDbEntity
  8
8
  6
________________
 62
     7
370
     0
100
AcDbSpline
210
0.0
220
0.0
230
1.0
 70
    12
 71
     3
 72
     9
 73
     5
 74
     0
 42
0.000000001
 43
0.0001
 40
2.720975697664409
 40
2.720975697664409
 40
2.720975697664409
 40
2.720975697664409
 40
2.7233332712046
 40
2.728855724384248
 40
2.728855724384248
 40
2.728855724384248
 40
2.728855724384248
 10
1161.357378419622
 20
221.0004696372001
 30
0.0
 41
1.0
 10
1161.309363232133
 20
220.999835723586
 30
0.0
 41
1.0
 10
1161.148875784374
 20
221.1297784796384
 30
0.0
 41
1.0
 10
1160.988388336614
 20
221.7032669588631
 30
0.0
 41
1.0
 10
1160.875916076344
 20
222.312344377042
 30
0.0
 41
1.0
  0
SPLINE
  5
8F
330
1F
100
AcDbEntity
  8
8
  6
________________
 62
     7
370
     0
100
AcDbSpline
210
0.0
220
0.0
230
1.0
 70
    12
 71
     3
 72
     9
 73
     5
 74
     0
 42
0.000000001
 43
0.0001
 40
2.639159636215775
 40
2.639159636215775
 40
2.639159636215775
 40
2.639159636215775
 40
2.64126021371624
 40
2.647019263193332
 40
2.647019263193332
 40
2.647019263193332
 40
2.647019263193332
 10
1166.356264091374
 20
278.9996079674459
 30
0.0
 41
1.0
 10
1166.313482977318
 20
278.9996406124163
 30
0.0
 41
1.0
 10
1166.15341099802
 20
278.8823342147879
 30
0.0
 41
1.0
 10
1165.993339018721
 20
278.3234294151108
 30
0.0
 41
1.0
 10
1165.87604815348
 20
277.6884435802675
 30
0.0
 41
1.0
  0
SPLINE
  5
90
330
1F
100
AcDbEntity
  8
8
  6
________________
 62
     7
370
     0
100
AcDbSpline
210
0.0
220
0.0
230
1.0
 70
    12
 71
     3
 72
     9
 73
     5
 74
     0
 42
0.000000001
 43
0.0001
 40
2.557319979167899
 40
2.557319979167899
 40
2.557319979167899
 40
2.557319979167899
 40
2.55918715622789
 40
2.565184936044931
 40
2.565184936044931
 40
2.565184936044931
 40
2.565184936044931
 10
1171.356591432415
 20
221.000369378928
 30
0.0
 41
1.0
 10
1171.318563835361
 20
221.0001905538443
 30
0.0
 41
1.0
 10
1171.15838330542
 20
221.1039522141325
 30
0.0
 41
1.0
 10
1170.99820277548
 20
221.6502209279092
 30
0.0
 41
1.0
 10
1170.876049842592
 20
222.3115230529413
 30
0.0
 41
1.0
  0
SPLINE
  5
91
330
1F
100
AcDbEntity
  8
8
  6
________________
 62
     7
370
     0
100
AcDbSpline
210
0.0
220
0.0
230
1.0
 70
    12
 71
     3
 72
     9
 73
     5
 74
     0
 42
0.000000001
 43
0.0001
 40
2.475489015919498
 40
2.475489015919498
 40
2.475489015919498
 40
2.475489015919498
 40
2.47711409873953
 40
2.48335466283668
 40
2.48335466283668
 40
2.48335466283668
 40
2.48335466283668
 10
1176.356387590349
 20
278.9997069654725
 30
0.0
 41
1.0
 10
1176.323290571334
 20
278.9997882293383
 30
0.0
 41
1.0
 10
1176.163095987788
 20
278.9091449125841
 30
0.0
 41
1.0
 10
1176.002901404242
 20
278.3756444990307
 30
0.0
 41
1.0
 10
1175.875803839711
 20
277.6872186388075
 30
0.0
 41
1.0
  0
SPLINE
  5
92
330
1F
100
AcDbEntity
  8
8
  6
________________
 62
     7
370
     0
100
AcDbSpline
210
0.0
220
0.0
230
1.0
 70
    12
 71
     3
 72
     9
 73
     5
 74
     0
 42
0.000000001
 43
0.0001
 40
2.393660821534406
 40
2.393660821534406
 40
2.393660821534406
 40
2.393660821534406
 40
2.39504104125117
 40
2.40151878045397
 40
2.40151878045397
 40
2.40151878045397
 40
2.40151878045397
 10
1181.356014573296
 20
221.0002669844407
 30
0.0
 41
1.0
 10
1181.327904523982
 20
221.0003192389131
 30
0.0
 41
1.0
 10
1181.167866516951
 20
221.0779231678105
 30
0.0
 41
1.0
 10
1181.007828509919
 20
221.5977536340583
 30
0.0
 41
1.0
 10
1180.875900552201
 20
222.3122361631188
 30
0.0
 41
1.0
  0
SPLINE
  5
93
330
1F
100
AcDbEntity
  8
8
  6
________________
 62
     7
370
     0
100
AcDbSpline
210
0.0
220
0.0
230
1.0
 70
    12
 71
     3
 72
     9
 73
     5
 74
     0
 42
0.000000001
 43
0.0001
 40
2.311812943454461
 40
2.311812943454461
 40
2.311812943454461
 40
2.311812943454461
 40
2.31296798376281
 40
2.319680369937752
 40
2.319680369937752
 40
2.319680369937752
 40
2.319680369937752
 10
1186.356844211791
 20
278.9998050165807
 30
0.0
 41
1.0
 10
1186.333320246995
 20
278.9999807279905
 30
0.0
 41
1.0
 10
1186.173089420168
 20
278.9363523145197
 30
0.0
 41
1.0
 10
1186.012858593341
 20
278.4292330480968
 30
0.0
 41
1.0
 10
1185.87615173131
 20
277.689190655904
 30
0.0
 41
1.0
  0
SPLINE
  5
94
330
1F
100
AcDbEntity
  8
8
  6
________________
 62
     7
370
     0
100
AcDbSpline
210
0.0
220
0.0
230
1.0
 70
    12
 71
     3
 72
     9
 73
     5
 74
     0
 42
0.000000001
 43
0.0001
 40
2.229998018145715
 40
2.229998018145715
 40
2.229998018145715
 40
2.229998018145715
 40
2.23089492627445
 40
2.237846265896595
 40
2.237846265896595
 40
2.237846265896595
 40
2.237846265896595
 10
1191.355660466446
 20
221.0001738796722
 30
0.0
 41
1.0
 10
1191.337393714115
 20
221.0002916123009
 30
0.0
 41
1.0
 10
1191.177553488225
 20
221.0515888186669
 30
0.0
 41
1.0
 10
1191.017713262334
 20
221.5443772933824
 30
0.0
 41
1.0
 10
1190.876139788775
 20
222.3108642067865
 30
0.0
 41
1.0
  0
SPLINE
  5
95
330
1F
100
AcDbEntity
  8
8
  6
________________
 62
     7
370
     0
100
AcDbSpline
210
0.0
220
0.0
230
1.0
 70
    12
 71
     3
 72
     9
 73
     5
 74
     0
 42
0.000000001
 43
0.0001
 40
2.148147514152237
 40
2.148147514152237
 40
2.148147514152237
 40
2.148147514152237
 40
2.14882186878609
 40
2.156012858214298
 40
2.156012858214298
 40
2.156012858214298
 40
2.156012858214298
 10
1196.356650545829
 20
278.999891414724
 30
0.0
 41
1.0
 10
1196.34291639772
 20
278.9999521195348
 30
0.0
 41
1.0
 10
1196.18272798223
 20
278.96274712718
 30
0.0
 41
1.0
 10
1196.022539566741
 20
278.4820018620719
 30
0.0
 41
1.0
 10
1195.87608529936
 20
277.6888907885271
 30
0.0
 41
1.0
  0
SPLINE
  5
96
330
1F
100
AcDbEntity
  8
8
  6
________________
 62
     7
370
     0
100
AcDbSpline
210
0.0
220
0.0
230
1.0
 70
    12
 71
     3
 72
     9
 73
     5
 74
     0
 42
0.000000001
 43
0.0001
 40
1.657151817356073
 40
1.657151817356073
 40
1.657151817356073
 40
1.657151817356073
 40
1.66384471090034
 40
1.66500518629147
 40
1.66500518629147
 40
1.66500518629147
 40
1.66500518629147
 10
1226.356033431641
 20
278.9998757978836
 30
0.0
 41
1.0
 10
1226.21972356351
 20
278.9988237984475
 30
0.0
 41
1.0
 10
1226.059779037741
 20
278.6220363498388
 30
0.0
 41
1.0
 10
1225.899834511972
 20
277.8174633278348
 30
0.0
 41
1.0
 10
1225.876199854332
 20
277.6893996286222
 30
0.0
 41
1.0
  0
SPLINE
  5
97
330
1F
100
AcDbEntity
  8
8
  6
________________
 62
     7
370
     0
100
AcDbSpline
210
0.0
220
0.0
230
1.0
 70
    12
 71
     3
 72
     9
 73
     5
 74
     0
 42
0.000000001
 43
0.0001
 40
1.575302648870694
 40
1.575302648870694
 40
1.575302648870694
 40
1.575302648870694
 40
1.58177165341198
 40
1.583168703540456
 40
1.583168703540456
 40
1.583168703540456
 40
1.583168703540456
 10
1231.356941912714
 20
221.0001887604056
 30
0.0
 41
1.0
 10
1231.225191848243
 20
220.9998891247948
 30
0.0
 41
1.0
 10
1231.064988960261
 20
221.3627588422956
 30
0.0
 41
1.0
 10
1230.90478607228
 20
222.155813963019
 30
0.0
 41
1.0
 10
1230.876333248771
 20
222.3099486987543
 30
0.0
 41
1.0
  0
SPLINE
  5
98
330
1F
100
AcDbEntity
  8
8
  6
________________
 62
     7
370
     0
100
AcDbSpline
210
0.0
220
0.0
230
1.0
 70
    12
 71
     3
 72
     9
 73
     5
 74
     0
 42
0.000000001
 43
0.0001
 40
1.493492301540493
 40
1.493492301540493
 40
1.493492301540493
 40
1.493492301540493
 40
1.49969859592362
 40
1.501332830609314
 40
1.501332830609314
 40
1.501332830609314
 40
1.501332830609314
 10
1236.355478457116
 20
278.999779767052
 30
0.0
 41
1.0
 10
1236.22907884186
 20
278.9979118018461
 30
0.0
 41
1.0
 10
1236.069395817414
 20
278.6485515408447
 30
0.0
 41
1.0
 10
1235.909712792969
 20
277.8708190828198
 30
0.0
 41
1.0
 10
1235.876429383778
 20
277.6905490070605
 30
0.0
 41
1.0
  0
SPLINE
  5
99
330
1F
100
AcDbEntity
  8
8
  6
________________
 62
     7
370
     0
100
AcDbSpline
210
0.0
220
0.0
230
1.0
 70
    12
 71
     3
 72
     9
 73
     5
 74
     0
 42
0.000000001
 43
0.0001
 40
1.411641004512238
 40
1.411641004512238
 40
1.411641004512238
 40
1.411641004512238
 40
1.41762553843527
 40
1.419499528852179
 40
1.419499528852179
 40
1.419499528852179
 40
1.419499528852179
 10
1241.356516990189
 20
221.0002862436477
 30
0.0
 41
1.0
 10
1241.234633827926
 20
221.00065200814
 30
0.0
 41
1.0
 10
1241.07458430534
 20
221.3362413194427
 30
0.0
 41
1.0
 10
1240.914534782755
 20
222.1031139680728
 30
0.0
 41
1.0
 10
1240.876368422433
 20
222.3098543891951
 30
0.0
 41
1.0
  0
SPLINE
  5
9A
330
1F
100
AcDbEntity
  8
8
  6
________________
 62
     7
370
     0
100
AcDbSpline
210
0.0
220
0.0
230
1.0
 70
    12
 71
     3
 72
     9
 73
     5
 74
     0
 42
0.000000001
 43
0.0001
 40
1.329810485638635
 40
1.329810485638635
 40
1.329810485638635
 40
1.329810485638635
 40
1.33555248094691
 40
1.337665837066125
 40
1.337665837066125
 40
1.337665837066125
 40
1.337665837066125
 10
1246.356285997235
 20
278.9996867172854
 30
0.0
 41
1.0
 10
1246.239342463306
 20
278.9990276021835
 30
0.0
 41
1.0
 10
1246.079357561392
 20
278.6769744619737
 30
0.0
 41
1.0
 10
1245.919372659478
 20
277.9230806257594
 30
0.0
 41
1.0
 10
1245.876331291493
 20
277.6899227869527
 30
0.0
 41
1.0
  0
SPLINE
  5
9B
330
1F
100
AcDbEntity
  8
8
  6
________________
 62
     7
370
     0
100
AcDbSpline
210
0.0
220
0.0
230
1.0
 70
    12
 71
     3
 72
     9
 73
     5
 74
     0
 42
0.000000001
 43
0.0001
 40
1.247961096419496
 40
1.247961096419496
 40
1.247961096419496
 40
1.247961096419496
 40
1.25347942345855
 40
1.255832106734298
 40
1.255832106734298
 40
1.255832106734298
 40
1.255832106734298
 10
1251.357207964936
 20
221.0003880722371
 30
0.0
 41
1.0
 10
1251.244819739123
 20
220.9998218951871
 30
0.0
 41
1.0
 10
1251.084515922699
 20
221.3080758865663
 30
0.0
 41
1.0
 10
1250.924212106276
 20
222.0507666982549
 30
0.0
 41
1.0
 10
1250.876296515665
 20
222.310334277214
 30
0.0
 41
1.0
  0
SPLINE
  5
9C
330
1F
100
AcDbEntity
  8
8
  6
________________
 62
     7
370
     0
100
AcDbSpline
210
0.0
220
0.0
230
1.0
 70
    12
 71
     3
 72
     9
 73
     5
 74
     0
 42
0.000000001
 43
0.0001
 40
1.166138509918069
 40
1.166138509918069
 40
1.166138509918069
 40
1.166138509918069
 40
1.17140636597019
 40
1.173998383930618
 40
1.173998383930618
 40
1.173998383930618
 40
1.173998383930618
 10
1256.356492311379
 20
278.9995902485805
 30
0.0
 41
1.0
 10
1256.249205267435
 20
278.999277814071
 30
0.0
 41
1.0
 10
1256.089128256933
 20
278.7043779057737
 30
0.0
 41
1.0
 10
1255.929051246432
 20
277.9754357537818
 30
0.0
 41
1.0
 10
1255.876261279874
 20
277.6894604866653
 30
0.0
 41
1.0
  0
ARC
  5
9D
330
1F
100
AcDbEntity
  8
8
  6
________________
 62
     7
370
     0
100
AcDbCircle
 10
-1263.241718551796
 20
222.4352368128423
 30
0.0
 40
2.368673547934528
210
0.0
220
0.0
230
-1.0
100
AcDbArc
 50
322.7191573494242
 51
356.9717523815665
  0
ARC
  5
9E
330
1F
100
AcDbEntity
  8
8
  6
________________
 62
     7
370
     0
100
AcDbCircle
 10
1268.122254986886
 20
277.6089960812049
 30
0.0
 40
2.247404784137716
100
AcDbArc
 50
141.7773091615071
 51
177.9450172498784
  0
ARC
  5
9F
330
1F
100
AcDbEntity
  8
8
  6
________________
 62
     7
370
     0
100
AcDbCircle
 10
-1273.006878182276
 20
222.3486829359244
 30
0.0
 40
2.131155142651366
210
0.0
220
0.0
230
-1.0
100
AcDbArc
 50
320.7589552977161
 51
359.0093393437716
  0
ARC
  5
A0
330
1F
100
AcDbEntity
  8
8
  6
________________
 62
     7
370
     0
100
AcDbCircle
 10
1277.8865311992
 20
277.6952601671094
 30
0.0
 40
2.01036484909761
100
AcDbArc
 50
139.5537246154769
 51
180.181093489623
  0
ARC
  5
A1
330
1F
100
AcDbEntity
  8
8
  6
________________
 62
     7
370
     0
100
AcDbCircle
 10
-1282.781601294845
 20
222.2651635630119
 30
0.0
 40
1.905936032351309
210
0.0
220
0.0
230
-1.0
100
AcDbArc
 50
318.4333559685224
 51
1.375566780252427
  0
SPLINE
  5
A2
330
1F
100
AcDbEntity
  8
8
  6
________________
 62
     7
370
     0
100
AcDbSpline
210
0.0
220
0.0
230
1.0
 70
    12
 71
     3
 72
     9
 73
     5
 74
     0
 42
0.000000001
 43
0.0001
 40
0.6751333725760268
 40
0.6751333725760268
 40
0.6751333725760268
 40
0.6751333725760268
 40
0.678968021040048
 40
0.6829958425017753
 40
0.6829958425017753
 40
0.6829958425017753
 40
0.6829958425017753
 10
1286.356452005811
 20
278.9994294068107
 30
0.0
 41
1.0
 10
1286.278354181156
 20
278.9993877656096
 30
0.0
 41
1.0
 10
1286.118224301356
 20
278.7852792109877
 30
0.0
 41
1.0
 10
1285.958094421556
 20
278.1326035795099
 30
0.0
 41
1.0
 10
1285.876062366411
 20
277.6882871831877
 30
0.0
 41
1.0
  0
SPLINE
  5
A3
330
1F
100
AcDbEntity
  8
8
  6
________________
 62
     7
370
     0
100
AcDbSpline
210
0.0
220
0.0
230
1.0
 70
    12
 71
     3
 72
     9
 73
     5
 74
     0
 42
0.000000001
 43
0.0001
 40
0.5932974845141129
 40
0.5932974845141129
 40
0.5932974845141129
 40
0.5932974845141129
 40
0.596894963551691
 40
0.6011618986959842
 40
0.6011618986959842
 40
0.6011618986959842
 40
0.6011618986959842
 10
1291.356549065295
 20
221.0005951046055
 30
0.0
 41
1.0
 10
1291.283281518161
 20
221.0005106467647
 30
0.0
 41
1.0
 10
1291.123112040945
 20
221.2011627404013
 30
0.0
 41
1.0
 10
1290.962942563728
 20
221.8411768325082
 30
0.0
 41
1.0
 10
1290.876040633645
 20
222.3118439752793
 30
0.0
 41
1.0
  0
SPLINE
  5
A4
330
1F
100
AcDbEntity
  8
8
  6
________________
 62
     7
370
     0
100
AcDbSpline
210
0.0
220
0.0
230
1.0
 70
    12
 71
     3
 72
     9
 73
     5
 74
     0
 42
0.000000001
 43
0.0001
 40
0.5114630384276763
 40
0.5114630384276763
 40
0.5114630384276763
 40
0.5114630384276763
 40
0.514821906063334
 40
0.5193265890286031
 40
0.5193265890286031
 40
0.5193265890286031
 40
0.5193265890286031
 10
1296.356558021411
 20
278.9994388489193
 30
0.0
 41
1.0
 10
1296.288150119589
 20
278.999563726587
 30
0.0
 41
1.0
 10
1296.127998230371
 20
278.8123440506487
 30
0.0
 41
1.0
 10
1295.967846341153
 20
278.1853178986854
 30
0.0
 41
1.0
 10
1295.876102353758
 20
277.6885346284867
 30
0.0
 41
1.0
  0
SPLINE
  5
A5
330
1F
100
AcDbEntity
  8
8
  6
________________
 62
     7
370
     0
100
AcDbSpline
210
0.0
220
0.0
230
1.0
 70
    12
 71
     3
 72
     9
 73
     5
 74
     0
 42
0.000000001
 43
0.0001
 40
0.4296293931910663
 40
0.4296293931910663
 40
0.4296293931910663
 40
0.4296293931910663
 40
0.432748848574977
 40
0.4374923697708751
 40
0.4374923697708751
 40
0.4374923697708751
 40
0.4374923697708751
 10
1301.356518046344
 20
221.0005688458351
 30
0.0
 41
1.0
 10
1301.292986100227
 20
221.0004470198135
 30
0.0
 41
1.0
 10
1301.132845901729
 20
221.1743044420315
 30
0.0
 41
1.0
 10
1300.972705703231
 20
221.7884080740327
 30
0.0
 41
1.0
 10
1300.87609745085
 20
222.3114902244858
 30
0.0
 41
1.0
  0
SPLINE
  5
A6
330
1F
100
AcDbEntity
  8
8
  6
________________
 62
     7
370
     0
100
AcDbSpline
210
0.0
220
0.0
230
1.0
 70
    12
 71
     3
 72
     9
 73
     5
 74
     0
 42
0.000000001
 43
0.0001
 40
0.3477807090961761
 40
0.3477807090961761
 40
0.3477807090961761
 40
0.3477807090961761
 40
0.35067579108662
 40
0.3556610449601358
 40
0.3556610449601358
 40
0.3556610449601358
 40
0.3556610449601358
 10
1306.357396931606
 20
278.9994746702874
 30
0.0
 41
1.0
 10
1306.298434654418
 20
279.0002094467082
 30
0.0
 41
1.0
 10
1306.137940910519
 20
278.8401760397397
 30
0.0
 41
1.0
 10
1305.97744716662
 20
278.2374813735049
 30
0.0
 41
1.0
 10
1305.875915699908
 20
277.6875839530431
 30
0.0
 41
1.0
  0
SPLINE
  5
A7
330
1F
100
AcDbEntity
  8
8
  6
________________
 62
     7
370
     0
100
AcDbSpline
210
0.0
220
0.0
230
1.0
 70
    12
 71
     3
 72
     9
 73
     5
 74
     0
 42
0.000000001
 43
0.0001
 40
0.2659644604289632
 40
0.2659644604289632
 40
0.2659644604289632
 40
0.2659644604289632
 40
0.268602733598261
 40
0.2738256648741755
 40
0.2738256648741755
 40
0.2738256648741755
 40
0.2738256648741755
 10
1311.356294042241
 20
221.0005111938318
 30
0.0
 41
1.0
 10
1311.302562025525
 20
221.0004933660815
 30
0.0
 41
1.0
 10
1311.142457918955
 20
221.1477964184679
 30
0.0
 41
1.0
 10
1310.982353812385
 20
221.7360437410087
 30
0.0
 41
1.0
 10
1310.875981722531
 20
222.3120443034384
 30
0.0
 41
1.0
  0
SPLINE
  5
A8
330
1F
100
AcDbEntity
  8
8
  6
________________
 62
     7
370
     0
100
AcDbSpline
210
0.0
220
0.0
230
1.0
 70
    12
 71
     3
 72
     9
 73
     5
 74
     0
 42
0.000000001
 43
0.0001
 40
0.184125504999448
 40
0.184125504999448
 40
0.184125504999448
 40
0.184125504999448
 40
0.186529676109904
 40
0.1919925482351856
 40
0.1919925482351856
 40
0.1919925482351856
 40
0.1919925482351856
 10
1316.356578515048
 20
278.9995517710755
 30
0.0
 41
1.0
 10
1316.307614304746
 20
278.9997464543495
 30
0.0
 41
1.0
 10
1316.147391283276
 20
278.8659462242047
 30
0.0
 41
1.0
 10
1315.987168261807
 20
278.2901531962711
 30
0.0
 41
1.0
 10
1315.875909450638
 20
277.6876331942501
 30
0.0
 41
1.0
  0
SPLINE
  5
A9
330
1F
100
AcDbEntity
  8
8
  6
________________
 62
     7
370
     0
100
AcDbSpline
210
0.0
220
0.0
230
1.0
 70
    12
 71
     3
 72
    16
 73
    12
 74
     0
 42
0.000000001
 43
0.0001
 40
2.88465680529756
 40
2.88465680529756
 40
2.88465680529756
 40
2.88465680529756
 40
2.88747938618131
 40
2.89494057322571
 40
2.9024017602701
 40
2.90986294731451
 40
2.9173241343589
 40
2.92478532140329
 40
2.93224650844769
 40
2.93970769549209
 40
2.94194416023129
 40
2.94194416023129
 40
2.94194416023129
 40
2.94194416023129
 10
1154.856614154058
 20
221.0005447287778
 30
0.0
 41
1.0
 10
1154.799128460387
 20
221.0003350900097
 30
0.0
 41
1.0
 10
1154.589685557867
 20
221.2057475336108
 30
0.0
 41
1.0
 10
1154.228285446497
 20
222.8613162031828
 30
0.0
 41
1.0
 10
1153.772413819947
 20
227.1610333113152
 30
0.0
 41
1.0
 10
1153.316542193397
 20
233.3217670749169
 30
0.0
 41
1.0
 10
1152.860670566847
 20
240.8415148410114
 30
0.0
 41
1.0
 10
1152.404798940297
 20
249.1075357457451
 30
0.0
 41
1.0
 10
1151.948927313748
 20
257.446279432463
 30
0.0
 41
1.0
 10
1151.599464253796
 20
263.373485361922
 30
0.0
 41
1.0
 10
1151.401958402693
 20
266.3751348907211
 30
0.0
 41
1.0
 10
1151.356409760441
 20
267.0464768043849
 30
0.0
 41
1.0
  0
SPLINE
  5
AA
330
1F
100
AcDbEntity
  8
8
  6
________________
 62
     7
370
     0
100
AcDbSpline
210
0.0
220
0.0
230
1.0
 70
    12
 71
     3
 72
    18
 73
    14
 74
     0
 42
0.000000001
 43
0.0001
 40
2.720976890879898
 40
2.720976890879898
 40
2.720976890879898
 40
2.720976890879898
 40
2.7233332712046
 40
2.73079445824899
 40
2.73825564529339
 40
2.74571683233779
 40
2.75317801938218
 40
2.76063920642658
 40
2.76810039347097
 40
2.77556158051537
 40
2.78302276755977
 40
2.79048395460417
 40
2.794964669919153
 40
2.794964669919153
 40
2.794964669919153
 40
2.794964669919153
 10
1164.85730551525
 20
221.0004767655083
 30
0.0
 41
1.0
 10
1164.809314629216
 20
220.9998831469603
 30
0.0
 41
1.0
 10
1164.609366534331
 20
221.1618598545018
 30
0.0
 41
1.0
 10
1164.257461230596
 20
222.6586476164163
 30
0.0
 41
1.0
 10
1163.801589604046
 20
226.825533978614
 30
0.0
 41
1.0
 10
1163.345717977496
 20
232.8807749013982
 30
0.0
 41
1.0
 10
1162.889846350947
 20
240.3309637348012
 30
0.0
 41
1.0
 10
1162.433974724396
 20
248.5690275711072
 30
0.0
 41
1.0
 10
1161.978103097846
 20
256.9236941138819
 30
0.0
 41
1.0
 10
1161.522231471296
 20
264.7141897848266
 30
0.0
 41
1.0
 10
1161.066359844747
 20
271.3057120352711
 30
0.0
 41
1.0
 10
1160.671189573405
 20
275.5146315994391
 30
0.0
 41
1.0
 10
1160.427976510913
 20
277.1949257050949
 30
0.0
 41
1.0
 10
1160.336720657271
 20
277.6892446370937
 30
0.0
 41
1.0
  0
SPLINE
  5
AB
330
1F
100
AcDbEntity
  8
8
  6
________________
 62
     7
370
     0
100
AcDbSpline
210
0.0
220
0.0
230
1.0
 70
    12
 71
     3
 72
    18
 73
    14
 74
     0
 42
0.000000001
 43
0.0001
 40
2.55732121288207
 40
2.55732121288207
 40
2.55732121288207
 40
2.55732121288207
 40
2.55918715622789
 40
2.56664834327228
 40
2.57410953031668
 40
2.58157071736107
 40
2.58903190440547
 40
2.59649309144987
 40
2.60395427849426
 40
2.61141546553865
 40
2.61887665258305
 40
2.62633783962745
 40
2.631298247907624
 40
2.631298247907624
 40
2.631298247907624
 40
2.631298247907624
 10
1174.856516053611
 20
221.0003771174382
 30
0.0
 41
1.0
 10
1174.818513582823
 20
221.0002311778129
 30
0.0
 41
1.0
 10
1174.628553903184
 20
221.1233654430712
 30
0.0
 41
1.0
 10
1174.286637014696
 20
222.4651668572703
 30
0.0
 41
1.0
 10
1173.830765388145
 20
226.4978222276495
 30
0.0
 41
1.0
 10
1173.374893761595
 20
232.4455354986252
 30
0.0
 41
1.0
 10
1172.919022135045
 20
239.8236618282449
 30
0.0
 41
1.0
 10
1172.463150508495
 20
248.0310002664957
 30
0.0
 41
1.0
 10
1172.007278881946
 20
256.3987821523759
 30
0.0
 41
1.0
 10
1171.551407255396
 20
264.2451652139393
 30
0.0
 41
1.0
 10
1171.095535628845
 20
270.9307929614709
 30
0.0
 41
1.0
 10
1170.690595758691
 20
275.3544960504692
 30
0.0
 41
1.0
 10
1170.437613097386
 20
277.1428545035135
 30
0.0
 41
1.0
 10
1170.336587644931
 20
277.6900312386347
 30
0.0
 41
1.0
  0
SPLINE
  5
AC
330
1F
100
AcDbEntity
  8
8
  6
________________
 62
     7
370
     0
100
AcDbSpline
210
0.0
220
0.0
230
1.0
 70
    12
 71
     3
 72
    18
 73
    14
 74
     0
 42
0.000000001
 43
0.0001
 40
2.393662054546164
 40
2.393662054546164
 40
2.393662054546164
 40
2.393662054546164
 40
2.39504104125117
 40
2.40250222829557
 40
2.40996341533996
 40
2.41742460238435
 40
2.42488578942876
 40
2.43234697647315
 40
2.43980816351755
 40
2.44726935056194
 40
2.45473053760634
 40
2.46219172465073
 40
2.467627809014616
 40
2.467627809014616
 40
2.467627809014616
 40
2.467627809014616
 10
1184.855939237409
 20
221.0002752175049
 30
0.0
 41
1.0
 10
1184.827854300054
 20
221.0003516643394
 30
0.0
 41
1.0
 10
1184.647812153849
 20
221.0877338278905
 30
0.0
 41
1.0
 10
1184.315812798794
 20
222.2809389432687
 30
0.0
 41
1.0
 10
1183.859941172245
 20
226.1780081831035
 30
0.0
 41
1.0
 10
1183.404069545694
 20
232.0161951250091
 30
0.0
 41
1.0
 10
1182.948197919145
 20
239.3197795957308
 30
0.0
 41
1.0
 10
1182.492326292595
 20
247.4936346313019
 30
0.0
 41
1.0
 10
1182.036454666044
 20
255.8717199400396
 30
0.0
 41
1.0
 10
1181.580583039494
 20
263.7713536835088
 30
0.0
 41
1.0
 10
1181.124711412946
 20
270.5488402811309
 30
0.0
 41
1.0
 10
1180.710083753225
 20
275.190231582973
 30
0.0
 41
1.0
 10
1180.447413302353
 20
277.0896650887952
 30
0.0
 41
1.0
 10
1180.336700060332
 20
277.6895083646085
 30
0.0
 41
1.0
  0
SPLINE
  5
AD
330
1F
100
AcDbEntity
  8
8
  6
________________
 62
     7
370
     0
100
AcDbSpline
210
0.0
220
0.0
230
1.0
 70
    12
 71
     3
 72
    18
 73
    14
 74
     0
 42
0.000000001
 43
0.0001
 40
2.230000420205788
 40
2.230000420205788
 40
2.230000420205788
 40
2.230000420205788
 40
2.23089492627445
 40
2.23835611331885
 40
2.24581730036325
 40
2.25327848740764
 40
2.26073967445204
 40
2.26820086149643
 40
2.27566204854083
 40
2.28312323558523
 40
2.29058442262962
 40
2.29804560967402
 40
2.303960916266901
 40
2.303960916266901
 40
2.303960916266901
 40
2.303960916266901
 10
1194.855513702789
 20
221.0001830097374
 30
0.0
 41
1.0
 10
1194.837295871674
 20
221.0003311145301
 30
0.0
 41
1.0
 10
1194.667120831709
 20
221.0550888980331
 30
0.0
 41
1.0
 10
1194.344988582893
 20
222.1060257825982
 30
0.0
 41
1.0
 10
1193.889116956344
 20
225.8661993157004
 30
0.0
 41
1.0
 10
1193.433245329794
 20
231.5928980566453
 30
0.0
 41
1.0
 10
1192.977373703243
 20
238.819486362496
 30
0.0
 41
1.0
 10
1192.521502076693
 20
246.9571112425692
 30
0.0
 41
1.0
 10
1192.065630450144
 20
255.3426845915402
 30
0.0
 41
1.0
 10
1191.609758823594
 20
263.2929144137744
 30
0.0
 41
1.0
 10
1191.153887197044
 20
270.159982346125
 30
0.0
 41
1.0
 10
1190.729499525691
 20
275.0235204065029
 30
0.0
 41
1.0
 10
1190.45706906319
 20
277.0375662192562
 30
0.0
 41
1.0
 10
1190.336595809538
 20
277.6901689127413
 30
0.0
 41
1.0
  0
SPLINE
  5
AE
330
1F
100
AcDbEntity
  8
8
  6
________________
 62
     7
370
     0
100
AcDbSpline
210
0.0
220
0.0
230
1.0
 70
    12
 71
     3
 72
     9
 73
     5
 74
     0
 42
0.000000001
 43
0.0001
 40
1.738976416303641
 40
1.738976416303641
 40
1.738976416303641
 40
1.738976416303641
 40
1.7459177683887
 40
1.74790086100483
 40
1.74790086100483
 40
1.74790086100483
 40
1.74790086100483
 10
1224.856626126591
 20
221.0001204534893
 30
0.0
 41
1.0
 10
1224.715256062791
 20
221.0001625492754
 30
0.0
 41
1.0
 10
1224.533497624186
 20
221.4433323701226
 30
0.0
 41
1.0
 10
1224.351739185581
 20
222.4375760273631
 30
0.0
 41
1.0
 10
1224.311350810776
 20
222.6848640871681
 30
0.0
 41
1.0
  0
SPLINE
  5
AF
330
1F
100
AcDbEntity
  8
8
  6
________________
 62
     7
370
     0
100
AcDbSpline
210
0.0
220
0.0
230
1.0
 70
    12
 71
     3
 72
    18
 73
    14
 74
     0
 42
0.000000001
 43
0.0001
 40
1.575303900795119
 40
1.575303900795119
 40
1.575303900795119
 40
1.575303900795119
 40
1.58177165341198
 40
1.58923284045638
 40
1.59669402750078
 40
1.60415521454517
 40
1.61161640158957
 40
1.61907758863397
 40
1.62653877567836
 40
1.63399996272276
 40
1.64146114976715
 40
1.64892233681155
 40
1.649278150637965
 40
1.649278150637965
 40
1.649278150637965
 40
1.649278150637965
 10
1234.85686542128
 20
221.0001966805393
 30
0.0
 41
1.0
 10
1234.72514085395
 20
221.0000127015651
 30
0.0
 41
1.0
 10
1234.44145907777
 20
221.6426910034517
 30
0.0
 41
1.0
 10
1234.00582009274
 20
224.7010701465655
 30
0.0
 41
1.0
 10
1233.54994846619
 20
229.9629562806869
 30
0.0
 41
1.0
 10
1233.094076839641
 20
236.8575465318635
 30
0.0
 41
1.0
 10
1232.63820521309
 20
244.8230405155832
 30
0.0
 41
1.0
 10
1232.18233358654
 20
253.2103760802377
 30
0.0
 41
1.0
 10
1231.72646195999
 20
261.336117637403
 30
0.0
 41
1.0
 10
1231.27059033344
 20
268.5381453851828
 30
0.0
 41
1.0
 10
1230.814718706891
 20
274.2296076310812
 30
0.0
 41
1.0
 10
1230.503557657306
 20
276.7667841665467
 30
0.0
 41
1.0
 10
1230.344353816571
 20
277.6483180530503
 30
0.0
 41
1.0
 10
1230.337107184687
 20
277.6875784007782
 30
0.0
 41
1.0
  0
SPLINE
  5
B0
330
1F
100
AcDbEntity
  8
8
  6
________________
 62
     7
370
     0
100
AcDbSpline
210
0.0
220
0.0
230
1.0
 70
    12
 71
     3
 72
    18
 73
    14
 74
     0
 42
0.000000001
 43
0.0001
 40
1.411643399235113
 40
1.411643399235113
 40
1.411643399235113
 40
1.411643399235113
 40
1.41762553843527
 40
1.42508672547966
 40
1.43254791252406
 40
1.44000909956845
 40
1.44747028661285
 40
1.45493147365725
 40
1.46239266070164
 40
1.46985384774604
 40
1.47731503479043
 40
1.48477622183483
 40
1.485611437097793
 40
1.485611437097793
 40
1.485611437097793
 40
1.485611437097793
 10
1244.856370674828
 20
221.0002948658242
 30
0.0
 41
1.0
 10
1244.734536284348
 20
221.0008646363493
 30
0.0
 41
1.0
 10
1244.460744685019
 20
221.5751712022186
 30
0.0
 41
1.0
 10
1244.034995876839
 20
224.4308038602415
 30
0.0
 41
1.0
 10
1243.579124250289
 20
229.5719671437603
 30
0.0
 41
1.0
 10
1243.123252623739
 20
236.3776939934773
 30
0.0
 41
1.0
 10
1242.667380997189
 20
244.2934249908095
 30
0.0
 41
1.0
 10
1242.211509370639
 20
252.6741528828258
 30
0.0
 41
1.0
 10
1241.755637744089
 20
260.8369805022253
 30
0.0
 41
1.0
 10
1241.29976611754
 20
268.1167661178511
 30
0.0
 41
1.0
 10
1240.84389449099
 20
273.9203219971432
 30
0.0
 41
1.0
 10
1240.522969779969
 20
276.6337638380956
 30
0.0
 41
1.0
 10
1240.354002277797
 20
277.5960205651295
 30
0.0
 41
1.0
 10
1240.336991984477
 20
277.6881358960835
 30
0.0
 41
1.0
  0
SPLINE
  5
B1
330
1F
100
AcDbEntity
  8
8
  6
________________
 62
     7
370
     0
100
AcDbSpline
210
0.0
220
0.0
230
1.0
 70
    12
 71
     3
 72
    18
 73
    14
 74
     0
 42
0.000000001
 43
0.0001
 40
1.247962340247652
 40
1.247962340247652
 40
1.247962340247652
 40
1.247962340247652
 40
1.25347942345855
 40
1.26094061050295
 40
1.26840179754734
 40
1.27586298459174
 40
1.28332417163613
 40
1.29078535868053
 40
1.29824654572493
 40
1.30570773276932
 40
1.31316891981372
 40
1.32063010685812
 40
1.321944013054151
 40
1.321944013054151
 40
1.321944013054151
 40
1.321944013054151
 10
1254.857131968177
 20
221.0003957828917
 30
0.0
 41
1.0
 10
1254.744769074614
 20
220.9999273912378
 30
0.0
 41
1.0
 10
1254.480448972201
 20
221.5083111089797
 30
0.0
 41
1.0
 10
1254.064171660939
 20
224.1691298838615
 30
0.0
 41
1.0
 10
1253.608300034389
 20
229.1878426736182
 30
0.0
 41
1.0
 10
1253.152428407839
 20
235.9024191166219
 30
0.0
 41
1.0
 10
1252.696556781289
 20
243.7657271150836
 30
0.0
 41
1.0
 10
1252.240685154739
 20
252.1370310638206
 30
0.0
 41
1.0
 10
1251.784813528189
 20
260.3342016983032
 30
0.0
 41
1.0
 10
1251.328941901639
 20
267.6892988732006
 30
0.0
 41
1.0
 10
1250.873070275089
 20
273.6029981514618
 30
0.0
 41
1.0
 10
1250.542396372999
 20
276.4975201362468
 30
0.0
 41
1.0
 10
1250.36367967976
 20
277.5435586249213
 30
0.0
 41
1.0
 10
1250.336920195371
 20
277.6884332207545
 30
0.0
 41
1.0
  0
SPLINE
  5
B2
330
1F
100
AcDbEntity
  8
8
  6
________________
 62
     7
370
     0
100
AcDbSpline
210
0.0
220
0.0
230
1.0
 70
    12
 71
     3
 72
    18
 73
    14
 74
     0
 42
0.000000001
 43
0.0001
 40
1.08429677194953
 40
1.08429677194953
 40
1.08429677194953
 40
1.08429677194953
 40
1.08933330848183
 40
1.09679449552623
 40
1.10425568257063
 40
1.11171686961502
 40
1.11917805665942
 40
1.12663924370381
 40
1.13410043074821
 40
1.14156161779261
 40
1.149022804837
 40
1.1564839918814
 40
1.158271694340001
 40
1.158271694340001
 40
1.158271694340001
 40
1.158271694340001
 10
1264.856946794737
 20
221.0004860366641
 30
0.0
 41
1.0
 10
1264.754370887021
 20
221.0002187096259
 30
0.0
 41
1.0
 10
1264.499837770454
 20
221.4469472271915
 30
0.0
 41
1.0
 10
1264.093347445038
 20
223.9161361506865
 30
0.0
 41
1.0
 10
1263.637475818488
 20
228.8107119519445
 30
0.0
 41
1.0
 10
1263.181604191938
 20
235.4318816132815
 30
0.0
 41
1.0
 10
1262.725732565388
 20
243.2401242166821
 30
0.0
 41
1.0
 10
1262.269860938838
 20
251.5991911183332
 30
0.0
 41
1.0
 10
1261.813989312288
 20
259.8279501800758
 30
0.0
 41
1.0
 10
1261.358117685738
 20
267.2558872978766
 30
0.0
 41
1.0
 10
1260.902246059188
 20
273.2777427279529
 30
0.0
 41
1.0
 10
1260.561922652644
 20
276.3572584138254
 30
0.0
 41
1.0
 10
1260.37355645495
 20
277.4898965922907
 30
0.0
 41
1.0
 10
1260.337147466106
 20
277.68710440169
 30
0.0
 41
1.0
  0
SPLINE
  5
B3
330
1F
100
AcDbEntity
  8
8
  6
________________
 62
     7
370
     0
100
AcDbSpline
210
0.0
220
0.0
230
1.0
 70
    12
 71
     3
 72
    18
 73
    14
 74
     0
 42
0.000000001
 43
0.0001
 40
0.9206408868817257
 40
0.9206408868817257
 40
0.9206408868817257
 40
0.9206408868817257
 40
0.925187193505118
 40
0.932648380549514
 40
0.940109567593911
 40
0.947570754638307
 40
0.955031941682703
 40
0.962493128727099
 40
0.969954315771495
 40
0.977415502815892
 40
0.984876689860288
 40
0.992337876904684
 40
0.9946071999999073
 40
0.9946071999999073
 40
0.9946071999999073
 40
0.9946071999999073
 10
1274.856169984881
 20
221.0005564149759
 30
0.0
 41
1.0
 10
1274.76357827515
 20
221.0010557942064
 30
0.0
 41
1.0
 10
1274.519029356569
 20
221.3900780178195
 30
0.0
 41
1.0
 10
1274.122523229137
 20
223.6719076770586
 30
0.0
 41
1.0
 10
1273.666651602587
 20
228.4407017102337
 30
0.0
 41
1.0
 10
1273.210779976037
 20
234.9662396034878
 30
0.0
 41
1.0
 10
1272.754908349487
 20
242.7167929198831
 30
0.0
 41
1.0
 10
1272.299036722937
 20
251.0608137827943
 30
0.0
 41
1.0
 10
1271.843165096388
 20
259.3183960689585
 30
0.0
 41
1.0
 10
1271.387293469837
 20
266.8166770360661
 30
0.0
 41
1.0
 10
1270.931421843287
 20
272.9446650258694
 30
0.0
 41
1.0
 10
1270.581289578283
 20
276.2152994842428
 30
0.0
 41
1.0
 10
1270.383114522128
 20
277.4381404177026
 30
0.0
 41
1.0
 10
1270.336896674824
 20
277.6883722836072
 30
0.0
 41
1.0
  0
SPLINE
  5
B4
330
1F
100
AcDbEntity
  8
8
  6
________________
 62
     7
370
     0
100
AcDbSpline
210
0.0
220
0.0
230
1.0
 70
    12
 71
     3
 72
    18
 73
    14
 74
     0
 42
0.000000001
 43
0.0001
 40
0.7569814955998381
 40
0.7569814955998381
 40
0.7569814955998381
 40
0.7569814955998381
 40
0.761041078528405
 40
0.768502265572801
 40
0.775963452617197
 40
0.783424639661593
 40
0.790885826705989
 40
0.798347013750385
 40
0.805808200794781
 40
0.813269387839177
 40
0.820730574883573
 40
0.828191761927969
 40
0.8309359889610411
 40
0.8309359889610411
 40
0.8309359889610411
 40
0.8309359889610411
 10
1284.855607401463
 20
221.0006007121477
 30
0.0
 41
1.0
 10
1284.772928480904
 20
221.0014888945985
 30
0.0
 41
1.0
 10
1284.538292351495
 20
221.3360343469488
 30
0.0
 41
1.0
 10
1284.151699013236
 20
223.4365265338302
 30
0.0
 41
1.0
 10
1283.695827386686
 20
228.0779362872087
 30
0.0
 41
1.0
 10
1283.239955760136
 20
234.5056495621855
 30
0.0
 41
1.0
 10
1282.784084133586
 20
242.1959090856143
 30
0.0
 41
1.0
 10
1282.328212507036
 20
250.5220799742223
 30
0.0
 41
1.0
 10
1281.872340880486
 20
258.8057105961757
 30
0.0
 41
1.0
 10
1281.416469253936
 20
266.3718156805544
 30
0.0
 41
1.0
 10
1280.960597627387
 20
272.6038769730742
 30
0.0
 41
1.0
 10
1280.600793298615
 20
276.0689181645282
 30
0.0
 41
1.0
 10
1280.392946178694
 20
277.3846975177102
 30
0.0
 41
1.0
 10
1280.337056267623
 20
277.6874368664775
 30
0.0
 41
1.0
  0
SPLINE
  5
B5
330
1F
100
AcDbEntity
  8
8
  6
________________
 62
     7
370
     0
100
AcDbSpline
210
0.0
220
0.0
230
1.0
 70
    12
 71
     3
 72
    18
 73
    14
 74
     0
 42
0.000000001
 43
0.0001
 40
0.5932986880034754
 40
0.5932986880034754
 40
0.5932986880034754
 40
0.5932986880034754
 40
0.596894963551691
 40
0.604356150596087
 40
0.611817337640483
 40
0.619278524684879
 40
0.626739711729275
 40
0.634200898773671
 40
0.641662085818068
 40
0.649123272862464
 40
0.65658445990686
 40
0.664045646951256
 40
0.6672703603889943
 40
0.6672703603889943
 40
0.6672703603889943
 40
0.6672703603889943
 10
1294.856475533199
 20
221.0006031111071
 30
0.0
 41
1.0
 10
1294.783232496761
 20
221.0005801289604
 30
0.0
 41
1.0
 10
1294.558032251473
 20
221.2827938838385
 30
0.0
 41
1.0
 10
1294.180874797335
 20
223.210071818785
 30
0.0
 41
1.0
 10
1293.725003170785
 20
227.7225375870295
 30
0.0
 41
1.0
 10
1293.269131544235
 20
234.0502662666463
 30
0.0
 41
1.0
 10
1292.813259917686
 20
241.6776477523516
 30
0.0
 41
1.0
 10
1292.357388291136
 20
249.9831707294216
 30
0.0
 41
1.0
 10
1291.901516664585
 20
258.2900660452154
 30
0.0
 41
1.0
 10
1291.445645038036
 20
265.9214527231267
 30
0.0
 41
1.0
 10
1290.989773411486
 20
272.255493088425
 30
0.0
 41
1.0
 10
1290.620183324428
 20
275.9204672416102
 30
0.0
 41
1.0
 10
1290.402550446221
 20
277.3326940808745
 30
0.0
 41
1.0
 10
1290.336874776864
 20
277.6883755499849
 30
0.0
 41
1.0
  0
SPLINE
  5
B6
330
1F
100
AcDbEntity
  8
8
  6
________________
 62
     7
370
     0
100
AcDbSpline
210
0.0
220
0.0
230
1.0
 70
    12
 71
     3
 72
    18
 73
    14
 74
     0
 42
0.000000001
 43
0.0001
 40
0.4296305994680677
 40
0.4296305994680677
 40
0.4296305994680677
 40
0.4296305994680677
 40
0.432748848574977
 40
0.440210035619374
 40
0.447671222663769
 40
0.455132409708166
 40
0.462593596752562
 40
0.470054783796958
 40
0.477515970841354
 40
0.48497715788575
 40
0.492438344930146
 40
0.499899531974542
 40
0.5036040985232781
 40
0.5036040985232781
 40
0.5036040985232781
 40
0.5036040985232781
 10
1304.856444343926
 20
221.0005767959297
 30
0.0
 41
1.0
 10
1304.792936965279
 20
221.0005084343405
 30
0.0
 41
1.0
 10
1304.577472377781
 20
221.234520006671
 30
0.0
 41
1.0
 10
1304.210050581434
 20
222.9926196300576
 30
0.0
 41
1.0
 10
1303.754178954885
 20
227.3746250383347
 30
0.0
 41
1.0
 10
1303.298307328335
 20
233.6002427444615
 30
0.0
 41
1.0
 10
1302.842435701785
 20
241.1621830773033
 30
0.0
 41
1.0
 10
1302.386564075235
 20
249.4442671441512
 30
0.0
 41
1.0
 10
1301.930692448685
 20
257.7716356939391
 30
0.0
 41
1.0
 10
1301.474820822135
 20
265.4657395043329
 30
0.0
 41
1.0
 10
1301.018949195585
 20
271.8996304432925
 30
0.0
 41
1.0
 10
1300.639586248127
 20
275.7687387420326
 30
0.0
 41
1.0
 10
1300.41218050952
 20
277.2805621356346
 30
0.0
 41
1.0
 10
1300.336731979763
 20
277.6891359751249
 30
0.0
 41
1.0
  0
SPLINE
  5
B7
330
1F
100
AcDbEntity
  8
8
  6
________________
 62
     7
370
     0
100
AcDbSpline
210
0.0
220
0.0
230
1.0
 70
    12
 71
     3
 72
    18
 73
    14
 74
     0
 42
0.000000001
 43
0.0001
 40
0.2659645008721891
 40
0.2659645008721891
 40
0.2659645008721891
 40
0.2659645008721891
 40
0.268602733598261
 40
0.276063920642658
 40
0.283525107687054
 40
0.29098629473145
 40
0.298447481775846
 40
0.305908668820242
 40
0.313369855864639
 40
0.320831042909035
 40
0.328292229953431
 40
0.335753416997827
 40
0.3399349374715965
 40
0.3399349374715965
 40
0.3399349374715965
 40
0.3399349374715965
 10
1314.856291571188
 20
221.0005192534896
 30
0.0
 41
1.0
 10
1314.802560378153
 20
221.0005029421889
 30
0.0
 41
1.0
 10
1314.596871976268
 20
221.1897484791802
 30
0.0
 41
1.0
 10
1314.239226365534
 20
222.7842430405626
 30
0.0
 41
1.0
 10
1313.783354738984
 20
227.0343155541066
 30
0.0
 41
1.0
 10
1313.327483112434
 20
233.1557302221168
 30
0.0
 41
1.0
 10
1312.871611485884
 20
240.6496882778842
 30
0.0
 41
1.0
 10
1312.415739859334
 20
248.9055503122678
 30
0.0
 41
1.0
 10
1311.959868232784
 20
257.2505937563512
 30
0.0
 41
1.0
 10
1311.503996606234
 20
265.0048291626312
 30
0.0
 41
1.0
 10
1311.048124979684
 20
271.5364086222196
 30
0.0
 41
1.0
 10
1310.659048217686
 20
275.6132231108118
 30
0.0
 41
1.0
 10
1310.421928664539
 20
277.2276687367316
 30
0.0
 41
1.0
 10
1310.336766320241
 20
277.6889694963085
 30
0.0
 41
1.0
  0
SPLINE
  5
B8
330
1F
100
AcDbEntity
  8
8
  6
________________
 62
     7
370
     0
100
AcDbSpline
210
0.0
220
0.0
230
1.0
 70
    12
 71
     3
 72
    10
 73
     6
 74
     0
 42
0.000000001
 43
0.0001
 40
0.167761407081865
 40
0.167761407081865
 40
0.167761407081865
 40
0.167761407081865
 40
0.171607302021111
 40
0.179068489065507
 40
0.184125504999448
 40
0.184125504999448
 40
0.184125504999448
 40
0.184125504999448
 10
1317.356409760441
 20
273.4617465346172
 30
0.0
 41
1.0
 10
1317.278082886042
 20
274.300585647294
 30
0.0
 41
1.0
 10
1317.047798802792
 20
276.5170665990111
 30
0.0
 41
1.0
 10
1316.714521720994
 20
278.5481631736487
 30
0.0
 41
1.0
 10
1316.459571513596
 20
278.9991422676024
 30
0.0
 41
1.0
 10
1316.356578515048
 20
278.9995517710755
 30
0.0
 41
1.0
  0
LINE
  5
B9
330
1F
100
AcDbEntity
  8
8
  6
________________
 62
     7
370
     0
100
AcDbLine
 10
1151.356409760441
 20
221.0005361614259
 30
0.0
 11
1151.356409760441
 21
267.0464768043879
 31
0.0
  0
ARC
  5
BA
330
1F
100
AcDbEntity
  8
8
  6
________________
 62
     7
370
     0
100
AcDbCircle
 10
-1641.72333249482
 20
262.9673674965475
 30
0.0
 40
333.4717069602326
210
0.0
220
0.0
230
-1.0
100
AcDbArc
 50
353.3579265854074
 51
357.7714388698373
  0
ARC
  5
BB
330
1F
100
AcDbEntity
  8
8
  6
________________
 62
     7
370
     0
100
AcDbCircle
 10
-1631.683716785771
 20
262.9647212579092
 30
0.0
 40
333.4320093507131
210
0.0
220
0.0
230
-1.0
100
AcDbArc
 50
353.357473503562
 51
357.7716284733298
  0
ARC
  5
BC
330
1F
100
AcDbEntity
  8
8
  6
________________
 62
     7
370
     0
100
AcDbCircle
 10
-1621.690780988596
 20
262.9652438103114
 30
0.0
 40
333.4391131626303
210
0.0
220
0.0
230
-1.0
100
AcDbArc
 50
353.3575482352975
 51
357.7715861124105
  0
ARC
  5
BD
330
1F
100
AcDbEntity
  8
8
  6
________________
 62
     7
370
     0
100
AcDbCircle
 10
-1611.687433820498
 20
262.9645668109857
 30
0.0
 40
333.4356080008407
210
0.0
220
0.0
230
-1.0
100
AcDbArc
 50
353.3575656941412
 51
357.7716790948832
  0
ARC
  5
BE
330
1F
100
AcDbEntity
  8
8
  6
________________
 62
     7
370
     0
100
AcDbCircle
 10
-1601.654296382754
 20
262.9628882303006
 30
0.0
 40
333.4025243023427
210
0.0
220
0.0
230
-1.0
100
AcDbArc
 50
353.3571197525156
 51
357.7717465511241
  0
ARC
  5
BF
330
1F
100
AcDbEntity
  8
8
  6
________________
 62
     7
370
     0
100
AcDbCircle
 10
-1591.620056604022
 20
262.9608181887561
 30
0.0
 40
333.3682342588046
210
0.0
220
0.0
230
-1.0
100
AcDbArc
 50
353.3567002841964
 51
357.7718732846722
  0
ARC
  5
C0
330
1F
100
AcDbEntity
  8
8
  6
________________
 62
     7
370
     0
100
AcDbCircle
 10
-1581.582059947576
 20
262.95833017852
 30
0.0
 40
333.3301355720934
210
0.0
220
0.0
230
-1.0
100
AcDbArc
 50
353.3562585218312
 51
357.7720464727967
  0
ARC
  5
C1
330
1F
100
AcDbEntity
  8
8
  6
________________
 62
     7
370
     0
100
AcDbCircle
 10
-1571.574791401245
 20
262.958267017528
 30
0.0
 40
333.3228778218379
210
0.0
220
0.0
230
-1.0
100
AcDbArc
 50
353.3561210828013
 51
357.7720088021472
  0
ARC
  5
C2
330
1F
100
AcDbEntity
  8
8
  6
________________
 62
     7
370
     0
100
AcDbCircle
 10
-1561.573798510331
 20
262.9579538562967
 30
0.0
 40
333.321867621641
210
0.0
220
0.0
230
-1.0
100
AcDbArc
 50
353.3561414241107
 51
357.7720559173835
  0
ARC
  5
C3
330
1F
100
AcDbEntity
  8
8
  6
________________
 62
     7
370
     0
100
AcDbCircle
 10
-1521.633447401683
 20
262.9616041069769
 30
0.0
 40
333.3816152116506
210
0.0
220
0.0
230
-1.0
100
AcDbArc
 50
353.3568668173203
 51
357.7718275881788
  0
ARC
  5
C4
330
1F
100
AcDbEntity
  8
8
  6
________________
 62
     7
370
     0
100
AcDbCircle
 10
-1511.658410311672
 20
262.9633074708422
 30
0.0
 40
333.4066502947015
210
0.0
220
0.0
230
-1.0
100
AcDbArc
 50
353.3571481613129
 51
357.7717020394265
  0
ARC
  5
C5
330
1F
100
AcDbEntity
  8
8
  6
________________
 62
     7
370
     0
100
AcDbCircle
 10
-1501.730425202257
 20
262.967772423945
 30
0.0
 40
333.4787848308958
210
0.0
220
0.0
230
-1.0
100
AcDbArc
 50
353.3580160258059
 51
357.7714165692728
  0
ARC
  5
C6
330
1F
100
AcDbEntity
  8
8
  6
________________
 62
     7
370
     0
100
AcDbCircle
 10
-1491.671854020727
 20
262.9641190061555
 30
0.0
 40
333.4201317624147
210
0.0
220
0.0
230
-1.0
100
AcDbArc
 50
353.3573133573045
 51
357.7716526217354
  0
SPLINE
  5
C7
330
1F
100
AcDbEntity
  8
8
  6
________________
 62
     7
370
     0
100
AcDbSpline
210
0.0
220
0.0
230
1.0
 70
    12
 71
     3
 72
    18
 73
    14
 74
     0
 42
0.000000001
 43
0.0001
 40
2.728855724384248
 40
2.728855724384248
 40
2.728855724384248
 40
2.728855724384248
 40
2.73079445824899
 40
2.73825564529339
 40
2.74571683233779
 40
2.75317801938218
 40
2.76063920642658
 40
2.76810039347097
 40
2.77556158051537
 40
2.78302276755977
 40
2.79048395460417
 40
2.79794514164856
 40
2.802824840045191
 40
2.802824840045191
 40
2.802824840045191
 40
2.802824840045191
 10
1160.875916076344
 20
222.312344377042
 30
0.0
 41
1.0
 10
1160.836431127764
 20
222.5261694613768
 30
0.0
 41
1.0
 10
1160.644988970335
 20
223.6866909645669
 30
0.0
 41
1.0
 10
1160.301589604055
 20
226.8255275372408
 30
0.0
 41
1.0
 10
1159.845717977507
 20
232.8807701430863
 30
0.0
 41
1.0
 10
1159.389846350956
 20
240.3309610472779
 30
0.0
 41
1.0
 10
1158.933974724406
 20
248.5690271733633
 30
0.0
 41
1.0
 10
1158.478103097857
 20
256.9236960383273
 30
0.0
 41
1.0
 10
1158.022231471306
 20
264.7141938746492
 30
0.0
 41
1.0
 10
1157.566359844756
 20
271.3057179572151
 30
0.0
 41
1.0
 10
1157.110488218207
 20
276.1611630151972
 30
0.0
 41
1.0
 10
1156.707192114459
 20
278.5707606805409
 30
0.0
 41
1.0
 10
1156.455853219562
 20
278.9992777683491
 30
0.0
 41
1.0
 10
1156.356471533516
 20
278.9995226548161
 30
0.0
 41
1.0
  0
SPLINE
  5
C8
330
1F
100
AcDbEntity
  8
8
  6
________________
 62
     7
370
     0
100
AcDbSpline
210
0.0
220
0.0
230
1.0
 70
    12
 71
     3
 72
    18
 73
    14
 74
     0
 42
0.000000001
 43
0.0001
 40
2.565184936044931
 40
2.565184936044931
 40
2.565184936044931
 40
2.565184936044931
 40
2.56664834327228
 40
2.57410953031668
 40
2.58157071736107
 40
2.58903190440547
 40
2.59649309144987
 40
2.60395427849426
 40
2.61141546553865
 40
2.61887665258305
 40
2.62633783962745
 40
2.63379902667185
 40
2.639159636215775
 40
2.639159636215775
 40
2.639159636215775
 40
2.639159636215775
 10
1170.876049842592
 20
222.3115230529413
 30
0.0
 41
1.0
 10
1170.84624556663
 20
222.4728751430069
 30
0.0
 41
1.0
 10
1170.664484081817
 20
223.5457283577115
 30
0.0
 41
1.0
 10
1170.330765388155
 20
226.4978156951884
 30
0.0
 41
1.0
 10
1169.874893761604
 20
232.4455306193379
 30
0.0
 41
1.0
 10
1169.419022135054
 20
239.8236589997164
 30
0.0
 41
1.0
 10
1168.963150508504
 20
248.0309997192065
 30
0.0
 41
1.0
 10
1168.507278881955
 20
256.3987839309214
 30
0.0
 41
1.0
 10
1168.051407255404
 20
264.2451691733961
 30
0.0
 41
1.0
 10
1167.595535628855
 20
270.9307987792056
 30
0.0
 41
1.0
 10
1167.139664002305
 20
275.9108993613285
 30
0.0
 41
1.0
 10
1166.726573489811
 20
278.5104523543359
 30
0.0
 41
1.0
 10
1166.465440186168
 20
278.9995246584798
 30
0.0
 41
1.0
 10
1166.356264091374
 20
278.9996079674459
 30
0.0
 41
1.0
  0
SPLINE
  5
C9
330
1F
100
AcDbEntity
  8
8
  6
________________
 62
     7
370
     0
100
AcDbSpline
210
0.0
220
0.0
230
1.0
 70
    12
 71
     3
 72
    18
 73
    14
 74
     0
 42
0.000000001
 43
0.0001
 40
2.40151878045397
 40
2.40151878045397
 40
2.40151878045397
 40
2.40151878045397
 40
2.40250222829557
 40
2.40996341533996
 40
2.41742460238435
 40
2.42488578942876
 40
2.43234697647315
 40
2.43980816351755
 40
2.44726935056194
 40
2.45473053760634
 40
2.46219172465073
 40
2.46965291169513
 40
2.475489015919498
 40
2.475489015919498
 40
2.475489015919498
 40
2.475489015919498
 10
1180.875900552201
 20
222.3122361631188
 30
0.0
 41
1.0
 10
1180.855871301068
 20
222.4207086222696
 30
0.0
 41
1.0
 10
1180.683884841086
 20
223.4087323538937
 30
0.0
 41
1.0
 10
1180.359941172253
 20
226.1780015617498
 30
0.0
 41
1.0
 10
1179.904069545703
 20
232.0161901263862
 30
0.0
 41
1.0
 10
1179.448197919154
 20
239.3197766271477
 30
0.0
 41
1.0
 10
1178.992326292604
 20
247.4936339346513
 30
0.0
 41
1.0
 10
1178.536454666053
 20
255.8717215720875
 30
0.0
 41
1.0
 10
1178.080583039505
 20
263.7713575112691
 30
0.0
 41
1.0
 10
1177.624711412955
 20
270.5488459927015
 30
0.0
 41
1.0
 10
1177.168839786403
 20
275.6519285795252
 30
0.0
 41
1.0
 10
1176.746065178869
 20
278.44604628731
 30
0.0
 41
1.0
 10
1176.475247780184
 20
278.9994151253366
 30
0.0
 41
1.0
 10
1176.356387590349
 20
278.9997069654725
 30
0.0
 41
1.0
  0
SPLINE
  5
CA
330
1F
100
AcDbEntity
  8
8
  6
________________
 62
     7
370
     0
100
AcDbSpline
210
0.0
220
0.0
230
1.0
 70
    12
 71
     3
 72
    18
 73
    14
 74
     0
 42
0.000000001
 43
0.0001
 40
2.237846265896595
 40
2.237846265896595
 40
2.237846265896595
 40
2.237846265896595
 40
2.23835611331885
 40
2.24581730036325
 40
2.25327848740764
 40
2.26073967445204
 40
2.26820086149643
 40
2.27566204854083
 40
2.28312323558523
 40
2.29058442262962
 40
2.29804560967402
 40
2.30550679671842
 40
2.311812943454461
 40
2.311812943454461
 40
2.311812943454461
 40
2.311812943454461
 10
1190.876139788775
 20
222.3108642067865
 30
0.0
 41
1.0
 10
1190.865756053484
 20
222.3670823457688
 30
0.0
 41
1.0
 10
1190.703415109343
 20
223.2737611948927
 30
0.0
 41
1.0
 10
1190.389116956353
 20
225.866192607679
 30
0.0
 41
1.0
 10
1189.933245329803
 20
231.5928929403665
 30
0.0
 41
1.0
 10
1189.477373703253
 20
238.8194832548558
 30
0.0
 41
1.0
 10
1189.021502076703
 20
246.9571103967913
 30
0.0
 41
1.0
 10
1188.565630450153
 20
255.3426860765422
 30
0.0
 41
1.0
 10
1188.109758823603
 20
263.292918108552
 30
0.0
 41
1.0
 10
1187.653887197052
 20
270.159987949612
 30
0.0
 41
1.0
 10
1187.198015570503
 20
275.3843376946633
 30
0.0
 41
1.0
 10
1186.765667908749
 20
278.3774125161887
 30
0.0
 41
1.0
 10
1186.485277455845
 20
278.9988456890791
 30
0.0
 41
1.0
 10
1186.356844211791
 20
278.9998050165807
 30
0.0
 41
1.0
  0
SPLINE
  5
CB
330
1F
100
AcDbEntity
  8
8
  6
________________
 62
     7
370
     0
100
AcDbSpline
210
0.0
220
0.0
230
1.0
 70
    12
 71
     3
 72
    18
 73
    14
 74
     0
 42
0.000000001
 43
0.0001
 40
1.583168703540456
 40
1.583168703540456
 40
1.583168703540456
 40
1.583168703540456
 40
1.58923284045638
 40
1.59669402750078
 40
1.60415521454517
 40
1.61161640158957
 40
1.61907758863397
 40
1.62653877567836
 40
1.63399996272276
 40
1.64146114976715
 40
1.64892233681155
 40
1.65638352385595
 40
1.657151817356073
 40
1.657151817356073
 40
1.657151817356073
 40
1.657151817356073
 10
1230.876333248771
 20
222.3099486987543
 30
0.0
 41
1.0
 10
1230.75282886343
 20
222.9789970900376
 30
0.0
 41
1.0
 10
1230.47736726924
 20
225.0294791651712
 30
0.0
 41
1.0
 10
1230.0499484662
 20
229.9629507113639
 30
0.0
 41
1.0
 10
1229.594076839649
 20
236.8575428788998
 30
0.0
 41
1.0
 10
1229.138205213099
 20
244.8230390766378
 30
0.0
 41
1.0
 10
1228.682333586549
 20
253.210376972562
 30
0.0
 41
1.0
 10
1228.226461959999
 20
261.3361207882866
 30
0.0
 41
1.0
 10
1227.770590333449
 20
268.5381505378784
 30
0.0
 41
1.0
 10
1227.3147187069
 20
274.2296143657253
 30
0.0
 41
1.0
 10
1226.85884708035
 20
277.946747718687
 30
0.0
 41
1.0
 10
1226.53928532193
 20
278.9561147918738
 30
0.0
 41
1.0
 10
1226.37168077236
 20
278.9999965594531
 30
0.0
 41
1.0
 10
1226.356033431641
 20
278.9998757978836
 30
0.0
 41
1.0
  0
SPLINE
  5
CC
330
1F
100
AcDbEntity
  8
8
  6
________________
 62
     7
370
     0
100
AcDbSpline
210
0.0
220
0.0
230
1.0
 70
    12
 71
     3
 72
    18
 73
    14
 74
     0
 42
0.000000001
 43
0.0001
 40
1.419499528852179
 40
1.419499528852179
 40
1.419499528852179
 40
1.419499528852179
 40
1.42508672547966
 40
1.43254791252406
 40
1.44000909956845
 40
1.44747028661285
 40
1.45493147365725
 40
1.46239266070164
 40
1.46985384774604
 40
1.47731503479043
 40
1.48477622183483
 40
1.49223740887923
 40
1.493492301540493
 40
1.493492301540493
 40
1.493492301540493
 40
1.493492301540493
 10
1240.876368422433
 20
222.3098543891951
 30
0.0
 41
1.0
 10
1240.762577573905
 20
222.9262392827545
 30
0.0
 41
1.0
 10
1240.496829516527
 20
224.8612239469248
 30
0.0
 41
1.0
 10
1240.079124250299
 20
229.5719614657614
 30
0.0
 41
1.0
 10
1239.623252623748
 20
236.377690207138
 30
0.0
 41
1.0
 10
1239.167380997199
 20
244.2934234046568
 30
0.0
 41
1.0
 10
1238.711509370649
 20
252.6741536261062
 30
0.0
 41
1.0
 10
1238.255637744099
 20
260.8369835143731
 30
0.0
 41
1.0
 10
1237.799766117549
 20
268.1167711534238
 30
0.0
 41
1.0
 10
1237.343894490999
 20
273.920328645821
 30
0.0
 41
1.0
 10
1236.888022864449
 20
277.7747575723708
 30
0.0
 41
1.0
 10
1236.558550853154
 20
278.9247834375186
 30
0.0
 41
1.0
 10
1236.38103605071
 20
279.0001574635781
 30
0.0
 41
1.0
 10
1236.355478457116
 20
278.999779767052
 30
0.0
 41
1.0
  0
SPLINE
  5
CD
330
1F
100
AcDbEntity
  8
8
  6
________________
 62
     7
370
     0
100
AcDbSpline
210
0.0
220
0.0
230
1.0
 70
    12
 71
     3
 72
    18
 73
    14
 74
     0
 42
0.000000001
 43
0.0001
 40
1.255832106734298
 40
1.255832106734298
 40
1.255832106734298
 40
1.255832106734298
 40
1.26094061050295
 40
1.26840179754734
 40
1.27586298459174
 40
1.28332417163613
 40
1.29078535868053
 40
1.29824654572493
 40
1.30570773276932
 40
1.31316891981372
 40
1.32063010685812
 40
1.32809129390251
 40
1.329810485638635
 40
1.329810485638635
 40
1.329810485638635
 40
1.329810485638635
 10
1250.876296515665
 20
222.310334277214
 30
0.0
 41
1.0
 10
1250.772254897426
 20
222.8739468845722
 30
0.0
 41
1.0
 10
1250.516256070337
 20
224.6966279057397
 30
0.0
 41
1.0
 10
1250.108300034398
 20
229.1878368888514
 30
0.0
 41
1.0
 10
1249.652428407848
 20
235.9024151981795
 30
0.0
 41
1.0
 10
1249.196556781298
 20
243.7657253822567
 30
0.0
 41
1.0
 10
1248.740685154748
 20
252.1370316578073
 30
0.0
 41
1.0
 10
1248.284813528198
 20
260.334204570703
 30
0.0
 41
1.0
 10
1247.828941901648
 20
267.6893037899582
 30
0.0
 41
1.0
 10
1247.373070275098
 20
273.603004711939
 30
0.0
 41
1.0
 10
1246.917198648548
 20
277.5934339647958
 30
0.0
 41
1.0
 10
1246.578270555927
 20
278.8885637356117
 30
0.0
 41
1.0
 10
1246.391299672156
 20
278.9998840607481
 30
0.0
 41
1.0
 10
1246.356285997235
 20
278.9996867172854
 30
0.0
 41
1.0
  0
SPLINE
  5
CE
330
1F
100
AcDbEntity
  8
8
  6
________________
 62
     7
370
     0
100
AcDbSpline
210
0.0
220
0.0
230
1.0
 70
    12
 71
     3
 72
    18
 73
    14
 74
     0
 42
0.000000001
 43
0.0001
 40
1.092162589910893
 40
1.092162589910893
 40
1.092162589910893
 40
1.092162589910893
 40
1.09679449552623
 40
1.10425568257063
 40
1.11171686961502
 40
1.11917805665942
 40
1.12663924370381
 40
1.13410043074821
 40
1.14156161779261
 40
1.149022804837
 40
1.1564839918814
 40
1.1639451789258
 40
1.166138509918069
 40
1.166138509918069
 40
1.166138509918069
 40
1.166138509918069
 10
1260.876352593467
 20
222.310103844115
 30
0.0
 41
1.0
 10
1260.782017543994
 20
222.8210057592072
 30
0.0
 41
1.0
 10
1260.53572528567
 20
224.5348033012149
 30
0.0
 41
1.0
 10
1260.137475818497
 20
228.8107060623537
 30
0.0
 41
1.0
 10
1259.681604191947
 20
235.4318775640526
 30
0.0
 41
1.0
 10
1259.225732565397
 20
243.2401223377633
 30
0.0
 41
1.0
 10
1258.769860938847
 20
251.5991915628267
 30
0.0
 41
1.0
 10
1258.313989312298
 20
259.8279529117625
 30
0.0
 41
1.0
 10
1257.858117685747
 20
267.255892094167
 30
0.0
 41
1.0
 10
1257.402246059197
 20
273.2777491980251
 30
0.0
 41
1.0
 10
1256.946374432648
 20
277.4028378281802
 30
0.0
 41
1.0
 10
1256.597789850041
 20
278.8497110066511
 30
0.0
 41
1.0
 10
1256.401162476285
 20
278.9997203341952
 30
0.0
 41
1.0
 10
1256.356492311379
 20
278.9995902485805
 30
0.0
 41
1.0
  0
SPLINE
  5
CF
330
1F
100
AcDbEntity
  8
8
  6
________________
 62
     7
370
     0
100
AcDbSpline
210
0.0
220
0.0
230
1.0
 70
    12
 71
     3
 72
    18
 73
    14
 74
     0
 42
0.000000001
 43
0.0001
 40
0.928499081046836
 40
0.928499081046836
 40
0.928499081046836
 40
0.928499081046836
 40
0.932648380549514
 40
0.940109567593911
 40
0.947570754638307
 40
0.955031941682703
 40
0.962493128727099
 40
0.969954315771495
 40
0.977415502815892
 40
0.984876689860288
 40
0.992337876904684
 40
0.99979906394908
 40
1.002467051941958
 40
1.002467051941958
 40
1.002467051941958
 40
1.002467051941958
 10
1270.876041590511
 20
222.3118364809656
 30
0.0
 41
1.0
 10
1270.791535470056
 20
222.7697109487166
 30
0.0
 41
1.0
 10
1270.555072140751
 20
224.3774946943398
 30
0.0
 41
1.0
 10
1270.166651602596
 20
228.4406957177982
 30
0.0
 41
1.0
 10
1269.710779976047
 20
234.9662354248332
 30
0.0
 41
1.0
 10
1269.254908349496
 20
242.7167908955038
 30
0.0
 41
1.0
 10
1268.799036722947
 20
251.0608140776453
 30
0.0
 41
1.0
 10
1268.343165096397
 20
259.318398659014
 30
0.0
 41
1.0
 10
1267.887293469847
 20
266.8166817102775
 30
0.0
 41
1.0
 10
1267.431421843296
 20
272.9446714033623
 30
0.0
 41
1.0
 10
1266.975550216747
 20
277.2030332106976
 30
0.0
 41
1.0
 10
1266.617298599587
 20
278.807560135877
 30
0.0
 41
1.0
 10
1266.411004191276
 20
278.9995195608655
 30
0.0
 41
1.0
 10
1266.356666991815
 20
278.9995094020422
 30
0.0
 41
1.0
  0
SPLINE
  5
D0
330
1F
100
AcDbEntity
  8
8
  6
________________
 62
     7
370
     0
100
AcDbSpline
210
0.0
220
0.0
230
1.0
 70
    12
 71
     3
 72
    18
 73
    14
 74
     0
 42
0.000000001
 43
0.0001
 40
0.7648276517374111
 40
0.7648276517374111
 40
0.7648276517374111
 40
0.7648276517374111
 40
0.768502265572801
 40
0.775963452617197
 40
0.783424639661593
 40
0.790885826705989
 40
0.798347013750385
 40
0.805808200794781
 40
0.813269387839177
 40
0.820730574883573
 40
0.828191761927969
 40
0.835652948972365
 40
0.8387993170132813
 40
0.8387993170132813
 40
0.8387993170132813
 40
0.8387993170132813
 10
1280.87621451944
 20
222.3109172024997
 30
0.0
 41
1.0
 10
1280.801376017375
 20
222.716187891743
 30
0.0
 41
1.0
 10
1280.57458030646
 20
224.2216954950551
 30
0.0
 41
1.0
 10
1280.195827386696
 20
228.0779301939422
 30
0.0
 41
1.0
 10
1279.739955760146
 20
234.5056452555093
 30
0.0
 41
1.0
 10
1279.284084133596
 20
242.1959069164548
 30
0.0
 41
1.0
 10
1278.828212507045
 20
250.5220801193315
 30
0.0
 41
1.0
 10
1278.372340880496
 20
258.8057130437297
 30
0.0
 41
1.0
 10
1277.916469253946
 20
266.3718202311161
 30
0.0
 41
1.0
 10
1277.460597627396
 20
272.6038832558446
 30
0.0
 41
1.0
 10
1277.004726000846
 20
276.9940872549499
 30
0.0
 41
1.0
 10
1276.636731524213
 20
278.7624213247856
 30
0.0
 41
1.0
 10
1276.420694256431
 20
278.9994412958253
 30
0.0
 41
1.0
 10
1276.356614197498
 20
278.9994537088772
 30
0.0
 41
1.0
  0
SPLINE
  5
D1
330
1F
100
AcDbEntity
  8
8
  6
________________
 62
     7
370
     0
100
AcDbSpline
210
0.0
220
0.0
230
1.0
 70
    12
 71
     3
 72
    18
 73
    14
 74
     0
 42
0.000000001
 43
0.0001
 40
0.6011618986959842
 40
0.6011618986959842
 40
0.6011618986959842
 40
0.6011618986959842
 40
0.604356150596087
 40
0.611817337640483
 40
0.619278524684879
 40
0.626739711729275
 40
0.634200898773671
 40
0.641662085818068
 40
0.649123272862464
 40
0.65658445990686
 40
0.664045646951256
 40
0.671506833995652
 40
0.6751333725760268
 40
0.6751333725760268
 40
0.6751333725760268
 40
0.6751333725760268
 10
1290.876040633645
 20
222.3118439752793
 30
0.0
 41
1.0
 10
1290.810985354878
 20
222.6641880733898
 30
0.0
 41
1.0
 10
1290.593972867262
 20
224.070267269212
 30
0.0
 41
1.0
 10
1290.225003170795
 20
227.7225313949795
 30
0.0
 41
1.0
 10
1289.769131544245
 20
234.0502618333958
 30
0.0
 41
1.0
 10
1289.313259917695
 20
241.6776454391407
 30
0.0
 41
1.0
 10
1288.857388291145
 20
249.9831707247404
 30
0.0
 41
1.0
 10
1288.401516664595
 20
258.2900683494454
 30
0.0
 41
1.0
 10
1287.945645038045
 20
265.9214571485096
 30
0.0
 41
1.0
 10
1287.489773411495
 20
272.2554992743617
 30
0.0
 41
1.0
 10
1287.033901784945
 20
276.7760701754064
 30
0.0
 41
1.0
 10
1286.65612798305
 20
278.7141516978795
 30
0.0
 41
1.0
 10
1286.430311390006
 20
278.9994687881058
 30
0.0
 41
1.0
 10
1286.356452005811
 20
278.9994294068107
 30
0.0
 41
1.0
  0
SPLINE
  5
D2
330
1F
100
AcDbEntity
  8
8
  6
________________
 62
     7
370
     0
100
AcDbSpline
210
0.0
220
0.0
230
1.0
 70
    12
 71
     3
 72
    18
 73
    14
 74
     0
 42
0.000000001
 43
0.0001
 40
0.4374923697708751
 40
0.4374923697708751
 40
0.4374923697708751
 40
0.4374923697708751
 40
0.440210035619374
 40
0.447671222663769
 40
0.455132409708166
 40
0.462593596752562
 40
0.470054783796958
 40
0.477515970841354
 40
0.48497715788575
 40
0.492438344930146
 40
0.499899531974542
 40
0.507360719018938
 40
0.5114630384276763
 40
0.5114630384276763
 40
0.5114630384276763
 40
0.5114630384276763
 10
1300.87609745085
 20
222.3114902244858
 30
0.0
 41
1.0
 10
1300.820748494381
 20
222.6111752975651
 30
0.0
 41
1.0
 10
1300.613442329063
 20
223.9212463646983
 30
0.0
 41
1.0
 10
1300.254178954894
 20
227.3746187495819
 30
0.0
 41
1.0
 10
1299.798307328344
 20
233.6002381861264
 30
0.0
 41
1.0
 10
1299.342435701794
 20
241.1621806208183
 30
0.0
 41
1.0
 10
1298.886564075244
 20
249.4442669896811
 30
0.0
 41
1.0
 10
1298.430692448694
 20
257.7716378540708
 30
0.0
 41
1.0
 10
1297.974820822144
 20
265.4657438030497
 30
0.0
 41
1.0
 10
1297.518949195594
 20
271.8996365303167
 30
0.0
 41
1.0
 10
1297.063077569044
 20
276.5490552348082
 30
0.0
 41
1.0
 10
1296.675613844317
 20
278.6620839478389
 30
0.0
 41
1.0
 10
1296.440107328439
 20
278.9992863308284
 30
0.0
 41
1.0
 10
1296.356558021411
 20
278.9994388489193
 30
0.0
 41
1.0
  0
SPLINE
  5
D3
330
1F
100
AcDbEntity
  8
8
  6
________________
 62
     7
370
     0
100
AcDbSpline
210
0.0
220
0.0
230
1.0
 70
    12
 71
     3
 72
    18
 73
    14
 74
     0
 42
0.000000001
 43
0.0001
 40
0.2738256648741755
 40
0.2738256648741755
 40
0.2738256648741755
 40
0.2738256648741755
 40
0.276063920642658
 40
0.283525107687054
 40
0.29098629473145
 40
0.298447481775846
 40
0.305908668820242
 40
0.313369855864639
 40
0.320831042909035
 40
0.328292229953431
 40
0.335753416997827
 40
0.343214604042223
 40
0.3477807090961761
 40
0.3477807090961761
 40
0.3477807090961761
 40
0.3477807090961761
 10
1310.875981722531
 20
222.3120443034384
 30
0.0
 41
1.0
 10
1310.830396603535
 20
222.5588858782936
 30
0.0
 41
1.0
 10
1310.632854275689
 20
223.7759383909948
 30
0.0
 41
1.0
 10
1310.283354738993
 20
227.0343091707645
 30
0.0
 41
1.0
 10
1309.827483112443
 20
233.155725540229
 30
0.0
 41
1.0
 10
1309.371611485893
 20
240.6496856789507
 30
0.0
 41
1.0
 10
1308.915739859343
 20
248.9055500080607
 30
0.0
 41
1.0
 10
1308.459868232793
 20
257.2505957716587
 30
0.0
 41
1.0
 10
1308.003996606243
 20
265.0048333332374
 30
0.0
 41
1.0
 10
1307.548124979693
 20
271.5364146082859
 30
0.0
 41
1.0
 10
1307.092253353143
 20
276.3131187195488
 30
0.0
 41
1.0
 10
1306.695344003781
 20
278.6052199254263
 30
0.0
 41
1.0
 10
1306.450391863268
 20
278.9983157855513
 30
0.0
 41
1.0
 10
1306.357396931606
 20
278.9994746702874
 30
0.0
 41
1.0
  0
LINE
  5
D4
330
1F
100
AcDbEntity
  8
8
  6
________________
 62
     7
370
     0
100
AcDbLine
 10
1317.356409760441
 20
273.4617465346158
 30
0.0
 11
1317.356409760441
 21
267.8233351556774
 31
0.0
  0
LWPOLYLINE
  5
D5
330
1F
100
AcDbEntity
  8
8
  6
________________
 62
     7
370
     0
100
AcDbPolyline
 90
        4
 70
     0
 43
0.0
 10
1317.356409760443
 20
267.8233351556834
 42
0.0466727951475947
 10
1316.22456541057
 20
276.7409379489823
 10
1316.143719385579
 20
276.8959069245852
 10
1316.062873360588
 20
276.9814876264641
  0
LWPOLYLINE
  5
D6
330
1F
100
AcDbEntity
  8
8
  6
________________
 62
     7
370
     0
100
AcDbPolyline
 90
        6
 70
     0
 43
0.0
 10
1308.503844698316
 20
250.0000125
 42
0.02416370203174
 10
1306.367995211831
 20
276.29659093224
 10
1306.291714873028
 20
276.5597484284618
 10
1306.215434534225
 20
276.7619030546296
 10
1306.139154195422
 20
276.9025904984313
 10
1306.062873856619
 20
276.9814876264641
  0
LWPOLYLINE
  5
D7
330
1F
100
AcDbEntity
  8
8
  6
________________
 62
     7
370
     0
100
AcDbPolyline
 90
        7
 70
     0
 43
0.0
 10
1298.50385366905
 20
250.0000125000047
 42
0.0223719585717316
 10
1296.39446581161
 20
276.1908563362533
 10
1296.316340335409
 20
276.4812150708877
 10
1296.238214859207
 20
276.7077782690495
 10
1296.160089383006
 20
276.8700001201495
 10
1296.081963906804
 20
276.9674898175398
 10
1296.003838430603
 20
277.0000125
  0
LWPOLYLINE
  5
D8
330
1F
100
AcDbEntity
  8
8
  6
________________
 62
     7
370
     0
100
AcDbPolyline
 90
        7
 70
     0
 43
0.0
 10
1288.503829017557
 20
250.000012499999
 42
0.0223717382143493
 10
1286.394462243985
 20
276.1908563362526
 10
1286.316337548667
 20
276.4812150708871
 10
1286.23821285335
 20
276.707778269049
 10
1286.160088158032
 20
276.8700001201493
 10
1286.081963462715
 20
276.9674898175396
 10
1286.003838767397
 20
277.0000125
  0
LWPOLYLINE
  5
D9
330
1F
100
AcDbEntity
  8
8
  6
________________
 62
     7
370
     0
100
AcDbPolyline
 90
        7
 70
     0
 43
0.0
 10
1278.503963320523
 20
250.0000124999999
 42
0.022372316142072
 10
1276.394541250612
 20
276.1908563362527
 10
1276.316414507282
 20
276.4812150708872
 10
1276.238287763952
 20
276.7077782690491
 10
1276.160161020622
 20
276.8700001201493
 10
1276.082034277292
 20
276.9674898175397
 10
1276.003907533962
 20
277.0000125
  0
LWPOLYLINE
  5
DA
330
1F
100
AcDbEntity
  8
8
  6
________________
 62
     7
370
     0
100
AcDbPolyline
 90
        7
 70
     0
 43
0.0
 10
1268.503869302171
 20
250.0000124999997
 42
0.0223718242249148
 10
1266.394494299079
 20
276.1908563362527
 10
1266.316369298965
 20
276.4812150708872
 10
1266.238244298851
 20
276.7077782690491
 10
1266.160119298736
 20
276.8700001201493
 10
1266.081994298622
 20
276.9674898175397
 10
1266.003869298507
 20
277.0000125
  0
LWPOLYLINE
  5
DB
330
1F
100
AcDbEntity
  8
8
  6
________________
 62
     7
370
     0
100
AcDbPolyline
 90
        7
 70
     0
 43
0.0
 10
1258.503864970035
 20
250.0000125
 42
0.0223717459547147
 10
1256.394497455862
 20
276.1908563362527
 10
1256.316372733115
 20
276.4812150708872
 10
1256.238248010368
 20
276.7077782690491
 10
1256.160123287621
 20
276.8700001201493
 10
1256.081998564873
 20
276.9674898175397
 10
1256.003873842126
 20
277.0000125
  0
LWPOLYLINE
  5
DC
330
1F
100
AcDbEntity
  8
8
  6
________________
 62
     7
370
     0
100
AcDbPolyline
 90
        7
 70
     0
 43
0.0
 10
1248.50389902517
 20
250.0000125000001
 42
0.0223715146857494
 10
1246.39455363888
 20
276.1908563362527
 10
1246.316429735684
 20
276.4812150708872
 10
1246.238305832488
 20
276.7077782690491
 10
1246.160181929292
 20
276.8700001201493
 10
1246.082058026096
 20
276.9674898175397
 10
1246.003934122901
 20
277.0000125
  0
LWPOLYLINE
  5
DD
330
1F
100
AcDbEntity
  8
8
  6
________________
 62
     7
370
     0
100
AcDbPolyline
 90
        7
 70
     0
 43
0.0
 10
1238.503891262414
 20
250.0000125000001
 42
0.0223717174414319
 10
1236.394526476402
 20
276.1908563362527
 10
1236.316401854697
 20
276.4812150708872
 10
1236.238277232993
 20
276.7077782690491
 10
1236.160152611289
 20
276.8700001201493
 10
1236.082027989585
 20
276.9674898175397
 10
1236.003903367881
 20
277.0000125
  0
LWPOLYLINE
  5
DE
330
1F
100
AcDbEntity
  8
8
  6
________________
 62
     7
370
     0
100
AcDbPolyline
 90
        7
 70
     0
 43
0.0
 10
1228.503897152395
 20
250.0000125000001
 42
0.0223717481279093
 10
1226.39452943029
 20
276.1908563362527
 10
1226.316404699841
 20
276.4812150708872
 10
1226.238279969393
 20
276.7077782690491
 10
1226.160155238945
 20
276.8700001201493
 10
1226.082030508496
 20
276.9674898175397
 10
1226.003905778048
 20
277.0000125
  0
LWPOLYLINE
  5
DF
330
1F
100
AcDbEntity
  8
8
  6
________________
 62
     7
370
     0
100
AcDbPolyline
 90
        6
 70
     0
 43
0.0
 10
1196.356409760441
 20
276.3404223453651
 10
1196.31639396344
 20
276.4812150708872
 10
1196.238268737453
 20
276.7077782690491
 10
1196.160143511467
 20
276.8700001201493
 10
1196.08201828548
 20
276.9674898175397
 10
1196.003893059494
 20
277.0000125
  0
LWPOLYLINE
  5
E0
330
1F
100
AcDbEntity
  8
8
  6
________________
 62
     7
370
     0
100
AcDbPolyline
 90
        7
 70
     0
 43
0.0
 10
1188.503895268969
 20
250.0000124999999
 42
0.0223718434203685
 10
1186.39451842925
 20
276.1908563362527
 10
1186.316393361113
 20
276.4812150708872
 10
1186.238268292975
 20
276.7077782690491
 10
1186.160143224837
 20
276.8700001201493
 10
1186.0820181567
 20
276.9674898175397
 10
1186.003893088562
 20
277.0000125
  0
LWPOLYLINE
  5
E1
330
1F
100
AcDbEntity
  8
8
  6
________________
 62
     7
370
     0
100
AcDbPolyline
 90
        7
 70
     0
 43
0.0
 10
1178.503870429304
 20
250.0000124999999
 42
0.0223718227904402
 10
1176.394495563465
 20
276.1908563362527
 10
1176.316370568434
 20
276.4812150708872
 10
1176.238245573402
 20
276.7077782690491
 10
1176.160120578371
 20
276.8700001201493
 10
1176.08199558334
 20
276.9674898175397
 10
1176.003870588309
 20
277.0000125
  0
LWPOLYLINE
  5
E2
330
1F
100
AcDbEntity
  8
8
  6
________________
 62
     7
370
     0
100
AcDbPolyline
 90
        6
 70
     0
 43
0.0
 10
1168.503869935654
 20
250.0000125
 42
0.0241639833220815
 10
1166.36799519838
 20
276.2965909322398
 10
1166.291713957762
 20
276.5597484284617
 10
1166.215432717145
 20
276.7619030546294
 10
1166.139151476528
 20
276.9025904984312
 10
1166.062870235912
 20
276.981487626464
  0
LWPOLYLINE
  5
E3
330
1F
100
AcDbEntity
  8
8
  6
________________
 62
     7
370
     0
100
AcDbPolyline
 90
        6
 70
     0
 43
0.0
 10
1158.503854046295
 20
250.0000125000001
 42
0.0241637897700503
 10
1156.367996683745
 20
276.2965909322401
 10
1156.291716063654
 20
276.5597484284619
 10
1156.215435443562
 20
276.7619030546296
 10
1156.139154823471
 20
276.9025904984313
 10
1156.06287420338
 20
276.9814876264641
  0
ARC
  5
E4
330
1F
100
AcDbEntity
  8
8
  6
________________
 62
     7
370
     0
100
AcDbCircle
 10
-823.0222215945781
 20
236.5287032677678
 30
0.0
 40
339.9538564013657
210
0.0
220
0.0
230
-1.0
100
AcDbArc
 50
173.399262731825
 51
177.7289526320361
  0
ARC
  5
E5
330
1F
100
AcDbEntity
  8
8
  6
________________
 62
     7
370
     0
100
AcDbCircle
 10
-839.6057277537172
 20
237.039843834343
 30
0.0
 40
333.3553673591022
210
0.0
220
0.0
230
-1.0
100
AcDbArc
 50
173.3565247459206
 51
177.7718968115381
  0
ARC
  5
E6
330
1F
100
AcDbEntity
  8
8
  6
________________
 62
     7
370
     0
100
AcDbCircle
 10
-849.6205160795564
 20
237.0412241697819
 30
0.0
 40
333.3404642786358
210
0.0
220
0.0
230
-1.0
100
AcDbArc
 50
173.3564047289717
 51
177.7720345832339
  0
ARC
  5
E7
330
1F
100
AcDbEntity
  8
8
  6
________________
 62
     7
370
     0
100
AcDbCircle
 10
-859.5957078104885
 20
237.0394899194461
 30
0.0
 40
333.3653486933817
210
0.0
220
0.0
230
-1.0
100
AcDbArc
 50
173.3566791031646
 51
177.7719026834377
  0
ARC
  5
E8
330
1F
100
AcDbEntity
  8
8
  6
________________
 62
     7
370
     0
100
AcDbCircle
 10
-899.5832826513804
 20
237.0383041909385
 30
0.0
 40
333.3778961555817
210
0.0
220
0.0
230
-1.0
100
AcDbArc
 50
173.3567770812793
 51
177.7717826467646
  0
ARC
  5
E9
330
1F
100
AcDbEntity
  8
8
  6
________________
 62
     7
370
     0
100
AcDbCircle
 10
-909.4904645866037
 20
237.0326870705893
 30
0.0
 40
333.4708145961154
210
0.0
220
0.0
230
-1.0
100
AcDbArc
 50
173.3579125241543
 51
177.7714379871902
  0
ARC
  5
EA
330
1F
100
AcDbEntity
  8
8
  6
________________
 62
     7
370
     0
100
AcDbCircle
 10
-919.5849705914303
 20
237.0387532128468
 30
0.0
 40
333.3761505220129
210
0.0
220
0.0
230
-1.0
100
AcDbArc
 50
173.3568002801443
 51
177.7718482030837
  0
ARC
  5
EB
330
1F
100
AcDbEntity
  8
8
  6
________________
 62
     7
370
     0
100
AcDbCircle
 10
-929.4760710775382
 20
237.0315968078631
 30
0.0
 40
333.4853263214932
210
0.0
220
0.0
230
-1.0
100
AcDbArc
 50
173.3580622009199
 51
177.771347554013
  0
ARC
  5
EC
330
1F
100
AcDbEntity
  8
8
  6
________________
 62
     7
370
     0
100
AcDbCircle
 10
-939.4912087300888
 20
237.0329353329304
 30
0.0
 40
333.4701128193531
210
0.0
220
0.0
230
-1.0
100
AcDbArc
 50
173.3579306278808
 51
177.7714759828245
  0
ARC
  5
ED
330
1F
100
AcDbEntity
  8
8
  6
________________
 62
     7
370
     0
100
AcDbCircle
 10
-949.4755790108507
 20
237.0319290320652
 30
0.0
 40
333.4857544435031
210
0.0
220
0.0
230
-1.0
100
AcDbArc
 50
173.3581138390416
 51
177.7714075387941
  0
ARC
  5
EE
330
1F
100
AcDbEntity
  8
8
  6
________________
 62
     7
370
     0
100
AcDbCircle
 10
-959.515342098145
 20
237.0343621719092
 30
0.0
 40
333.4459393882147
210
0.0
220
0.0
230
-1.0
100
AcDbArc
 50
173.3576308175692
 51
177.7715597009648
  0
ARC
  5
EF
330
1F
100
AcDbEntity
  8
8
  6
________________
 62
     7
370
     0
100
AcDbCircle
 10
-962.9833647932921
 20
236.5258506958656
 30
0.0
 40
339.9928442288095
210
0.0
220
0.0
230
-1.0
100
AcDbArc
 50
173.399660437769
 51
177.7287321003059
  0
ARC
  5
F0
330
1F
100
AcDbEntity
  8
8
  6
________________
 62
     7
370
     0
100
AcDbCircle
 10
-973.0009120200633
 20
236.5270615904234
 30
0.0
 40
339.9752475698302
210
0.0
220
0.0
230
-1.0
100
AcDbArc
 50
173.399471169373
 51
177.7288187125515
  0
ARC
  5
F1
330
1F
100
AcDbEntity
  8
8
  6
________________
 62
     7
370
     0
100
AcDbCircle
 10
-1153.162887055004
 20
222.3641945784968
 30
0.0
 40
2.174454506009595
210
0.0
220
0.0
230
-1.0
100
AcDbArc
 50
181.4126793236347
 51
218.8381604775695
  0
ARC
  5
F2
330
1F
100
AcDbEntity
  8
8
  6
________________
 62
     7
370
     0
100
AcDbCircle
 10
1158.043335427185
 20
277.5917010753436
 30
0.0
 40
2.295458681835548
100
AcDbArc
 50
2.435468705318513
 51
37.82877890289394
  0
ARC
  5
F3
330
1F
100
AcDbEntity
  8
8
  6
________________
 62
     7
370
     0
100
AcDbCircle
 10
-1162.908417016379
 20
222.4565660051071
 30
0.0
 40
2.432768434254917
210
0.0
220
0.0
230
-1.0
100
AcDbArc
 50
183.4190606979307
 51
216.7648168839002
  0
SPLINE
  5
F4
330
1F
100
AcDbEntity
  8
8
  6
________________
 62
     7
370
     0
100
AcDbSpline
210
0.0
220
0.0
230
1.0
 70
    12
 71
     3
 72
     9
 73
     5
 74
     0
 42
0.000000001
 43
0.0001
 40
2.631298247907624
 40
2.631298247907624
 40
2.631298247907624
 40
2.631298247907624
 40
2.63379902667185
 40
2.639160885517923
 40
2.639160885517923
 40
2.639160885517923
 40
2.639160885517923
 10
1170.336587644931
 20
277.6900312386347
 30
0.0
 41
1.0
 10
1170.285655888536
 20
277.9658891685028
 30
0.0
 41
1.0
 10
1170.125522593612
 20
278.6997699059896
 30
0.0
 41
1.0
 10
1169.965389298688
 20
278.9996118933628
 30
0.0
 41
1.0
 10
1169.85618776016
 20
278.9995999319195
 30
0.0
 41
1.0
  0
SPLINE
  5
F5
330
1F
100
AcDbEntity
  8
8
  6
________________
 62
     7
370
     0
100
AcDbSpline
210
0.0
220
0.0
230
1.0
 70
    12
 71
     3
 72
     9
 73
     5
 74
     0
 42
0.000000001
 43
0.0001
 40
2.549464270128822
 40
2.549464270128822
 40
2.549464270128822
 40
2.549464270128822
 40
2.55172596918349
 40
2.55732121288207
 40
2.55732121288207
 40
2.55732121288207
 40
2.55732121288207
 10
1175.336567987884
 20
222.3098461477295
 30
0.0
 41
1.0
 10
1175.290505414521
 20
222.0603563550022
 30
0.0
 41
1.0
 10
1175.130488103097
 20
221.3143038790863
 30
0.0
 41
1.0
 10
1174.970470791673
 20
221.0008147340307
 30
0.0
 41
1.0
 10
1174.856516053611
 20
221.0003771174382
 30
0.0
 41
1.0
  0
SPLINE
  5
F6
330
1F
100
AcDbEntity
  8
8
  6
________________
 62
     7
370
     0
100
AcDbSpline
210
0.0
220
0.0
230
1.0
 70
    12
 71
     3
 72
     9
 73
     5
 74
     0
 42
0.000000001
 43
0.0001
 40
2.467627809014616
 40
2.467627809014616
 40
2.467627809014616
 40
2.467627809014616
 40
2.46965291169513
 40
2.475491408386
 40
2.475491408386
 40
2.475491408386
 40
2.475491408386
 10
1180.336700060332
 20
277.6895083646085
 30
0.0
 41
1.0
 10
1180.295456093503
 20
277.9129677784852
 30
0.0
 41
1.0
 10
1180.135303211009
 20
278.6724928938172
 30
0.0
 41
1.0
 10
1179.975150328514
 20
278.9996061505684
 30
0.0
 41
1.0
 10
1179.856241412849
 20
278.9996991415905
 30
0.0
 41
1.0
  0
SPLINE
  5
F7
330
1F
100
AcDbEntity
  8
8
  6
________________
 62
     7
370
     0
100
AcDbSpline
210
0.0
220
0.0
230
1.0
 70
    12
 71
     3
 72
     9
 73
     5
 74
     0
 42
0.000000001
 43
0.0001
 40
2.385793834490963
 40
2.385793834490963
 40
2.385793834490963
 40
2.385793834490963
 40
2.38757985420677
 40
2.393662054546164
 40
2.393662054546164
 40
2.393662054546164
 40
2.393662054546164
 10
1185.336680204399
 20
222.3103616305301
 30
0.0
 41
1.0
 10
1185.300305486897
 20
222.1132870438733
 30
0.0
 41
1.0
 10
1185.140058497901
 20
221.3406135266168
 30
0.0
 41
1.0
 10
1184.979811508904
 20
220.9999380387915
 30
0.0
 41
1.0
 10
1184.855939237409
 20
221.0002752175049
 30
0.0
 41
1.0
  0
SPLINE
  5
F8
330
1F
100
AcDbEntity
  8
8
  6
________________
 62
     7
370
     0
100
AcDbSpline
210
0.0
220
0.0
230
1.0
 70
    12
 71
     3
 72
     9
 73
     5
 74
     0
 42
0.000000001
 43
0.0001
 40
2.303960916266901
 40
2.303960916266901
 40
2.303960916266901
 40
2.303960916266901
 40
2.30550679671842
 40
2.31181297207018
 40
2.31181297207018
 40
2.31181297207018
 40
2.31181297207018
 10
1190.336595809538
 20
277.6901689127413
 30
0.0
 41
1.0
 10
1190.30511185434
 20
277.8607172572146
 30
0.0
 41
1.0
 10
1190.14519407229
 20
278.6444139205113
 30
0.0
 41
1.0
 10
1189.98527629024
 20
278.9988402121418
 30
0.0
 41
1.0
 10
1189.856842463387
 20
278.9997969690991
 30
0.0
 41
1.0
  0
SPLINE
  5
F9
330
1F
100
AcDbEntity
  8
8
  6
________________
 62
     7
370
     0
100
AcDbSpline
210
0.0
220
0.0
230
1.0
 70
    12
 71
     3
 72
     9
 73
     5
 74
     0
 42
0.000000001
 43
0.0001
 40
2.222126796594134
 40
2.222126796594134
 40
2.222126796594134
 40
2.222126796594134
 40
2.22343373923005
 40
2.230000420205788
 40
2.230000420205788
 40
2.230000420205788
 40
2.230000420205788
 10
1195.33658482208
 20
222.3097490677848
 30
0.0
 41
1.0
 10
1195.309967160051
 20
222.1655675187152
 30
0.0
 41
1.0
 10
1195.149610120287
 20
221.3670137355622
 30
0.0
 41
1.0
 10
1194.989253080524
 20
220.9990957539225
 30
0.0
 41
1.0
 10
1194.855513702789
 20
221.0001830097374
 30
0.0
 41
1.0
  0
SPLINE
  5
FA
330
1F
100
AcDbEntity
  8
8
  6
________________
 62
     7
370
     0
100
AcDbSpline
210
0.0
220
0.0
230
1.0
 70
    12
 71
     3
 72
     9
 73
     5
 74
     0
 42
0.000000001
 43
0.0001
 40
1.731118012042333
 40
1.731118012042333
 40
1.731118012042333
 40
1.731118012042333
 40
1.7384565813443
 40
1.738976416303641
 40
1.738976416303641
 40
1.738976416303641
 40
1.738976416303641
 10
1225.336767357654
 20
222.3105885649092
 30
0.0
 41
1.0
 10
1225.187307425683
 20
221.5012794689288
 30
0.0
 41
1.0
 10
1225.027260348662
 20
221.0292904173029
 30
0.0
 41
1.0
 10
1224.867213271641
 20
221.0001173009535
 30
0.0
 41
1.0
 10
1224.856626126591
 20
221.0001204534893
 30
0.0
 41
1.0
  0
SPLINE
  5
FB
330
1F
100
AcDbEntity
  8
8
  6
________________
 62
     7
370
     0
100
AcDbSpline
210
0.0
220
0.0
230
1.0
 70
    12
 71
     3
 72
     9
 73
     5
 74
     0
 42
0.000000001
 43
0.0001
 40
1.649278150637965
 40
1.649278150637965
 40
1.649278150637965
 40
1.649278150637965
 40
1.65638352385595
 40
1.65715301335606
 40
1.65715301335606
 40
1.65715301335606
 40
1.65715301335606
 10
1230.337107184687
 20
277.6875784007782
 30
0.0
 41
1.0
 10
1230.192396607721
 20
278.4715822886695
 30
0.0
 41
1.0
 10
1230.032014331872
 20
278.9580779232749
 30
0.0
 41
1.0
 10
1229.871632056022
 20
279.0000012433947
 30
0.0
 41
1.0
 10
1229.855960357139
 20
278.999867142712
 30
0.0
 41
1.0
  0
SPLINE
  5
FC
330
1F
100
AcDbEntity
  8
8
  6
________________
 62
     7
370
     0
100
AcDbSpline
210
0.0
220
0.0
230
1.0
 70
    12
 71
     3
 72
     9
 73
     5
 74
     0
 42
0.000000001
 43
0.0001
 40
1.56744503386693
 40
1.56744503386693
 40
1.56744503386693
 40
1.56744503386693
 40
1.57431046636759
 40
1.575303900795119
 40
1.575303900795119
 40
1.575303900795119
 40
1.575303900795119
 10
1235.337034920862
 20
222.3120840032312
 30
0.0
 41
1.0
 10
1235.197211062521
 20
221.5547629011167
 30
0.0
 41
1.0
 10
1235.03715456266
 20
221.0561784819851
 30
0.0
 41
1.0
 10
1234.8770980628
 20
221.0002249393578
 30
0.0
 41
1.0
 10
1234.85686542128
 20
221.0001966805393
 30
0.0
 41
1.0
  0
SPLINE
  5
FD
330
1F
100
AcDbEntity
  8
8
  6
________________
 62
     7
370
     0
100
AcDbSpline
210
0.0
220
0.0
230
1.0
 70
    12
 71
     3
 72
     9
 73
     5
 74
     0
 42
0.000000001
 43
0.0001
 40
1.485611437097793
 40
1.485611437097793
 40
1.485611437097793
 40
1.485611437097793
 40
1.49223740887923
 40
1.493493517341417
 40
1.493493517341417
 40
1.493493517341417
 40
1.493493517341417
 10
1240.336991984477
 20
277.6881358960835
 30
0.0
 41
1.0
 10
1240.202045068947
 20
278.4189098780786
 30
0.0
 41
1.0
 10
1240.041515798387
 20
278.9320772407142
 30
0.0
 41
1.0
 10
1239.880986527826
 20
279.0001704201197
 30
0.0
 41
1.0
 10
1239.855404172795
 20
278.9997705771208
 30
0.0
 41
1.0
  0
SPLINE
  5
FE
330
1F
100
AcDbEntity
  8
8
  6
________________
 62
     7
370
     0
100
AcDbSpline
210
0.0
220
0.0
230
1.0
 70
    12
 71
     3
 72
     9
 73
     5
 74
     0
 42
0.000000001
 43
0.0001
 40
1.403777940165013
 40
1.403777940165013
 40
1.403777940165013
 40
1.403777940165013
 40
1.41016435139087
 40
1.411643399235113
 40
1.411643399235113
 40
1.411643399235113
 40
1.411643399235113
 10
1245.336942948182
 20
222.3116673821222
 30
0.0
 41
1.0
 10
1245.206875008768
 20
221.6074287242307
 30
0.0
 41
1.0
 10
1245.046684250983
 20
221.0822977752379
 30
0.0
 41
1.0
 10
1244.886493493198
 20
221.0001539934976
 30
0.0
 41
1.0
 10
1244.856370674828
 20
221.0002948658242
 30
0.0
 41
1.0
  0
SPLINE
  5
FF
330
1F
100
AcDbEntity
  8
8
  6
________________
 62
     7
370
     0
100
AcDbSpline
210
0.0
220
0.0
230
1.0
 70
    12
 71
     3
 72
     9
 73
     5
 74
     0
 42
0.000000001
 43
0.0001
 40
1.321944013054151
 40
1.321944013054151
 40
1.321944013054151
 40
1.321944013054151
 40
1.32809129390251
 40
1.329811735203397
 40
1.329811735203397
 40
1.329811735203397
 40
1.329811735203397
 10
1250.336920195371
 20
277.6884332207545
 30
0.0
 41
1.0
 10
1250.21172247091
 20
278.3662478402982
 30
0.0
 41
1.0
 10
1250.051485622445
 20
278.9045734902178
 30
0.0
 41
1.0
 10
1249.891248773979
 20
278.9999062932063
 30
0.0
 41
1.0
 10
1249.856209649974
 20
278.9996781931358
 30
0.0
 41
1.0
  0
SPLINE
  5
100
330
1F
100
AcDbEntity
  8
8
  6
________________
 62
     7
370
     0
100
AcDbSpline
210
0.0
220
0.0
230
1.0
 70
    12
 71
     3
 72
     9
 73
     5
 74
     0
 42
0.000000001
 43
0.0001
 40
1.240107365505375
 40
1.240107365505375
 40
1.240107365505375
 40
1.240107365505375
 40
1.24601823641415
 40
1.247962340247652
 40
1.247962340247652
 40
1.247962340247652
 40
1.247962340247652
 10
1255.3370636588
 20
222.312417795114
 30
0.0
 41
1.0
 10
1255.216680743879
 20
221.6604875812026
 30
0.0
 41
1.0
 10
1255.056703513672
 20
221.1098877277625
 30
0.0
 41
1.0
 10
1254.896726283464
 20
221.0005608342377
 30
0.0
 41
1.0
 10
1254.857131968177
 20
221.0003957828917
 30
0.0
 41
1.0
  0
SPLINE
  5
101
330
1F
100
AcDbEntity
  8
8
  6
________________
 62
     7
370
     0
100
AcDbSpline
210
0.0
220
0.0
230
1.0
 70
    12
 71
     3
 72
     9
 73
     5
 74
     0
 42
0.000000001
 43
0.0001
 40
1.158271694340001
 40
1.158271694340001
 40
1.158271694340001
 40
1.158271694340001
 40
1.1639451789258
 40
1.166140907336791
 40
1.166140907336791
 40
1.166140907336791
 40
1.166140907336791
 10
1260.337147466106
 20
277.68710440169
 30
0.0
 41
1.0
 10
1260.2215992461
 20
278.3129666426032
 30
0.0
 41
1.0
 10
1260.061332034499
 20
278.8776518602311
 30
0.0
 41
1.0
 10
1259.901064822898
 20
278.9997867335043
 30
0.0
 41
1.0
 10
1259.856345831303
 20
278.9995816389309
 30
0.0
 41
1.0
  0
SPLINE
  5
102
330
1F
100
AcDbEntity
  8
8
  6
________________
 62
     7
370
     0
100
AcDbSpline
210
0.0
220
0.0
230
1.0
 70
    12
 71
     3
 72
     9
 73
     5
 74
     0
 42
0.000000001
 43
0.0001
 40
1.07644149622734
 40
1.07644149622734
 40
1.07644149622734
 40
1.07644149622734
 40
1.08187212143744
 40
1.08429677194953
 40
1.08429677194953
 40
1.08429677194953
 40
1.08429677194953
 10
1265.336896874954
 20
222.3116104805338
 30
0.0
 41
1.0
 10
1265.226294816015
 20
221.7128213325931
 30
0.0
 41
1.0
 10
1265.066311455943
 20
221.1364058262708
 30
0.0
 41
1.0
 10
1264.90632809587
 20
221.0006147311818
 30
0.0
 41
1.0
 10
1264.856946794737
 20
221.0004860366641
 30
0.0
 41
1.0
  0
SPLINE
  5
103
330
1F
100
AcDbEntity
  8
8
  6
________________
 62
     7
370
     0
100
AcDbSpline
210
0.0
220
0.0
230
1.0
 70
    12
 71
     3
 72
     9
 73
     5
 74
     0
 42
0.000000001
 43
0.0001
 40
0.9946071999999073
 40
0.9946071999999073
 40
0.9946071999999073
 40
0.9946071999999073
 40
0.99979906394908
 40
1.002468295640248
 40
1.002468295640248
 40
1.002468295640248
 40
1.002468295640248
 10
1270.336896674824
 20
277.6883722836072
 30
0.0
 41
1.0
 10
1270.231157313278
 20
278.2608644978095
 30
0.0
 41
1.0
 10
1270.071055422668
 20
278.850651688738
 30
0.0
 41
1.0
 10
1269.910953532057
 20
278.9995586283761
 30
0.0
 41
1.0
 10
1269.856591002991
 20
278.9995012944261
 30
0.0
 41
1.0
  0
SPLINE
  5
104
330
1F
100
AcDbEntity
  8
8
  6
________________
 62
     7
370
     0
100
AcDbSpline
210
0.0
220
0.0
230
1.0
 70
    12
 71
     3
 72
     9
 73
     5
 74
     0
 42
0.000000001
 43
0.0001
 40
0.9127708288272653
 40
0.9127708288272653
 40
0.9127708288272653
 40
0.9127708288272653
 40
0.917726006460722
 40
0.9206408868817257
 40
0.9206408868817257
 40
0.9206408868817257
 40
0.9206408868817257
 10
1275.337023251926
 20
222.3123766551796
 30
0.0
 41
1.0
 10
1275.236104328696
 20
221.7658075778535
 30
0.0
 41
1.0
 10
1275.075819906348
 20
221.1622965200014
 30
0.0
 41
1.0
 10
1274.915535484
 20
221.0002362362325
 30
0.0
 41
1.0
 10
1274.856169984881
 20
221.0005564149759
 30
0.0
 41
1.0
  0
SPLINE
  5
105
330
1F
100
AcDbEntity
  8
8
  6
________________
 62
     7
370
     0
100
AcDbSpline
210
0.0
220
0.0
230
1.0
 70
    12
 71
     3
 72
     9
 73
     5
 74
     0
 42
0.000000001
 43
0.0001
 40
0.8309359889610411
 40
0.8309359889610411
 40
0.8309359889610411
 40
0.8309359889610411
 40
0.835652948972365
 40
0.838800538212652
 40
0.838800538212652
 40
0.838800538212652
 40
0.838800538212652
 10
1280.337056267623
 20
277.6874368664775
 30
0.0
 41
1.0
 10
1280.240988969844
 20
278.2078054018717
 30
0.0
 41
1.0
 10
1280.080816741749
 20
278.8238272087696
 30
0.0
 41
1.0
 10
1279.920644513654
 20
278.9994877988232
 30
0.0
 41
1.0
 10
1279.856539583337
 20
278.9994456311376
 30
0.0
 41
1.0
  0
SPLINE
  5
106
330
1F
100
AcDbEntity
  8
8
  6
________________
 62
     7
370
     0
100
AcDbSpline
210
0.0
220
0.0
230
1.0
 70
    12
 71
     3
 72
     9
 73
     5
 74
     0
 42
0.000000001
 43
0.0001
 40
0.7491046050713194
 40
0.7491046050713194
 40
0.7491046050713194
 40
0.7491046050713194
 40
0.753579891484009
 40
0.7569814955998381
 40
0.7569814955998381
 40
0.7569814955998381
 40
0.7569814955998381
 10
1285.336878126353
 20
222.3116491879617
 30
0.0
 41
1.0
 10
1285.24573283968
 20
221.818075075964
 30
0.0
 41
1.0
 10
1285.085309264717
 20
221.1883487846012
 30
0.0
 41
1.0
 10
1284.924885689754
 20
220.9998564866611
 30
0.0
 41
1.0
 10
1284.855607401463
 20
221.0006007121477
 30
0.0
 41
1.0
  0
SPLINE
  5
107
330
1F
100
AcDbEntity
  8
8
  6
________________
 62
     7
370
     0
100
AcDbSpline
210
0.0
220
0.0
230
1.0
 70
    12
 71
     3
 72
     9
 73
     5
 74
     0
 42
0.000000001
 43
0.0001
 40
0.6672703603889943
 40
0.6672703603889943
 40
0.6672703603889943
 40
0.6672703603889943
 40
0.671506833995652
 40
0.675134569326571
 40
0.675134569326571
 40
0.675134569326571
 40
0.675134569326571
 10
1290.336874776864
 20
277.6883755499849
 30
0.0
 41
1.0
 10
1290.250593237371
 20
278.1556527779794
 30
0.0
 41
1.0
 10
1290.090427940233
 20
278.7972219012959
 30
0.0
 41
1.0
 10
1289.930262643095
 20
278.9995223087255
 30
0.0
 41
1.0
 10
1289.85637888545
 20
278.9994212769038
 30
0.0
 41
1.0
  0
SPLINE
  5
108
330
1F
100
AcDbEntity
  8
8
  6
________________
 62
     7
370
     0
100
AcDbSpline
210
0.0
220
0.0
230
1.0
 70
    12
 71
     3
 72
     9
 73
     5
 74
     0
 42
0.000000001
 43
0.0001
 40
0.5854352560020604
 40
0.5854352560020604
 40
0.5854352560020604
 40
0.5854352560020604
 40
0.589433776507295
 40
0.5932986880034754
 40
0.5932986880034754
 40
0.5932986880034754
 40
0.5932986880034754
 10
1295.336923954532
 20
222.3119263589728
 30
0.0
 41
1.0
 10
1295.255488653166
 20
221.8708072647656
 30
0.0
 41
1.0
 10
1295.095339179389
 20
221.216417804004
 30
0.0
 41
1.0
 10
1294.935189705611
 20
221.0006278099828
 30
0.0
 41
1.0
 10
1294.856475533199
 20
221.0006031111071
 30
0.0
 41
1.0
  0
ARC
  5
109
330
1F
100
AcDbEntity
  8
8
  6
________________
 62
     7
370
     0
100
AcDbCircle
 10
1298.424211200705
 20
277.7313969418738
 30
0.0
 40
1.912987642311319
100
AcDbArc
 50
358.7341413102746
 51
41.51799357609429
  0
ARC
  5
10A
330
1F
100
AcDbEntity
  8
8
  6
________________
 62
     7
370
     0
100
AcDbCircle
 10
-1303.311001208857
 20
222.3103133691191
 30
0.0
 40
2.025784878727744
210
0.0
220
0.0
230
-1.0
100
AcDbArc
 50
179.9756216639689
 51
220.2807046021303
  0
ARC
  5
10B
330
1F
100
AcDbEntity
  8
8
  6
________________
 62
     7
370
     0
100
AcDbCircle
 10
1308.185555637004
 20
277.644904475139
 30
0.0
 40
2.151661945976882
100
AcDbArc
 50
1.173472561138122
 51
39.01639000058929
  0
ARC
  5
10C
330
1F
100
AcDbEntity
  8
8
  6
________________
 62
     7
370
     0
100
AcDbCircle
 10
-1313.075782638247
 20
222.3964075537399
 30
0.0
 40
2.26245800116995
210
0.0
220
0.0
230
-1.0
100
AcDbArc
 50
182.1862359535556
 51
218.0958341733144
  0
ARC
  5
10D
330
1F
100
AcDbEntity
  8
8
  6
________________
 62
     7
370
     0
100
AcDbCircle
 10
-377.1749700503187
 20
208.4662806939324
 30
0.0
 40
776.6455022329802
210
0.0
220
0.0
230
-1.0
100
AcDbArc
 50
175.4347247534933
 51
176.9344529813525
  0
LWPOLYLINE
  5
10E
330
1F
100
AcDbEntity
  8
8
  6
________________
 62
     7
370
     0
100
AcDbPolyline
 90
        7
 70
     0
 43
0.0
 10
1152.709099061402
 20
250.0000125000008
 42
0.0223717743347766
 10
1154.818469290988
 20
223.8091686637474
 10
1154.896594114306
 20
223.5188099291128
 10
1154.974718937624
 20
223.2922467309509
 10
1155.052843760942
 20
223.1300248798507
 10
1155.13096858426
 20
223.0325351824604
 10
1155.209093407578
 20
223.0000125
  0
LWPOLYLINE
  5
10F
330
1F
100
AcDbEntity
  8
8
  6
________________
 62
     7
370
     0
100
AcDbPolyline
 90
        7
 70
     0
 43
0.0
 10
1162.709060182313
 20
250.0000124999909
 42
0.0223716540845478
 10
1164.818418906318
 20
223.809168663746
 10
1164.896543303504
 20
223.5188099291118
 10
1164.974667700689
 20
223.2922467309502
 10
1165.052792097874
 20
223.1300248798502
 10
1165.13091649506
 20
223.0325351824601
 10
1165.209040892245
 20
223.0000125
  0
LWPOLYLINE
  5
110
330
1F
100
AcDbEntity
  8
8
  6
________________
 62
     7
370
     0
100
AcDbPolyline
 90
        7
 70
     0
 43
0.0
 10
1172.709067537754
 20
250.0000125
 42
0.0223717673969684
 10
1174.818437103529
 20
223.8091686637473
 10
1174.896561902261
 20
223.5188099291128
 10
1174.974686700994
 20
223.2922467309509
 10
1175.052811499726
 20
223.1300248798507
 10
1175.130936298458
 20
223.0325351824604
 10
1175.209061097191
 20
223.0000125
  0
LWPOLYLINE
  5
111
330
1F
100
AcDbEntity
  8
8
  6
________________
 62
     7
370
     0
100
AcDbPolyline
 90
        7
 70
     0
 43
0.0
 10
1182.708995211617
 20
250.0000125
 42
0.0223720330323902
 10
1184.818390193481
 20
223.8091686637473
 10
1184.89651593355
 20
223.5188099291128
 10
1184.974641673619
 20
223.2922467309509
 10
1185.052767413687
 20
223.1300248798507
 10
1185.130893153757
 20
223.0325351824604
 10
1185.209018893825
 20
223.0000125
  0
LWPOLYLINE
  5
112
330
1F
100
AcDbEntity
  8
8
  6
________________
 62
     7
370
     0
100
AcDbPolyline
 90
        7
 70
     0
 43
0.0
 10
1192.709022710837
 20
250.0000125000001
 42
0.0223716214825593
 10
1194.818378315476
 20
223.8091686637473
 10
1194.896502597129
 20
223.5188099291128
 10
1194.974626878783
 20
223.2922467309509
 10
1195.052751160436
 20
223.1300248798507
 10
1195.130875442089
 20
223.0325351824604
 10
1195.208999723742
 20
223.0000125
  0
LWPOLYLINE
  5
113
330
1F
100
AcDbEntity
  8
8
  6
________________
 62
     7
370
     0
100
AcDbPolyline
 90
        4
 70
     0
 43
0.0
 10
1224.311350810776
 20
227.1820661915849
 42
0.0648513267454288
 10
1225.052779107851
 20
223.1300248798507
 10
1225.130904248445
 20
223.0325351824604
 10
1225.209029389038
 20
223.0000125
  0
LWPOLYLINE
  5
114
330
1F
100
AcDbEntity
  8
8
  6
________________
 62
     7
370
     0
100
AcDbPolyline
 90
        7
 70
     0
 43
0.0
 10
1232.709108373183
 20
250.0000124999895
 42
0.0223715379311893
 10
1234.818455983601
 20
223.8091686637458
 10
1234.896579969172
 20
223.5188099291116
 10
1234.974703954743
 20
223.2922467309501
 10
1235.052827940314
 20
223.1300248798501
 10
1235.130951925885
 20
223.0325351824601
 10
1235.209075911456
 20
223.0000125
  0
LWPOLYLINE
  5
115
330
1F
100
AcDbEntity
  8
8
  6
________________
 62
     7
370
     0
100
AcDbPolyline
 90
        7
 70
     0
 43
0.0
 10
1242.709060494162
 20
250.0000125000001
 42
0.0223718809350588
 10
1244.818440923298
 20
223.8091686637473
 10
1244.896566124377
 20
223.5188099291128
 10
1244.974691325457
 20
223.2922467309509
 10
1245.052816526536
 20
223.1300248798507
 10
1245.130941727615
 20
223.0325351824604
 10
1245.209066928694
 20
223.0000125
  0
LWPOLYLINE
  5
116
330
1F
100
AcDbEntity
  8
8
  6
________________
 62
     7
370
     0
100
AcDbPolyline
 90
        7
 70
     0
 43
0.0
 10
1252.709066829704
 20
250.0000125
 42
0.022371918852095
 10
1254.818450886756
 20
223.8091686637473
 10
1254.896576222203
 20
223.5188099291128
 10
1254.974701557649
 20
223.2922467309509
 10
1255.052826893095
 20
223.1300248798507
 10
1255.130952228542
 20
223.0325351824604
 10
1255.209077563988
 20
223.0000125
  0
LWPOLYLINE
  5
117
330
1F
100
AcDbEntity
  8
8
  6
________________
 62
     7
370
     0
100
AcDbPolyline
 90
        7
 70
     0
 43
0.0
 10
1262.709147266246
 20
250.0000125
 42
0.0223718084504335
 10
1264.818520760029
 20
223.8091686637473
 10
1264.896645704243
 20
223.5188099291128
 10
1264.974770648457
 20
223.2922467309509
 10
1265.052895592671
 20
223.1300248798507
 10
1265.131020536886
 20
223.0325351824604
 10
1265.2091454811
 20
223.0000125
  0
LWPOLYLINE
  5
118
330
1F
100
AcDbEntity
  8
8
  6
________________
 62
     7
370
     0
100
AcDbPolyline
 90
        7
 70
     0
 43
0.0
 10
1272.709111990846
 20
250.0000125000022
 42
0.0223718746446765
 10
1274.818491818117
 20
223.8091686637476
 10
1274.896616996905
 20
223.518809929113
 10
1274.974742175692
 20
223.2922467309511
 10
1275.05286735448
 20
223.1300248798508
 10
1275.130992533268
 20
223.0325351824604
 10
1275.209117712056
 20
223.0000125
  0
LWPOLYLINE
  5
119
330
1F
100
AcDbEntity
  8
8
  6
________________
 62
     7
370
     0
100
AcDbPolyline
 90
        7
 70
     0
 43
0.0
 10
1282.709096574617
 20
250.0000125
 42
0.0223719172528897
 10
1284.818480478657
 20
223.8091686637473
 10
1284.896605808436
 20
223.5188099291128
 10
1284.974731138215
 20
223.2922467309509
 10
1285.052856467994
 20
223.1300248798507
 10
1285.130981797773
 20
223.0325351824604
 10
1285.209107127553
 20
223.0000125
  0
LWPOLYLINE
  5
11A
330
1F
100
AcDbEntity
  8
8
  6
________________
 62
     7
370
     0
100
AcDbPolyline
 90
        7
 70
     0
 43
0.0
 10
1292.709109155782
 20
250.0000124999999
 42
0.0223717530587329
 10
1294.818477349669
 20
223.8091686637473
 10
1294.896602097591
 20
223.5188099291128
 10
1294.974726845513
 20
223.2922467309509
 10
1295.052851593435
 20
223.1300248798507
 10
1295.130976341356
 20
223.0325351824604
 10
1295.209101089278
 20
223.0000125
  0
LWPOLYLINE
  5
11B
330
1F
100
AcDbEntity
  8
8
  6
________________
 62
     7
370
     0
100
AcDbPolyline
 90
        7
 70
     0
 43
0.0
 10
1302.709108725764
 20
250.0000124999999
 42
0.0223717759133187
 10
1304.818479106386
 20
223.8091686637473
 10
1304.896603935298
 20
223.5188099291128
 10
1304.974728764209
 20
223.2922467309509
 10
1305.052853593121
 20
223.1300248798507
 10
1305.130978422033
 20
223.0325351824604
 10
1305.209103250945
 20
223.0000125
  0
LWPOLYLINE
  5
11C
330
1F
100
AcDbEntity
  8
8
  6
________________
 62
     7
370
     0
100
AcDbPolyline
 90
        7
 70
     0
 43
0.0
 10
1312.709093484619
 20
250.0000124999999
 42
0.0210995615957629
 10
1314.78378825061
 20
223.9583601333815
 10
1314.86677604125
 20
223.6221622060761
 10
1314.94976383189
 20
223.3576654477868
 10
1315.032751622529
 20
223.16558882259
 10
1315.115739413169
 20
223.0464544396951
 10
1315.209100300317
 20
223.0000125000127
  0
LINE
  5
11D
330
1F
100
AcDbEntity
  8
8
  6
________________
 62
     7
370
     0
100
AcDbLine
 10
1151.356409760441
 20
267.0464768043878
 30
0.0
 11
1151.356409760441
 21
270.2832245449647
 31
0.0
  0
LINE
  5
11E
330
1F
100
AcDbEntity
  8
8
  6
________________
 62
     7
370
     0
100
AcDbLine
 10
1321.356409760441
 20
278.0000125
 30
0.0
 11
1321.356409760441
 21
222.0000125
 31
0.0
  0
LINE
  5
11F
330
1F
100
AcDbEntity
  8
8
  6
________________
 62
     7
370
     0
100
AcDbLine
 10
1323.356409760441
 20
278.0000125
 30
0.0
 11
1323.356409760441
 21
222.0000125
 31
0.0
  0
LINE
  5
120
330
1F
100
AcDbEntity
  8
8
  6
________________
 62
     7
370
     0
100
AcDbLine
 10
1166.062870235912
 20
276.9814876264641
 30
0.0
 11
1160.467659243229
 21
276.9814876264641
 31
0.0
  0
LINE
  5
121
330
1F
100
AcDbEntity
  8
8
  6
________________
 62
     7
370
     0
100
AcDbLine
 10
1306.062873856619
 20
276.9814876264641
 30
0.0
 11
1300.467654164209
 21
276.9814876264641
 31
0.0
  0
LINE
  5
122
330
1F
100
AcDbEntity
  8
8
  6
________________
 62
     7
370
     0
100
AcDbLine
 10
1150.356409760441
 20
224.0625878013141
 30
0.0
 11
1150.356409760441
 21
223.0000125
 31
0.0
  0
LINE
  5
123
330
1F
100
AcDbEntity
  8
8
  6
________________
 62
     7
370
     0
100
AcDbLine
 10
1150.356409760441
 20
224.0625878013141
 30
0.0
 11
1149.356409760442
 21
224.0625878013141
 31
0.0
  0
LINE
  5
124
330
1F
100
AcDbEntity
  8
8
  6
________________
 62
     7
370
     0
100
AcDbLine
 10
1149.356409760442
 20
242.5000125
 30
0.0
 11
1149.356409760442
 21
224.0625878013141
 31
0.0
  0
LINE
  5
125
330
1F
100
AcDbEntity
  8
8
  6
________________
 62
     7
370
     0
100
AcDbLine
 10
1150.356409760441
 20
242.5000125
 30
0.0
 11
1149.356409760442
 21
242.5000125
 31
0.0
  0
LINE
  5
126
330
1F
100
AcDbEntity
  8
8
  6
________________
 62
     7
370
     0
100
AcDbLine
 10
1150.356409760441
 20
257.5000125
 30
0.0
 11
1150.356409760441
 21
242.5000125
 31
0.0
  0
LINE
  5
127
330
1F
100
AcDbEntity
  8
8
  6
________________
 62
     7
370
     0
100
AcDbLine
 10
1149.356409760442
 20
257.5000125
 30
0.0
 11
1150.356409760441
 21
257.5000125
 31
0.0
  0
LINE
  5
128
330
1F
100
AcDbEntity
  8
8
  6
________________
 62
     7
370
     0
100
AcDbLine
 10
1149.356409760442
 20
275.9374371986859
 30
0.0
 11
1149.356409760442
 21
257.5000125
 31
0.0
  0
LINE
  5
129
330
1F
100
AcDbEntity
  8
8
  6
________________
 62
     7
370
     0
100
AcDbLine
 10
1150.356409760441
 20
275.9374371986859
 30
0.0
 11
1149.356409760442
 21
275.9374371986859
 31
0.0
  0
LINE
  5
12A
330
1F
100
AcDbEntity
  8
8
  6
________________
 62
     7
370
     0
100
AcDbLine
 10
1150.356409760441
 20
276.981487626464
 30
0.0
 11
1150.356409760441
 21
275.9374371986858
 31
0.0
  0
LINE
  5
12B
330
1F
100
AcDbEntity
  8
8
  6
________________
 62
     7
370
     0
100
AcDbLine
 10
1156.06287420338
 20
276.9814876264641
 30
0.0
 11
1150.356409760441
 21
276.9814876264641
 31
0.0
  0
LINE
  5
12C
330
1F
100
AcDbEntity
  8
8
  6
________________
 62
     7
370
     0
100
AcDbLine
 10
1316.062873360588
 20
276.9814876264641
 30
0.0
 11
1310.467655532862
 21
276.9814876264641
 31
0.0
  0
LINE
  5
12D
330
1F
100
AcDbEntity
  8
8
  6
________________
 62
     7
370
     0
100
AcDbLine
 10
1319.356409760441
 20
276.9814876264641
 30
0.0
 11
1317.356409760441
 21
276.9814876264641
 31
0.0
  0
LINE
  5
12E
330
1F
100
AcDbEntity
  8
8
  6
________________
 62
     7
370
     0
100
AcDbLine
 10
1319.356409760441
 20
276.981487626464
 30
0.0
 11
1319.356409760441
 21
223.0000125
 31
0.0
  0
LINE
  5
12F
330
1F
100
AcDbEntity
  8
8
  6
________________
 62
     7
370
     0
100
AcDbLine
 10
1340.656409760441
 20
279.2318306818182
 30
0.0
 11
1340.656409760441
 21
284.7954670454546
 31
0.0
  0
LINE
  5
130
330
1F
100
AcDbEntity
  8
8
  6
________________
 62
     7
370
     0
100
AcDbLine
 10
1340.356409760441
 20
284.7954670454546
 30
0.0
 11
1340.656409760441
 21
284.7954670454546
 31
0.0
  0
LINE
  5
131
330
1F
100
AcDbEntity
  8
8
  6
________________
 62
     7
370
     0
100
AcDbLine
 10
1340.656409760441
 20
279.2045579545455
 30
0.0
 11
1340.656409760441
 21
279.2118541359667
 31
0.0
  0
LINE
  5
132
330
1F
100
AcDbEntity
  8
8
  6
________________
 62
     7
370
     0
100
AcDbLine
 10
1201.494901742916
 20
212.5000125
 30
0.0
 11
1224.311350810776
 21
212.5000125
 31
0.0
  0
LINE
  5
133
330
1F
100
AcDbEntity
  8
8
  6
________________
 62
     7
370
     0
100
AcDbLine
 10
1224.311350810776
 20
287.5000125
 30
0.0
 11
1201.494901742916
 21
287.5000125
 31
0.0
  0
LINE
  5
134
330
1F
100
AcDbEntity
  8
8
  6
________________
 62
     7
370
     0
100
AcDbLine
 10
1220.356409760441
 20
251.9369512948758
 30
0.0
 11
1201.494901742916
 21
251.9369512948758
 31
0.0
  0
LINE
  5
135
330
1F
100
AcDbEntity
  8
8
  6
________________
 62
     7
370
     0
100
AcDbLine
 10
1201.494901742916
 20
248.0630737051241
 30
0.0
 11
1220.356409760441
 21
248.0630737051241
 31
0.0
  0
LINE
  5
136
330
1F
100
AcDbEntity
  8
8
  6
________________
 62
     7
370
     0
100
AcDbLine
 10
1196.802823197795
 20
248.2157070904072
 30
0.0
 11
1201.441339333123
 21
248.0700290642709
 31
0.0
  0
LINE
  5
137
330
1F
100
AcDbEntity
  8
8
  6
________________
 62
     7
370
     0
100
AcDbLine
 10
1201.441339333123
 20
251.9299959357291
 30
0.0
 11
1196.802823197795
 21
251.7843179095928
 31
0.0
  0
ARC
  5
138
330
1F
100
AcDbEntity
  8
8
  6
________________
 62
     7
370
     0
100
AcDbCircle
 10
1196.856409760441
 20
251.2912809634624
 30
0.0
 40
0.4999999999999429
100
AcDbArc
 50
91.79877856087546
 51
180.0000000000219
  0
ARC
  5
139
330
1F
100
AcDbEntity
  8
8
  6
________________
 62
     7
370
     0
100
AcDbCircle
 10
1196.856409760441
 20
248.7087440365376
 30
0.0
 40
0.4999999999999449
100
AcDbArc
 50
180.0
 51
268.2012214391311
  0
LINE
  5
13A
330
1F
100
AcDbEntity
  8
8
  6
________________
 62
     7
370
     0
100
AcDbLine
 10
1220.356409760441
 20
277.6592950004439
 30
0.0
 11
1201.494901742916
 21
277.6592950004439
 31
0.0
  0
ARC
  5
13B
330
1F
100
AcDbEntity
  8
8
  6
________________
 62
     7
370
     0
100
AcDbCircle
 10
1201.494901742916
 20
277.1592950004439
 30
0.0
 40
0.5000000000000004
100
AcDbArc
 50
90.0
 51
114.0334120261656
  0
ARC
  5
13C
330
1F
100
AcDbEntity
  8
8
  6
________________
 62
     7
370
     0
100
AcDbCircle
 10
1201.494901742916
 20
222.8407299995561
 30
0.0
 40
0.500000000000066
100
AcDbArc
 50
245.9665879738205
 51
269.999999999986
  0
LINE
  5
13D
330
1F
100
AcDbEntity
  8
8
  6
________________
 62
     7
370
     0
100
AcDbLine
 10
1201.494901742916
 20
222.3407299995561
 30
0.0
 11
1220.356409760441
 21
222.3407299995561
 31
0.0
  0
LINE
  5
13E
330
1F
100
AcDbEntity
  8
8
  6
________________
 62
     7
370
     0
100
AcDbLine
 10
1196.652433954883
 20
224.4526763719634
 30
0.0
 11
1201.290928365294
 21
222.3842282629852
 31
0.0
  0
LINE
  5
13F
330
1F
100
AcDbEntity
  8
8
  6
________________
 62
     7
370
     0
100
AcDbLine
 10
1201.290928365295
 20
277.6157967370149
 30
0.0
 11
1196.652433954883
 21
275.5473486280366
 31
0.0
  0
LINE
  5
140
330
1F
100
AcDbEntity
  8
8
  6
________________
 62
     7
370
     0
100
AcDbLine
 10
1196.365656078027
 20
272.2478116523382
 30
0.0
 11
1196.356570501206
 21
272.2262365775469
 31
0.0
  0
LINE
  5
141
330
1F
100
AcDbEntity
  8
8
  6
________________
 62
     7
370
     0
100
AcDbLine
 10
1196.356539070933
 20
227.7738566520336
 30
0.0
 11
1196.365656078045
 21
227.7522133477327
 31
0.0
  0
ARC
  5
142
330
1F
100
AcDbEntity
  8
8
  6
________________
 62
     7
370
     0
100
AcDbCircle
 10
1196.856409760441
 20
275.0908479749812
 30
0.0
 40
0.4999999999999619
100
AcDbArc
 50
114.0337415191434
 51
179.9999999999891
  0
ARC
  5
143
330
1F
100
AcDbEntity
  8
8
  6
________________
 62
     7
370
     0
100
AcDbCircle
 10
1196.856409760441
 20
224.9091770250188
 30
0.0
 40
0.4999999999999449
100
AcDbArc
 50
180.0
 51
245.9662584808441
  0
ARC
  5
144
330
1F
100
AcDbEntity
  8
8
  6
________________
 62
     7
370
     0
100
AcDbCircle
 10
1201.494901742916
 20
287.0000125
 30
0.0
 40
0.5000000000000004
100
AcDbArc
 50
90.0
 51
120.9637565320706
  0
ARC
  5
145
330
1F
100
AcDbEntity
  8
8
  6
________________
 62
     7
370
     0
100
AcDbCircle
 10
1201.494901742916
 20
213.0000125
 30
0.0
 40
0.5000000000000651
100
AcDbArc
 50
239.0362434679177
 51
269.9999999999884
  0
LINE
  5
146
330
1F
100
AcDbEntity
  8
8
  6
________________
 62
     7
370
     0
100
AcDbLine
 10
1201.237653865202
 20
287.4287589628563
 30
0.0
 11
1196.599161882728
 21
284.6456637733717
 31
0.0
  0
LINE
  5
147
330
1F
100
AcDbEntity
  8
8
  6
________________
 62
     7
370
     0
100
AcDbLine
 10
1196.599161882728
 20
215.3543612266283
 30
0.0
 11
1201.237653865202
 21
212.5712660371437
 31
0.0
  0
ARC
  5
148
330
1F
100
AcDbEntity
  8
8
  6
________________
 62
     7
370
     0
100
AcDbCircle
 10
1196.856409760441
 20
284.2169173105155
 30
0.0
 40
0.5000000000000174
100
AcDbArc
 50
120.9637565320855
 51
180.0000000000075
  0
ARC
  5
149
330
1F
100
AcDbEntity
  8
8
  6
________________
 62
     7
370
     0
100
AcDbCircle
 10
1196.856409760441
 20
215.7831076894845
 30
0.0
 40
0.4999999999999449
100
AcDbArc
 50
180.0
 51
239.036243467922
  0
LINE
  5
14A
330
1F
100
AcDbEntity
  8
8
  6
________________
 62
     7
370
     0
100
AcDbLine
 10
1334.356409760441
 20
212.5000125
 30
0.0
 11
1339.356409760441
 21
212.5000125
 31
0.0
  0
ARC
  5
14B
330
1F
100
AcDbEntity
  8
8
  6
________________
 62
     7
370
     0
100
AcDbCircle
 10
1339.356409760441
 20
213.5000125
 30
0.0
 40
1.000000000000001
100
AcDbArc
 50
270.0
 51
0.0
  0
LINE
  5
14C
330
1F
100
AcDbEntity
  8
8
  6
________________
 62
     7
370
     0
100
AcDbLine
 10
1340.556409760442
 20
252.4756108064143
 30
0.0
 11
1340.356409760441
 21
252.4756108064143
 31
0.0
  0
ARC
  5
14D
330
1F
100
AcDbEntity
  8
8
  6
________________
 62
     7
370
     0
100
AcDbCircle
 10
-1331.356409760441
 20
280.0000125
 30
0.0
 40
3.000000000000114
210
0.0
220
0.0
230
-1.0
100
AcDbArc
 50
180.0
 51
270.0
  0
ARC
  5
14E
330
1F
100
AcDbEntity
  8
8
  6
________________
 62
     7
370
     0
100
AcDbCircle
 10
-1331.356409760441
 20
220.0000125
 30
0.0
 40
3.000000000000003
210
0.0
220
0.0
230
-1.0
100
AcDbArc
 50
90.0
 51
180.0
  0
LINE
  5
14F
330
1F
100
AcDbEntity
  8
8
  6
________________
 62
     7
370
     0
100
AcDbLine
 10
1159.856470272093
 20
278.99951459747
 30
0.0
 11
1156.356470272102
 21
278.9995226579153
 31
0.0
  0
LINE
  5
150
330
1F
100
AcDbEntity
  8
8
  6
________________
 62
     7
370
     0
100
AcDbLine
 10
1169.856189631497
 20
278.9995999321044
 30
0.0
 11
1166.356189631506
 21
278.9996079925734
 31
0.0
  0
LINE
  5
151
330
1F
100
AcDbEntity
  8
8
  6
________________
 62
     7
370
     0
100
AcDbLine
 10
1179.856314725931
 20
278.9996990534944
 30
0.0
 11
1176.356314725941
 21
278.999707113991
 31
0.0
  0
LINE
  5
152
330
1F
100
AcDbEntity
  8
8
  6
________________
 62
     7
370
     0
100
AcDbLine
 10
1189.856842661815
 20
278.9997969676206
 30
0.0
 11
1186.356842661824
 21
278.9998050281444
 31
0.0
  0
LINE
  5
153
330
1F
100
AcDbEntity
  8
8
  6
________________
 62
     7
370
     0
100
AcDbLine
 10
1229.855960510986
 20
278.9998671440284
 30
0.0
 11
1226.355960510994
 21
278.9998752045717
 31
0.0
  0
LINE
  5
154
330
1F
100
AcDbEntity
  8
8
  6
________________
 62
     7
370
     0
100
AcDbLine
 10
1239.855477076648
 20
278.9997716861236
 30
0.0
 11
1236.355477076658
 21
278.9997797466403
 31
0.0
  0
LINE
  5
155
330
1F
100
AcDbEntity
  8
8
  6
________________
 62
     7
370
     0
100
AcDbLine
 10
1249.856211140893
 20
278.9996782028288
 30
0.0
 11
1246.356211140902
 21
278.9996862633196
 31
0.0
  0
LINE
  5
156
330
1F
100
AcDbEntity
  8
8
  6
________________
 62
     7
370
     0
100
AcDbLine
 10
1259.856418784054
 20
278.9995819431
 30
0.0
 11
1256.356418784063
 21
278.999590003564
 31
0.0
  0
LINE
  5
157
330
1F
100
AcDbEntity
  8
8
  6
________________
 62
     7
370
     0
100
AcDbLine
 10
1269.856665315086
 20
278.9995013412711
 30
0.0
 11
1266.356665315095
 21
278.9995094017127
 31
0.0
  0
LINE
  5
158
330
1F
100
AcDbEntity
  8
8
  6
________________
 62
     7
370
     0
100
AcDbLine
 10
1279.856540706474
 20
278.9994456318692
 30
0.0
 11
1276.356540706483
 21
278.9994536922953
 31
0.0
  0
LINE
  5
159
330
1F
100
AcDbEntity
  8
8
  6
________________
 62
     7
370
     0
100
AcDbLine
 10
1289.85645169184
 20
278.9994213462234
 30
0.0
 11
1286.356451691849
 21
278.9994294066428
 31
0.0
  0
LINE
  5
15A
330
1F
100
AcDbEntity
  8
8
  6
________________
 62
     7
370
     0
100
AcDbLine
 10
1299.856557056807
 20
278.9994307902529
 30
0.0
 11
1296.356557056816
 21
278.9994388506749
 31
0.0
  0
LINE
  5
15B
330
1F
100
AcDbEntity
  8
8
  6
________________
 62
     7
370
     0
100
AcDbLine
 10
1309.857324107239
 20
278.9994674871087
 30
0.0
 11
1306.357324107248
 21
278.999475547541
 31
0.0
  0
LINE
  5
15C
330
1F
100
AcDbEntity
  8
8
  6
________________
 62
     7
370
     0
100
AcDbLine
 10
1317.356409773342
 20
278.9995494722111
 30
0.0
 11
1316.356577574182
 21
278.9995517748113
 31
0.0
  0
LINE
  5
15D
330
1F
100
AcDbEntity
  8
8
  6
________________
 62
     7
370
     0
100
AcDbLine
 10
1311.356293223778
 20
221.0005111935641
 30
0.0
 11
1314.856293223769
 21
221.0005192540069
 31
0.0
  0
LINE
  5
15E
330
1F
100
AcDbEntity
  8
8
  6
________________
 62
     7
370
     0
100
AcDbLine
 10
1301.356517260305
 20
221.0005688443314
 30
0.0
 11
1304.856517260296
 21
221.0005769047582
 31
0.0
  0
LINE
  5
15F
330
1F
100
AcDbEntity
  8
8
  6
________________
 62
     7
370
     0
100
AcDbLine
 10
1291.356476197123
 20
221.0005950508985
 30
0.0
 11
1294.856476197114
 21
221.0006031113179
 31
0.0
  0
LINE
  5
160
330
1F
100
AcDbEntity
  8
8
  6
________________
 62
     7
370
     0
100
AcDbLine
 10
1281.35560786132
 20
221.0005926467888
 30
0.0
 11
1284.855607861311
 21
221.0006007072089
 31
0.0
  0
LINE
  5
161
330
1F
100
AcDbEntity
  8
8
  6
________________
 62
     7
370
     0
100
AcDbLine
 10
1271.356242776943
 20
221.0005479921923
 30
0.0
 11
1274.856242776934
 21
221.0005560526249
 31
0.0
  0
LINE
  5
162
330
1F
100
AcDbEntity
  8
8
  6
________________
 62
     7
370
     0
100
AcDbLine
 10
1261.356948100792
 20
221.0004779796255
 30
0.0
 11
1264.856948100783
 21
221.0004860400775
 31
0.0
  0
LINE
  5
163
330
1F
100
AcDbEntity
  8
8
  6
________________
 62
     7
370
     0
100
AcDbLine
 10
1251.35720613265
 20
221.0003880630258
 30
0.0
 11
1254.857206132641
 21
221.000396123503
 31
0.0
  0
LINE
  5
164
330
1F
100
AcDbEntity
  8
8
  6
________________
 62
     7
370
     0
100
AcDbLine
 10
1241.356443943725
 20
221.0002864934097
 30
0.0
 11
1244.856443943716
 21
221.000294553915
 31
0.0
  0
LINE
  5
165
330
1F
100
AcDbEntity
  8
8
  6
________________
 62
     7
370
     0
100
AcDbLine
 10
1231.356866877797
 20
221.0001886220533
 30
0.0
 11
1234.856866877787
 21
221.0001966825858
 31
0.0
  0
LINE
  5
166
330
1F
100
AcDbEntity
  8
8
  6
________________
 62
     7
370
     0
100
AcDbLine
 10
1224.311350810776
 20
221.0001192064514
 30
0.0
 11
1224.85669914841
 21
221.000120462397
 31
0.0
  0
LINE
  5
167
330
1F
100
AcDbEntity
  8
8
  6
________________
 62
     7
370
     0
100
AcDbLine
 10
1191.355586918695
 20
221.0001743847435
 30
0.0
 11
1194.855586918686
 21
221.00018244528
 31
0.0
  0
LINE
  5
168
330
1F
100
AcDbEntity
  8
8
  6
________________
 62
     7
370
     0
100
AcDbLine
 10
1181.355940948552
 20
221.0002671523533
 30
0.0
 11
1184.855940948543
 21
221.000275212864
 31
0.0
  0
LINE
  5
169
330
1F
100
AcDbEntity
  8
8
  6
________________
 62
     7
370
     0
100
AcDbLine
 10
1171.35659012776
 20
221.0003693728026
 30
0.0
 11
1174.856590127751
 21
221.0003774332848
 31
0.0
  0
LINE
  5
16A
330
1F
100
AcDbEntity
  8
8
  6
________________
 62
     7
370
     0
100
AcDbLine
 10
1161.357305512657
 20
221.0004687050214
 30
0.0
 11
1164.857305512648
 21
221.0004767654761
 31
0.0
  0
LINE
  5
16B
330
1F
100
AcDbEntity
  8
8
  6
________________
 62
     7
370
     0
100
AcDbLine
 10
1151.356615924616
 20
221.0005366748167
 30
0.0
 11
1154.856615924608
 21
221.0005447352525
 31
0.0
  0
LINE
  5
16C
330
1F
100
AcDbEntity
  8
8
  6
________________
 62
     7
370
     0
100
AcDbLine
 10
1155.875949342537
 20
277.6878159309794
 30
0.0
 11
1155.745262796413
 21
276.9809410731554
 31
0.0
  0
LINE
  5
16D
330
1F
100
AcDbEntity
  8
8
  6
________________
 62
     7
370
     0
100
AcDbLine
 10
1165.876108454343
 20
277.6887700154447
 30
0.0
 11
1165.745245477563
 21
276.9809420607966
 31
0.0
  0
LINE
  5
16E
330
1F
100
AcDbEntity
  8
8
  6
________________
 62
     7
370
     0
100
AcDbLine
 10
1175.875956744491
 20
277.688046721914
 30
0.0
 11
1175.748655830233
 21
276.9994622835804
 31
0.0
  0
LINE
  5
16F
330
1F
100
AcDbEntity
  8
8
  6
________________
 62
     7
370
     0
100
AcDbLine
 10
1185.876214755793
 20
277.689531807851
 30
0.0
 11
1185.748641514169
 21
276.999464499815
 31
0.0
  0
LINE
  5
170
330
1F
100
AcDbEntity
  8
8
  6
________________
 62
     7
370
     0
100
AcDbLine
 10
1195.876189643953
 20
277.6894557982882
 30
0.0
 11
1195.748633751458
 21
276.9994645695159
 31
0.0
  0
LINE
  5
171
330
1F
100
AcDbEntity
  8
8
  6
________________
 62
     7
370
     0
100
AcDbLine
 10
1225.876329963559
 20
277.6901045289792
 30
0.0
 11
1225.748661279676
 21
276.9994620265614
 31
0.0
  0
LINE
  5
172
330
1F
100
AcDbEntity
  8
8
  6
________________
 62
     7
370
     0
100
AcDbLine
 10
1235.876551172965
 20
277.6912085623209
 30
0.0
 11
1235.748678304312
 21
276.9994617354942
 31
0.0
  0
LINE
  5
173
330
1F
100
AcDbEntity
  8
8
  6
________________
 62
     7
370
     0
100
AcDbLine
 10
1245.876398342809
 20
277.6902859836716
 30
0.0
 11
1245.748694850791
 21
276.9994605847066
 31
0.0
  0
LINE
  5
174
330
1F
100
AcDbEntity
  8
8
  6
________________
 62
     7
370
     0
100
AcDbLine
 10
1255.876408125186
 20
277.6902558635734
 30
0.0
 11
1255.74870849275
 21
276.9994603420599
 31
0.0
  0
LINE
  5
175
330
1F
100
AcDbEntity
  8
8
  6
________________
 62
     7
370
     0
100
AcDbLine
 10
1265.876379235465
 20
277.690037838876
 30
0.0
 11
1265.748717781746
 21
276.999459963543
 31
0.0
  0
LINE
  5
176
330
1F
100
AcDbEntity
  8
8
  6
________________
 62
     7
370
     0
100
AcDbLine
 10
1275.876285583492
 20
277.689497405744
 30
0.0
 11
1275.748721745729
 21
276.9994598875415
 31
0.0
  0
LINE
  5
177
330
1F
100
AcDbEntity
  8
8
  6
________________
 62
     7
370
     0
100
AcDbLine
 10
1285.876206816975
 20
277.6890694679941
 30
0.0
 11
1285.748719861559
 21
276.9994595220724
 31
0.0
  0
LINE
  5
178
330
1F
100
AcDbEntity
  8
8
  6
________________
 62
     7
370
     0
100
AcDbLine
 10
1295.876132773496
 20
277.6886993428712
 30
0.0
 11
1295.748712360854
 21
276.9994600966338
 31
0.0
  0
LINE
  5
179
330
1F
100
AcDbEntity
  8
8
  6
________________
 62
     7
370
     0
100
AcDbLine
 10
1305.876052514447
 20
277.6883248425611
 30
0.0
 11
1305.74527243216
 21
276.9809406141105
 31
0.0
  0
LINE
  5
17A
330
1F
100
AcDbEntity
  8
8
  6
________________
 62
     7
370
     0
100
AcDbLine
 10
1315.876028947427
 20
277.6882802489238
 30
0.0
 11
1315.745256474461
 21
276.9809418209605
 31
0.0
  0
LINE
  5
17B
330
1F
100
AcDbEntity
  8
8
  6
________________
 62
     7
370
     0
100
AcDbLine
 10
1310.488439750962
 20
224.403583366816
 30
0.0
 11
1310.876008508569
 21
222.311899262045
 31
0.0
  0
LINE
  5
17C
330
1F
100
AcDbEntity
  8
8
  6
________________
 62
     7
370
     0
100
AcDbLine
 10
1300.488578674643
 20
224.4029218070614
 30
0.0
 11
1300.876239450273
 21
222.310721483265
 31
0.0
  0
LINE
  5
17D
330
1F
100
AcDbEntity
  8
8
  6
________________
 62
     7
370
     0
100
AcDbLine
 10
1290.488566200657
 20
224.4030589988906
 30
0.0
 11
1290.876160324402
 21
222.3111957995184
 31
0.0
  0
LINE
  5
17E
330
1F
100
AcDbEntity
  8
8
  6
________________
 62
     7
370
     0
100
AcDbLine
 10
1280.488608830139
 20
224.4028760245585
 30
0.0
 11
1280.876251543258
 21
222.3107167159957
 31
0.0
  0
LINE
  5
17F
330
1F
100
AcDbEntity
  8
8
  6
________________
 62
     7
370
     0
100
AcDbLine
 10
1270.488689151202
 20
224.4024617575577
 30
0.0
 11
1270.876193887668
 21
222.3110114247223
 31
0.0
  0
LINE
  5
180
330
1F
100
AcDbEntity
  8
8
  6
________________
 62
     7
370
     0
100
AcDbLine
 10
1260.488784029676
 20
224.4019390833308
 30
0.0
 11
1260.876423968311
 21
222.3097173183771
 31
0.0
  0
LINE
  5
181
330
1F
100
AcDbEntity
  8
8
  6
________________
 62
     7
370
     0
100
AcDbLine
 10
1250.488894135241
 20
224.4013058067214
 30
0.0
 11
1250.876386851788
 21
222.3098449543173
 31
0.0
  0
LINE
  5
182
330
1F
100
AcDbEntity
  8
8
  6
________________
 62
     7
370
     0
100
AcDbLine
 10
1240.488886675307
 20
224.4012810060806
 30
0.0
 11
1240.876518246346
 21
222.3090429421674
 31
0.0
  0
LINE
  5
183
330
1F
100
AcDbEntity
  8
8
  6
________________
 62
     7
370
     0
100
AcDbLine
 10
1230.488886034695
 20
224.4012025043848
 30
0.0
 11
1230.876353550954
 21
222.3098387199479
 31
0.0
  0
LINE
  5
184
330
1F
100
AcDbEntity
  8
8
  6
________________
 62
     7
370
     0
100
AcDbLine
 10
1190.488668597704
 20
224.4021135165301
 30
0.0
 11
1190.876287561065
 21
222.3100642789803
 31
0.0
  0
LINE
  5
185
330
1F
100
AcDbEntity
  8
8
  6
________________
 62
     7
370
     0
100
AcDbLine
 10
1180.488593500325
 20
224.4025454063105
 30
0.0
 11
1180.875996656882
 21
222.3117157393694
 31
0.0
  0
LINE
  5
186
330
1F
100
AcDbEntity
  8
8
  6
________________
 62
     7
370
     0
100
AcDbLine
 10
1170.488395759966
 20
224.4036763545502
 30
0.0
 11
1170.876145771112
 21
222.3110037728267
 31
0.0
  0
LINE
  5
187
330
1F
100
AcDbEntity
  8
8
  6
________________
 62
     7
370
     0
100
AcDbLine
 10
1160.488582106758
 20
224.4027604703053
 30
0.0
 11
1160.87606304361
 21
222.3115486147705
 31
0.0
  0
LINE
  5
188
330
1F
100
AcDbEntity
  8
8
  6
________________
 62
     7
370
     0
100
AcDbLine
 10
1160.722908943307
 20
275.6047976767777
 30
0.0
 11
1160.336625548768
 21
277.68975977594
 31
0.0
  0
LINE
  5
189
330
1F
100
AcDbEntity
  8
8
  6
________________
 62
     7
370
     0
100
AcDbLine
 10
1170.724131756726
 20
275.5982528716303
 30
0.0
 11
1170.336501352737
 21
277.6904985760957
 31
0.0
  0
LINE
  5
18A
330
1F
100
AcDbEntity
  8
8
  6
________________
 62
     7
370
     0
100
AcDbLine
 10
1180.72407674524
 20
275.5986069576077
 30
0.0
 11
1180.336547347886
 21
277.6903356318502
 31
0.0
  0
LINE
  5
18B
330
1F
100
AcDbEntity
  8
8
  6
________________
 62
     7
370
     0
100
AcDbLine
 10
1190.724172116635
 20
275.5981711121095
 30
0.0
 11
1190.336546304696
 21
277.6904370666908
 31
0.0
  0
LINE
  5
18C
330
1F
100
AcDbEntity
  8
8
  6
________________
 62
     7
370
     0
100
AcDbLine
 10
1220.356409760441
 20
277.5830898146293
 30
0.0
 11
1220.342344580092
 21
277.6592394786209
 31
0.0
  0
LINE
  5
18D
330
1F
100
AcDbEntity
  8
8
  6
________________
 62
     7
370
     0
100
AcDbLine
 10
1220.342344580092
 20
277.6592394786209
 30
0.0
 11
1220.336557018461
 21
277.6905785599792
 31
0.0
  0
LINE
  5
18E
330
1F
100
AcDbEntity
  8
8
  6
________________
 62
     7
370
     0
100
AcDbLine
 10
1230.724279108631
 20
275.597879168346
 30
0.0
 11
1230.33695771038
 21
277.6883880905904
 31
0.0
  0
LINE
  5
18F
330
1F
100
AcDbEntity
  8
8
  6
________________
 62
     7
370
     0
100
AcDbLine
 10
1240.724539606018
 20
275.5964657269865
 30
0.0
 11
1240.336895140091
 21
277.6886602831814
 31
0.0
  0
LINE
  5
190
330
1F
100
AcDbEntity
  8
8
  6
________________
 62
     7
370
     0
100
AcDbLine
 10
1250.724245879399
 20
275.5979893003941
 30
0.0
 11
1250.336849192358
 21
277.6888176001657
 31
0.0
  0
LINE
  5
191
330
1F
100
AcDbEntity
  8
8
  6
________________
 62
     7
370
     0
100
AcDbLine
 10
1260.724568089562
 20
275.5961732976288
 30
0.0
 11
1260.336995182079
 21
277.68792911529
 31
0.0
  0
LINE
  5
192
330
1F
100
AcDbEntity
  8
8
  6
________________
 62
     7
370
     0
100
AcDbLine
 10
1270.724489572548
 20
275.5965049725909
 30
0.0
 11
1270.3368529228
 21
277.6886091546143
 31
0.0
  0
LINE
  5
193
330
1F
100
AcDbEntity
  8
8
  6
________________
 62
     7
370
     0
100
AcDbLine
 10
1280.724520860542
 20
275.5962513273249
 30
0.0
 11
1280.336945047771
 21
277.6880392445657
 31
0.0
  0
LINE
  5
194
330
1F
100
AcDbEntity
  8
8
  6
________________
 62
     7
370
     0
100
AcDbLine
 10
1290.724394841381
 20
275.5968606427143
 30
0.0
 11
1290.336734755324
 21
277.6891337615561
 31
0.0
  0
LINE
  5
195
330
1F
100
AcDbEntity
  8
8
  6
________________
 62
     7
370
     0
100
AcDbLine
 10
1300.723035630593
 20
275.6041265714916
 30
0.0
 11
1300.336713781481
 21
277.6892345218541
 31
0.0
  0
LINE
  5
196
330
1F
100
AcDbEntity
  8
8
  6
________________
 62
     7
370
     0
100
AcDbLine
 10
1310.722979774756
 20
275.6044111588103
 30
0.0
 11
1310.336624556621
 21
277.6897372809723
 31
0.0
  0
LINE
  5
197
330
1F
100
AcDbEntity
  8
8
  6
________________
 62
     7
370
     0
100
AcDbLine
 10
1315.336569352656
 20
222.3099673730736
 30
0.0
 11
1315.464231157917
 21
223.000564692736
 31
0.0
  0
LINE
  5
198
330
1F
100
AcDbEntity
  8
8
  6
________________
 62
     7
370
     0
100
AcDbLine
 10
1305.336667126944
 20
222.3105320358693
 30
0.0
 11
1305.464226867246
 21
223.0005652700031
 31
0.0
  0
LINE
  5
199
330
1F
100
AcDbEntity
  8
8
  6
________________
 62
     7
370
     0
100
AcDbLine
 10
1295.336784871888
 20
222.3111730808659
 30
0.0
 11
1295.464228337272
 21
223.0005652054018
 31
0.0
  0
LINE
  5
19A
330
1F
100
AcDbEntity
  8
8
  6
________________
 62
     7
370
     0
100
AcDbLine
 10
1285.336843007673
 20
222.3114590184056
 30
0.0
 11
1285.464235539465
 21
223.0005650915683
 31
0.0
  0
LINE
  5
19B
330
1F
100
AcDbEntity
  8
8
  6
________________
 62
     7
370
     0
100
AcDbLine
 10
1275.33688252457
 20
222.3116145946856
 30
0.0
 11
1275.464247681018
 21
223.0005642677949
 31
0.0
  0
LINE
  5
19C
330
1F
100
AcDbEntity
  8
8
  6
________________
 62
     7
370
     0
100
AcDbLine
 10
1265.336787090911
 20
222.3110161858309
 30
0.0
 11
1265.464263581737
 21
223.0005639623499
 31
0.0
  0
LINE
  5
19D
330
1F
100
AcDbEntity
  8
8
  6
________________
 62
     7
370
     0
100
AcDbLine
 10
1255.336980407128
 20
222.3119669859593
 30
0.0
 11
1255.46428096635
 21
223.0005628936999
 31
0.0
  0
LINE
  5
19E
330
1F
100
AcDbEntity
  8
8
  6
________________
 62
     7
370
     0
100
AcDbLine
 10
1245.336796525127
 20
222.3108747078516
 30
0.0
 11
1245.464297718648
 21
223.0005618785872
 31
0.0
  0
LINE
  5
19F
330
1F
100
AcDbEntity
  8
8
  6
________________
 62
     7
370
     0
100
AcDbLine
 10
1235.336971422158
 20
222.3117401004377
 30
0.0
 11
1235.46431025034
 21
223.0005613038027
 31
0.0
  0
LINE
  5
1A0
330
1F
100
AcDbEntity
  8
8
  6
________________
 62
     7
370
     0
100
AcDbLine
 10
1225.336645841808
 20
222.3099306511731
 30
0.0
 11
1225.464315255813
 21
223.0005593989385
 31
0.0
  0
LINE
  5
1A1
330
1F
100
AcDbEntity
  8
8
  6
________________
 62
     7
370
     0
100
AcDbLine
 10
1195.336440204098
 20
222.308965820983
 30
0.0
 11
1195.464282073389
 21
223.0005628104934
 31
0.0
  0
LINE
  5
1A2
330
1F
100
AcDbEntity
  8
8
  6
________________
 62
     7
370
     0
100
AcDbLine
 10
1185.336576307312
 20
222.3097987854574
 30
0.0
 11
1185.464264769673
 21
223.0005636968242
 31
0.0
  0
LINE
  5
1A3
330
1F
100
AcDbEntity
  8
8
  6
________________
 62
     7
370
     0
100
AcDbLine
 10
1175.336485409766
 20
222.309398915148
 30
0.0
 11
1175.464249062042
 21
223.0005642246451
 31
0.0
  0
LINE
  5
1A4
330
1F
100
AcDbEntity
  8
8
  6
________________
 62
     7
370
     0
100
AcDbLine
 10
1165.336703067542
 20
222.3106550571154
 30
0.0
 11
1165.464236491626
 21
223.0005650272486
 31
0.0
  0
LINE
  5
1A5
330
1F
100
AcDbEntity
  8
8
  6
________________
 62
     7
370
     0
100
AcDbLine
 10
1155.336623237498
 20
222.3102759195314
 30
0.0
 11
1155.464228884093
 21
223.0005650944094
 31
0.0
  0
LINE
  5
1A6
330
1F
100
AcDbEntity
  8
8
  6
________________
 62
     7
370
     0
100
AcDbLine
 10
1321.356409760441
 20
222.0000125
 30
0.0
 11
1323.356409760441
 21
222.0000125
 31
0.0
  0
LINE
  5
1A7
330
1F
100
AcDbEntity
  8
8
  6
________________
 62
     7
370
     0
100
AcDbLine
 10
1323.356409760441
 20
278.0000125
 30
0.0
 11
1321.356409760441
 21
278.0000125
 31
0.0
  0
LINE
  5
1A8
330
1F
100
AcDbEntity
  8
8
  6
________________
 62
     7
370
     0
100
AcDbLine
 10
1295.209101089278
 20
223.0000125
 30
0.0
 11
1300.748706630294
 21
223.0000125
 31
0.0
  0
LINE
  5
1A9
330
1F
100
AcDbEntity
  8
8
  6
________________
 62
     7
370
     0
100
AcDbLine
 10
1285.209107127553
 20
223.0000125
 30
0.0
 11
1290.748716798566
 21
223.0000125
 31
0.0
  0
LINE
  5
1AA
330
1F
100
AcDbEntity
  8
8
  6
________________
 62
     7
370
     0
100
AcDbLine
 10
1275.209117712056
 20
223.0000125
 30
0.0
 11
1280.748721531814
 21
223.0000125
 31
0.0
  0
LINE
  5
1AB
330
1F
100
AcDbEntity
  8
8
  6
________________
 62
     7
370
     0
100
AcDbLine
 10
1265.2091454811
 20
223.0000125
 30
0.0
 11
1270.74872057545
 21
223.0000125
 31
0.0
  0
LINE
  5
1AC
330
1F
100
AcDbEntity
  8
8
  6
________________
 62
     7
370
     0
100
AcDbLine
 10
1255.209077563988
 20
223.0000125
 30
0.0
 11
1260.748713739826
 21
223.0000125
 31
0.0
  0
LINE
  5
1AD
330
1F
100
AcDbEntity
  8
8
  6
________________
 62
     7
370
     0
100
AcDbLine
 10
1245.209066928694
 20
223.0000125
 30
0.0
 11
1250.748702156952
 21
223.0000125
 31
0.0
  0
LINE
  5
1AE
330
1F
100
AcDbEntity
  8
8
  6
________________
 62
     7
370
     0
100
AcDbLine
 10
1235.209075911456
 20
223.0000125
 30
0.0
 11
1240.748686779172
 21
223.0000125
 31
0.0
  0
LINE
  5
1AF
330
1F
100
AcDbEntity
  8
8
  6
________________
 62
     7
370
     0
100
AcDbLine
 10
1225.209029389038
 20
223.0000125
 30
0.0
 11
1230.748669794383
 21
223.0000125
 31
0.0
  0
LINE
  5
1B0
330
1F
100
AcDbEntity
  8
8
  6
________________
 62
     7
370
     0
100
AcDbLine
 10
1195.208999723742
 20
223.0000125
 30
0.0
 11
1196.356409760441
 21
223.0000125
 31
0.0
  0
LINE
  5
1B1
330
1F
100
AcDbEntity
  8
8
  6
________________
 62
     7
370
     0
100
AcDbLine
 10
1185.209018893825
 20
223.0000125
 30
0.0
 11
1190.748636513045
 21
223.0000125
 31
0.0
  0
LINE
  5
1B2
330
1F
100
AcDbEntity
  8
8
  6
________________
 62
     7
370
     0
100
AcDbLine
 10
1175.209061097191
 20
223.0000125
 30
0.0
 11
1180.748648127609
 21
223.0000125
 31
0.0
  0
LINE
  5
1B3
330
1F
100
AcDbEntity
  8
8
  6
________________
 62
     7
370
     0
100
AcDbLine
 10
1165.209040892245
 20
223.0000125
 30
0.0
 11
1170.748664167494
 21
223.0000125
 31
0.0
  0
LINE
  5
1B4
330
1F
100
AcDbEntity
  8
8
  6
________________
 62
     7
370
     0
100
AcDbLine
 10
1176.003870588309
 20
277.0000125
 30
0.0
 11
1170.464242325826
 21
277.0000125
 31
0.0
  0
LINE
  5
1B5
330
1F
100
AcDbEntity
  8
8
  6
________________
 62
     7
370
     0
100
AcDbLine
 10
1186.003893088562
 20
277.0000125
 30
0.0
 11
1180.46425659421
 21
277.0000125
 31
0.0
  0
LINE
  5
1B6
330
1F
100
AcDbEntity
  8
8
  6
________________
 62
     7
370
     0
100
AcDbLine
 10
1196.003893059494
 20
277.0000125
 30
0.0
 11
1190.46427336899
 21
277.0000125
 31
0.0
  0
LINE
  5
1B7
330
1F
100
AcDbEntity
  8
8
  6
________________
 62
     7
370
     0
100
AcDbLine
 10
1226.003905778048
 20
277.0000125
 30
0.0
 11
1224.311350810776
 21
277.0000125
 31
0.0
  0
LINE
  5
1B8
330
1F
100
AcDbEntity
  8
8
  6
________________
 62
     7
370
     0
100
AcDbLine
 10
1236.003903367881
 20
277.0000125
 30
0.0
 11
1230.464313863612
 21
277.0000125
 31
0.0
  0
LINE
  5
1B9
330
1F
100
AcDbEntity
  8
8
  6
________________
 62
     7
370
     0
100
AcDbLine
 10
1246.0039341229
 20
277.0000125
 30
0.0
 11
1240.464304731029
 21
277.0000125
 31
0.0
  0
LINE
  5
1BA
330
1F
100
AcDbEntity
  8
8
  6
________________
 62
     7
370
     0
100
AcDbLine
 10
1256.003873842126
 20
277.0000125
 30
0.0
 11
1250.464289605133
 21
277.0000125
 31
0.0
  0
LINE
  5
1BB
330
1F
100
AcDbEntity
  8
8
  6
________________
 62
     7
370
     0
100
AcDbLine
 10
1266.003869298507
 20
277.0000125
 30
0.0
 11
1260.464272159317
 21
277.0000125
 31
0.0
  0
LINE
  5
1BC
330
1F
100
AcDbEntity
  8
8
  6
________________
 62
     7
370
     0
100
AcDbLine
 10
1276.003907533962
 20
277.0000125
 30
0.0
 11
1270.46425528038
 21
277.0000125
 31
0.0
  0
LINE
  5
1BD
330
1F
100
AcDbEntity
  8
8
  6
________________
 62
     7
370
     0
100
AcDbLine
 10
1286.003838767397
 20
277.0000125
 30
0.0
 11
1280.464241020534
 21
277.0000125
 31
0.0
  0
LINE
  5
1BE
330
1F
100
AcDbEntity
  8
8
  6
________________
 62
     7
370
     0
100
AcDbLine
 10
1296.003838430603
 20
277.0000125
 30
0.0
 11
1290.46423130458
 21
277.0000125
 31
0.0
  0
LINE
  5
1BF
330
1F
100
AcDbEntity
  8
8
  6
________________
 62
     7
370
     0
100
AcDbLine
 10
1305.209103250945
 20
223.0000125
 30
0.0
 11
1310.74869230175
 21
223.0000125
 31
0.0
  0
LINE
  5
1C0
330
1F
100
AcDbEntity
  8
8
  6
________________
 62
     7
370
     0
100
AcDbLine
 10
1155.209093407578
 20
223.0000125
 30
0.0
 11
1160.748681820704
 21
223.0000125
 31
0.0
  0
LINE
  5
1C1
330
1F
100
AcDbEntity
  8
8
  6
________________
 62
     7
370
     0
100
AcDbLine
 10
1150.356409760441
 20
223.0000125
 30
0.0
 11
1151.356409760441
 21
223.0000125
 31
0.0
  0
LINE
  5
1C2
330
1F
100
AcDbEntity
  8
8
  6
________________
 62
     7
370
     0
100
AcDbLine
 10
1315.209100300317
 20
223.0000125
 30
0.0
 11
1319.356409760441
 21
223.0000125
 31
0.0
  0
LINE
  5
1C3
330
1F
100
AcDbEntity
  8
8
  6
________________
 62
     7
370
     0
100
AcDbLine
 10
1323.356409760441
 20
223.0000125
 30
0.0
 11
1331.356409760441
 21
223.0000125
 31
0.0
  0
LINE
  5
1C4
330
1F
100
AcDbEntity
  8
8
  6
________________
 62
     7
370
     0
100
AcDbLine
 10
1331.356409760441
 20
277.0000125
 30
0.0
 11
1323.356409760441
 21
277.0000125
 31
0.0
  0
LINE
  5
1C5
330
1F
100
AcDbEntity
  8
8
  6
________________
 62
     7
370
     0
100
AcDbLine
 10
1319.356409760441
 20
223.3000125
 30
0.0
 11
1321.356409760441
 21
223.3000125
 31
0.0
  0
LINE
  5
1C6
330
1F
100
AcDbEntity
  8
8
  6
________________
 62
     7
370
     0
100
AcDbLine
 10
1321.356409760441
 20
276.7000125
 30
0.0
 11
1319.356409760441
 21
276.7000125
 31
0.0
  0
LINE
  5
1C7
330
1F
100
AcDbEntity
  8
8
  6
________________
 62
     7
370
     0
100
AcDbLine
 10
1340.356409760441
 20
279.2318306818182
 30
0.0
 11
1340.656409760441
 21
279.2318306818182
 31
0.0
  0
LINE
  5
1C8
330
1F
100
AcDbEntity
  8
8
  6
________________
 62
     7
370
     0
100
AcDbLine
 10
1340.356409760441
 20
279.2045579545455
 30
0.0
 11
1340.656409760441
 21
279.2045579545455
 31
0.0
  0
LINE
  5
1C9
330
1F
100
AcDbEntity
  8
8
  6
________________
 62
     7
370
     0
100
AcDbLine
 10
1340.656409760441
 20
279.2318306818182
 30
0.0
 11
1340.693909760441
 21
279.2318306818182
 31
0.0
  0
LINE
  5
1CA
330
1F
100
AcDbEntity
  8
8
  6
________________
 62
     7
370
     0
100
AcDbLine
 10
1340.693909760442
 20
284.7954670454546
 30
0.0
 11
1340.656409760442
 21
284.7954670454546
 31
0.0
  0
ARC
  5
1CB
330
1F
100
AcDbEntity
  8
8
  6
________________
 62
     7
370
     0
100
AcDbCircle
 10
1407.5
 20
250.0000125
 30
0.0
 40
37.49999999999999
100
AcDbArc
 50
88.47193140538926
 51
91.5287531464949
  0
ARC
  5
1CC
330
1F
100
AcDbEntity
  8
8
  6
________________
 62
     7
370
     0
100
AcDbCircle
 10
1407.5
 20
250.0000125
 30
0.0
 40
37.50000000000009
100
AcDbArc
 50
0.0
 51
88.47193140538926
  0
LINE
  5
1CD
330
1F
100
AcDbEntity
  8
8
  6
________________
 62
     7
370
     0
100
AcDbLine
 10
1406.5
 20
286.5000125
 30
0.0
 11
1406.5
 21
287.4866767954531
 31
0.0
  0
LINE
  5
1CE
330
1F
100
AcDbEntity
  8
8
  6
________________
 62
     7
370
     0
100
AcDbLine
 10
1407.5
 20
286.5000125
 30
0.0
 11
1406.5
 21
286.5000125
 31
0.0
  0
LINE
  5
1CF
330
1F
100
AcDbEntity
  8
8
  6
________________
 62
     7
370
     0
100
AcDbLine
 10
1408.5
 20
286.5000125
 30
0.0
 11
1407.5
 21
286.5000125
 31
0.0
  0
LINE
  5
1D0
330
1F
100
AcDbEntity
  8
8
  6
________________
 62
     7
370
     0
100
AcDbLine
 10
1408.5
 20
287.4866767954531
 30
0.0
 11
1408.5
 21
286.5000125
 31
0.0
  0
ARC
  5
1D1
330
1F
100
AcDbEntity
  8
8
  6
________________
 62
     7
370
     0
100
AcDbCircle
 10
1407.5
 20
250.0000125
 30
0.0
 40
37.49999999999999
100
AcDbArc
 50
91.52806859461079
 51
0.0
  0
CIRCLE
  5
1D2
330
1F
100
AcDbEntity
  8
8
  6
________________
 62
     7
370
     0
100
AcDbCircle
 10
1407.5
 20
250.0000125
 30
0.0
 40
23.65
  0
ARC
  5
1D3
330
1F
100
AcDbEntity
  8
8
  6
________________
 62
     7
370
     0
100
AcDbCircle
 10
1407.5
 20
250.0000125
 30
0.0
 40
20.00000000000002
100
AcDbArc
 50
180.0
 51
0.0
  0
ARC
  5
1D4
330
1F
100
AcDbEntity
  8
8
  6
________________
 62
     7
370
     0
100
AcDbCircle
 10
1407.5
 20
250.0000125
 30
0.0
 40
20.00000000000002
100
AcDbArc
 50
0.0
 51
180.0
  0
MTEXT
  5
1D5
330
1F
100
AcDbEntity
  8
8
 62
     7
100
AcDbMText
 10
1310.788132786006
 20
196.8251308145946
 30
0.0
 40
6.0
 41
0.0
 46
0.0
 71
     1
 72
     1
  1
{\FＭＳ ゴシック;BMHM-40}
 73
     1
 44
1.0
  0
ENDSEC
  0
SECTION
  2
OBJECTS
  0
DICTIONARY
  5
C
330
0
100
AcDbDictionary
281
     1
  3
ACAD_GROUP
350
D
  3
ACAD_LAYOUT
350
1A
  3
ACAD_MLEADERSTYLE
350
1D7
  3
ACAD_MLINESTYLE
350
17
  3
ACAD_PLOTSETTINGS
350
19
  3
ACAD_PLOTSTYLENAME
350
E
  3
ACAD_TABLESTYLE
350
1D6
  3
ACAD_VISUALSTYLE
350
2A
  0
DICTIONARY
  5
D
102
{ACAD_REACTORS
330
C
102
}
330
C
100
AcDbDictionary
281
     1
  0
DICTIONARY
  5
1A
102
{ACAD_REACTORS
330
C
102
}
330
C
100
AcDbDictionary
281
     1
  3
Layout1
350
1E
  3
Layout2
350
26
  3
Model
350
22
  0
DICTIONARY
  5
1D7
102
{ACAD_REACTORS
330
C
102
}
330
C
100
AcDbDictionary
281
     1
  0
DICTIONARY
  5
17
102
{ACAD_REACTORS
330
C
102
}
330
C
100
AcDbDictionary
281
     1
  3
Standard
350
18
  0
DICTIONARY
  5
19
102
{ACAD_REACTORS
330
C
102
}
330
C
100
AcDbDictionary
281
     1
  0
ACDBDICTIONARYWDFLT
  5
E
102
{ACAD_REACTORS
330
C
102
}
330
C
100
AcDbDictionary
281
     1
  3
Normal
350
F
100
AcDbDictionaryWithDefault
340
F
  0
DICTIONARY
  5
1D6
102
{ACAD_REACTORS
330
C
102
}
330
C
100
AcDbDictionary
281
     1
  0
DICTIONARY
  5
2A
102
{ACAD_REACTORS
330
C
102
}
330
C
100
AcDbDictionary
281
     1
  3
2dWireframe
350
2F
  3
3D Hidden
350
31
  3
3dWireframe
350
30
  3
Basic
350
32
  3
Brighten
350
36
  3
ColorChange
350
3A
  3
Conceptual
350
34
  3
Dim
350
35
  3
Facepattern
350
39
  3
Flat
350
2B
  3
FlatWithEdges
350
2C
  3
Gouraud
350
2D
  3
GouraudWithEdges
350
2E
  3
Linepattern
350
38
  3
Realistic
350
33
  3
Thicken
350
37
  0
LAYOUT
  5
1E
102
{ACAD_REACTORS
330
1A
102
}
330
1A
100
AcDbPlotSettings
  1

  2
none_device
  4

  6

 40
0.0
 41
0.0
 42
0.0
 43
0.0
 44
0.0
 45
0.0
 46
0.0
 47
0.0
 48
0.0
 49
0.0
140
0.0
141
0.0
142
1.0
143
1.0
 70
   688
 72
     0
 73
     0
 74
     5
  7

 75
    16
 76
     0
 77
     2
 78
   300
147
1.0
148
0.0
149
0.0
100
AcDbLayout
  1
Layout1
 70
     1
 71
     1
 10
0.0
 20
0.0
 11
12.0
 21
9.0
 12
0.0
 22
0.0
 32
0.0
 14
1.000000000000000E+20
 24
1.000000000000000E+20
 34
1.000000000000000E+20
 15
-1.000000000000000E+20
 25
-1.000000000000000E+20
 35
-1.000000000000000E+20
146
0.0
 13
0.0
 23
0.0
 33
0.0
 16
1.0
 26
0.0
 36
0.0
 17
0.0
 27
1.0
 37
0.0
 76
     0
330
1B
  0
LAYOUT
  5
26
102
{ACAD_REACTORS
330
1A
102
}
330
1A
100
AcDbPlotSettings
  1

  2
none_device
  4

  6

 40
0.0
 41
0.0
 42
0.0
 43
0.0
 44
0.0
 45
0.0
 46
0.0
 47
0.0
 48
0.0
 49
0.0
140
0.0
141
0.0
142
1.0
143
1.0
 70
   688
 72
     0
 73
     0
 74
     5
  7

 75
    16
 76
     0
 77
     2
 78
   300
147
1.0
148
0.0
149
0.0
100
AcDbLayout
  1
Layout2
 70
     1
 71
     2
 10
0.0
 20
0.0
 11
0.0
 21
0.0
 12
0.0
 22
0.0
 32
0.0
 14
0.0
 24
0.0
 34
0.0
 15
0.0
 25
0.0
 35
0.0
146
0.0
 13
0.0
 23
0.0
 33
0.0
 16
1.0
 26
0.0
 36
0.0
 17
0.0
 27
1.0
 37
0.0
 76
     0
330
23
  0
LAYOUT
  5
22
102
{ACAD_REACTORS
330
1A
102
}
330
1A
100
AcDbPlotSettings
  1

  2
none_device
  4

  6

 40
0.0
 41
0.0
 42
0.0
 43
0.0
 44
0.0
 45
0.0
 46
0.0
 47
0.0
 48
0.0
 49
0.0
140
0.0
141
0.0
142
1.0
143
1.0
 70
  1712
 72
     0
 73
     0
 74
     0
  7

 75
     0
 76
     0
 77
     2
 78
   300
147
1.0
148
0.0
149
0.0
100
AcDbLayout
  1
Model
 70
     1
 71
     0
 10
0.0
 20
0.0
 11
12.0
 21
9.0
 12
0.0
 22
0.0
 32
0.0
 14
0.0
 24
0.0
 34
0.0
 15
1445.0
 25
287.5000125
 35
10.0
146
0.0
 13
0.0
 23
0.0
 33
0.0
 16
1.0
 26
0.0
 36
0.0
 17
0.0
 27
1.0
 37
0.0
 76
     0
330
1F
331
29
  0
MLINESTYLE
  5
18
102
{ACAD_REACTORS
330
17
102
}
330
17
100
AcDbMlineStyle
  2
Standard
 70
     0
  3

 62
   256
 51
90.0
 52
90.0
 71
     2
 49
0.5
 62
   256
  6
BYLAYER
 49
-0.5
 62
   256
  6
BYLAYER
  0
ACDBPLACEHOLDER
  5
F
102
{ACAD_REACTORS
330
E
102
}
330
E
  0
VISUALSTYLE
  5
2F
102
{ACAD_REACTORS
330
2A
102
}
330
2A
100
AcDbVisualStyle
  2
2dWireframe
 70
     4
 71
     0
 72
     2
 73
     0
 90
        0
 40
-0.6
 41
-30.0
 62
     5
 63
     7
421
 16777215
 74
     1
 91
        4
 64
     7
 65
   257
 75
     1
175
     1
 42
1.0
 92
        0
 66
   257
 43
1.0
 76
     1
 77
     6
 78
     2
 67
     7
 79
     5
170
     0
171
     0
290
     0
174
     0
 93
        1
 44
0.0
173
     0
291
     0
 45
0.0
  0
VISUALSTYLE
  5
31
102
{ACAD_REACTORS
330
2A
102
}
330
2A
100
AcDbVisualStyle
  2
3D Hidden
 70
     6
 71
     1
 72
     2
 73
     2
 90
        0
 40
-0.6
 41
-30.0
 62
     5
 63
     7
421
 16777215
 74
     2
 91
        2
 64
     7
 65
   257
 75
     2
175
     1
 42
40.0
 92
        0
 66
   257
 43
1.0
 76
     1
 77
     6
 78
     2
 67
     7
 79
     3
170
     0
171
     0
290
     0
174
     0
 93
        1
 44
0.0
173
     0
291
     0
 45
0.0
  0
VISUALSTYLE
  5
30
102
{ACAD_REACTORS
330
2A
102
}
330
2A
100
AcDbVisualStyle
  2
3dWireframe
 70
     5
 71
     0
 72
     2
 73
     0
 90
        0
 40
-0.6
 41
-30.0
 62
     5
 63
     7
421
 16777215
 74
     1
 91
        4
 64
     7
 65
   257
 75
     1
175
     1
 42
1.0
 92
        0
 66
   257
 43
1.0
 76
     1
 77
     6
 78
     2
 67
     7
 79
     5
170
     0
171
     0
290
     0
174
     0
 93
        1
 44
0.0
173
     0
291
     0
 45
0.0
  0
VISUALSTYLE
  5
32
102
{ACAD_REACTORS
330
2A
102
}
330
2A
100
AcDbVisualStyle
  2
Basic
 70
     7
 71
     1
 72
     0
 73
     1
 90
        0
 40
-0.6
 41
-30.0
 62
     5
 63
     7
421
 16777215
 74
     0
 91
        4
 64
     7
 65
   257
 75
     1
175
     1
 42
1.0
 92
        8
 66
     7
 43
1.0
 76
     1
 77
     6
 78
     2
 67
     7
 79
     5
170
     0
171
     0
290
     0
174
     0
 93
        1
 44
0.0
173
     0
291
     1
 45
0.0
  0
VISUALSTYLE
  5
36
102
{ACAD_REACTORS
330
2A
102
}
330
2A
100
AcDbVisualStyle
  2
Brighten
 70
    12
 71
     2
 72
     2
 73
     0
 90
        0
 40
-0.6
 41
-30.0
 62
     5
 63
     7
421
 16777215
 74
     1
 91
        4
 64
     7
 65
   257
 75
     1
175
     1
 42
1.0
 92
        8
 66
     7
 43
1.0
 76
     1
 77
     6
 78
     2
 67
     7
 79
     5
170
     0
171
     0
290
     0
174
     0
 93
        1
 44
50.0
173
     0
291
     1
 45
0.0
  0
VISUALSTYLE
  5
3A
102
{ACAD_REACTORS
330
2A
102
}
330
2A
100
AcDbVisualStyle
  2
ColorChange
 70
    16
 71
     2
 72
     2
 73
     3
 90
        0
 40
-0.6
 41
-30.0
 62
     5
 63
     8
421
  8421504
 74
     1
 91
        4
 64
     7
 65
   257
 75
     1
175
     1
 42
1.0
 92
        8
 66
     8
424
  8421504
 43
1.0
 76
     1
 77
     6
 78
     2
 67
     7
 79
     5
170
     0
171
     0
290
     0
174
     0
 93
        1
 44
0.0
173
     0
291
     1
 45
0.0
  0
VISUALSTYLE
  5
34
102
{ACAD_REACTORS
330
2A
102
}
330
2A
100
AcDbVisualStyle
  2
Conceptual
 70
     9
 71
     3
 72
     2
 73
     0
 90
        0
 40
-0.6
 41
-30.0
 62
     5
 63
     7
421
 16777215
 74
     2
 91
        2
 64
     7
 65
   257
 75
     1
175
     1
 42
40.0
 92
        8
 66
     7
 43
1.0
 76
     1
 77
     6
 78
     2
 67
     7
 79
     3
170
     0
171
     0
290
     0
174
     0
 93
        1
 44
0.0
173
     0
291
     0
 45
0.0
  0
VISUALSTYLE
  5
35
102
{ACAD_REACTORS
330
2A
102
}
330
2A
100
AcDbVisualStyle
  2
Dim
 70
    11
 71
     2
 72
     2
 73
     0
 90
        0
 40
-0.6
 41
-30.0
 62
     5
 63
     7
421
 16777215
 74
     1
 91
        4
 64
     7
 65
   257
 75
     1
175
     1
 42
1.0
 92
        8
 66
     7
 43
1.0
 76
     1
 77
     6
 78
     2
 67
     7
 79
     5
170
     0
171
     0
290
     0
174
     0
 93
        1
 44
-50.0
173
     0
291
     1
 45
0.0
  0
VISUALSTYLE
  5
39
102
{ACAD_REACTORS
330
2A
102
}
330
2A
100
AcDbVisualStyle
  2
Facepattern
 70
    15
 71
     2
 72
     2
 73
     0
 90
        0
 40
-0.6
 41
-30.0
 62
     5
 63
     7
421
 16777215
 74
     1
 91
        4
 64
     7
 65
   257
 75
     1
175
     1
 42
1.0
 92
        8
 66
     7
 43
1.0
 76
     1
 77
     6
 78
     2
 67
     7
 79
     5
170
     0
171
     0
290
     0
174
     0
 93
        1
 44
0.0
173
     0
291
     1
 45
0.0
  0
VISUALSTYLE
  5
2B
102
{ACAD_REACTORS
330
2A
102
}
330
2A
100
AcDbVisualStyle
  2
Flat
 70
     0
 71
     2
 72
     1
 73
     1
 90
        2
 40
-0.6
 41
30.0
 62
     5
 63
     7
421
 16777215
 74
     0
 91
        4
 64
     7
 65
   257
 75
     1
175
     1
 42
1.0
 92
        8
 66
     7
 43
1.0
 76
     1
 77
     6
 78
     2
 67
     7
 79
     5
170
     0
171
     0
290
     0
174
     0
 93
       13
 44
0.0
173
     0
291
     1
 45
0.0
  0
VISUALSTYLE
  5
2C
102
{ACAD_REACTORS
330
2A
102
}
330
2A
100
AcDbVisualStyle
  2
FlatWithEdges
 70
     1
 71
     2
 72
     1
 73
     1
 90
        2
 40
-0.6
 41
30.0
 62
     5
 63
     7
421
 16777215
 74
     1
 91
        4
 64
     7
 65
   257
 75
     1
175
     1
 42
1.0
 92
        0
 66
   257
 43
1.0
 76
     1
 77
     6
 78
     2
 67
     7
 79
     5
170
     0
171
     0
290
     0
174
     0
 93
       13
 44
0.0
173
     0
291
     1
 45
0.0
  0
VISUALSTYLE
  5
2D
102
{ACAD_REACTORS
330
2A
102
}
330
2A
100
AcDbVisualStyle
  2
Gouraud
 70
     2
 71
     2
 72
     2
 73
     1
 90
        2
 40
-0.6
 41
30.0
 62
     5
 63
     7
421
 16777215
 74
     0
 91
        4
 64
     7
 65
   257
 75
     1
175
     1
 42
1.0
 92
        0
 66
     7
 43
1.0
 76
     1
 77
     6
 78
     2
 67
     7
 79
     5
170
     0
171
     0
290
     0
174
     0
 93
       13
 44
0.0
173
     0
291
     1
 45
0.0
  0
VISUALSTYLE
  5
2E
102
{ACAD_REACTORS
330
2A
102
}
330
2A
100
AcDbVisualStyle
  2
GouraudWithEdges
 70
     3
 71
     2
 72
     2
 73
     1
 90
        2
 40
-0.6
 41
30.0
 62
     5
 63
     7
421
 16777215
 74
     1
 91
        4
 64
     7
 65
   257
 75
     1
175
     1
 42
1.0
 92
        0
 66
   257
 43
1.0
 76
     1
 77
     6
 78
     2
 67
     7
 79
     5
170
     0
171
     0
290
     0
174
     0
 93
       13
 44
0.0
173
     0
291
     1
 45
0.0
  0
VISUALSTYLE
  5
38
102
{ACAD_REACTORS
330
2A
102
}
330
2A
100
AcDbVisualStyle
  2
Linepattern
 70
    14
 71
     2
 72
     2
 73
     0
 90
        0
 40
-0.6
 41
-30.0
 62
     5
 63
     7
421
 16777215
 74
     1
 91
        4
 64
     7
 65
   257
 75
     7
175
     7
 42
1.0
 92
        8
 66
     7
 43
1.0
 76
     1
 77
     6
 78
     2
 67
     7
 79
     5
170
     0
171
     0
290
     0
174
     0
 93
        1
 44
0.0
173
     0
291
     1
 45
0.0
  0
VISUALSTYLE
  5
33
102
{ACAD_REACTORS
330
2A
102
}
330
2A
100
AcDbVisualStyle
  2
Realistic
 70
     8
 71
     2
 72
     2
 73
     0
 90
        0
 40
-0.6
 41
-30.0
 62
     5
 63
     7
421
 16777215
 74
     1
 91
        0
 64
     7
 65
   257
 75
     1
175
     1
 42
1.0
 92
        8
 66
     8
424
  7895160
 43
1.0
 76
     1
 77
     6
 78
     2
 67
     7
 79
     5
170
     0
171
     0
290
     0
174
     0
 93
       13
 44
0.0
173
     0
291
     0
 45
0.0
  0
VISUALSTYLE
  5
37
102
{ACAD_REACTORS
330
2A
102
}
330
2A
100
AcDbVisualStyle
  2
Thicken
 70
    13
 71
     2
 72
     2
 73
     0
 90
        0
 40
-0.6
 41
-30.0
 62
     5
 63
     7
421
 16777215
 74
     1
 91
        4
 64
     7
 65
   257
 75
     1
175
     1
 42
1.0
 92
       12
 66
     7
 43
1.0
 76
     1
 77
     6
 78
     2
 67
     7
 79
     5
170
     0
171
     0
290
     0
174
     0
 93
        1
 44
0.0
173
     0
291
     1
 45
0.0
  0
ENDSEC
  0
EOF
