  0
SECTION
  2
HEADER
  9
$ACADVER
  1
AC1021
  9
$ACADMAINTVER
 70
    25
  9
$DWGCODEPAGE
  3
ANSI_932
  9
$INSBASE
 10
0.0
 20
0.0
 30
0.0
  9
$EXTMIN
 10
0.0
 20
0.0
 30
0.0
  9
$EXTMAX
 10
880.545821636522
 20
284.7953543318529
 30
10.0
  9
$LIMMIN
 10
0.0
 20
0.0
  9
$LIMMAX
 10
12.0
 20
9.0
  9
$ORTHOMODE
 70
     0
  9
$REGENMODE
 70
     1
  9
$FILLMODE
 70
     1
  9
$QTEXTMODE
 70
     0
  9
$MIRRTEXT
 70
     1
  9
$LTSCALE
 40
1.0
  9
$ATTMODE
 70
     1
  9
$TEXTSIZE
 40
0.2
  9
$TRACEWID
 40
0.05
  9
$TEXTSTYLE
  7
Standard
  9
$CLAYER
  8
0
  9
$CELTYPE
  6
ByLayer
  9
$CECOLOR
 62
   256
  9
$CELTSCALE
 40
1.0
  9
$DISPSILH
 70
     0
  9
$DIMSCALE
 40
1.0
  9
$DIMASZ
 40
3.0
  9
$DIMEXO
 40
0.0625
  9
$DIMDLI
 40
0.38
  9
$DIMRND
 40
0.0
  9
$DIMDLE
 40
0.0
  9
$DIMEXE
 40
0.18
  9
$DIMTP
 40
0.0
  9
$DIMTM
 40
0.0
  9
$DIMTXT
 40
3.0
  9
$DIMCEN
 40
0.09
  9
$DIMTSZ
 40
0.0
  9
$DIMTOL
 70
     0
  9
$DIMLIM
 70
     0
  9
$DIMTIH
 70
     1
  9
$DIMTOH
 70
     1
  9
$DIMSE1
 70
     0
  9
$DIMSE2
 70
     0
  9
$DIMTAD
 70
     1
  9
$DIMZIN
 70
     0
  9
$DIMBLK
  1

  9
$DIMASO
 70
     1
  9
$DIMSHO
 70
     1
  9
$DIMPOST
  1

  9
$DIMAPOST
  1

  9
$DIMALT
 70
     0
  9
$DIMALTD
 70
     2
  9
$DIMALTF
 40
25.4
  9
$DIMLFAC
 40
1.0
  9
$DIMTOFL
 70
     0
  9
$DIMTVP
 40
0.0
  9
$DIMTIX
 70
     0
  9
$DIMSOXD
 70
     0
  9
$DIMSAH
 70
     0
  9
$DIMBLK1
  1

  9
$DIMBLK2
  1

  9
$DIMSTYLE
  2
Standard
  9
$DIMCLRD
 70
     0
  9
$DIMCLRE
 70
     0
  9
$DIMCLRT
 70
     0
  9
$DIMTFAC
 40
1.0
  9
$DIMGAP
 40
0.09
  9
$DIMJUST
 70
     0
  9
$DIMSD1
 70
     0
  9
$DIMSD2
 70
     0
  9
$DIMTOLJ
 70
     1
  9
$DIMTZIN
 70
     0
  9
$DIMALTZ
 70
     0
  9
$DIMALTTZ
 70
     0
  9
$DIMUPT
 70
     0
  9
$DIMDEC
 70
     2
  9
$DIMTDEC
 70
     4
  9
$DIMALTU
 70
     2
  9
$DIMALTTD
 70
     2
  9
$DIMTXSTY
  7
Standard
  9
$DIMAUNIT
 70
     0
  9
$DIMADEC
 70
     2
  9
$DIMALTRND
 40
0.0
  9
$DIMAZIN
 70
     0
  9
$DIMDSEP
 70
    46
  9
$DIMATFIT
 70
     3
  9
$DIMFRAC
 70
     0
  9
$DIMLDRBLK
  1

  9
$DIMLUNIT
 70
     2
  9
$DIMLWD
 70
    -2
  9
$DIMLWE
 70
    -2
  9
$DIMTMOVE
 70
     0
  9
$DIMFXL
 40
1.0
  9
$DIMFXLON
 70
     0
  9
$DIMJOGANG
 40
0.7853981633974483
  9
$DIMTFILL
 70
     0
  9
$DIMTFILLCLR
 70
     0
  9
$DIMARCSYM
 70
     0
  9
$DIMLTYPE
  6

  9
$DIMLTEX1
  6

  9
$DIMLTEX2
  6

  9
$LUNITS
 70
     2
  9
$LUPREC
 70
     4
  9
$SKETCHINC
 40
0.1
  9
$FILLETRAD
 40
0.5
  9
$AUNITS
 70
     0
  9
$AUPREC
 70
     0
  9
$MENU
  1
.
  9
$ELEVATION
 40
0.0
  9
$PELEVATION
 40
0.0
  9
$THICKNESS
 40
0.0
  9
$LIMCHECK
 70
     0
  9
$CHAMFERA
 40
0.5
  9
$CHAMFERB
 40
0.5
  9
$CHAMFERC
 40
1.0
  9
$CHAMFERD
 40
0.0
  9
$SKPOLY
 70
     0
  9
$TDCREATE
 40
2459298.583447477
  9
$TDUCREATE
 40
2459298.208447477
  9
$TDUPDATE
 40
2459298.583447488
  9
$TDUUPDATE
 40
2459298.208447488
  9
$TDINDWG
 40
0.0000000116
  9
$TDUSRTIMER
 40
0.0000000116
  9
$USRTIMER
 70
     1
  9
$ANGBASE
 50
0.0
  9
$ANGDIR
 70
     0
  9
$PDMODE
 70
     0
  9
$PDSIZE
 40
0.0
  9
$PLINEWID
 40
0.0
  9
$SPLFRAME
 70
     0
  9
$SPLINETYPE
 70
     6
  9
$SPLINESEGS
 70
     8
  9
$HANDSEED
  5
1E6
  9
$SURFTAB1
 70
     6
  9
$SURFTAB2
 70
     6
  9
$SURFTYPE
 70
     6
  9
$SURFU
 70
     6
  9
$SURFV
 70
     6
  9
$UCSBASE
  2

  9
$UCSNAME
  2

  9
$UCSORG
 10
0.0
 20
0.0
 30
0.0
  9
$UCSXDIR
 10
1.0
 20
0.0
 30
0.0
  9
$UCSYDIR
 10
0.0
 20
1.0
 30
0.0
  9
$UCSORTHOREF
  2

  9
$UCSORTHOVIEW
 70
     0
  9
$UCSORGTOP
 10
0.0
 20
0.0
 30
0.0
  9
$UCSORGBOTTOM
 10
0.0
 20
0.0
 30
0.0
  9
$UCSORGLEFT
 10
0.0
 20
0.0
 30
0.0
  9
$UCSORGRIGHT
 10
0.0
 20
0.0
 30
0.0
  9
$UCSORGFRONT
 10
0.0
 20
0.0
 30
0.0
  9
$UCSORGBACK
 10
0.0
 20
0.0
 30
0.0
  9
$PUCSBASE
  2

  9
$PUCSNAME
  2

  9
$PUCSORG
 10
0.0
 20
0.0
 30
0.0
  9
$PUCSXDIR
 10
1.0
 20
0.0
 30
0.0
  9
$PUCSYDIR
 10
0.0
 20
1.0
 30
0.0
  9
$PUCSORTHOREF
  2

  9
$PUCSORTHOVIEW
 70
     0
  9
$PUCSORGTOP
 10
0.0
 20
0.0
 30
0.0
  9
$PUCSORGBOTTOM
 10
0.0
 20
0.0
 30
0.0
  9
$PUCSORGLEFT
 10
0.0
 20
0.0
 30
0.0
  9
$PUCSORGRIGHT
 10
0.0
 20
0.0
 30
0.0
  9
$PUCSORGFRONT
 10
0.0
 20
0.0
 30
0.0
  9
$PUCSORGBACK
 10
0.0
 20
0.0
 30
0.0
  9
$USERI1
 70
     0
  9
$USERI2
 70
     0
  9
$USERI3
 70
     0
  9
$USERI4
 70
     0
  9
$USERI5
 70
     0
  9
$USERR1
 40
0.0
  9
$USERR2
 40
0.0
  9
$USERR3
 40
0.0
  9
$USERR4
 40
0.0
  9
$USERR5
 40
0.0
  9
$WORLDVIEW
 70
     1
  9
$SHADEDGE
 70
     3
  9
$SHADEDIF
 70
    70
  9
$TILEMODE
 70
     1
  9
$MAXACTVP
 70
    64
  9
$PINSBASE
 10
0.0
 20
0.0
 30
0.0
  9
$PLIMCHECK
 70
     0
  9
$PEXTMIN
 10
1.000000000000000E+20
 20
1.000000000000000E+20
 30
1.000000000000000E+20
  9
$PEXTMAX
 10
-1.000000000000000E+20
 20
-1.000000000000000E+20
 30
-1.000000000000000E+20
  9
$PLIMMIN
 10
0.0
 20
0.0
  9
$PLIMMAX
 10
12.0
 20
9.0
  9
$UNITMODE
 70
     0
  9
$VISRETAIN
 70
     1
  9
$PLINEGEN
 70
     0
  9
$PSLTSCALE
 70
     1
  9
$TREEDEPTH
 70
  3020
  9
$CMLSTYLE
  2
Standard
  9
$CMLJUST
 70
     0
  9
$CMLSCALE
 40
1.0
  9
$PROXYGRAPHICS
 70
     1
  9
$MEASUREMENT
 70
     1
  9
$CELWEIGHT
370
    -1
  9
$ENDCAPS
280
     0
  9
$JOINSTYLE
280
     0
  9
$LWDISPLAY
290
     1
  9
$INSUNITS
 70
     4
  9
$HYPERLINKBASE
  1

  9
$STYLESHEET
  1

  9
$XEDIT
290
     1
  9
$CEPSNTYPE
380
     0
  9
$PSTYLEMODE
290
     1
  9
$FINGERPRINTGUID
  2
{ACD449CF-4652-418B-9A43-99F08611CB27}
  9
$VERSIONGUID
  2
{FAEB1C32-E019-11D5-929B-00C0DF256EC4}
  9
$EXTNAMES
290
     1
  9
$PSVPSCALE
 40
0.0
  9
$OLESTARTUP
290
     0
  9
$SORTENTS
280
   127
  9
$INDEXCTL
280
     0
  9
$HIDETEXT
280
     1
  9
$XCLIPFRAME
290
     0
  9
$HALOGAP
280
     0
  9
$OBSCOLOR
 70
   257
  9
$OBSLTYPE
280
     0
  9
$INTERSECTIONDISPLAY
280
     0
  9
$INTERSECTIONCOLOR
 70
   257
  9
$DIMASSOC
280
     2
  9
$PROJECTNAME
  1

  9
$CAMERADISPLAY
290
     0
  9
$LENSLENGTH
 40
50.0
  9
$CAMERAHEIGHT
 40
0.0
  9
$STEPSPERSEC
 40
2.0
  9
$STEPSIZE
 40
6.0
  9
$3DDWFPREC
 40
2.0
  9
$PSOLWIDTH
 40
0.25
  9
$PSOLHEIGHT
 40
4.0
  9
$LOFTANG1
 40
1.570796326794897
  9
$LOFTANG2
 40
1.570796326794897
  9
$LOFTMAG1
 40
0.0
  9
$LOFTMAG2
 40
0.0
  9
$LOFTPARAM
 70
     7
  9
$LOFTNORMALS
280
     1
  9
$LATITUDE
 40
37.795
  9
$LONGITUDE
 40
-122.394
  9
$NORTHDIRECTION
 40
0.0
  9
$TIMEZONE
 70
 -8000
  9
$LIGHTGLYPHDISPLAY
280
     1
  9
$TILEMODELIGHTSYNCH
280
     1
  9
$SOLIDHIST
280
     1
  9
$SHOWHIST
280
     1
  9
$DWFFRAME
280
     2
  9
$DGNFRAME
280
     2
  9
$REALWORLDSCALE
290
     1
  9
$INTERFERECOLOR
 62
   256
  9
$CSHADOW
280
     0
  9
$SHADOWPLANELOCATION
 40
0.0
  0
ENDSEC
  0
SECTION
  2
CLASSES
  0
CLASS
  1
ACDBDICTIONARYWDFLT
  2
AcDbDictionaryWithDefault
  3
ObjectDBX Classes
 90
        0
 91
        4
280
     0
281
     0
  0
CLASS
  1
VISUALSTYLE
  2
AcDbVisualStyle
  3
ObjectDBX Classes
 90
     4095
 91
        4
280
     0
281
     0
  0
ENDSEC
  0
SECTION
  2
TABLES
  0
TABLE
  2
VPORT
  5
8
330
0
100
AcDbSymbolTable
 70
     1
  0
VPORT
  5
29
330
8
100
AcDbSymbolTableRecord
100
AcDbViewportTableRecord
  2
*Active
 70
     0
 10
0.0
 20
0.0
 11
1.0
 21
1.0
 12
440.272910818261
 22
142.3976771659264
 13
0.0
 23
0.0
 14
0.5
 24
0.5
 15
0.5
 25
0.5
 16
0.0
 26
0.0
 36
1.0
 17
0.0
 27
0.0
 37
0.0
 40
284.7953543318529
 41
1.6
 42
50.0
 43
0.0
 44
0.0
 50
0.0
 51
0.0
 71
     0
 72
   100
 73
     1
 74
     3
 75
     0
 76
     0
 77
     0
 78
     0
281
     0
 65
     1
110
0.0
120
0.0
130
0.0
111
1.0
121
0.0
131
0.0
112
0.0
122
1.0
132
0.0
 79
     0
146
0.0
 60
     3
 61
     5
292
     1
282
     1
141
0.0
142
0.0
 63
   250
  0
ENDTAB
  0
TABLE
  2
LTYPE
  5
5
330
0
100
AcDbSymbolTable
 70
     2
  0
LTYPE
  5
14
330
5
100
AcDbSymbolTableRecord
100
AcDbLinetypeTableRecord
  2
ByBlock
 70
     0
  3

 72
    65
 73
     0
 40
0.0
  0
LTYPE
  5
15
330
5
100
AcDbSymbolTableRecord
100
AcDbLinetypeTableRecord
  2
ByLayer
 70
     0
  3

 72
    65
 73
     0
 40
0.0
  0
LTYPE
  5
16
330
5
100
AcDbSymbolTableRecord
100
AcDbLinetypeTableRecord
  2
Continuous
 70
     0
  3
Solid line
 72
    65
 73
     0
 40
0.0
  0
LTYPE
  5
3D
330
5
100
AcDbSymbolTableRecord
100
AcDbLinetypeTableRecord
  2
________________
 70
     0
  3

 72
    65
 73
     0
 40
0.0
  0
ENDTAB
  0
TABLE
  2
LAYER
  5
2
330
0
100
AcDbSymbolTable
 70
     2
  0
LAYER
  5
10
330
2
100
AcDbSymbolTableRecord
100
AcDbLayerTableRecord
  2
0
 70
     0
 62
     7
  6
Continuous
370
    -3
390
F
347
0
  0
LAYER
  5
3B
330
2
100
AcDbSymbolTableRecord
100
AcDbLayerTableRecord
  2
2
 70
     0
 62
     7
  6
Continuous
370
    -3
390
F
347
0
  0
ENDTAB
  0
TABLE
  2
STYLE
  5
3
330
0
100
AcDbSymbolTable
 70
     1
  0
STYLE
  5
11
330
3
100
AcDbSymbolTableRecord
100
AcDbTextStyleTableRecord
  2
Standard
 70
     0
 40
0.0
 41
1.0
 50
0.0
 71
     0
 42
0.2
  3
txt
  4

  0
ENDTAB
  0
TABLE
  2
VIEW
  5
6
330
0
100
AcDbSymbolTable
 70
     0
  0
ENDTAB
  0
TABLE
  2
UCS
  5
7
330
0
100
AcDbSymbolTable
 70
     0
  0
ENDTAB
  0
TABLE
  2
APPID
  5
9
330
0
100
AcDbSymbolTable
 70
     1
  0
APPID
  5
12
330
9
100
AcDbSymbolTableRecord
100
AcDbRegAppTableRecord
  2
ACAD
 70
     0
  0
ENDTAB
  0
TABLE
  2
DIMSTYLE
  5
A
330
0
100
AcDbSymbolTable
 70
     1
100
AcDbDimStyleTable
  0
DIMSTYLE
105
27
330
A
100
AcDbSymbolTableRecord
100
AcDbDimStyleTableRecord
  2
Standard
 70
     0
340
11
  0
ENDTAB
  0
TABLE
  2
BLOCK_RECORD
  5
1
330
0
100
AcDbSymbolTable
 70
     1
  0
BLOCK_RECORD
  5
1F
330
1
100
AcDbSymbolTableRecord
100
AcDbBlockTableRecord
  2
*Model_Space
340
22
 70
     0
280
     1
281
     0
  0
BLOCK_RECORD
  5
1B
330
1
100
AcDbSymbolTableRecord
100
AcDbBlockTableRecord
  2
*Paper_Space
340
1E
 70
     0
280
     1
281
     0
  0
BLOCK_RECORD
  5
23
330
1
100
AcDbSymbolTableRecord
100
AcDbBlockTableRecord
  2
*Paper_Space0
340
26
 70
     0
280
     1
281
     0
  0
ENDTAB
  0
ENDSEC
  0
SECTION
  2
BLOCKS
  0
BLOCK
  5
20
330
1F
100
AcDbEntity
  8
0
100
AcDbBlockBegin
  2
*Model_Space
 70
     0
 10
0.0
 20
0.0
 30
0.0
  3
*Model_Space
  1

  0
ENDBLK
  5
21
330
1F
100
AcDbEntity
  8
0
100
AcDbBlockEnd
  0
BLOCK
  5
1C
330
1B
100
AcDbEntity
 67
     1
  8
0
100
AcDbBlockBegin
  2
*Paper_Space
 70
     0
 10
0.0
 20
0.0
 30
0.0
  3
*Paper_Space
  1

  0
ENDBLK
  5
1D
330
1B
100
AcDbEntity
 67
     1
  8
0
100
AcDbBlockEnd
  0
BLOCK
  5
24
330
23
100
AcDbEntity
  8
0
100
AcDbBlockBegin
  2
*Paper_Space0
 70
     0
 10
0.0
 20
0.0
 30
0.0
  3
*Paper_Space0
  1

  0
ENDBLK
  5
25
330
23
100
AcDbEntity
  8
0
100
AcDbBlockEnd
  0
ENDSEC
  0
SECTION
  2
ENTITIES
  0
LINE
  5
3C
330
1F
100
AcDbEntity
  8
2
  6
________________
 62
     7
370
     9
100
AcDbLine
 10
757.9045899154033
 20
244.5049647519696
 30
0.0
 11
759.0506652570518
 21
212.2800584014921
 31
0.0
  0
LINE
  5
3E
330
1F
100
AcDbEntity
  8
2
  6
________________
 62
     7
370
     9
100
AcDbLine
 10
759.0506652570518
 20
212.2800584014921
 30
0.0
 11
759.3080074281373
 21
204.9823764428834
 31
0.0
  0
LINE
  5
3F
330
1F
100
AcDbEntity
  8
2
  6
________________
 62
     7
370
     9
100
AcDbLine
 10
759.090429497059
 20
211.1524621663792
 30
0.0
 11
759.0309820768096
 21
212.836547324447
 31
0.0
  0
LINE
  5
40
330
1F
100
AcDbEntity
  8
2
  6
________________
 62
     7
370
     9
100
AcDbLine
 10
756.4494760446601
 20
284.7934942367975
 30
0.0
 11
757.9045899154033
 21
244.5049647519697
 31
0.0
  0
LINE
  5
41
330
1F
100
AcDbEntity
  8
2
  6
________________
 62
     7
370
     9
100
AcDbLine
 10
758.8564097604418
 20
284.1359439061748
 30
0.0
 11
758.8564097604418
 21
284.1485582914187
 31
0.0
  0
LINE
  5
42
330
1F
100
AcDbEntity
  8
2
  6
________________
 62
     7
370
     9
100
AcDbLine
 10
766.8564097604418
 20
281.9916290474227
 30
0.0
 11
758.8564097604418
 21
284.1359439061747
 31
0.0
  0
LINE
  5
43
330
1F
100
AcDbEntity
  8
2
  6
________________
 62
     7
370
     9
100
AcDbLine
 10
766.8564097604418
 20
281.9916290474227
 30
0.0
 11
766.8564097604418
 21
207.0049647519696
 31
0.0
  0
LINE
  5
44
330
1F
100
AcDbEntity
  8
2
  6
________________
 62
     7
370
     9
100
AcDbLine
 10
753.8564097604418
 20
273.5049647519696
 30
0.0
 11
753.8564097604418
 21
215.5049647519697
 31
0.0
  0
LINE
  5
45
330
1F
100
AcDbEntity
  8
2
  6
________________
 62
     7
370
     9
100
AcDbLine
 10
656.8113508107765
 20
282.0049647519696
 30
0.0
 11
656.8113508107765
 21
207.0049647519696
 31
0.0
  0
LINE
  5
46
330
1F
100
AcDbEntity
  8
2
  6
________________
 62
     7
370
     9
100
AcDbLine
 10
652.8564097604418
 20
216.9786649204387
 30
0.0
 11
652.8564097604418
 21
207.0332550949689
 31
0.0
  0
LINE
  5
47
330
1F
100
AcDbEntity
  8
2
  6
________________
 62
     7
370
     9
100
AcDbLine
 10
652.8564097604418
 20
243.0486078652711
 30
0.0
 11
652.8564097604418
 21
219.0382645812632
 31
0.0
  0
LINE
  5
48
330
1F
100
AcDbEntity
  8
2
  6
________________
 62
     7
370
     9
100
AcDbLine
 10
652.8564097604418
 20
269.971664922676
 30
0.0
 11
652.8564097604418
 21
245.9613216386681
 31
0.0
  0
LINE
  5
49
330
1F
100
AcDbEntity
  8
2
  6
________________
 62
     7
370
     9
100
AcDbLine
 10
652.8564097604418
 20
281.9766744089704
 30
0.0
 11
652.8564097604418
 21
272.0312645835005
 31
0.0
  0
ELLIPSE
  5
4A
330
1F
100
AcDbEntity
  8
2
  6
________________
 62
     7
370
     9
100
AcDbEllipse
 10
633.9949017429159
 20
245.9419035468455
 30
0.0
 11
-0.01569448332119916
 21
0.4997536224914034
 31
0.0
210
0.0
220
0.0
230
1.0
 40
0.513825155168135
 41
0.0
 42
0.1486904386372672
  0
ELLIPSE
  5
4B
330
1F
100
AcDbEntity
  8
2
  6
________________
 62
     7
370
     9
100
AcDbEllipse
 10
633.9949017429159
 20
245.9419035468455
 30
0.0
 11
-0.01569448332123265
 21
0.4997536224914033
 31
0.0
210
0.0
220
0.0
230
0.9999999999999998
 40
0.5138251551681334
 41
-0.0610429918220394
 42
0.0
  0
LINE
  5
4C
330
1F
100
AcDbEntity
  8
2
  6
________________
 62
     7
370
     9
100
AcDbLine
 10
633.9949017429159
 20
246.4419035468455
 30
0.0
 11
633.9949017429159
 21
246.4412183142227
 31
0.0
  0
ELLIPSE
  5
4D
330
1F
100
AcDbEntity
  8
2
  6
________________
 62
     7
370
     9
100
AcDbEllipse
 10
633.9949017429159
 20
243.0680259570938
 30
0.0
 11
0.01569448332119918
 21
0.4997536224914039
 31
0.0
210
0.0
220
0.0
230
1.0
 40
0.5138251551681352
 41
3.141592653589793
 42
3.202635645411815
  0
LINE
  5
4E
330
1F
100
AcDbEntity
  8
2
  6
________________
 62
     7
370
     9
100
AcDbLine
 10
633.9949017429159
 20
242.5680259570938
 30
0.0
 11
633.9949017429159
 21
242.5687111897165
 31
0.0
  0
ELLIPSE
  5
4F
330
1F
100
AcDbEntity
  8
2
  6
________________
 62
     7
370
     9
100
AcDbEllipse
 10
633.9949017429159
 20
243.0680259570938
 30
0.0
 11
0.01569448332120271
 21
0.4997536224914035
 31
3.851859888774472E-34
210
-2.418118031199228E-35
220
-7.699923730977515E-34
230
1.0
 40
0.5138251551681319
 41
2.992900998154251
 42
3.141592653589793
  0
ELLIPSE
  5
50
330
1F
100
AcDbEntity
  8
2
  6
________________
 62
     7
370
     9
100
AcDbEllipse
 10
629.3564097604418
 20
243.2136962885072
 30
0.0
 11
0.01569472572788347
 21
0.4997536148786981
 31
0.0
210
0.0
220
0.0
230
0.9999999999999998
 40
0.5138309960504424
 41
2.992807688898433
 42
3.141592653589809
  0
LINE
  5
51
330
1F
100
AcDbEntity
  8
2
  6
________________
 62
     7
370
     9
100
AcDbLine
 10
628.8564097604418
 20
243.2136962885072
 30
0.0
 11
628.8564097604418
 21
245.796233215432
 31
0.0
  0
ELLIPSE
  5
52
330
1F
100
AcDbEntity
  8
2
  6
________________
 62
     7
370
     9
100
AcDbEllipse
 10
629.3564097604418
 20
245.796233215432
 30
0.0
 11
-0.01569472572787724
 21
0.4997536148786991
 31
0.0
210
0.0
220
0.0
230
0.9999999999999998
 40
0.5138309960504381
 41
0.0
 42
0.1487837355245512
  0
LINE
  5
53
330
1F
100
AcDbEntity
  8
2
  6
________________
 62
     7
370
     9
100
AcDbLine
 10
652.8564097604418
 20
267.5922050801256
 30
0.0
 11
642.269254017694
 21
266.9724187699572
 31
0.0
  0
LINE
  5
54
330
1F
100
AcDbEntity
  8
2
  6
________________
 62
     7
370
     9
100
AcDbLine
 10
652.8564097604418
 20
221.4177244238136
 30
0.0
 11
642.269254017694
 21
222.037510733982
 31
0.0
  0
ELLIPSE
  5
55
330
1F
100
AcDbEntity
  8
2
  6
________________
 62
     7
370
     9
100
AcDbEllipse
 10
642.3564097604418
 20
222.7040950963676
 30
0.0
 11
1.000000000000001
 21
-1.324995782745888E-16
 31
-2.465190328815664E-32
210
-2.465190328815661E-32
220
3.266366789346698E-48
230
-1.0
 40
0.6691306063588582
 41
1.658062789394658
 42
2.936289366968457
  0
LINE
  5
56
330
1F
100
AcDbEntity
  8
2
  6
________________
 62
     7
370
     9
100
AcDbLine
 10
641.3564097604418
 20
222.7197073090289
 30
0.0
 11
641.3774105601458
 21
222.5676833964621
 31
0.0
  0
LINE
  5
57
330
1F
100
AcDbEntity
  8
2
  6
________________
 62
     7
370
     9
100
AcDbLine
 10
641.3564097604418
 20
242.5680259570938
 30
0.0
 11
641.3564097604418
 21
222.7197073090289
 31
0.0
  0
LINE
  5
58
330
1F
100
AcDbEntity
  8
2
  6
________________
 62
     7
370
     9
100
AcDbLine
 10
641.3774105601458
 20
266.4422461074771
 30
0.0
 11
641.3564097604418
 21
266.2902221949103
 31
0.0
  0
ELLIPSE
  5
59
330
1F
100
AcDbEntity
  8
2
  6
________________
 62
     7
370
     9
100
AcDbEllipse
 10
642.3564097604418
 20
266.3058344075716
 30
0.0
 11
1.000000000000001
 21
-2.036397205225053E-16
 31
-2.465190328815664E-32
210
2.465190328815661E-32
220
-5.020106695948041E-48
230
1.0
 40
0.6691306063588581
 41
1.658062789394658
 42
2.936289366968462
  0
LINE
  5
5A
330
1F
100
AcDbEntity
  8
2
  6
________________
 62
     7
370
     9
100
AcDbLine
 10
641.3564097604418
 20
266.2902221949104
 30
0.0
 11
641.3564097604418
 21
246.4419035468455
 31
0.0
  0
LINE
  5
5B
330
1F
100
AcDbEntity
  8
2
  6
________________
 62
     7
370
     9
100
AcDbLine
 10
628.8564097604418
 20
241.9562014360437
 30
0.0
 11
628.8564097604418
 21
243.1854638185773
 31
0.0
  0
LINE
  5
5C
330
1F
100
AcDbEntity
  8
2
  6
________________
 62
     7
370
     9
100
AcDbLine
 10
628.8564097604418
 20
245.7976272787694
 30
0.0
 11
628.8564097604418
 21
247.0537280678955
 31
0.0
  0
LINE
  5
5D
330
1F
100
AcDbEntity
  8
2
  6
________________
 62
     7
370
     9
100
AcDbLine
 10
628.8564097604418
 20
241.9562014360437
 30
0.0
 11
628.8564097604418
 21
223.8935581937661
 31
0.0
  0
LINE
  5
5E
330
1F
100
AcDbEntity
  8
2
  6
________________
 62
     7
370
     9
100
AcDbLine
 10
628.8564097604418
 20
265.1163713101731
 30
0.0
 11
628.8564097604418
 21
247.0537280678955
 31
0.0
  0
LINE
  5
5F
330
1F
100
AcDbEntity
  8
2
  6
________________
 62
     7
370
     9
100
AcDbLine
 10
628.8564097604418
 20
266.8214708646987
 30
0.0
 11
628.8564097604418
 21
267.7696708532575
 31
0.0
  0
LINE
  5
60
330
1F
100
AcDbEntity
  8
2
  6
________________
 62
     7
370
     9
100
AcDbLine
 10
628.8564097604418
 20
221.2402586506817
 30
0.0
 11
628.8564097604418
 21
222.1884586392405
 31
0.0
  0
LINE
  5
61
330
1F
100
AcDbEntity
  8
2
  6
________________
 62
     7
370
     9
100
AcDbLine
 10
628.8564097604418
 20
219.4141292769884
 30
0.0
 11
628.8564097604418
 21
221.2402586506818
 31
0.0
  0
LINE
  5
62
330
1F
100
AcDbEntity
  8
2
  6
________________
 62
     7
370
     9
100
AcDbLine
 10
628.8564097604418
 20
267.7696708532575
 30
0.0
 11
628.8564097604418
 21
269.5958002269509
 31
0.0
  0
LINE
  5
63
330
1F
100
AcDbEntity
  8
2
  6
________________
 62
     7
370
     9
100
AcDbLine
 10
628.8564097604418
 20
266.719878183799
 30
0.0
 11
628.8564097604418
 21
266.8214708646987
 31
0.0
  0
LINE
  5
64
330
1F
100
AcDbEntity
  8
2
  6
________________
 62
     7
370
     9
100
AcDbLine
 10
628.8564097604418
 20
265.1163713101731
 30
0.0
 11
628.8564097604418
 21
266.6207064859713
 31
0.0
  0
LINE
  5
65
330
1F
100
AcDbEntity
  8
2
  6
________________
 62
     7
370
     9
100
AcDbLine
 10
628.8564097604418
 20
266.6207064859713
 30
0.0
 11
628.8564097604418
 21
266.719878183799
 31
0.0
  0
LINE
  5
66
330
1F
100
AcDbEntity
  8
2
  6
________________
 62
     7
370
     9
100
AcDbLine
 10
628.8564097604418
 20
222.2829942031312
 30
0.0
 11
628.8564097604418
 21
222.3814572715903
 31
0.0
  0
LINE
  5
67
330
1F
100
AcDbEntity
  8
2
  6
________________
 62
     7
370
     9
100
AcDbLine
 10
628.8564097604418
 20
222.3814572715903
 30
0.0
 11
628.8564097604418
 21
223.8935581937661
 31
0.0
  0
LINE
  5
68
330
1F
100
AcDbEntity
  8
2
  6
________________
 62
     7
370
     9
100
AcDbLine
 10
628.8564097604418
 20
222.1884586392405
 30
0.0
 11
628.8564097604418
 21
222.2829942031312
 31
0.0
  0
LINE
  5
69
330
1F
100
AcDbEntity
  8
2
  6
________________
 62
     7
370
     9
100
AcDbLine
 10
652.8564097604418
 20
210.0489111077747
 30
0.0
 11
642.269254017694
 21
210.9738978124462
 31
0.0
  0
LINE
  5
6A
330
1F
100
AcDbEntity
  8
2
  6
________________
 62
     7
370
     9
100
AcDbLine
 10
652.8564097604418
 20
278.9610183961645
 30
0.0
 11
642.269254017694
 21
278.036031691493
 31
0.0
  0
ELLIPSE
  5
6B
330
1F
100
AcDbEntity
  8
2
  6
________________
 62
     7
370
     9
100
AcDbEllipse
 10
642.3564097604418
 20
211.9687272603266
 30
0.0
 11
1.000000000000001
 21
1.057352668858568E-14
 31
0.0
210
0.0
220
0.0
230
-1.0
 40
0.9986295347545737
 41
1.658062789394671
 42
2.936289366968407
  0
LINE
  5
6C
330
1F
100
AcDbEntity
  8
2
  6
________________
 62
     7
370
     9
100
AcDbLine
 10
641.3679487821635
 20
211.8174785185791
 30
0.0
 11
641.3774105601459
 21
211.7651425623361
 31
0.0
  0
LINE
  5
6D
330
1F
100
AcDbEntity
  8
2
  6
________________
 62
     7
370
     9
100
AcDbLine
 10
641.3564097604418
 20
211.969833190954
 30
0.0
 11
641.3679565736608
 21
211.81747971135
 31
0.0
  0
LINE
  5
6E
330
1F
100
AcDbEntity
  8
2
  6
________________
 62
     7
370
     9
100
AcDbLine
 10
641.3564097604418
 20
216.8456822515257
 30
0.0
 11
641.3564097604418
 21
211.9698331909541
 31
0.0
  0
LINE
  5
6F
330
1F
100
AcDbEntity
  8
2
  6
________________
 62
     7
370
     9
100
AcDbLine
 10
641.3679565736606
 20
277.1924497925892
 30
0.0
 11
641.3564097604417
 21
277.0400963129851
 31
0.0
  0
LINE
  5
70
330
1F
100
AcDbEntity
  8
2
  6
________________
 62
     7
370
     9
100
AcDbLine
 10
641.3774105601458
 20
277.2447869416031
 30
0.0
 11
641.3679487821635
 21
277.1924509853602
 31
0.0
  0
ELLIPSE
  5
71
330
1F
100
AcDbEntity
  8
2
  6
________________
 62
     7
370
     9
100
AcDbEllipse
 10
642.3564097604418
 20
277.0412022436126
 30
0.0
 11
1.000000000000001
 21
-1.330806517879236E-14
 31
-2.465190328815664E-32
210
2.465190328815661E-32
220
-3.280691357400736E-46
230
1.0
 40
0.9986295347545737
 41
1.658062789394671
 42
2.936289366968407
  0
LINE
  5
72
330
1F
100
AcDbEntity
  8
2
  6
________________
 62
     7
370
     9
100
AcDbLine
 10
641.3564097604418
 20
277.0400963129853
 30
0.0
 11
641.3564097604418
 21
272.1642472524135
 31
0.0
  0
LINE
  5
73
330
1F
100
AcDbEntity
  8
2
  6
________________
 62
     7
370
     9
100
AcDbLine
 10
628.8564097604418
 20
219.4141292769884
 30
0.0
 11
628.8564097604418
 21
212.8072707418465
 31
0.0
  0
LINE
  5
74
330
1F
100
AcDbEntity
  8
2
  6
________________
 62
     7
370
     9
100
AcDbLine
 10
628.8564097604418
 20
276.2026587620927
 30
0.0
 11
628.8564097604418
 21
269.5958002269508
 31
0.0
  0
LINE
  5
75
330
1F
100
AcDbEntity
  8
2
  6
________________
 62
     7
370
     9
100
AcDbLine
 10
628.8564097604418
 20
276.2026587620926
 30
0.0
 11
628.8564097604418
 21
277.2823754961234
 31
0.0
  0
LINE
  5
76
330
1F
100
AcDbEntity
  8
2
  6
________________
 62
     7
370
     9
100
AcDbLine
 10
628.8564097604418
 20
211.7275540078158
 30
0.0
 11
628.8564097604418
 21
212.8072707418466
 31
0.0
  0
LINE
  5
77
330
1F
100
AcDbEntity
  8
2
  6
________________
 62
     7
370
     9
100
AcDbLine
 10
628.8564097604418
 20
277.2823754961234
 30
0.0
 11
628.8564097604418
 21
278.6974961084975
 31
0.0
  0
LINE
  5
78
330
1F
100
AcDbEntity
  8
2
  6
________________
 62
     7
370
     9
100
AcDbLine
 10
628.8564097604418
 20
210.3124333954417
 30
0.0
 11
628.8564097604418
 21
211.7275540078158
 31
0.0
  0
LINE
  5
79
330
1F
100
AcDbEntity
  8
2
  6
________________
 62
     7
370
     9
100
AcDbLine
 10
628.8564097604418
 20
210.2880599414541
 30
0.0
 11
628.8564097604418
 21
210.3124333954417
 31
0.0
  0
LINE
  5
7A
330
1F
100
AcDbEntity
  8
2
  6
________________
 62
     7
370
     9
100
AcDbLine
 10
628.8564097604418
 20
278.6974961084976
 30
0.0
 11
628.8564097604418
 21
278.7218695624851
 31
0.0
  0
LWPOLYLINE
  5
7B
330
1F
100
AcDbEntity
  8
2
  6
________________
 62
     7
370
     9
100
AcDbPolyline
 90
       38
 70
     0
 43
0.0
 10
772.8563159650062
 20
281.0049647519696
 10
772.8545200262098
 20
281.0527347094452
 10
772.8504943649893
 20
281.0999118992634
 10
772.8443122584512
 20
281.1463961751854
 10
772.8360506083794
 20
281.1920938669538
 10
772.8257894665859
 20
281.2369177994378
 10
772.8136115748084
 20
281.2807872828106
 10
772.7996019204303
 20
281.3236280757201
 10
772.7838473091168
 20
281.3653723234137
 10
772.7664359552995
 20
281.4059584727752
 10
772.7474570912702
 20
281.4453311662102
 10
772.7270005955014
 20
281.4834411162911
 10
772.7051566406566
 20
281.5202449630319
 10
772.6820153616231
 20
281.5557051156213
 10
772.6576665437697
 20
281.5897895803903
 10
772.6321993315113
 20
281.6224717767293
 10
772.6057019571573
 20
281.6537303426099
 10
772.578261489912
 20
281.6835489312978
 10
772.5499636048091
 20
281.7119160007705
 10
772.5208923712744
 20
281.7388245972813
 10
772.4911300609367
 20
281.764272134433
 10
772.4570748951431
 20
281.7910408751346
 10
772.4223631522534
 20
281.8159869203994
 10
772.3871008847565
 20
281.8391240341961
 10
772.3513903536171
 20
281.8604713447027
 10
772.3153298538336
 20
281.8800529476232
 10
772.2796637912112
 20
281.8975939089095
 10
772.2438362744903
 20
281.9134904045051
 10
772.2079285568227
 20
281.9277770870116
 10
772.172017824289
 20
281.9404918251216
 10
772.1312990812459
 20
281.9530841326435
 10
772.090771484127
 20
281.9637630695756
 10
772.0505289740014
 20
281.97259615088
 10
772.0106586878667
 20
281.9796540484323
 10
771.9712410400317
 20
281.9850100648314
 10
771.9323498337965
 20
281.9887396350034
 10
771.8940524001644
 20
281.9909198562865
 10
771.8564097604418
 20
281.9916290474227
  0
LINE
  5
7C
330
1F
100
AcDbEntity
  8
2
  6
________________
 62
     7
370
     9
100
AcDbLine
 10
772.8564097604418
 20
281.0049647519696
 30
0.0
 11
772.8564097604418
 21
208.0049647519696
 31
0.0
  0
LINE
  5
7D
330
1F
100
AcDbEntity
  8
2
  6
________________
 62
     7
370
     9
100
AcDbLine
 10
771.8564097604418
 20
281.9916290474228
 30
0.0
 11
766.8564097604418
 21
281.9916290474228
 31
0.0
  0
LINE
  5
7E
330
1F
100
AcDbEntity
  8
2
  6
________________
 62
     7
370
     9
100
AcDbLine
 10
766.8564097604418
 20
281.9916290474227
 30
0.0
 11
766.8564097604418
 21
207.0049647519696
 31
0.0
  0
LINE
  5
7F
330
1F
100
AcDbEntity
  8
2
  6
________________
 62
     7
370
     9
100
AcDbLine
 10
773.0564097604417
 20
248.0048435852759
 30
0.0
 11
773.0564097604417
 21
247.7721748815951
 31
0.0
  0
LINE
  5
80
330
1F
100
AcDbEntity
  8
2
  6
________________
 62
     7
370
     9
100
AcDbLine
 10
772.8564097604418
 20
247.7721748815951
 30
0.0
 11
773.0564097604417
 21
247.7721748815951
 31
0.0
  0
LINE
  5
81
330
1F
100
AcDbEntity
  8
2
  6
________________
 62
     7
370
     9
100
AcDbLine
 10
772.8564097604418
 20
248.004843585275
 30
0.0
 11
773.0564097604417
 21
248.004843585275
 31
0.0
  0
LINE
  5
82
330
1F
100
AcDbEntity
  8
2
  6
________________
 62
     7
370
     9
100
AcDbLine
 10
772.8564097604418
 20
249.5049647519696
 30
0.0
 11
773.0564097604417
 21
249.5049647519696
 31
0.0
  0
LINE
  5
83
330
1F
100
AcDbEntity
  8
2
  6
________________
 62
     7
370
     9
100
AcDbLine
 10
773.0564097604417
 20
249.5049647519696
 30
0.0
 11
773.0564097604417
 21
248.004843585275
 31
0.0
  0
LINE
  5
84
330
1F
100
AcDbEntity
  8
2
  6
________________
 62
     7
370
     9
100
AcDbLine
 10
773.0564097604417
 20
246.9664747340236
 30
0.0
 11
773.0564097604417
 21
242.0049647519696
 31
0.0
  0
LINE
  5
85
330
1F
100
AcDbEntity
  8
2
  6
________________
 62
     7
370
     9
100
AcDbLine
 10
772.8564097604418
 20
242.0049647519696
 30
0.0
 11
773.0564097604417
 21
242.0049647519696
 31
0.0
  0
LINE
  5
86
330
1F
100
AcDbEntity
  8
2
  6
________________
 62
     7
370
     9
100
AcDbLine
 10
772.8564097604418
 20
247.2157591009796
 30
0.0
 11
773.0564097604417
 21
247.2157591009796
 31
0.0
  0
LINE
  5
87
330
1F
100
AcDbEntity
  8
2
  6
________________
 62
     7
370
     9
100
AcDbLine
 10
772.8564097604418
 20
247.3543647414521
 30
0.0
 11
773.0564097604417
 21
247.3543647414525
 31
0.0
  0
LINE
  5
88
330
1F
100
AcDbEntity
  8
2
  6
________________
 62
     7
370
     9
100
AcDbLine
 10
773.0564097604417
 20
247.3543647414521
 30
0.0
 11
773.0564097604417
 21
247.2157591009797
 31
0.0
  0
LINE
  5
89
330
1F
100
AcDbEntity
  8
2
  6
________________
 62
     7
370
     9
100
AcDbLine
 10
773.0564097604417
 20
247.7721748815951
 30
0.0
 11
773.0564097604417
 21
247.3543647414525
 31
0.0
  0
LINE
  5
8A
330
1F
100
AcDbEntity
  8
2
  6
________________
 62
     7
370
     9
100
AcDbLine
 10
773.0564097604417
 20
247.2157591009796
 30
0.0
 11
773.0564097604417
 21
247.1362483464277
 31
0.0
  0
LINE
  5
8B
330
1F
100
AcDbEntity
  8
2
  6
________________
 62
     7
370
     9
100
AcDbLine
 10
772.8564097604418
 20
247.1362483464277
 30
0.0
 11
773.0564097604417
 21
247.1362483464277
 31
0.0
  0
LINE
  5
8C
330
1F
100
AcDbEntity
  8
2
  6
________________
 62
     7
370
     9
100
AcDbLine
 10
772.8564097604418
 20
247.059132737177
 30
0.0
 11
773.0564097604417
 21
247.059132737177
 31
0.0
  0
LINE
  5
8D
330
1F
100
AcDbEntity
  8
2
  6
________________
 62
     7
370
     9
100
AcDbLine
 10
773.0564097604417
 20
247.1362483464277
 30
0.0
 11
773.0564097604417
 21
247.059132737177
 31
0.0
  0
LINE
  5
8E
330
1F
100
AcDbEntity
  8
2
  6
________________
 62
     7
370
     9
100
AcDbLine
 10
773.0564097604417
 20
247.059132737177
 30
0.0
 11
773.0564097604417
 21
247.0221348162178
 31
0.0
  0
LINE
  5
8F
330
1F
100
AcDbEntity
  8
2
  6
________________
 62
     7
370
     9
100
AcDbLine
 10
772.8564097604418
 20
247.0221348162178
 30
0.0
 11
773.0564097604417
 21
247.0221348162178
 31
0.0
  0
LINE
  5
90
330
1F
100
AcDbEntity
  8
2
  6
________________
 62
     7
370
     9
100
AcDbLine
 10
773.0564097604417
 20
247.0221348162179
 30
0.0
 11
773.0564097604417
 21
247.0049647519696
 31
0.0
  0
LINE
  5
91
330
1F
100
AcDbEntity
  8
2
  6
________________
 62
     7
370
     9
100
AcDbLine
 10
772.8564097604418
 20
247.0049647519696
 30
0.0
 11
773.0564097604417
 21
247.0049647519696
 31
0.0
  0
LINE
  5
92
330
1F
100
AcDbEntity
  8
2
  6
________________
 62
     7
370
     9
100
AcDbLine
 10
773.0564097604417
 20
241.7549647519696
 30
0.0
 11
773.0564097604417
 21
242.0049647519696
 31
0.0
  0
LINE
  5
93
330
1F
100
AcDbEntity
  8
2
  6
________________
 62
     7
370
     9
100
AcDbLine
 10
772.8564097604418
 20
239.5049647519696
 30
0.0
 11
773.0564097604417
 21
239.5049647519696
 31
0.0
  0
LINE
  5
94
330
1F
100
AcDbEntity
  8
2
  6
________________
 62
     7
370
     9
100
AcDbLine
 10
773.0564097604417
 20
241.7549647519696
 30
0.0
 11
773.0564097604417
 21
239.5049647519696
 31
0.0
  0
LINE
  5
95
330
1F
100
AcDbEntity
  8
2
  6
________________
 62
     7
370
     9
100
AcDbLine
 10
773.0564097604417
 20
246.980563058384
 30
0.0
 11
773.0564097604417
 21
246.9664747340236
 31
0.0
  0
LINE
  5
96
330
1F
100
AcDbEntity
  8
2
  6
________________
 62
     7
370
     9
100
AcDbLine
 10
749.8564097604418
 20
273.5052214201652
 30
0.0
 11
749.8564097604418
 21
267.9666987865855
 31
0.0
  0
SPLINE
  5
97
330
1F
100
AcDbEntity
  8
2
  6
________________
 62
     7
370
     9
100
AcDbSpline
210
0.0
220
0.0
230
1.0
 70
    12
 71
     3
 72
     9
 73
     5
 74
     0
 42
0.000000001
 43
0.0001
 40
2.802824840045191
 40
2.802824840045191
 40
2.802824840045191
 40
2.802824840045191
 40
2.80540632869295
 40
2.810691430748807
 40
2.810691430748807
 40
2.810691430748807
 40
2.810691430748807
 10
588.8564715335161
 20
273.5044749067857
 30
0.0
 41
1.0
 10
588.8038960107131
 20
273.5046044581603
 30
0.0
 41
1.0
 10
588.6436822056746
 20
273.360702178699
 30
0.0
 41
1.0
 10
588.4834684006358
 20
272.7751493923624
 30
0.0
 41
1.0
 10
588.3758301184005
 20
272.192122478355
 30
0.0
 41
1.0
  0
SPLINE
  5
98
330
1F
100
AcDbEntity
  8
2
  6
________________
 62
     7
370
     9
100
AcDbSpline
210
0.0
220
0.0
230
1.0
 70
    12
 71
     3
 72
     9
 73
     5
 74
     0
 42
0.000000001
 43
0.0001
 40
2.720975697664409
 40
2.720975697664409
 40
2.720975697664409
 40
2.720975697664409
 40
2.7233332712046
 40
2.728855724384248
 40
2.728855724384248
 40
2.728855724384248
 40
2.728855724384248
 10
593.8573784196224
 20
215.5054218891698
 30
0.0
 41
1.0
 10
593.8093632321335
 20
215.5047879755556
 30
0.0
 41
1.0
 10
593.6488757843741
 20
215.634730731608
 30
0.0
 41
1.0
 10
593.4883883366148
 20
216.2082192108327
 30
0.0
 41
1.0
 10
593.3759160763442
 20
216.8172966290116
 30
0.0
 41
1.0
  0
SPLINE
  5
99
330
1F
100
AcDbEntity
  8
2
  6
________________
 62
     7
370
     9
100
AcDbSpline
210
0.0
220
0.0
230
1.0
 70
    12
 71
     3
 72
     9
 73
     5
 74
     0
 42
0.000000001
 43
0.0001
 40
2.639159636215775
 40
2.639159636215775
 40
2.639159636215775
 40
2.639159636215775
 40
2.64126021371624
 40
2.647019263193332
 40
2.647019263193332
 40
2.647019263193332
 40
2.647019263193332
 10
598.8562640913748
 20
273.5045602194155
 30
0.0
 41
1.0
 10
598.8134829773181
 20
273.5045928643859
 30
0.0
 41
1.0
 10
598.6534109980199
 20
273.3872864667575
 30
0.0
 41
1.0
 10
598.4933390187218
 20
272.8283816670804
 30
0.0
 41
1.0
 10
598.3760481534802
 20
272.1933958322371
 30
0.0
 41
1.0
  0
SPLINE
  5
9A
330
1F
100
AcDbEntity
  8
2
  6
________________
 62
     7
370
     9
100
AcDbSpline
210
0.0
220
0.0
230
1.0
 70
    12
 71
     3
 72
     9
 73
     5
 74
     0
 42
0.000000001
 43
0.0001
 40
2.557319979167899
 40
2.557319979167899
 40
2.557319979167899
 40
2.557319979167899
 40
2.55918715622789
 40
2.565184936044931
 40
2.565184936044931
 40
2.565184936044931
 40
2.565184936044931
 10
603.856591432415
 20
215.5053216308976
 30
0.0
 41
1.0
 10
603.8185638353616
 20
215.5051428058139
 30
0.0
 41
1.0
 10
603.6583833054207
 20
215.6089044661021
 30
0.0
 41
1.0
 10
603.4982027754799
 20
216.1551731798788
 30
0.0
 41
1.0
 10
603.3760498425924
 20
216.8164753049109
 30
0.0
 41
1.0
  0
SPLINE
  5
9B
330
1F
100
AcDbEntity
  8
2
  6
________________
 62
     7
370
     9
100
AcDbSpline
210
0.0
220
0.0
230
1.0
 70
    12
 71
     3
 72
     9
 73
     5
 74
     0
 42
0.000000001
 43
0.0001
 40
2.475489015919498
 40
2.475489015919498
 40
2.475489015919498
 40
2.475489015919498
 40
2.47711409873953
 40
2.48335466283668
 40
2.48335466283668
 40
2.48335466283668
 40
2.48335466283668
 10
608.8563875903493
 20
273.5046592174421
 30
0.0
 41
1.0
 10
608.8232905713343
 20
273.504740481308
 30
0.0
 41
1.0
 10
608.6630959877886
 20
273.4140971645537
 30
0.0
 41
1.0
 10
608.5029014042428
 20
272.8805967510004
 30
0.0
 41
1.0
 10
608.3758038397118
 20
272.192170890777
 30
0.0
 41
1.0
  0
SPLINE
  5
9C
330
1F
100
AcDbEntity
  8
2
  6
________________
 62
     7
370
     9
100
AcDbSpline
210
0.0
220
0.0
230
1.0
 70
    12
 71
     3
 72
     9
 73
     5
 74
     0
 42
0.000000001
 43
0.0001
 40
2.393660821534406
 40
2.393660821534406
 40
2.393660821534406
 40
2.393660821534406
 40
2.39504104125117
 40
2.40151878045397
 40
2.40151878045397
 40
2.40151878045397
 40
2.40151878045397
 10
613.8560145732965
 20
215.5052192364103
 30
0.0
 41
1.0
 10
613.8279045239825
 20
215.5052714908826
 30
0.0
 41
1.0
 10
613.667866516951
 20
215.5828754197801
 30
0.0
 41
1.0
 10
613.5078285099191
 20
216.1027058860279
 30
0.0
 41
1.0
 10
613.3759005522014
 20
216.8171884150884
 30
0.0
 41
1.0
  0
SPLINE
  5
9D
330
1F
100
AcDbEntity
  8
2
  6
________________
 62
     7
370
     9
100
AcDbSpline
210
0.0
220
0.0
230
1.0
 70
    12
 71
     3
 72
     9
 73
     5
 74
     0
 42
0.000000001
 43
0.0001
 40
2.311812943454461
 40
2.311812943454461
 40
2.311812943454461
 40
2.311812943454461
 40
2.31296798376281
 40
2.319680369937752
 40
2.319680369937752
 40
2.319680369937752
 40
2.319680369937752
 10
618.8568442117909
 20
273.5047572685503
 30
0.0
 41
1.0
 10
618.8333202469952
 20
273.5049329799601
 30
0.0
 41
1.0
 10
618.6730894201683
 20
273.4413045664893
 30
0.0
 41
1.0
 10
618.5128585933413
 20
272.9341853000664
 30
0.0
 41
1.0
 10
618.3761517313101
 20
272.1941429078736
 30
0.0
 41
1.0
  0
SPLINE
  5
9E
330
1F
100
AcDbEntity
  8
2
  6
________________
 62
     7
370
     9
100
AcDbSpline
210
0.0
220
0.0
230
1.0
 70
    12
 71
     3
 72
     9
 73
     5
 74
     0
 42
0.000000001
 43
0.0001
 40
2.229998018145715
 40
2.229998018145715
 40
2.229998018145715
 40
2.229998018145715
 40
2.23089492627445
 40
2.237846265896595
 40
2.237846265896595
 40
2.237846265896595
 40
2.237846265896595
 10
623.8556604664467
 20
215.5051261316419
 30
0.0
 41
1.0
 10
623.8373937141154
 20
215.5052438642705
 30
0.0
 41
1.0
 10
623.677553488225
 20
215.5565410706365
 30
0.0
 41
1.0
 10
623.5177132623346
 20
216.049329545352
 30
0.0
 41
1.0
 10
623.3761397887757
 20
216.8158164587561
 30
0.0
 41
1.0
  0
SPLINE
  5
9F
330
1F
100
AcDbEntity
  8
2
  6
________________
 62
     7
370
     9
100
AcDbSpline
210
0.0
220
0.0
230
1.0
 70
    12
 71
     3
 72
     9
 73
     5
 74
     0
 42
0.000000001
 43
0.0001
 40
2.148147514152237
 40
2.148147514152237
 40
2.148147514152237
 40
2.148147514152237
 40
2.14882186878609
 40
2.156012858214298
 40
2.156012858214298
 40
2.156012858214298
 40
2.156012858214298
 10
628.8566505458294
 20
273.5048436666937
 30
0.0
 41
1.0
 10
628.8429163977206
 20
273.5049043715044
 30
0.0
 41
1.0
 10
628.6827279822306
 20
273.4676993791497
 30
0.0
 41
1.0
 10
628.5225395667409
 20
272.9869541140415
 30
0.0
 41
1.0
 10
628.3760852993598
 20
272.1938430404967
 30
0.0
 41
1.0
  0
SPLINE
  5
A0
330
1F
100
AcDbEntity
  8
2
  6
________________
 62
     7
370
     9
100
AcDbSpline
210
0.0
220
0.0
230
1.0
 70
    12
 71
     3
 72
     9
 73
     5
 74
     0
 42
0.000000001
 43
0.0001
 40
1.657151817356073
 40
1.657151817356073
 40
1.657151817356073
 40
1.657151817356073
 40
1.66384471090034
 40
1.66500518629147
 40
1.66500518629147
 40
1.66500518629147
 40
1.66500518629147
 10
658.8560334316408
 20
273.5048280498532
 30
0.0
 41
1.0
 10
658.7197235635105
 20
273.5037760504171
 30
0.0
 41
1.0
 10
658.5597790377412
 20
273.1269886018084
 30
0.0
 41
1.0
 10
658.3998345119718
 20
272.3224155798045
 30
0.0
 41
1.0
 10
658.3761998543328
 20
272.1943518805918
 30
0.0
 41
1.0
  0
SPLINE
  5
A1
330
1F
100
AcDbEntity
  8
2
  6
________________
 62
     7
370
     9
100
AcDbSpline
210
0.0
220
0.0
230
1.0
 70
    12
 71
     3
 72
     9
 73
     5
 74
     0
 42
0.000000001
 43
0.0001
 40
1.575302648870694
 40
1.575302648870694
 40
1.575302648870694
 40
1.575302648870694
 40
1.58177165341198
 40
1.583168703540456
 40
1.583168703540456
 40
1.583168703540456
 40
1.583168703540456
 10
663.856941912714
 20
215.5051410123752
 30
0.0
 41
1.0
 10
663.7251918482426
 20
215.5048413767645
 30
0.0
 41
1.0
 10
663.5649889602616
 20
215.8677110942652
 30
0.0
 41
1.0
 10
663.4047860722807
 20
216.6607662149886
 30
0.0
 41
1.0
 10
663.376333248771
 20
216.8149009507239
 30
0.0
 41
1.0
  0
SPLINE
  5
A2
330
1F
100
AcDbEntity
  8
2
  6
________________
 62
     7
370
     9
100
AcDbSpline
210
0.0
220
0.0
230
1.0
 70
    12
 71
     3
 72
     9
 73
     5
 74
     0
 42
0.000000001
 43
0.0001
 40
1.493492301540493
 40
1.493492301540493
 40
1.493492301540493
 40
1.493492301540493
 40
1.49969859592362
 40
1.501332830609314
 40
1.501332830609314
 40
1.501332830609314
 40
1.501332830609314
 10
668.8554784571161
 20
273.5047320190216
 30
0.0
 41
1.0
 10
668.7290788418607
 20
273.5028640538158
 30
0.0
 41
1.0
 10
668.5693958174148
 20
273.1535037928143
 30
0.0
 41
1.0
 10
668.4097127929689
 20
272.3757713347894
 30
0.0
 41
1.0
 10
668.3764293837786
 20
272.1955012590302
 30
0.0
 41
1.0
  0
SPLINE
  5
A3
330
1F
100
AcDbEntity
  8
2
  6
________________
 62
     7
370
     9
100
AcDbSpline
210
0.0
220
0.0
230
1.0
 70
    12
 71
     3
 72
     9
 73
     5
 74
     0
 42
0.000000001
 43
0.0001
 40
1.411641004512238
 40
1.411641004512238
 40
1.411641004512238
 40
1.411641004512238
 40
1.41762553843527
 40
1.419499528852179
 40
1.419499528852179
 40
1.419499528852179
 40
1.419499528852179
 10
673.8565169901898
 20
215.5052384956173
 30
0.0
 41
1.0
 10
673.734633827926
 20
215.5056042601096
 30
0.0
 41
1.0
 10
673.5745843053405
 20
215.8411935714123
 30
0.0
 41
1.0
 10
673.414534782755
 20
216.6080662200424
 30
0.0
 41
1.0
 10
673.3763684224332
 20
216.8148066411647
 30
0.0
 41
1.0
  0
SPLINE
  5
A4
330
1F
100
AcDbEntity
  8
2
  6
________________
 62
     7
370
     9
100
AcDbSpline
210
0.0
220
0.0
230
1.0
 70
    12
 71
     3
 72
     9
 73
     5
 74
     0
 42
0.000000001
 43
0.0001
 40
1.329810485638635
 40
1.329810485638635
 40
1.329810485638635
 40
1.329810485638635
 40
1.33555248094691
 40
1.337665837066125
 40
1.337665837066125
 40
1.337665837066125
 40
1.337665837066125
 10
678.8562859972347
 20
273.504638969255
 30
0.0
 41
1.0
 10
678.739342463306
 20
273.5039798541532
 30
0.0
 41
1.0
 10
678.5793575613924
 20
273.1819267139433
 30
0.0
 41
1.0
 10
678.4193726594787
 20
272.428032877729
 30
0.0
 41
1.0
 10
678.3763312914938
 20
272.1948750389223
 30
0.0
 41
1.0
  0
SPLINE
  5
A5
330
1F
100
AcDbEntity
  8
2
  6
________________
 62
     7
370
     9
100
AcDbSpline
210
0.0
220
0.0
230
1.0
 70
    12
 71
     3
 72
     9
 73
     5
 74
     0
 42
0.000000001
 43
0.0001
 40
1.247961096419496
 40
1.247961096419496
 40
1.247961096419496
 40
1.247961096419496
 40
1.25347942345855
 40
1.255832106734298
 40
1.255832106734298
 40
1.255832106734298
 40
1.255832106734298
 10
683.857207964936
 20
215.5053403242068
 30
0.0
 41
1.0
 10
683.7448197391234
 20
215.5047741471567
 30
0.0
 41
1.0
 10
683.5845159226998
 20
215.8130281385359
 30
0.0
 41
1.0
 10
683.4242121062762
 20
216.5557189502245
 30
0.0
 41
1.0
 10
683.3762965156653
 20
216.8152865291836
 30
0.0
 41
1.0
  0
SPLINE
  5
A6
330
1F
100
AcDbEntity
  8
2
  6
________________
 62
     7
370
     9
100
AcDbSpline
210
0.0
220
0.0
230
1.0
 70
    12
 71
     3
 72
     9
 73
     5
 74
     0
 42
0.000000001
 43
0.0001
 40
1.166138509918069
 40
1.166138509918069
 40
1.166138509918069
 40
1.166138509918069
 40
1.17140636597019
 40
1.173998383930618
 40
1.173998383930618
 40
1.173998383930618
 40
1.173998383930618
 10
688.8564923113788
 20
273.5045425005501
 30
0.0
 41
1.0
 10
688.7492052674352
 20
273.5042300660406
 30
0.0
 41
1.0
 10
688.5891282569337
 20
273.2093301577433
 30
0.0
 41
1.0
 10
688.4290512464322
 20
272.4803880057514
 30
0.0
 41
1.0
 10
688.3762612798744
 20
272.1944127386349
 30
0.0
 41
1.0
  0
ARC
  5
A7
330
1F
100
AcDbEntity
  8
2
  6
________________
 62
     7
370
     9
100
AcDbCircle
 10
-695.7417185517968
 20
216.9401890648119
 30
0.0
 40
2.368673547934518
210
0.0
220
0.0
230
-1.0
100
AcDbArc
 50
322.7191573494243
 51
356.9717523815667
  0
ARC
  5
A8
330
1F
100
AcDbEntity
  8
2
  6
________________
 62
     7
370
     9
100
AcDbCircle
 10
700.6222549868869
 20
272.1139483331744
 30
0.0
 40
2.247404784137722
100
AcDbArc
 50
141.7773091615061
 51
177.945017249877
  0
ARC
  5
A9
330
1F
100
AcDbEntity
  8
2
  6
________________
 62
     7
370
     9
100
AcDbCircle
 10
-705.5068781822766
 20
216.853635187894
 30
0.0
 40
2.131155142651322
210
0.0
220
0.0
230
-1.0
100
AcDbArc
 50
320.7589552977149
 51
359.0093393437705
  0
ARC
  5
AA
330
1F
100
AcDbEntity
  8
2
  6
________________
 62
     7
370
     9
100
AcDbCircle
 10
710.3865311992009
 20
272.200212419079
 30
0.0
 40
2.010364849097659
100
AcDbArc
 50
139.553724615478
 51
180.1810934896247
  0
ARC
  5
AB
330
1F
100
AcDbEntity
  8
2
  6
________________
 62
     7
370
     9
100
AcDbCircle
 10
-715.2816012948451
 20
216.7701158149815
 30
0.0
 40
1.905936032351334
210
0.0
220
0.0
230
-1.0
100
AcDbArc
 50
318.4333559685235
 51
1.375566780254189
  0
SPLINE
  5
AC
330
1F
100
AcDbEntity
  8
2
  6
________________
 62
     7
370
     9
100
AcDbSpline
210
0.0
220
0.0
230
1.0
 70
    12
 71
     3
 72
     9
 73
     5
 74
     0
 42
0.000000001
 43
0.0001
 40
0.6751333725760268
 40
0.6751333725760268
 40
0.6751333725760268
 40
0.6751333725760268
 40
0.678968021040048
 40
0.6829958425017753
 40
0.6829958425017753
 40
0.6829958425017753
 40
0.6829958425017753
 10
718.8564520058113
 20
273.5043816587804
 30
0.0
 41
1.0
 10
718.778354181156
 20
273.5043400175792
 30
0.0
 41
1.0
 10
718.6182243013562
 20
273.2902314629573
 30
0.0
 41
1.0
 10
718.4580944215562
 20
272.6375558314795
 30
0.0
 41
1.0
 10
718.3760623664116
 20
272.1932394351574
 30
0.0
 41
1.0
  0
SPLINE
  5
AD
330
1F
100
AcDbEntity
  8
2
  6
________________
 62
     7
370
     9
100
AcDbSpline
210
0.0
220
0.0
230
1.0
 70
    12
 71
     3
 72
     9
 73
     5
 74
     0
 42
0.000000001
 43
0.0001
 40
0.5932974845141129
 40
0.5932974845141129
 40
0.5932974845141129
 40
0.5932974845141129
 40
0.596894963551691
 40
0.6011618986959842
 40
0.6011618986959842
 40
0.6011618986959842
 40
0.6011618986959842
 10
723.8565490652953
 20
215.5055473565751
 30
0.0
 41
1.0
 10
723.7832815181617
 20
215.5054628987344
 30
0.0
 41
1.0
 10
723.623112040945
 20
215.7061149923709
 30
0.0
 41
1.0
 10
723.4629425637282
 20
216.3461290844779
 30
0.0
 41
1.0
 10
723.376040633645
 20
216.8167962272489
 30
0.0
 41
1.0
  0
SPLINE
  5
AE
330
1F
100
AcDbEntity
  8
2
  6
________________
 62
     7
370
     9
100
AcDbSpline
210
0.0
220
0.0
230
1.0
 70
    12
 71
     3
 72
     9
 73
     5
 74
     0
 42
0.000000001
 43
0.0001
 40
0.5114630384276763
 40
0.5114630384276763
 40
0.5114630384276763
 40
0.5114630384276763
 40
0.514821906063334
 40
0.5193265890286031
 40
0.5193265890286031
 40
0.5193265890286031
 40
0.5193265890286031
 10
728.8565580214117
 20
273.504391100889
 30
0.0
 41
1.0
 10
728.7881501195893
 20
273.5045159785566
 30
0.0
 41
1.0
 10
728.6279982303715
 20
273.3172963026183
 30
0.0
 41
1.0
 10
728.4678463411535
 20
272.690270150655
 30
0.0
 41
1.0
 10
728.3761023537581
 20
272.1934868804563
 30
0.0
 41
1.0
  0
SPLINE
  5
AF
330
1F
100
AcDbEntity
  8
2
  6
________________
 62
     7
370
     9
100
AcDbSpline
210
0.0
220
0.0
230
1.0
 70
    12
 71
     3
 72
     9
 73
     5
 74
     0
 42
0.000000001
 43
0.0001
 40
0.4296293931910663
 40
0.4296293931910663
 40
0.4296293931910663
 40
0.4296293931910663
 40
0.432748848574977
 40
0.4374923697708751
 40
0.4374923697708751
 40
0.4374923697708751
 40
0.4374923697708751
 10
733.8565180463441
 20
215.5055210978048
 30
0.0
 41
1.0
 10
733.7929861002276
 20
215.5053992717832
 30
0.0
 41
1.0
 10
733.6328459017295
 20
215.6792566940011
 30
0.0
 41
1.0
 10
733.4727057032316
 20
216.2933603260023
 30
0.0
 41
1.0
 10
733.3760974508501
 20
216.8164424764554
 30
0.0
 41
1.0
  0
SPLINE
  5
B0
330
1F
100
AcDbEntity
  8
2
  6
________________
 62
     7
370
     9
100
AcDbSpline
210
0.0
220
0.0
230
1.0
 70
    12
 71
     3
 72
     9
 73
     5
 74
     0
 42
0.000000001
 43
0.0001
 40
0.3477807090961761
 40
0.3477807090961761
 40
0.3477807090961761
 40
0.3477807090961761
 40
0.35067579108662
 40
0.3556610449601358
 40
0.3556610449601358
 40
0.3556610449601358
 40
0.3556610449601358
 10
738.8573969316063
 20
273.504426922257
 30
0.0
 41
1.0
 10
738.7984346544188
 20
273.5051616986779
 30
0.0
 41
1.0
 10
738.6379409105194
 20
273.3451282917094
 30
0.0
 41
1.0
 10
738.4774471666202
 20
272.7424336254745
 30
0.0
 41
1.0
 10
738.3759156999085
 20
272.1925362050127
 30
0.0
 41
1.0
  0
SPLINE
  5
B1
330
1F
100
AcDbEntity
  8
2
  6
________________
 62
     7
370
     9
100
AcDbSpline
210
0.0
220
0.0
230
1.0
 70
    12
 71
     3
 72
     9
 73
     5
 74
     0
 42
0.000000001
 43
0.0001
 40
0.2659644604289632
 40
0.2659644604289632
 40
0.2659644604289632
 40
0.2659644604289632
 40
0.268602733598261
 40
0.2738256648741755
 40
0.2738256648741755
 40
0.2738256648741755
 40
0.2738256648741755
 10
743.8562940422413
 20
215.5054634458015
 30
0.0
 41
1.0
 10
743.8025620255253
 20
215.5054456180512
 30
0.0
 41
1.0
 10
743.6424579189554
 20
215.6527486704375
 30
0.0
 41
1.0
 10
743.4823538123856
 20
216.2409959929783
 30
0.0
 41
1.0
 10
743.3759817225317
 20
216.816996555408
 30
0.0
 41
1.0
  0
SPLINE
  5
B2
330
1F
100
AcDbEntity
  8
2
  6
________________
 62
     7
370
     9
100
AcDbSpline
210
0.0
220
0.0
230
1.0
 70
    12
 71
     3
 72
     9
 73
     5
 74
     0
 42
0.000000001
 43
0.0001
 40
0.184125504999448
 40
0.184125504999448
 40
0.184125504999448
 40
0.184125504999448
 40
0.186529676109904
 40
0.1919925482351856
 40
0.1919925482351856
 40
0.1919925482351856
 40
0.1919925482351856
 10
748.8565785150482
 20
273.5045040230451
 30
0.0
 41
1.0
 10
748.8076143047465
 20
273.5046987063192
 30
0.0
 41
1.0
 10
748.6473912832766
 20
273.3708984761743
 30
0.0
 41
1.0
 10
748.4871682618068
 20
272.7951054482407
 30
0.0
 41
1.0
 10
748.3759094506387
 20
272.1925854462197
 30
0.0
 41
1.0
  0
SPLINE
  5
B3
330
1F
100
AcDbEntity
  8
2
  6
________________
 62
     7
370
     9
100
AcDbSpline
210
0.0
220
0.0
230
1.0
 70
    12
 71
     3
 72
    16
 73
    12
 74
     0
 42
0.000000001
 43
0.0001
 40
2.88465680529756
 40
2.88465680529756
 40
2.88465680529756
 40
2.88465680529756
 40
2.88747938618131
 40
2.89494057322571
 40
2.9024017602701
 40
2.90986294731451
 40
2.9173241343589
 40
2.92478532140329
 40
2.93224650844769
 40
2.93970769549209
 40
2.94194416023129
 40
2.94194416023129
 40
2.94194416023129
 40
2.94194416023129
 10
587.3566141540578
 20
215.5054969807474
 30
0.0
 41
1.0
 10
587.2991284603878
 20
215.5052873419793
 30
0.0
 41
1.0
 10
587.0896855578678
 20
215.7106997855804
 30
0.0
 41
1.0
 10
586.7282854464978
 20
217.3662684551524
 30
0.0
 41
1.0
 10
586.2724138199477
 20
221.6659855632848
 30
0.0
 41
1.0
 10
585.8165421933977
 20
227.8267193268865
 30
0.0
 41
1.0
 10
585.3606705668478
 20
235.346467092981
 30
0.0
 41
1.0
 10
584.9047989402977
 20
243.6124879977148
 30
0.0
 41
1.0
 10
584.4489273137477
 20
251.9512316844326
 30
0.0
 41
1.0
 10
584.0994642537958
 20
257.8784376138916
 30
0.0
 41
1.0
 10
583.9019584026937
 20
260.8800871426907
 30
0.0
 41
1.0
 10
583.8564097604418
 20
261.5514290563546
 30
0.0
 41
1.0
  0
SPLINE
  5
B4
330
1F
100
AcDbEntity
  8
2
  6
________________
 62
     7
370
     9
100
AcDbSpline
210
0.0
220
0.0
230
1.0
 70
    12
 71
     3
 72
    18
 73
    14
 74
     0
 42
0.000000001
 43
0.0001
 40
2.720976890879898
 40
2.720976890879898
 40
2.720976890879898
 40
2.720976890879898
 40
2.7233332712046
 40
2.73079445824899
 40
2.73825564529339
 40
2.74571683233779
 40
2.75317801938218
 40
2.76063920642658
 40
2.76810039347097
 40
2.77556158051537
 40
2.78302276755977
 40
2.79048395460417
 40
2.794964669919153
 40
2.794964669919153
 40
2.794964669919153
 40
2.794964669919153
 10
597.3573055152508
 20
215.5054290174779
 30
0.0
 41
1.0
 10
597.3093146292161
 20
215.5048353989299
 30
0.0
 41
1.0
 10
597.1093665343316
 20
215.6668121064714
 30
0.0
 41
1.0
 10
596.7574612305968
 20
217.1635998683859
 30
0.0
 41
1.0
 10
596.3015896040467
 20
221.3304862305836
 30
0.0
 41
1.0
 10
595.8457179774967
 20
227.3857271533678
 30
0.0
 41
1.0
 10
595.3898463509469
 20
234.8359159867708
 30
0.0
 41
1.0
 10
594.9339747243968
 20
243.0739798230769
 30
0.0
 41
1.0
 10
594.4781030978468
 20
251.4286463658515
 30
0.0
 41
1.0
 10
594.0222314712969
 20
259.2191420367963
 30
0.0
 41
1.0
 10
593.5663598447478
 20
265.8106642872407
 30
0.0
 41
1.0
 10
593.1711895734052
 20
270.0195838514088
 30
0.0
 41
1.0
 10
592.9279765109134
 20
271.6998779570646
 30
0.0
 41
1.0
 10
592.8367206572716
 20
272.1941968890634
 30
0.0
 41
1.0
  0
SPLINE
  5
B5
330
1F
100
AcDbEntity
  8
2
  6
________________
 62
     7
370
     9
100
AcDbSpline
210
0.0
220
0.0
230
1.0
 70
    12
 71
     3
 72
    18
 73
    14
 74
     0
 42
0.000000001
 43
0.0001
 40
2.55732121288207
 40
2.55732121288207
 40
2.55732121288207
 40
2.55732121288207
 40
2.55918715622789
 40
2.56664834327228
 40
2.57410953031668
 40
2.58157071736107
 40
2.58903190440547
 40
2.59649309144987
 40
2.60395427849426
 40
2.61141546553865
 40
2.61887665258305
 40
2.62633783962745
 40
2.631298247907624
 40
2.631298247907624
 40
2.631298247907624
 40
2.631298247907624
 10
607.3565160536114
 20
215.5053293694078
 30
0.0
 41
1.0
 10
607.3185135828228
 20
215.5051834297825
 30
0.0
 41
1.0
 10
607.1285539031843
 20
215.6283176950408
 30
0.0
 41
1.0
 10
606.7866370146958
 20
216.9701191092399
 30
0.0
 41
1.0
 10
606.3307653881458
 20
221.0027744796191
 30
0.0
 41
1.0
 10
605.8748937615958
 20
226.9504877505948
 30
0.0
 41
1.0
 10
605.4190221350457
 20
234.3286140802145
 30
0.0
 41
1.0
 10
604.9631505084958
 20
242.5359525184654
 30
0.0
 41
1.0
 10
604.5072788819467
 20
250.9037344043455
 30
0.0
 41
1.0
 10
604.0514072553958
 20
258.7501174659089
 30
0.0
 41
1.0
 10
603.5955356288458
 20
265.4357452134406
 30
0.0
 41
1.0
 10
603.1905957586918
 20
269.8594483024388
 30
0.0
 41
1.0
 10
602.9376130973862
 20
271.6478067554831
 30
0.0
 41
1.0
 10
602.8365876449311
 20
272.1949834906043
 30
0.0
 41
1.0
  0
SPLINE
  5
B6
330
1F
100
AcDbEntity
  8
2
  6
________________
 62
     7
370
     9
100
AcDbSpline
210
0.0
220
0.0
230
1.0
 70
    12
 71
     3
 72
    18
 73
    14
 74
     0
 42
0.000000001
 43
0.0001
 40
2.393662054546164
 40
2.393662054546164
 40
2.393662054546164
 40
2.393662054546164
 40
2.39504104125117
 40
2.40250222829557
 40
2.40996341533996
 40
2.41742460238435
 40
2.42488578942876
 40
2.43234697647315
 40
2.43980816351755
 40
2.44726935056194
 40
2.45473053760634
 40
2.46219172465073
 40
2.467627809014616
 40
2.467627809014616
 40
2.467627809014616
 40
2.467627809014616
 10
617.3559392374091
 20
215.5052274694745
 30
0.0
 41
1.0
 10
617.3278543000544
 20
215.505303916309
 30
0.0
 41
1.0
 10
617.1478121538495
 20
215.5926860798601
 30
0.0
 41
1.0
 10
616.8158127987948
 20
216.7858911952383
 30
0.0
 41
1.0
 10
616.3599411722448
 20
220.6829604350731
 30
0.0
 41
1.0
 10
615.9040695456947
 20
226.5211473769787
 30
0.0
 41
1.0
 10
615.4481979191457
 20
233.8247318477004
 30
0.0
 41
1.0
 10
614.9923262925957
 20
241.9985868832715
 30
0.0
 41
1.0
 10
614.5364546660447
 20
250.3766721920092
 30
0.0
 41
1.0
 10
614.0805830394947
 20
258.2763059354784
 30
0.0
 41
1.0
 10
613.6247114129458
 20
265.0537925331005
 30
0.0
 41
1.0
 10
613.2100837532249
 20
269.6951838349426
 30
0.0
 41
1.0
 10
612.9474133023538
 20
271.5946173407648
 30
0.0
 41
1.0
 10
612.8367000603328
 20
272.1944606165782
 30
0.0
 41
1.0
  0
SPLINE
  5
B7
330
1F
100
AcDbEntity
  8
2
  6
________________
 62
     7
370
     9
100
AcDbSpline
210
0.0
220
0.0
230
1.0
 70
    12
 71
     3
 72
    18
 73
    14
 74
     0
 42
0.000000001
 43
0.0001
 40
2.230000420205788
 40
2.230000420205788
 40
2.230000420205788
 40
2.230000420205788
 40
2.23089492627445
 40
2.23835611331885
 40
2.24581730036325
 40
2.25327848740764
 40
2.26073967445204
 40
2.26820086149643
 40
2.27566204854083
 40
2.28312323558523
 40
2.29058442262962
 40
2.29804560967402
 40
2.303960916266901
 40
2.303960916266901
 40
2.303960916266901
 40
2.303960916266901
 10
627.3555137027892
 20
215.505135261707
 30
0.0
 41
1.0
 10
627.3372958716741
 20
215.5052833664997
 30
0.0
 41
1.0
 10
627.1671208317089
 20
215.5600411500028
 30
0.0
 41
1.0
 10
626.8449885828938
 20
216.6109780345678
 30
0.0
 41
1.0
 10
626.3891169563437
 20
220.37115156767
 30
0.0
 41
1.0
 10
625.9332453297937
 20
226.0978503086149
 30
0.0
 41
1.0
 10
625.4773737032438
 20
233.3244386144656
 30
0.0
 41
1.0
 10
625.0215020766938
 20
241.4620634945388
 30
0.0
 41
1.0
 10
624.5656304501438
 20
249.8476368435099
 30
0.0
 41
1.0
 10
624.1097588235948
 20
257.797866665744
 30
0.0
 41
1.0
 10
623.6538871970438
 20
264.6649345980946
 30
0.0
 41
1.0
 10
623.2294995256916
 20
269.5284726584725
 30
0.0
 41
1.0
 10
622.9570690631899
 20
271.5425184712258
 30
0.0
 41
1.0
 10
622.8365958095378
 20
272.1951211647109
 30
0.0
 41
1.0
  0
SPLINE
  5
B8
330
1F
100
AcDbEntity
  8
2
  6
________________
 62
     7
370
     9
100
AcDbSpline
210
0.0
220
0.0
230
1.0
 70
    12
 71
     3
 72
     9
 73
     5
 74
     0
 42
0.000000001
 43
0.0001
 40
1.738976416303641
 40
1.738976416303641
 40
1.738976416303641
 40
1.738976416303641
 40
1.7459177683887
 40
1.74790086100483
 40
1.74790086100483
 40
1.74790086100483
 40
1.74790086100483
 10
657.3566261265911
 20
215.505072705459
 30
0.0
 41
1.0
 10
657.2152560627909
 20
215.505114801245
 30
0.0
 41
1.0
 10
657.033497624186
 20
215.9482846220922
 30
0.0
 41
1.0
 10
656.8517391855813
 20
216.9425282793327
 30
0.0
 41
1.0
 10
656.8113508107765
 20
217.1898163391377
 30
0.0
 41
1.0
  0
SPLINE
  5
B9
330
1F
100
AcDbEntity
  8
2
  6
________________
 62
     7
370
     9
100
AcDbSpline
210
0.0
220
0.0
230
1.0
 70
    12
 71
     3
 72
    18
 73
    14
 74
     0
 42
0.000000001
 43
0.0001
 40
1.575303900795119
 40
1.575303900795119
 40
1.575303900795119
 40
1.575303900795119
 40
1.58177165341198
 40
1.58923284045638
 40
1.59669402750078
 40
1.60415521454517
 40
1.61161640158957
 40
1.61907758863397
 40
1.62653877567836
 40
1.63399996272276
 40
1.64146114976715
 40
1.64892233681155
 40
1.649278150637965
 40
1.649278150637965
 40
1.649278150637965
 40
1.649278150637965
 10
667.3568654212801
 20
215.505148932509
 30
0.0
 41
1.0
 10
667.2251408539503
 20
215.5049649535347
 30
0.0
 41
1.0
 10
666.9414590777703
 20
216.1476432554213
 30
0.0
 41
1.0
 10
666.5058200927407
 20
219.2060223985351
 30
0.0
 41
1.0
 10
666.0499484661908
 20
224.4679085326565
 30
0.0
 41
1.0
 10
665.5940768396408
 20
231.3624987838331
 30
0.0
 41
1.0
 10
665.1382052130907
 20
239.3279927675528
 30
0.0
 41
1.0
 10
664.6823335865408
 20
247.7153283322073
 30
0.0
 41
1.0
 10
664.2264619599907
 20
255.8410698893726
 30
0.0
 41
1.0
 10
663.7705903334407
 20
263.0430976371524
 30
0.0
 41
1.0
 10
663.3147187068909
 20
268.7345598830508
 30
0.0
 41
1.0
 10
663.0035576573064
 20
271.2717364185163
 30
0.0
 41
1.0
 10
662.8443538165718
 20
272.1532703050199
 30
0.0
 41
1.0
 10
662.8371071846873
 20
272.1925306527478
 30
0.0
 41
1.0
  0
SPLINE
  5
BA
330
1F
100
AcDbEntity
  8
2
  6
________________
 62
     7
370
     9
100
AcDbSpline
210
0.0
220
0.0
230
1.0
 70
    12
 71
     3
 72
    18
 73
    14
 74
     0
 42
0.000000001
 43
0.0001
 40
1.411643399235113
 40
1.411643399235113
 40
1.411643399235113
 40
1.411643399235113
 40
1.41762553843527
 40
1.42508672547966
 40
1.43254791252406
 40
1.44000909956845
 40
1.44747028661285
 40
1.45493147365725
 40
1.46239266070164
 40
1.46985384774604
 40
1.47731503479043
 40
1.48477622183483
 40
1.485611437097793
 40
1.485611437097793
 40
1.485611437097793
 40
1.485611437097793
 10
677.356370674828
 20
215.5052471177938
 30
0.0
 41
1.0
 10
677.2345362843485
 20
215.5058168883189
 30
0.0
 41
1.0
 10
676.9607446850191
 20
216.0801234541882
 30
0.0
 41
1.0
 10
676.5349958768396
 20
218.9357561122111
 30
0.0
 41
1.0
 10
676.0791242502896
 20
224.0769193957299
 30
0.0
 41
1.0
 10
675.6232526237395
 20
230.8826462454469
 30
0.0
 41
1.0
 10
675.1673809971898
 20
238.7983772427791
 30
0.0
 41
1.0
 10
674.7115093706398
 20
247.1791051347954
 30
0.0
 41
1.0
 10
674.2556377440899
 20
255.3419327541949
 30
0.0
 41
1.0
 10
673.7997661175399
 20
262.6217183698207
 30
0.0
 41
1.0
 10
673.3438944909899
 20
268.4252742491128
 30
0.0
 41
1.0
 10
673.0229697799689
 20
271.1387160900652
 30
0.0
 41
1.0
 10
672.8540022777978
 20
272.1009728170991
 30
0.0
 41
1.0
 10
672.8369919844766
 20
272.1930881480531
 30
0.0
 41
1.0
  0
SPLINE
  5
BB
330
1F
100
AcDbEntity
  8
2
  6
________________
 62
     7
370
     9
100
AcDbSpline
210
0.0
220
0.0
230
1.0
 70
    12
 71
     3
 72
    18
 73
    14
 74
     0
 42
0.000000001
 43
0.0001
 40
1.247962340247652
 40
1.247962340247652
 40
1.247962340247652
 40
1.247962340247652
 40
1.25347942345855
 40
1.26094061050295
 40
1.26840179754734
 40
1.27586298459174
 40
1.28332417163613
 40
1.29078535868053
 40
1.29824654572493
 40
1.30570773276932
 40
1.31316891981372
 40
1.32063010685812
 40
1.321944013054151
 40
1.321944013054151
 40
1.321944013054151
 40
1.321944013054151
 10
687.357131968177
 20
215.5053480348613
 30
0.0
 41
1.0
 10
687.2447690746143
 20
215.5048796432074
 30
0.0
 41
1.0
 10
686.9804489722013
 20
216.0132633609493
 30
0.0
 41
1.0
 10
686.5641716609391
 20
218.6740821358311
 30
0.0
 41
1.0
 10
686.1083000343888
 20
223.6927949255878
 30
0.0
 41
1.0
 10
685.6524284078391
 20
230.4073713685915
 30
0.0
 41
1.0
 10
685.1965567812889
 20
238.2706793670532
 30
0.0
 41
1.0
 10
684.740685154739
 20
246.6419833157902
 30
0.0
 41
1.0
 10
684.2848135281889
 20
254.8391539502728
 30
0.0
 41
1.0
 10
683.8289419016393
 20
262.1942511251702
 30
0.0
 41
1.0
 10
683.3730702750892
 20
268.1079504034315
 30
0.0
 41
1.0
 10
683.0423963729996
 20
271.0024723882164
 30
0.0
 41
1.0
 10
682.8636796797605
 20
272.048510876891
 30
0.0
 41
1.0
 10
682.8369201953712
 20
272.1933854727242
 30
0.0
 41
1.0
  0
SPLINE
  5
BC
330
1F
100
AcDbEntity
  8
2
  6
________________
 62
     7
370
     9
100
AcDbSpline
210
0.0
220
0.0
230
1.0
 70
    12
 71
     3
 72
    18
 73
    14
 74
     0
 42
0.000000001
 43
0.0001
 40
1.08429677194953
 40
1.08429677194953
 40
1.08429677194953
 40
1.08429677194953
 40
1.08933330848183
 40
1.09679449552623
 40
1.10425568257063
 40
1.11171686961502
 40
1.11917805665942
 40
1.12663924370381
 40
1.13410043074821
 40
1.14156161779261
 40
1.149022804837
 40
1.1564839918814
 40
1.158271694340001
 40
1.158271694340001
 40
1.158271694340001
 40
1.158271694340001
 10
697.356946794737
 20
215.5054382886337
 30
0.0
 41
1.0
 10
697.2543708870207
 20
215.5051709615955
 30
0.0
 41
1.0
 10
696.9998377704546
 20
215.9518994791611
 30
0.0
 41
1.0
 10
696.593347445038
 20
218.4210884026561
 30
0.0
 41
1.0
 10
696.1374758184884
 20
223.3156642039141
 30
0.0
 41
1.0
 10
695.6816041919383
 20
229.9368338652511
 30
0.0
 41
1.0
 10
695.2257325653883
 20
237.7450764686517
 30
0.0
 41
1.0
 10
694.7698609388383
 20
246.1041433703028
 30
0.0
 41
1.0
 10
694.3139893122884
 20
254.3329024320455
 30
0.0
 41
1.0
 10
693.8581176857383
 20
261.7608395498463
 30
0.0
 41
1.0
 10
693.4022460591884
 20
267.7826949799225
 30
0.0
 41
1.0
 10
693.0619226526445
 20
270.862210665795
 30
0.0
 41
1.0
 10
692.8735564549503
 20
271.9948488442603
 30
0.0
 41
1.0
 10
692.8371474661061
 20
272.1920566536596
 30
0.0
 41
1.0
  0
SPLINE
  5
BD
330
1F
100
AcDbEntity
  8
2
  6
________________
 62
     7
370
     9
100
AcDbSpline
210
0.0
220
0.0
230
1.0
 70
    12
 71
     3
 72
    18
 73
    14
 74
     0
 42
0.000000001
 43
0.0001
 40
0.9206408868817257
 40
0.9206408868817257
 40
0.9206408868817257
 40
0.9206408868817257
 40
0.925187193505118
 40
0.932648380549514
 40
0.940109567593911
 40
0.947570754638307
 40
0.955031941682703
 40
0.962493128727099
 40
0.969954315771495
 40
0.977415502815892
 40
0.984876689860288
 40
0.992337876904684
 40
0.9946071999999073
 40
0.9946071999999073
 40
0.9946071999999073
 40
0.9946071999999073
 10
707.3561699848817
 20
215.5055086669455
 30
0.0
 41
1.0
 10
707.2635782751503
 20
215.506008046176
 30
0.0
 41
1.0
 10
707.019029356569
 20
215.8950302697891
 30
0.0
 41
1.0
 10
706.6225232291375
 20
218.1768599290282
 30
0.0
 41
1.0
 10
706.1666516025872
 20
222.9456539622033
 30
0.0
 41
1.0
 10
705.7107799760377
 20
229.4711918554574
 30
0.0
 41
1.0
 10
705.2549083494874
 20
237.2217451718527
 30
0.0
 41
1.0
 10
704.7990367229374
 20
245.565766034764
 30
0.0
 41
1.0
 10
704.3431650963878
 20
253.8233483209281
 30
0.0
 41
1.0
 10
703.8872934698376
 20
261.3216292880357
 30
0.0
 41
1.0
 10
703.4314218432876
 20
267.449617277839
 30
0.0
 41
1.0
 10
703.0812895782832
 20
270.7202517362124
 30
0.0
 41
1.0
 10
702.8831145221287
 20
271.9430926696722
 30
0.0
 41
1.0
 10
702.8368966748241
 20
272.1933245355769
 30
0.0
 41
1.0
  0
SPLINE
  5
BE
330
1F
100
AcDbEntity
  8
2
  6
________________
 62
     7
370
     9
100
AcDbSpline
210
0.0
220
0.0
230
1.0
 70
    12
 71
     3
 72
    18
 73
    14
 74
     0
 42
0.000000001
 43
0.0001
 40
0.7569814955998381
 40
0.7569814955998381
 40
0.7569814955998381
 40
0.7569814955998381
 40
0.761041078528405
 40
0.768502265572801
 40
0.775963452617197
 40
0.783424639661593
 40
0.790885826705989
 40
0.798347013750385
 40
0.805808200794781
 40
0.813269387839177
 40
0.820730574883573
 40
0.828191761927969
 40
0.8309359889610411
 40
0.8309359889610411
 40
0.8309359889610411
 40
0.8309359889610411
 10
717.3556074014639
 20
215.5055529641173
 30
0.0
 41
1.0
 10
717.2729284809047
 20
215.5064411465681
 30
0.0
 41
1.0
 10
717.0382923514958
 20
215.8409865989184
 30
0.0
 41
1.0
 10
716.6516990132365
 20
217.9414787857998
 30
0.0
 41
1.0
 10
716.1958273866866
 20
222.5828885391783
 30
0.0
 41
1.0
 10
715.7399557601367
 20
229.0106018141551
 30
0.0
 41
1.0
 10
715.2840841335868
 20
236.700861337584
 30
0.0
 41
1.0
 10
714.8282125070365
 20
245.0270322261919
 30
0.0
 41
1.0
 10
714.372340880487
 20
253.3106628481453
 30
0.0
 41
1.0
 10
713.916469253937
 20
260.876767932524
 30
0.0
 41
1.0
 10
713.4605976273867
 20
267.1088292250438
 30
0.0
 41
1.0
 10
713.1007932986157
 20
270.5738704164978
 30
0.0
 41
1.0
 10
712.8929461786947
 20
271.8896497696799
 30
0.0
 41
1.0
 10
712.8370562676234
 20
272.1923891184471
 30
0.0
 41
1.0
  0
SPLINE
  5
BF
330
1F
100
AcDbEntity
  8
2
  6
________________
 62
     7
370
     9
100
AcDbSpline
210
0.0
220
0.0
230
1.0
 70
    12
 71
     3
 72
    18
 73
    14
 74
     0
 42
0.000000001
 43
0.0001
 40
0.5932986880034754
 40
0.5932986880034754
 40
0.5932986880034754
 40
0.5932986880034754
 40
0.596894963551691
 40
0.604356150596087
 40
0.611817337640483
 40
0.619278524684879
 40
0.626739711729275
 40
0.634200898773671
 40
0.641662085818068
 40
0.649123272862464
 40
0.65658445990686
 40
0.664045646951256
 40
0.6672703603889943
 40
0.6672703603889943
 40
0.6672703603889943
 40
0.6672703603889943
 10
727.3564755331992
 20
215.5055553630767
 30
0.0
 41
1.0
 10
727.2832324967612
 20
215.50553238093
 30
0.0
 41
1.0
 10
727.0580322514734
 20
215.7877461358081
 30
0.0
 41
1.0
 10
726.6808747973357
 20
217.7150240707546
 30
0.0
 41
1.0
 10
726.2250031707857
 20
222.2274898389991
 30
0.0
 41
1.0
 10
725.7691315442357
 20
228.5552185186159
 30
0.0
 41
1.0
 10
725.313259917686
 20
236.1826000043212
 30
0.0
 41
1.0
 10
724.8573882911356
 20
244.4881229813912
 30
0.0
 41
1.0
 10
724.4015166645859
 20
252.795018297185
 30
0.0
 41
1.0
 10
723.945645038036
 20
260.4264049750963
 30
0.0
 41
1.0
 10
723.4897734114861
 20
266.7604453403946
 30
0.0
 41
1.0
 10
723.1201833244287
 20
270.4254194935798
 30
0.0
 41
1.0
 10
722.9025504462217
 20
271.8376463328442
 30
0.0
 41
1.0
 10
722.8368747768644
 20
272.1933278019545
 30
0.0
 41
1.0
  0
SPLINE
  5
C0
330
1F
100
AcDbEntity
  8
2
  6
________________
 62
     7
370
     9
100
AcDbSpline
210
0.0
220
0.0
230
1.0
 70
    12
 71
     3
 72
    18
 73
    14
 74
     0
 42
0.000000001
 43
0.0001
 40
0.4296305994680677
 40
0.4296305994680677
 40
0.4296305994680677
 40
0.4296305994680677
 40
0.432748848574977
 40
0.440210035619374
 40
0.447671222663769
 40
0.455132409708166
 40
0.462593596752562
 40
0.470054783796958
 40
0.477515970841354
 40
0.48497715788575
 40
0.492438344930146
 40
0.499899531974542
 40
0.5036040985232781
 40
0.5036040985232781
 40
0.5036040985232781
 40
0.5036040985232781
 10
737.356444343926
 20
215.5055290478994
 30
0.0
 41
1.0
 10
737.2929369652788
 20
215.5054606863102
 30
0.0
 41
1.0
 10
737.0774723777819
 20
215.7394722586406
 30
0.0
 41
1.0
 10
736.7100505814349
 20
217.4975718820272
 30
0.0
 41
1.0
 10
736.2541789548848
 20
221.8795772903043
 30
0.0
 41
1.0
 10
735.7983073283349
 20
228.1051949964311
 30
0.0
 41
1.0
 10
735.342435701785
 20
235.6671353292729
 30
0.0
 41
1.0
 10
734.8865640752351
 20
243.9492193961208
 30
0.0
 41
1.0
 10
734.4306924486849
 20
252.2765879459087
 30
0.0
 41
1.0
 10
733.9748208221351
 20
259.9706917563025
 30
0.0
 41
1.0
 10
733.5189491955852
 20
266.4045826952621
 30
0.0
 41
1.0
 10
733.1395862481277
 20
270.2736909940022
 30
0.0
 41
1.0
 10
732.9121805095203
 20
271.7855143876042
 30
0.0
 41
1.0
 10
732.8367319797628
 20
272.1940882270945
 30
0.0
 41
1.0
  0
SPLINE
  5
C1
330
1F
100
AcDbEntity
  8
2
  6
________________
 62
     7
370
     9
100
AcDbSpline
210
0.0
220
0.0
230
1.0
 70
    12
 71
     3
 72
    18
 73
    14
 74
     0
 42
0.000000001
 43
0.0001
 40
0.2659645008721891
 40
0.2659645008721891
 40
0.2659645008721891
 40
0.2659645008721891
 40
0.268602733598261
 40
0.276063920642658
 40
0.283525107687054
 40
0.29098629473145
 40
0.298447481775846
 40
0.305908668820242
 40
0.313369855864639
 40
0.320831042909035
 40
0.328292229953431
 40
0.335753416997827
 40
0.3399349374715965
 40
0.3399349374715965
 40
0.3399349374715965
 40
0.3399349374715965
 10
747.3562915711883
 20
215.5054715054592
 30
0.0
 41
1.0
 10
747.3025603781535
 20
215.5054551941585
 30
0.0
 41
1.0
 10
747.0968719762689
 20
215.6947007311498
 30
0.0
 41
1.0
 10
746.7392263655341
 20
217.2891952925322
 30
0.0
 41
1.0
 10
746.2833547389841
 20
221.5392678060762
 30
0.0
 41
1.0
 10
745.8274831124342
 20
227.6606824740864
 30
0.0
 41
1.0
 10
745.3716114858843
 20
235.1546405298538
 30
0.0
 41
1.0
 10
744.915739859334
 20
243.4105025642374
 30
0.0
 41
1.0
 10
744.4598682327844
 20
251.7555460083208
 30
0.0
 41
1.0
 10
744.0039966062343
 20
259.5097814146008
 30
0.0
 41
1.0
 10
743.5481249796842
 20
266.0413608741892
 30
0.0
 41
1.0
 10
743.1590482176869
 20
270.1181753627814
 30
0.0
 41
1.0
 10
742.9219286645395
 20
271.7326209887013
 30
0.0
 41
1.0
 10
742.8367663202418
 20
272.1939217482781
 30
0.0
 41
1.0
  0
SPLINE
  5
C2
330
1F
100
AcDbEntity
  8
2
  6
________________
 62
     7
370
     9
100
AcDbSpline
210
0.0
220
0.0
230
1.0
 70
    12
 71
     3
 72
    10
 73
     6
 74
     0
 42
0.000000001
 43
0.0001
 40
0.167761407081865
 40
0.167761407081865
 40
0.167761407081865
 40
0.167761407081865
 40
0.171607302021111
 40
0.179068489065507
 40
0.184125504999448
 40
0.184125504999448
 40
0.184125504999448
 40
0.184125504999448
 10
749.8564097604416
 20
267.9666987865868
 30
0.0
 41
1.0
 10
749.778082886042
 20
268.8055378992636
 30
0.0
 41
1.0
 10
749.5477988027925
 20
271.0220188509807
 30
0.0
 41
1.0
 10
749.2145217209948
 20
273.0531154256183
 30
0.0
 41
1.0
 10
748.9595715135965
 20
273.504094519572
 30
0.0
 41
1.0
 10
748.8565785150482
 20
273.5045040230451
 30
0.0
 41
1.0
  0
LINE
  5
C3
330
1F
100
AcDbEntity
  8
2
  6
________________
 62
     7
370
     9
100
AcDbLine
 10
583.8564097604417
 20
215.5054884133955
 30
0.0
 11
583.8564097604417
 21
261.5514290563574
 31
0.0
  0
ARC
  5
C4
330
1F
100
AcDbEntity
  8
2
  6
________________
 62
     7
370
     9
100
AcDbCircle
 10
-1074.223332494821
 20
257.4723197485171
 30
0.0
 40
333.4717069602326
210
0.0
220
0.0
230
-1.0
100
AcDbArc
 50
353.3579265854074
 51
357.7714388698373
  0
ARC
  5
C5
330
1F
100
AcDbEntity
  8
2
  6
________________
 62
     7
370
     9
100
AcDbCircle
 10
-1064.183716785771
 20
257.4696735098788
 30
0.0
 40
333.4320093507131
210
0.0
220
0.0
230
-1.0
100
AcDbArc
 50
353.357473503562
 51
357.7716284733298
  0
ARC
  5
C6
330
1F
100
AcDbEntity
  8
2
  6
________________
 62
     7
370
     9
100
AcDbCircle
 10
-1054.190780988596
 20
257.470196062281
 30
0.0
 40
333.4391131626303
210
0.0
220
0.0
230
-1.0
100
AcDbArc
 50
353.3575482352975
 51
357.7715861124105
  0
ARC
  5
C7
330
1F
100
AcDbEntity
  8
2
  6
________________
 62
     7
370
     9
100
AcDbCircle
 10
-1044.187433820499
 20
257.4695190629553
 30
0.0
 40
333.4356080008408
210
0.0
220
0.0
230
-1.0
100
AcDbArc
 50
353.3575656941412
 51
357.7716790948832
  0
ARC
  5
C8
330
1F
100
AcDbEntity
  8
2
  6
________________
 62
     7
370
     9
100
AcDbCircle
 10
-1034.154296382754
 20
257.4678404822702
 30
0.0
 40
333.4025243023428
210
0.0
220
0.0
230
-1.0
100
AcDbArc
 50
353.3571197525156
 51
357.7717465511241
  0
ARC
  5
C9
330
1F
100
AcDbEntity
  8
2
  6
________________
 62
     7
370
     9
100
AcDbCircle
 10
-1024.120056604022
 20
257.4657704407257
 30
0.0
 40
333.3682342588044
210
0.0
220
0.0
230
-1.0
100
AcDbArc
 50
353.3567002841966
 51
357.7718732846722
  0
ARC
  5
CA
330
1F
100
AcDbEntity
  8
2
  6
________________
 62
     7
370
     9
100
AcDbCircle
 10
-1014.082059947577
 20
257.4632824304896
 30
0.0
 40
333.3301355720934
210
0.0
220
0.0
230
-1.0
100
AcDbArc
 50
353.3562585218312
 51
357.7720464727967
  0
ARC
  5
CB
330
1F
100
AcDbEntity
  8
2
  6
________________
 62
     7
370
     9
100
AcDbCircle
 10
-1004.074791401245
 20
257.4632192694976
 30
0.0
 40
333.3228778218378
210
0.0
220
0.0
230
-1.0
100
AcDbArc
 50
353.3561210828013
 51
357.7720088021472
  0
ARC
  5
CC
330
1F
100
AcDbEntity
  8
2
  6
________________
 62
     7
370
     9
100
AcDbCircle
 10
-994.0737985103314
 20
257.4629061082664
 30
0.0
 40
333.321867621641
210
0.0
220
0.0
230
-1.0
100
AcDbArc
 50
353.3561414241107
 51
357.7720559173835
  0
ARC
  5
CD
330
1F
100
AcDbEntity
  8
2
  6
________________
 62
     7
370
     9
100
AcDbCircle
 10
-954.1334474016838
 20
257.4665563589465
 30
0.0
 40
333.3816152116505
210
0.0
220
0.0
230
-1.0
100
AcDbArc
 50
353.3568668173202
 51
357.7718275881786
  0
ARC
  5
CE
330
1F
100
AcDbEntity
  8
2
  6
________________
 62
     7
370
     9
100
AcDbCircle
 10
-944.1584103116729
 20
257.4682597228119
 30
0.0
 40
333.4066502947016
210
0.0
220
0.0
230
-1.0
100
AcDbArc
 50
353.3571481613129
 51
357.7717020394267
  0
ARC
  5
CF
330
1F
100
AcDbEntity
  8
2
  6
________________
 62
     7
370
     9
100
AcDbCircle
 10
-934.2304252022568
 20
257.4727246759146
 30
0.0
 40
333.4787848308958
210
0.0
220
0.0
230
-1.0
100
AcDbArc
 50
353.3580160258058
 51
357.7714165692728
  0
ARC
  5
D0
330
1F
100
AcDbEntity
  8
2
  6
________________
 62
     7
370
     9
100
AcDbCircle
 10
-924.1718540207274
 20
257.4690712581251
 30
0.0
 40
333.4201317624148
210
0.0
220
0.0
230
-1.0
100
AcDbArc
 50
353.3573133573045
 51
357.7716526217354
  0
SPLINE
  5
D1
330
1F
100
AcDbEntity
  8
2
  6
________________
 62
     7
370
     9
100
AcDbSpline
210
0.0
220
0.0
230
1.0
 70
    12
 71
     3
 72
    18
 73
    14
 74
     0
 42
0.000000001
 43
0.0001
 40
2.728855724384248
 40
2.728855724384248
 40
2.728855724384248
 40
2.728855724384248
 40
2.73079445824899
 40
2.73825564529339
 40
2.74571683233779
 40
2.75317801938218
 40
2.76063920642658
 40
2.76810039347097
 40
2.77556158051537
 40
2.78302276755977
 40
2.79048395460417
 40
2.79794514164856
 40
2.802824840045191
 40
2.802824840045191
 40
2.802824840045191
 40
2.802824840045191
 10
593.3759160763442
 20
216.8172966290116
 30
0.0
 41
1.0
 10
593.3364311277647
 20
217.0311217133464
 30
0.0
 41
1.0
 10
593.1449889703352
 20
218.1916432165365
 30
0.0
 41
1.0
 10
592.8015896040558
 20
221.3304797892104
 30
0.0
 41
1.0
 10
592.3457179775068
 20
227.3857223950559
 30
0.0
 41
1.0
 10
591.8898463509557
 20
234.8359132992475
 30
0.0
 41
1.0
 10
591.4339747244068
 20
243.0739794253329
 30
0.0
 41
1.0
 10
590.9781030978568
 20
251.4286482902969
 30
0.0
 41
1.0
 10
590.5222314713058
 20
259.2191461266189
 30
0.0
 41
1.0
 10
590.0663598447568
 20
265.8106702091847
 30
0.0
 41
1.0
 10
589.6104882182068
 20
270.6661152671668
 30
0.0
 41
1.0
 10
589.2071921144592
 20
273.0757129325106
 30
0.0
 41
1.0
 10
588.9558532195628
 20
273.5042300203187
 30
0.0
 41
1.0
 10
588.8564715335161
 20
273.5044749067857
 30
0.0
 41
1.0
  0
SPLINE
  5
D2
330
1F
100
AcDbEntity
  8
2
  6
________________
 62
     7
370
     9
100
AcDbSpline
210
0.0
220
0.0
230
1.0
 70
    12
 71
     3
 72
    18
 73
    14
 74
     0
 42
0.000000001
 43
0.0001
 40
2.565184936044931
 40
2.565184936044931
 40
2.565184936044931
 40
2.565184936044931
 40
2.56664834327228
 40
2.57410953031668
 40
2.58157071736107
 40
2.58903190440547
 40
2.59649309144987
 40
2.60395427849426
 40
2.61141546553865
 40
2.61887665258305
 40
2.62633783962745
 40
2.63379902667185
 40
2.639159636215775
 40
2.639159636215775
 40
2.639159636215775
 40
2.639159636215775
 10
603.3760498425924
 20
216.8164753049109
 30
0.0
 41
1.0
 10
603.3462455666299
 20
216.9778273949765
 30
0.0
 41
1.0
 10
603.1644840818174
 20
218.0506806096811
 30
0.0
 41
1.0
 10
602.8307653881549
 20
221.002767947158
 30
0.0
 41
1.0
 10
602.3748937616048
 20
226.9504828713075
 30
0.0
 41
1.0
 10
601.9190221350548
 20
234.328611251686
 30
0.0
 41
1.0
 10
601.4631505085048
 20
242.5359519711761
 30
0.0
 41
1.0
 10
601.0072788819558
 20
250.903736182891
 30
0.0
 41
1.0
 10
600.5514072554048
 20
258.7501214253658
 30
0.0
 41
1.0
 10
600.0955356288547
 20
265.4357510311752
 30
0.0
 41
1.0
 10
599.6396640023058
 20
270.4158516132981
 30
0.0
 41
1.0
 10
599.2265734898115
 20
273.0154046063055
 30
0.0
 41
1.0
 10
598.965440186168
 20
273.5044769104495
 30
0.0
 41
1.0
 10
598.8562640913748
 20
273.5045602194155
 30
0.0
 41
1.0
  0
SPLINE
  5
D3
330
1F
100
AcDbEntity
  8
2
  6
________________
 62
     7
370
     9
100
AcDbSpline
210
0.0
220
0.0
230
1.0
 70
    12
 71
     3
 72
    18
 73
    14
 74
     0
 42
0.000000001
 43
0.0001
 40
2.40151878045397
 40
2.40151878045397
 40
2.40151878045397
 40
2.40151878045397
 40
2.40250222829557
 40
2.40996341533996
 40
2.41742460238435
 40
2.42488578942876
 40
2.43234697647315
 40
2.43980816351755
 40
2.44726935056194
 40
2.45473053760634
 40
2.46219172465073
 40
2.46965291169513
 40
2.475489015919498
 40
2.475489015919498
 40
2.475489015919498
 40
2.475489015919498
 10
613.3759005522014
 20
216.8171884150884
 30
0.0
 41
1.0
 10
613.3558713010689
 20
216.9256608742392
 30
0.0
 41
1.0
 10
613.1838848410862
 20
217.9136846058633
 30
0.0
 41
1.0
 10
612.8599411722537
 20
220.6829538137194
 30
0.0
 41
1.0
 10
612.4040695457038
 20
226.5211423783558
 30
0.0
 41
1.0
 10
611.9481979191547
 20
233.8247288791173
 30
0.0
 41
1.0
 10
611.4923262926038
 20
241.9985861866209
 30
0.0
 41
1.0
 10
611.0364546660538
 20
250.3766738240571
 30
0.0
 41
1.0
 10
610.5805830395047
 20
258.2763097632387
 30
0.0
 41
1.0
 10
610.1247114129548
 20
265.0537982446711
 30
0.0
 41
1.0
 10
609.6688397864037
 20
270.1568808314948
 30
0.0
 41
1.0
 10
609.2460651788696
 20
272.9509985392796
 30
0.0
 41
1.0
 10
608.9752477801844
 20
273.5043673773062
 30
0.0
 41
1.0
 10
608.8563875903493
 20
273.5046592174421
 30
0.0
 41
1.0
  0
SPLINE
  5
D4
330
1F
100
AcDbEntity
  8
2
  6
________________
 62
     7
370
     9
100
AcDbSpline
210
0.0
220
0.0
230
1.0
 70
    12
 71
     3
 72
    18
 73
    14
 74
     0
 42
0.000000001
 43
0.0001
 40
2.237846265896595
 40
2.237846265896595
 40
2.237846265896595
 40
2.237846265896595
 40
2.23835611331885
 40
2.24581730036325
 40
2.25327848740764
 40
2.26073967445204
 40
2.26820086149643
 40
2.27566204854083
 40
2.28312323558523
 40
2.29058442262962
 40
2.29804560967402
 40
2.30550679671842
 40
2.311812943454461
 40
2.311812943454461
 40
2.311812943454461
 40
2.311812943454461
 10
623.3761397887757
 20
216.8158164587561
 30
0.0
 41
1.0
 10
623.3657560534848
 20
216.8720345977385
 30
0.0
 41
1.0
 10
623.203415109344
 20
217.7787134468623
 30
0.0
 41
1.0
 10
622.8891169563537
 20
220.3711448596486
 30
0.0
 41
1.0
 10
622.4332453298028
 20
226.0978451923361
 30
0.0
 41
1.0
 10
621.9773737032538
 20
233.3244355068254
 30
0.0
 41
1.0
 10
621.5215020767038
 20
241.4620626487609
 30
0.0
 41
1.0
 10
621.0656304501529
 20
249.8476383285117
 30
0.0
 41
1.0
 10
620.6097588236038
 20
257.7978703605216
 30
0.0
 41
1.0
 10
620.1538871970528
 20
264.6649402015816
 30
0.0
 41
1.0
 10
619.6980155705037
 20
269.8892899466329
 30
0.0
 41
1.0
 10
619.2656679087494
 20
272.8823647681583
 30
0.0
 41
1.0
 10
618.9852774558451
 20
273.5037979410487
 30
0.0
 41
1.0
 10
618.8568442117909
 20
273.5047572685503
 30
0.0
 41
1.0
  0
SPLINE
  5
D5
330
1F
100
AcDbEntity
  8
2
  6
________________
 62
     7
370
     9
100
AcDbSpline
210
0.0
220
0.0
230
1.0
 70
    12
 71
     3
 72
    18
 73
    14
 74
     0
 42
0.000000001
 43
0.0001
 40
1.583168703540456
 40
1.583168703540456
 40
1.583168703540456
 40
1.583168703540456
 40
1.58923284045638
 40
1.59669402750078
 40
1.60415521454517
 40
1.61161640158957
 40
1.61907758863397
 40
1.62653877567836
 40
1.63399996272276
 40
1.64146114976715
 40
1.64892233681155
 40
1.65638352385595
 40
1.657151817356073
 40
1.657151817356073
 40
1.657151817356073
 40
1.657151817356073
 10
663.376333248771
 20
216.8149009507239
 30
0.0
 41
1.0
 10
663.2528288634306
 20
217.4839493420072
 30
0.0
 41
1.0
 10
662.9773672692402
 20
219.5344314171408
 30
0.0
 41
1.0
 10
662.5499484661998
 20
224.4679029633335
 30
0.0
 41
1.0
 10
662.0940768396498
 20
231.3624951308694
 30
0.0
 41
1.0
 10
661.6382052130998
 20
239.3279913286074
 30
0.0
 41
1.0
 10
661.1823335865497
 20
247.7153292245316
 30
0.0
 41
1.0
 10
660.7264619599998
 20
255.8410730402562
 30
0.0
 41
1.0
 10
660.2705903334498
 20
263.043102789848
 30
0.0
 41
1.0
 10
659.8147187068997
 20
268.7345666176949
 30
0.0
 41
1.0
 10
659.3588470803497
 20
272.4516999706566
 30
0.0
 41
1.0
 10
659.0392853219302
 20
273.4610670438435
 30
0.0
 41
1.0
 10
658.8716807723605
 20
273.5049488114227
 30
0.0
 41
1.0
 10
658.8560334316408
 20
273.5048280498532
 30
0.0
 41
1.0
  0
SPLINE
  5
D6
330
1F
100
AcDbEntity
  8
2
  6
________________
 62
     7
370
     9
100
AcDbSpline
210
0.0
220
0.0
230
1.0
 70
    12
 71
     3
 72
    18
 73
    14
 74
     0
 42
0.000000001
 43
0.0001
 40
1.419499528852179
 40
1.419499528852179
 40
1.419499528852179
 40
1.419499528852179
 40
1.42508672547966
 40
1.43254791252406
 40
1.44000909956845
 40
1.44747028661285
 40
1.45493147365725
 40
1.46239266070164
 40
1.46985384774604
 40
1.47731503479043
 40
1.48477622183483
 40
1.49223740887923
 40
1.493492301540493
 40
1.493492301540493
 40
1.493492301540493
 40
1.493492301540493
 10
673.3763684224331
 20
216.8148066411647
 30
0.0
 41
1.0
 10
673.2625775739051
 20
217.4311915347241
 30
0.0
 41
1.0
 10
672.9968295165272
 20
219.3661761988944
 30
0.0
 41
1.0
 10
672.5791242502988
 20
224.076913717731
 30
0.0
 41
1.0
 10
672.123252623749
 20
230.8826424591076
 30
0.0
 41
1.0
 10
671.667380997199
 20
238.7983756566265
 30
0.0
 41
1.0
 10
671.211509370649
 20
247.1791058780758
 30
0.0
 41
1.0
 10
670.7556377440992
 20
255.3419357663427
 30
0.0
 41
1.0
 10
670.2997661175491
 20
262.6217234053934
 30
0.0
 41
1.0
 10
669.8438944909992
 20
268.4252808977906
 30
0.0
 41
1.0
 10
669.3880228644493
 20
272.2797098243404
 30
0.0
 41
1.0
 10
669.0585508531548
 20
273.4297356894882
 30
0.0
 41
1.0
 10
668.8810360507105
 20
273.5051097155477
 30
0.0
 41
1.0
 10
668.8554784571161
 20
273.5047320190216
 30
0.0
 41
1.0
  0
SPLINE
  5
D7
330
1F
100
AcDbEntity
  8
2
  6
________________
 62
     7
370
     9
100
AcDbSpline
210
0.0
220
0.0
230
1.0
 70
    12
 71
     3
 72
    18
 73
    14
 74
     0
 42
0.000000001
 43
0.0001
 40
1.255832106734298
 40
1.255832106734298
 40
1.255832106734298
 40
1.255832106734298
 40
1.26094061050295
 40
1.26840179754734
 40
1.27586298459174
 40
1.28332417163613
 40
1.29078535868053
 40
1.29824654572493
 40
1.30570773276932
 40
1.31316891981372
 40
1.32063010685812
 40
1.32809129390251
 40
1.329810485638635
 40
1.329810485638635
 40
1.329810485638635
 40
1.329810485638635
 10
683.3762965156653
 20
216.8152865291836
 30
0.0
 41
1.0
 10
683.2722548974263
 20
217.3788991365418
 30
0.0
 41
1.0
 10
683.0162560703375
 20
219.2015801577093
 30
0.0
 41
1.0
 10
682.6083000343981
 20
223.692789140821
 30
0.0
 41
1.0
 10
682.1524284078483
 20
230.4073674501491
 30
0.0
 41
1.0
 10
681.6965567812982
 20
238.2706776342263
 30
0.0
 41
1.0
 10
681.2406851547483
 20
246.6419839097769
 30
0.0
 41
1.0
 10
680.7848135281982
 20
254.8391568226726
 30
0.0
 41
1.0
 10
680.3289419016485
 20
262.1942560419278
 30
0.0
 41
1.0
 10
679.8730702750985
 20
268.1079569639086
 30
0.0
 41
1.0
 10
679.4171986485483
 20
272.0983862167654
 30
0.0
 41
1.0
 10
679.0782705559272
 20
273.3935159875813
 30
0.0
 41
1.0
 10
678.8912996721562
 20
273.5048363127177
 30
0.0
 41
1.0
 10
678.8562859972347
 20
273.504638969255
 30
0.0
 41
1.0
  0
SPLINE
  5
D8
330
1F
100
AcDbEntity
  8
2
  6
________________
 62
     7
370
     9
100
AcDbSpline
210
0.0
220
0.0
230
1.0
 70
    12
 71
     3
 72
    18
 73
    14
 74
     0
 42
0.000000001
 43
0.0001
 40
1.092162589910893
 40
1.092162589910893
 40
1.092162589910893
 40
1.092162589910893
 40
1.09679449552623
 40
1.10425568257063
 40
1.11171686961502
 40
1.11917805665942
 40
1.12663924370381
 40
1.13410043074821
 40
1.14156161779261
 40
1.149022804837
 40
1.1564839918814
 40
1.1639451789258
 40
1.166138509918069
 40
1.166138509918069
 40
1.166138509918069
 40
1.166138509918069
 10
693.3763525934676
 20
216.8150560960846
 30
0.0
 41
1.0
 10
693.2820175439942
 20
217.3259580111768
 30
0.0
 41
1.0
 10
693.0357252856707
 20
219.0397555531845
 30
0.0
 41
1.0
 10
692.6374758184976
 20
223.3156583143233
 30
0.0
 41
1.0
 10
692.1816041919474
 20
229.9368298160222
 30
0.0
 41
1.0
 10
691.7257325653976
 20
237.745074589733
 30
0.0
 41
1.0
 10
691.2698609388475
 20
246.1041438147963
 30
0.0
 41
1.0
 10
690.8139893122976
 20
254.3329051637322
 30
0.0
 41
1.0
 10
690.3581176857477
 20
261.7608443461366
 30
0.0
 41
1.0
 10
689.9022460591976
 20
267.7827014499947
 30
0.0
 41
1.0
 10
689.446374432648
 20
271.9077900801498
 30
0.0
 41
1.0
 10
689.0977898500413
 20
273.3546632586207
 30
0.0
 41
1.0
 10
688.9011624762851
 20
273.5046725861648
 30
0.0
 41
1.0
 10
688.8564923113788
 20
273.5045425005501
 30
0.0
 41
1.0
  0
SPLINE
  5
D9
330
1F
100
AcDbEntity
  8
2
  6
________________
 62
     7
370
     9
100
AcDbSpline
210
0.0
220
0.0
230
1.0
 70
    12
 71
     3
 72
    18
 73
    14
 74
     0
 42
0.000000001
 43
0.0001
 40
0.928499081046836
 40
0.928499081046836
 40
0.928499081046836
 40
0.928499081046836
 40
0.932648380549514
 40
0.940109567593911
 40
0.947570754638307
 40
0.955031941682703
 40
0.962493128727099
 40
0.969954315771495
 40
0.977415502815892
 40
0.984876689860288
 40
0.992337876904684
 40
0.99979906394908
 40
1.002467051941958
 40
1.002467051941958
 40
1.002467051941958
 40
1.002467051941958
 10
703.3760415905112
 20
216.8167887329352
 30
0.0
 41
1.0
 10
703.2915354700565
 20
217.2746632006862
 30
0.0
 41
1.0
 10
703.0550721407517
 20
218.8824469463094
 30
0.0
 41
1.0
 10
702.6666516025965
 20
222.9456479697678
 30
0.0
 41
1.0
 10
702.210779976047
 20
229.4711876768028
 30
0.0
 41
1.0
 10
701.7549083494969
 20
237.2217431474734
 30
0.0
 41
1.0
 10
701.2990367229468
 20
245.5657663296149
 30
0.0
 41
1.0
 10
700.8431650963971
 20
253.8233509109836
 30
0.0
 41
1.0
 10
700.3872934698468
 20
261.3216339622471
 30
0.0
 41
1.0
 10
699.9314218432969
 20
267.4496236553319
 30
0.0
 41
1.0
 10
699.4755502167473
 20
271.7079854626672
 30
0.0
 41
1.0
 10
699.1172985995867
 20
273.3125123878466
 30
0.0
 41
1.0
 10
698.9110041912762
 20
273.504471812835
 30
0.0
 41
1.0
 10
698.8566669918158
 20
273.5044616540118
 30
0.0
 41
1.0
  0
SPLINE
  5
DA
330
1F
100
AcDbEntity
  8
2
  6
________________
 62
     7
370
     9
100
AcDbSpline
210
0.0
220
0.0
230
1.0
 70
    12
 71
     3
 72
    18
 73
    14
 74
     0
 42
0.000000001
 43
0.0001
 40
0.7648276517374111
 40
0.7648276517374111
 40
0.7648276517374111
 40
0.7648276517374111
 40
0.768502265572801
 40
0.775963452617197
 40
0.783424639661593
 40
0.790885826705989
 40
0.798347013750385
 40
0.805808200794781
 40
0.813269387839177
 40
0.820730574883573
 40
0.828191761927969
 40
0.835652948972365
 40
0.8387993170132813
 40
0.8387993170132813
 40
0.8387993170132813
 40
0.8387993170132813
 10
713.37621451944
 20
216.8158694544694
 30
0.0
 41
1.0
 10
713.3013760173753
 20
217.2211401437127
 30
0.0
 41
1.0
 10
713.0745803064606
 20
218.7266477470248
 30
0.0
 41
1.0
 10
712.695827386696
 20
222.5828824459118
 30
0.0
 41
1.0
 10
712.239955760146
 20
229.0105975074789
 30
0.0
 41
1.0
 10
711.784084133596
 20
236.7008591684244
 30
0.0
 41
1.0
 10
711.328212507046
 20
245.0270323713011
 30
0.0
 41
1.0
 10
710.8723408804962
 20
253.3106652956993
 30
0.0
 41
1.0
 10
710.4164692539462
 20
260.8767724830857
 30
0.0
 41
1.0
 10
709.960597627396
 20
267.1088355078142
 30
0.0
 41
1.0
 10
709.5047260008462
 20
271.4990395069195
 30
0.0
 41
1.0
 10
709.1367315242136
 20
273.2673735767552
 30
0.0
 41
1.0
 10
708.920694256431
 20
273.5043935477949
 30
0.0
 41
1.0
 10
708.8566141974983
 20
273.5044059608468
 30
0.0
 41
1.0
  0
SPLINE
  5
DB
330
1F
100
AcDbEntity
  8
2
  6
________________
 62
     7
370
     9
100
AcDbSpline
210
0.0
220
0.0
230
1.0
 70
    12
 71
     3
 72
    18
 73
    14
 74
     0
 42
0.000000001
 43
0.0001
 40
0.6011618986959842
 40
0.6011618986959842
 40
0.6011618986959842
 40
0.6011618986959842
 40
0.604356150596087
 40
0.611817337640483
 40
0.619278524684879
 40
0.626739711729275
 40
0.634200898773671
 40
0.641662085818068
 40
0.649123272862464
 40
0.65658445990686
 40
0.664045646951256
 40
0.671506833995652
 40
0.6751333725760268
 40
0.6751333725760268
 40
0.6751333725760268
 40
0.6751333725760268
 10
723.376040633645
 20
216.8167962272489
 30
0.0
 41
1.0
 10
723.3109853548783
 20
217.1691403253594
 30
0.0
 41
1.0
 10
723.0939728672618
 20
218.5752195211816
 30
0.0
 41
1.0
 10
722.7250031707952
 20
222.2274836469491
 30
0.0
 41
1.0
 10
722.269131544245
 20
228.5552140853654
 30
0.0
 41
1.0
 10
721.8132599176953
 20
236.1825976911103
 30
0.0
 41
1.0
 10
721.3573882911451
 20
244.48812297671
 30
0.0
 41
1.0
 10
720.9015166645952
 20
252.795020601415
 30
0.0
 41
1.0
 10
720.4456450380454
 20
260.4264094004792
 30
0.0
 41
1.0
 10
719.9897734114953
 20
266.7604515263313
 30
0.0
 41
1.0
 10
719.5339017849452
 20
271.281022427376
 30
0.0
 41
1.0
 10
719.1561279830506
 20
273.2191039498491
 30
0.0
 41
1.0
 10
718.9303113900061
 20
273.5044210400754
 30
0.0
 41
1.0
 10
718.8564520058113
 20
273.5043816587804
 30
0.0
 41
1.0
  0
SPLINE
  5
DC
330
1F
100
AcDbEntity
  8
2
  6
________________
 62
     7
370
     9
100
AcDbSpline
210
0.0
220
0.0
230
1.0
 70
    12
 71
     3
 72
    18
 73
    14
 74
     0
 42
0.000000001
 43
0.0001
 40
0.4374923697708751
 40
0.4374923697708751
 40
0.4374923697708751
 40
0.4374923697708751
 40
0.440210035619374
 40
0.447671222663769
 40
0.455132409708166
 40
0.462593596752562
 40
0.470054783796958
 40
0.477515970841354
 40
0.48497715788575
 40
0.492438344930146
 40
0.499899531974542
 40
0.507360719018938
 40
0.5114630384276763
 40
0.5114630384276763
 40
0.5114630384276763
 40
0.5114630384276763
 10
733.3760974508501
 20
216.8164424764554
 30
0.0
 41
1.0
 10
733.3207484943814
 20
217.1161275495347
 30
0.0
 41
1.0
 10
733.1134423290629
 20
218.4261986166679
 30
0.0
 41
1.0
 10
732.7541789548941
 20
221.8795710015515
 30
0.0
 41
1.0
 10
732.2983073283443
 20
228.105190438096
 30
0.0
 41
1.0
 10
731.8424357017944
 20
235.667132872788
 30
0.0
 41
1.0
 10
731.3865640752442
 20
243.9492192416508
 30
0.0
 41
1.0
 10
730.9306924486943
 20
252.2765901060404
 30
0.0
 41
1.0
 10
730.4748208221446
 20
259.9706960550193
 30
0.0
 41
1.0
 10
730.0189491955944
 20
266.4045887822863
 30
0.0
 41
1.0
 10
729.5630775690445
 20
271.0540074867778
 30
0.0
 41
1.0
 10
729.1756138443169
 20
273.1670361998085
 30
0.0
 41
1.0
 10
728.9401073284392
 20
273.504238582798
 30
0.0
 41
1.0
 10
728.8565580214117
 20
273.504391100889
 30
0.0
 41
1.0
  0
SPLINE
  5
DD
330
1F
100
AcDbEntity
  8
2
  6
________________
 62
     7
370
     9
100
AcDbSpline
210
0.0
220
0.0
230
1.0
 70
    12
 71
     3
 72
    18
 73
    14
 74
     0
 42
0.000000001
 43
0.0001
 40
0.2738256648741755
 40
0.2738256648741755
 40
0.2738256648741755
 40
0.2738256648741755
 40
0.276063920642658
 40
0.283525107687054
 40
0.29098629473145
 40
0.298447481775846
 40
0.305908668820242
 40
0.313369855864639
 40
0.320831042909035
 40
0.328292229953431
 40
0.335753416997827
 40
0.343214604042223
 40
0.3477807090961761
 40
0.3477807090961761
 40
0.3477807090961761
 40
0.3477807090961761
 10
743.3759817225317
 20
216.816996555408
 30
0.0
 41
1.0
 10
743.3303966035356
 20
217.0638381302632
 30
0.0
 41
1.0
 10
743.1328542756894
 20
218.2808906429644
 30
0.0
 41
1.0
 10
742.7833547389934
 20
221.5392614227341
 30
0.0
 41
1.0
 10
742.3274831124435
 20
227.6606777921986
 30
0.0
 41
1.0
 10
741.8716114858936
 20
235.1546379309203
 30
0.0
 41
1.0
 10
741.4157398593434
 20
243.4105022600303
 30
0.0
 41
1.0
 10
740.9598682327937
 20
251.7555480236283
 30
0.0
 41
1.0
 10
740.5039966062435
 20
259.5097855852071
 30
0.0
 41
1.0
 10
740.0481249796936
 20
266.0413668602556
 30
0.0
 41
1.0
 10
739.5922533531439
 20
270.8180709715184
 30
0.0
 41
1.0
 10
739.1953440037813
 20
273.1101721773959
 30
0.0
 41
1.0
 10
738.9503918632688
 20
273.5032680375209
 30
0.0
 41
1.0
 10
738.8573969316063
 20
273.504426922257
 30
0.0
 41
1.0
  0
LINE
  5
DE
330
1F
100
AcDbEntity
  8
2
  6
________________
 62
     7
370
     9
100
AcDbLine
 10
749.8564097604418
 20
267.9666987865855
 30
0.0
 11
749.8564097604418
 21
262.3282874076471
 31
0.0
  0
LWPOLYLINE
  5
DF
330
1F
100
AcDbEntity
  8
2
  6
________________
 62
     7
370
     9
100
AcDbPolyline
 90
        4
 70
     0
 43
0.0
 10
749.8564097604433
 20
262.328287407653
 42
0.0466727951475945
 10
748.72456541057
 20
271.2458902009519
 10
748.6437193855791
 20
271.4008591765549
 10
748.5628733605881
 20
271.4864398784337
  0
LWPOLYLINE
  5
E0
330
1F
100
AcDbEntity
  8
2
  6
________________
 62
     7
370
     9
100
AcDbPolyline
 90
        6
 70
     0
 43
0.0
 10
741.0038446983165
 20
244.5049647519696
 42
0.02416370203174
 10
738.8679952118312
 20
270.8015431842096
 10
738.7917148730281
 20
271.0647006804314
 10
738.7154345342251
 20
271.2668553065992
 10
738.6391541954222
 20
271.4075427504009
 10
738.5628738566191
 20
271.4864398784337
  0
LWPOLYLINE
  5
E1
330
1F
100
AcDbEntity
  8
2
  6
________________
 62
     7
370
     9
100
AcDbPolyline
 90
        7
 70
     0
 43
0.0
 10
731.0038536690502
 20
244.5049647519744
 42
0.0223719585717316
 10
728.8944658116104
 20
270.695808588223
 10
728.816340335409
 20
270.9861673228573
 10
728.7382148592076
 20
271.2127305210191
 10
728.660089383006
 20
271.3749523721191
 10
728.5819639068046
 20
271.4724420695094
 10
728.5038384306032
 20
271.5049647519696
  0
LWPOLYLINE
  5
E2
330
1F
100
AcDbEntity
  8
2
  6
________________
 62
     7
370
     9
100
AcDbPolyline
 90
        7
 70
     0
 43
0.0
 10
721.0038290175572
 20
244.5049647519687
 42
0.022371738214349
 10
718.8944622439849
 20
270.6958085882222
 10
718.8163375486673
 20
270.9861673228567
 10
718.7382128533499
 20
271.2127305210186
 10
718.6600881580324
 20
271.3749523721189
 10
718.581963462715
 20
271.4724420695093
 10
718.5038387673974
 20
271.5049647519696
  0
LWPOLYLINE
  5
E3
330
1F
100
AcDbEntity
  8
2
  6
________________
 62
     7
370
     9
100
AcDbPolyline
 90
        7
 70
     0
 43
0.0
 10
711.0039633205236
 20
244.5049647519696
 42
0.0223723161420711
 10
708.8945412506125
 20
270.6958085882223
 10
708.8164145072825
 20
270.9861673228568
 10
708.7382877639524
 20
271.2127305210187
 10
708.6601610206225
 20
271.374952372119
 10
708.5820342772923
 20
271.4724420695093
 10
708.5039075339623
 20
271.5049647519696
  0
LWPOLYLINE
  5
E4
330
1F
100
AcDbEntity
  8
2
  6
________________
 62
     7
370
     9
100
AcDbPolyline
 90
        7
 70
     0
 43
0.0
 10
701.0038693021709
 20
244.5049647519694
 42
0.0223718242249145
 10
698.8944942990797
 20
270.6958085882223
 10
698.8163692989652
 20
270.9861673228568
 10
698.7382442988509
 20
271.2127305210187
 10
698.6601192987364
 20
271.374952372119
 10
698.5819942986219
 20
271.4724420695093
 10
698.5038692985074
 20
271.5049647519696
  0
LWPOLYLINE
  5
E5
330
1F
100
AcDbEntity
  8
2
  6
________________
 62
     7
370
     9
100
AcDbPolyline
 90
        7
 70
     0
 43
0.0
 10
691.0038649700349
 20
244.5049647519696
 42
0.0223717459547144
 10
688.8944974558623
 20
270.6958085882223
 10
688.8163727331151
 20
270.9861673228568
 10
688.738248010368
 20
271.2127305210187
 10
688.6601232876209
 20
271.374952372119
 10
688.5819985648737
 20
271.4724420695093
 10
688.5038738421266
 20
271.5049647519696
  0
LWPOLYLINE
  5
E6
330
1F
100
AcDbEntity
  8
2
  6
________________
 62
     7
370
     9
100
AcDbPolyline
 90
        7
 70
     0
 43
0.0
 10
681.0038990251699
 20
244.5049647519697
 42
0.0223715146857488
 10
678.8945536388803
 20
270.6958085882223
 10
678.8164297356844
 20
270.9861673228568
 10
678.7383058324885
 20
271.2127305210187
 10
678.6601819292925
 20
271.374952372119
 10
678.5820580260967
 20
271.4724420695093
 10
678.5039341229008
 20
271.5049647519696
  0
LWPOLYLINE
  5
E7
330
1F
100
AcDbEntity
  8
2
  6
________________
 62
     7
370
     9
100
AcDbPolyline
 90
        7
 70
     0
 43
0.0
 10
671.0038912624148
 20
244.5049647519697
 42
0.0223717174414325
 10
668.8945264764019
 20
270.6958085882223
 10
668.8164018546978
 20
270.9861673228568
 10
668.7382772329936
 20
271.2127305210187
 10
668.6601526112894
 20
271.374952372119
 10
668.5820279895852
 20
271.4724420695093
 10
668.5039033678811
 20
271.5049647519696
  0
LWPOLYLINE
  5
E8
330
1F
100
AcDbEntity
  8
2
  6
________________
 62
     7
370
     9
100
AcDbPolyline
 90
        7
 70
     0
 43
0.0
 10
661.0038971523948
 20
244.5049647519697
 42
0.022371748127909
 10
658.8945294302898
 20
270.6958085882223
 10
658.8164046998414
 20
270.9861673228568
 10
658.7382799693931
 20
271.2127305210187
 10
658.6601552389449
 20
271.374952372119
 10
658.5820305084965
 20
271.4724420695093
 10
658.5039057780482
 20
271.5049647519696
  0
LWPOLYLINE
  5
E9
330
1F
100
AcDbEntity
  8
2
  6
________________
 62
     7
370
     9
100
AcDbPolyline
 90
        6
 70
     0
 43
0.0
 10
628.8564097604418
 20
270.8453745973347
 10
628.8163939634397
 20
270.9861673228568
 10
628.7382687374534
 20
271.2127305210187
 10
628.660143511467
 20
271.374952372119
 10
628.5820182854807
 20
271.4724420695093
 10
628.5038930594943
 20
271.5049647519696
  0
LWPOLYLINE
  5
EA
330
1F
100
AcDbEntity
  8
2
  6
________________
 62
     7
370
     9
100
AcDbPolyline
 90
        7
 70
     0
 43
0.0
 10
621.0038952689692
 20
244.5049647519695
 42
0.0223718434203694
 10
618.8945184292506
 20
270.6958085882223
 10
618.816393361113
 20
270.9861673228568
 10
618.7382682929752
 20
271.2127305210187
 10
618.6601432248375
 20
271.374952372119
 10
618.5820181566999
 20
271.4724420695093
 10
618.5038930885621
 20
271.5049647519696
  0
LWPOLYLINE
  5
EB
330
1F
100
AcDbEntity
  8
2
  6
________________
 62
     7
370
     9
100
AcDbPolyline
 90
        7
 70
     0
 43
0.0
 10
611.0038704293049
 20
244.5049647519695
 42
0.0223718227904399
 10
608.894495563465
 20
270.6958085882223
 10
608.8163705684339
 20
270.9861673228568
 10
608.7382455734028
 20
271.2127305210187
 10
608.6601205783717
 20
271.374952372119
 10
608.5819955833406
 20
271.4724420695093
 10
608.5038705883095
 20
271.5049647519696
  0
LWPOLYLINE
  5
EC
330
1F
100
AcDbEntity
  8
2
  6
________________
 62
     7
370
     9
100
AcDbPolyline
 90
        6
 70
     0
 43
0.0
 10
601.0038699356547
 20
244.5049647519697
 42
0.0241639833220827
 10
598.8679951983796
 20
270.8015431842094
 10
598.7917139577627
 20
271.0647006804313
 10
598.7154327171456
 20
271.266855306599
 10
598.6391514765288
 20
271.4075427504008
 10
598.5628702359118
 20
271.4864398784337
  0
LWPOLYLINE
  5
ED
330
1F
100
AcDbEntity
  8
2
  6
________________
 62
     7
370
     9
100
AcDbPolyline
 90
        6
 70
     0
 43
0.0
 10
591.0038540462955
 20
244.5049647519697
 42
0.0241637897700506
 10
588.8679966837451
 20
270.8015431842097
 10
588.7917160636541
 20
271.0647006804315
 10
588.7154354435629
 20
271.2668553065992
 10
588.6391548234718
 20
271.4075427504009
 10
588.5628742033808
 20
271.4864398784337
  0
ARC
  5
EE
330
1F
100
AcDbEntity
  8
2
  6
________________
 62
     7
370
     9
100
AcDbCircle
 10
-255.5222215945786
 20
231.0336555197375
 30
0.0
 40
339.9538564013656
210
0.0
220
0.0
230
-1.0
100
AcDbArc
 50
173.399262731825
 51
177.7289526320361
  0
ARC
  5
EF
330
1F
100
AcDbEntity
  8
2
  6
________________
 62
     7
370
     9
100
AcDbCircle
 10
-272.1057277537176
 20
231.5447960863126
 30
0.0
 40
333.3553673591022
210
0.0
220
0.0
230
-1.0
100
AcDbArc
 50
173.3565247459206
 51
177.7718968115381
  0
ARC
  5
F0
330
1F
100
AcDbEntity
  8
2
  6
________________
 62
     7
370
     9
100
AcDbCircle
 10
-282.1205160795568
 20
231.5461764217515
 30
0.0
 40
333.3404642786358
210
0.0
220
0.0
230
-1.0
100
AcDbArc
 50
173.3564047289716
 51
177.7720345832338
  0
ARC
  5
F1
330
1F
100
AcDbEntity
  8
2
  6
________________
 62
     7
370
     9
100
AcDbCircle
 10
-292.0957078104889
 20
231.5444421714157
 30
0.0
 40
333.3653486933817
210
0.0
220
0.0
230
-1.0
100
AcDbArc
 50
173.3566791031646
 51
177.7719026834377
  0
ARC
  5
F2
330
1F
100
AcDbEntity
  8
2
  6
________________
 62
     7
370
     9
100
AcDbCircle
 10
-332.0832826513807
 20
231.5432564429081
 30
0.0
 40
333.3778961555817
210
0.0
220
0.0
230
-1.0
100
AcDbArc
 50
173.3567770812793
 51
177.7717826467646
  0
ARC
  5
F3
330
1F
100
AcDbEntity
  8
2
  6
________________
 62
     7
370
     9
100
AcDbCircle
 10
-341.990464586604
 20
231.5376393225589
 30
0.0
 40
333.4708145961154
210
0.0
220
0.0
230
-1.0
100
AcDbArc
 50
173.3579125241543
 51
177.7714379871902
  0
ARC
  5
F4
330
1F
100
AcDbEntity
  8
2
  6
________________
 62
     7
370
     9
100
AcDbCircle
 10
-352.0849705914306
 20
231.5437054648164
 30
0.0
 40
333.3761505220128
210
0.0
220
0.0
230
-1.0
100
AcDbArc
 50
173.3568002801443
 51
177.7718482030837
  0
ARC
  5
F5
330
1F
100
AcDbEntity
  8
2
  6
________________
 62
     7
370
     9
100
AcDbCircle
 10
-361.9760710775386
 20
231.5365490598327
 30
0.0
 40
333.4853263214931
210
0.0
220
0.0
230
-1.0
100
AcDbArc
 50
173.3580622009199
 51
177.771347554013
  0
ARC
  5
F6
330
1F
100
AcDbEntity
  8
2
  6
________________
 62
     7
370
     9
100
AcDbCircle
 10
-371.9912087300891
 20
231.5378875848999
 30
0.0
 40
333.4701128193529
210
0.0
220
0.0
230
-1.0
100
AcDbArc
 50
173.3579306278809
 51
177.7714759828246
  0
ARC
  5
F7
330
1F
100
AcDbEntity
  8
2
  6
________________
 62
     7
370
     9
100
AcDbCircle
 10
-381.975579010851
 20
231.5368812840348
 30
0.0
 40
333.4857544435032
210
0.0
220
0.0
230
-1.0
100
AcDbArc
 50
173.3581138390415
 51
177.7714075387941
  0
ARC
  5
F8
330
1F
100
AcDbEntity
  8
2
  6
________________
 62
     7
370
     9
100
AcDbCircle
 10
-392.0153420981454
 20
231.5393144238788
 30
0.0
 40
333.4459393882147
210
0.0
220
0.0
230
-1.0
100
AcDbArc
 50
173.3576308175692
 51
177.7715597009648
  0
ARC
  5
F9
330
1F
100
AcDbEntity
  8
2
  6
________________
 62
     7
370
     9
100
AcDbCircle
 10
-395.4833647932925
 20
231.0308029478352
 30
0.0
 40
339.9928442288096
210
0.0
220
0.0
230
-1.0
100
AcDbArc
 50
173.399660437769
 51
177.7287321003059
  0
ARC
  5
FA
330
1F
100
AcDbEntity
  8
2
  6
________________
 62
     7
370
     9
100
AcDbCircle
 10
-405.5009120200636
 20
231.0320138423931
 30
0.0
 40
339.9752475698302
210
0.0
220
0.0
230
-1.0
100
AcDbArc
 50
173.399471169373
 51
177.7288187125515
  0
ARC
  5
FB
330
1F
100
AcDbEntity
  8
2
  6
________________
 62
     7
370
     9
100
AcDbCircle
 10
-585.6628870550047
 20
216.8691468304665
 30
0.0
 40
2.174454506009554
210
0.0
220
0.0
230
-1.0
100
AcDbArc
 50
181.4126793236349
 51
218.8381604775694
  0
ARC
  5
FC
330
1F
100
AcDbEntity
  8
2
  6
________________
 62
     7
370
     9
100
AcDbCircle
 10
590.5433354271859
 20
272.0966533273132
 30
0.0
 40
2.295458681835701
100
AcDbArc
 50
2.435468705318524
 51
37.82877890289348
  0
ARC
  5
FD
330
1F
100
AcDbEntity
  8
2
  6
________________
 62
     7
370
     9
100
AcDbCircle
 10
-595.4084170163798
 20
216.9615182570768
 30
0.0
 40
2.432768434254931
210
0.0
220
0.0
230
-1.0
100
AcDbArc
 50
183.4190606979307
 51
216.7648168839002
  0
SPLINE
  5
FE
330
1F
100
AcDbEntity
  8
2
  6
________________
 62
     7
370
     9
100
AcDbSpline
210
0.0
220
0.0
230
1.0
 70
    12
 71
     3
 72
     9
 73
     5
 74
     0
 42
0.000000001
 43
0.0001
 40
2.631298247907624
 40
2.631298247907624
 40
2.631298247907624
 40
2.631298247907624
 40
2.63379902667185
 40
2.639160885517923
 40
2.639160885517923
 40
2.639160885517923
 40
2.639160885517923
 10
602.8365876449311
 20
272.1949834906043
 30
0.0
 41
1.0
 10
602.785655888536
 20
272.4708414204724
 30
0.0
 41
1.0
 10
602.6255225936122
 20
273.2047221579592
 30
0.0
 41
1.0
 10
602.4653892986886
 20
273.5045641453324
 30
0.0
 41
1.0
 10
602.3561877601602
 20
273.5045521838891
 30
0.0
 41
1.0
  0
SPLINE
  5
FF
330
1F
100
AcDbEntity
  8
2
  6
________________
 62
     7
370
     9
100
AcDbSpline
210
0.0
220
0.0
230
1.0
 70
    12
 71
     3
 72
     9
 73
     5
 74
     0
 42
0.000000001
 43
0.0001
 40
2.549464270128822
 40
2.549464270128822
 40
2.549464270128822
 40
2.549464270128822
 40
2.55172596918349
 40
2.55732121288207
 40
2.55732121288207
 40
2.55732121288207
 40
2.55732121288207
 10
607.8365679878841
 20
216.8147983996991
 30
0.0
 41
1.0
 10
607.7905054145212
 20
216.5653086069718
 30
0.0
 41
1.0
 10
607.630488103097
 20
215.819256131056
 30
0.0
 41
1.0
 10
607.4704707916729
 20
215.5057669860003
 30
0.0
 41
1.0
 10
607.3565160536114
 20
215.5053293694078
 30
0.0
 41
1.0
  0
SPLINE
  5
100
330
1F
100
AcDbEntity
  8
2
  6
________________
 62
     7
370
     9
100
AcDbSpline
210
0.0
220
0.0
230
1.0
 70
    12
 71
     3
 72
     9
 73
     5
 74
     0
 42
0.000000001
 43
0.0001
 40
2.467627809014616
 40
2.467627809014616
 40
2.467627809014616
 40
2.467627809014616
 40
2.46965291169513
 40
2.475491408386
 40
2.475491408386
 40
2.475491408386
 40
2.475491408386
 10
612.8367000603328
 20
272.1944606165782
 30
0.0
 41
1.0
 10
612.7954560935035
 20
272.4179200304548
 30
0.0
 41
1.0
 10
612.6353032110089
 20
273.1774451457869
 30
0.0
 41
1.0
 10
612.4751503285144
 20
273.504558402538
 30
0.0
 41
1.0
 10
612.3562414128492
 20
273.5046513935601
 30
0.0
 41
1.0
  0
SPLINE
  5
101
330
1F
100
AcDbEntity
  8
2
  6
________________
 62
     7
370
     9
100
AcDbSpline
210
0.0
220
0.0
230
1.0
 70
    12
 71
     3
 72
     9
 73
     5
 74
     0
 42
0.000000001
 43
0.0001
 40
2.385793834490963
 40
2.385793834490963
 40
2.385793834490963
 40
2.385793834490963
 40
2.38757985420677
 40
2.393662054546164
 40
2.393662054546164
 40
2.393662054546164
 40
2.393662054546164
 10
617.8366802043992
 20
216.8153138824997
 30
0.0
 41
1.0
 10
617.8003054868977
 20
216.618239295843
 30
0.0
 41
1.0
 10
617.640058497901
 20
215.8455657785865
 30
0.0
 41
1.0
 10
617.4798115089044
 20
215.5048902907611
 30
0.0
 41
1.0
 10
617.3559392374091
 20
215.5052274694745
 30
0.0
 41
1.0
  0
SPLINE
  5
102
330
1F
100
AcDbEntity
  8
2
  6
________________
 62
     7
370
     9
100
AcDbSpline
210
0.0
220
0.0
230
1.0
 70
    12
 71
     3
 72
     9
 73
     5
 74
     0
 42
0.000000001
 43
0.0001
 40
2.303960916266901
 40
2.303960916266901
 40
2.303960916266901
 40
2.303960916266901
 40
2.30550679671842
 40
2.31181297207018
 40
2.31181297207018
 40
2.31181297207018
 40
2.31181297207018
 10
622.8365958095378
 20
272.1951211647109
 30
0.0
 41
1.0
 10
622.80511185434
 20
272.3656695091842
 30
0.0
 41
1.0
 10
622.6451940722902
 20
273.149366172481
 30
0.0
 41
1.0
 10
622.4852762902402
 20
273.5037924641114
 30
0.0
 41
1.0
 10
622.3568424633878
 20
273.5047492210687
 30
0.0
 41
1.0
  0
SPLINE
  5
103
330
1F
100
AcDbEntity
  8
2
  6
________________
 62
     7
370
     9
100
AcDbSpline
210
0.0
220
0.0
230
1.0
 70
    12
 71
     3
 72
     9
 73
     5
 74
     0
 42
0.000000001
 43
0.0001
 40
2.222126796594134
 40
2.222126796594134
 40
2.222126796594134
 40
2.222126796594134
 40
2.22343373923005
 40
2.230000420205788
 40
2.230000420205788
 40
2.230000420205788
 40
2.230000420205788
 10
627.8365848220802
 20
216.8147013197544
 30
0.0
 41
1.0
 10
627.8099671600515
 20
216.6705197706848
 30
0.0
 41
1.0
 10
627.6496101202879
 20
215.8719659875318
 30
0.0
 41
1.0
 10
627.4892530805241
 20
215.5040480058922
 30
0.0
 41
1.0
 10
627.3555137027892
 20
215.505135261707
 30
0.0
 41
1.0
  0
SPLINE
  5
104
330
1F
100
AcDbEntity
  8
2
  6
________________
 62
     7
370
     9
100
AcDbSpline
210
0.0
220
0.0
230
1.0
 70
    12
 71
     3
 72
     9
 73
     5
 74
     0
 42
0.000000001
 43
0.0001
 40
1.731118012042333
 40
1.731118012042333
 40
1.731118012042333
 40
1.731118012042333
 40
1.7384565813443
 40
1.738976416303641
 40
1.738976416303641
 40
1.738976416303641
 40
1.738976416303641
 10
657.8367673576544
 20
216.8155408168788
 30
0.0
 41
1.0
 10
657.6873074256832
 20
216.0062317208984
 30
0.0
 41
1.0
 10
657.5272603486621
 20
215.5342426692725
 30
0.0
 41
1.0
 10
657.367213271641
 20
215.5050695529231
 30
0.0
 41
1.0
 10
657.3566261265911
 20
215.505072705459
 30
0.0
 41
1.0
  0
SPLINE
  5
105
330
1F
100
AcDbEntity
  8
2
  6
________________
 62
     7
370
     9
100
AcDbSpline
210
0.0
220
0.0
230
1.0
 70
    12
 71
     3
 72
     9
 73
     5
 74
     0
 42
0.000000001
 43
0.0001
 40
1.649278150637965
 40
1.649278150637965
 40
1.649278150637965
 40
1.649278150637965
 40
1.65638352385595
 40
1.65715301335606
 40
1.65715301335606
 40
1.65715301335606
 40
1.65715301335606
 10
662.8371071846873
 20
272.1925306527478
 30
0.0
 41
1.0
 10
662.6923966077217
 20
272.9765345406391
 30
0.0
 41
1.0
 10
662.5320143318722
 20
273.4630301752445
 30
0.0
 41
1.0
 10
662.3716320560228
 20
273.5049534953643
 30
0.0
 41
1.0
 10
662.3559603571389
 20
273.5048193946817
 30
0.0
 41
1.0
  0
SPLINE
  5
106
330
1F
100
AcDbEntity
  8
2
  6
________________
 62
     7
370
     9
100
AcDbSpline
210
0.0
220
0.0
230
1.0
 70
    12
 71
     3
 72
     9
 73
     5
 74
     0
 42
0.000000001
 43
0.0001
 40
1.56744503386693
 40
1.56744503386693
 40
1.56744503386693
 40
1.56744503386693
 40
1.57431046636759
 40
1.575303900795119
 40
1.575303900795119
 40
1.575303900795119
 40
1.575303900795119
 10
667.8370349208619
 20
216.8170362552008
 30
0.0
 41
1.0
 10
667.6972110625213
 20
216.0597151530864
 30
0.0
 41
1.0
 10
667.5371545626607
 20
215.5611307339547
 30
0.0
 41
1.0
 10
667.3770980628001
 20
215.5051771913274
 30
0.0
 41
1.0
 10
667.3568654212801
 20
215.505148932509
 30
0.0
 41
1.0
  0
SPLINE
  5
107
330
1F
100
AcDbEntity
  8
2
  6
________________
 62
     7
370
     9
100
AcDbSpline
210
0.0
220
0.0
230
1.0
 70
    12
 71
     3
 72
     9
 73
     5
 74
     0
 42
0.000000001
 43
0.0001
 40
1.485611437097793
 40
1.485611437097793
 40
1.485611437097793
 40
1.485611437097793
 40
1.49223740887923
 40
1.493493517341417
 40
1.493493517341417
 40
1.493493517341417
 40
1.493493517341417
 10
672.8369919844766
 20
272.1930881480531
 30
0.0
 41
1.0
 10
672.7020450689477
 20
272.9238621300482
 30
0.0
 41
1.0
 10
672.5415157983872
 20
273.4370294926838
 30
0.0
 41
1.0
 10
672.3809865278266
 20
273.5051226720894
 30
0.0
 41
1.0
 10
672.355404172795
 20
273.5047228290904
 30
0.0
 41
1.0
  0
SPLINE
  5
108
330
1F
100
AcDbEntity
  8
2
  6
________________
 62
     7
370
     9
100
AcDbSpline
210
0.0
220
0.0
230
1.0
 70
    12
 71
     3
 72
     9
 73
     5
 74
     0
 42
0.000000001
 43
0.0001
 40
1.403777940165013
 40
1.403777940165013
 40
1.403777940165013
 40
1.403777940165013
 40
1.41016435139087
 40
1.411643399235113
 40
1.411643399235113
 40
1.411643399235113
 40
1.411643399235113
 10
677.8369429481824
 20
216.8166196340918
 30
0.0
 41
1.0
 10
677.7068750087682
 20
216.1123809762003
 30
0.0
 41
1.0
 10
677.5466842509833
 20
215.5872500272075
 30
0.0
 41
1.0
 10
677.3864934931985
 20
215.5051062454673
 30
0.0
 41
1.0
 10
677.356370674828
 20
215.5052471177938
 30
0.0
 41
1.0
  0
SPLINE
  5
109
330
1F
100
AcDbEntity
  8
2
  6
________________
 62
     7
370
     9
100
AcDbSpline
210
0.0
220
0.0
230
1.0
 70
    12
 71
     3
 72
     9
 73
     5
 74
     0
 42
0.000000001
 43
0.0001
 40
1.321944013054151
 40
1.321944013054151
 40
1.321944013054151
 40
1.321944013054151
 40
1.32809129390251
 40
1.329811735203397
 40
1.329811735203397
 40
1.329811735203397
 40
1.329811735203397
 10
682.8369201953712
 20
272.1933854727242
 30
0.0
 41
1.0
 10
682.7117224709106
 20
272.8712000922678
 30
0.0
 41
1.0
 10
682.551485622445
 20
273.4095257421874
 30
0.0
 41
1.0
 10
682.3912487739794
 20
273.5048585451759
 30
0.0
 41
1.0
 10
682.3562096499744
 20
273.5046304451054
 30
0.0
 41
1.0
  0
SPLINE
  5
10A
330
1F
100
AcDbEntity
  8
2
  6
________________
 62
     7
370
     9
100
AcDbSpline
210
0.0
220
0.0
230
1.0
 70
    12
 71
     3
 72
     9
 73
     5
 74
     0
 42
0.000000001
 43
0.0001
 40
1.240107365505375
 40
1.240107365505375
 40
1.240107365505375
 40
1.240107365505375
 40
1.24601823641415
 40
1.247962340247652
 40
1.247962340247652
 40
1.247962340247652
 40
1.247962340247652
 10
687.8370636588
 20
216.8173700470836
 30
0.0
 41
1.0
 10
687.7166807438797
 20
216.1654398331722
 30
0.0
 41
1.0
 10
687.5567035136721
 20
215.6148399797321
 30
0.0
 41
1.0
 10
687.3967262834643
 20
215.5055130862073
 30
0.0
 41
1.0
 10
687.357131968177
 20
215.5053480348613
 30
0.0
 41
1.0
  0
SPLINE
  5
10B
330
1F
100
AcDbEntity
  8
2
  6
________________
 62
     7
370
     9
100
AcDbSpline
210
0.0
220
0.0
230
1.0
 70
    12
 71
     3
 72
     9
 73
     5
 74
     0
 42
0.000000001
 43
0.0001
 40
1.158271694340001
 40
1.158271694340001
 40
1.158271694340001
 40
1.158271694340001
 40
1.1639451789258
 40
1.166140907336791
 40
1.166140907336791
 40
1.166140907336791
 40
1.166140907336791
 10
692.8371474661061
 20
272.1920566536596
 30
0.0
 41
1.0
 10
692.7215992461003
 20
272.8179188945729
 30
0.0
 41
1.0
 10
692.5613320344992
 20
273.3826041122007
 30
0.0
 41
1.0
 10
692.4010648228983
 20
273.5047389854739
 30
0.0
 41
1.0
 10
692.3563458313033
 20
273.5045338909005
 30
0.0
 41
1.0
  0
SPLINE
  5
10C
330
1F
100
AcDbEntity
  8
2
  6
________________
 62
     7
370
     9
100
AcDbSpline
210
0.0
220
0.0
230
1.0
 70
    12
 71
     3
 72
     9
 73
     5
 74
     0
 42
0.000000001
 43
0.0001
 40
1.07644149622734
 40
1.07644149622734
 40
1.07644149622734
 40
1.07644149622734
 40
1.08187212143744
 40
1.08429677194953
 40
1.08429677194953
 40
1.08429677194953
 40
1.08429677194953
 10
697.836896874954
 20
216.8165627325034
 30
0.0
 41
1.0
 10
697.7262948160153
 20
216.2177735845627
 30
0.0
 41
1.0
 10
697.5663114559429
 20
215.6413580782404
 30
0.0
 41
1.0
 10
697.4063280958707
 20
215.5055669831515
 30
0.0
 41
1.0
 10
697.356946794737
 20
215.5054382886337
 30
0.0
 41
1.0
  0
SPLINE
  5
10D
330
1F
100
AcDbEntity
  8
2
  6
________________
 62
     7
370
     9
100
AcDbSpline
210
0.0
220
0.0
230
1.0
 70
    12
 71
     3
 72
     9
 73
     5
 74
     0
 42
0.000000001
 43
0.0001
 40
0.9946071999999073
 40
0.9946071999999073
 40
0.9946071999999073
 40
0.9946071999999073
 40
0.99979906394908
 40
1.002468295640248
 40
1.002468295640248
 40
1.002468295640248
 40
1.002468295640248
 10
702.8368966748241
 20
272.1933245355769
 30
0.0
 41
1.0
 10
702.7311573132787
 20
272.765816749779
 30
0.0
 41
1.0
 10
702.5710554226679
 20
273.3556039407076
 30
0.0
 41
1.0
 10
702.410953532057
 20
273.5045108803457
 30
0.0
 41
1.0
 10
702.3565910029915
 20
273.5044535463957
 30
0.0
 41
1.0
  0
SPLINE
  5
10E
330
1F
100
AcDbEntity
  8
2
  6
________________
 62
     7
370
     9
100
AcDbSpline
210
0.0
220
0.0
230
1.0
 70
    12
 71
     3
 72
     9
 73
     5
 74
     0
 42
0.000000001
 43
0.0001
 40
0.9127708288272653
 40
0.9127708288272653
 40
0.9127708288272653
 40
0.9127708288272653
 40
0.917726006460722
 40
0.9206408868817257
 40
0.9206408868817257
 40
0.9206408868817257
 40
0.9206408868817257
 10
707.8370232519266
 20
216.8173289071492
 30
0.0
 41
1.0
 10
707.7361043286967
 20
216.2707598298232
 30
0.0
 41
1.0
 10
707.5758199063484
 20
215.667248771971
 30
0.0
 41
1.0
 10
707.4155354840001
 20
215.5051884882021
 30
0.0
 41
1.0
 10
707.3561699848817
 20
215.5055086669455
 30
0.0
 41
1.0
  0
SPLINE
  5
10F
330
1F
100
AcDbEntity
  8
2
  6
________________
 62
     7
370
     9
100
AcDbSpline
210
0.0
220
0.0
230
1.0
 70
    12
 71
     3
 72
     9
 73
     5
 74
     0
 42
0.000000001
 43
0.0001
 40
0.8309359889610411
 40
0.8309359889610411
 40
0.8309359889610411
 40
0.8309359889610411
 40
0.835652948972365
 40
0.838800538212652
 40
0.838800538212652
 40
0.838800538212652
 40
0.838800538212652
 10
712.8370562676234
 20
272.1923891184471
 30
0.0
 41
1.0
 10
712.7409889698447
 20
272.7127576538413
 30
0.0
 41
1.0
 10
712.5808167417492
 20
273.3287794607392
 30
0.0
 41
1.0
 10
712.4206445136537
 20
273.5044400507928
 30
0.0
 41
1.0
 10
712.356539583337
 20
273.5043978831072
 30
0.0
 41
1.0
  0
SPLINE
  5
110
330
1F
100
AcDbEntity
  8
2
  6
________________
 62
     7
370
     9
100
AcDbSpline
210
0.0
220
0.0
230
1.0
 70
    12
 71
     3
 72
     9
 73
     5
 74
     0
 42
0.000000001
 43
0.0001
 40
0.7491046050713194
 40
0.7491046050713194
 40
0.7491046050713194
 40
0.7491046050713194
 40
0.753579891484009
 40
0.7569814955998381
 40
0.7569814955998381
 40
0.7569814955998381
 40
0.7569814955998381
 10
717.8368781263531
 20
216.8166014399313
 30
0.0
 41
1.0
 10
717.7457328396808
 20
216.3230273279336
 30
0.0
 41
1.0
 10
717.5853092647178
 20
215.6933010365708
 30
0.0
 41
1.0
 10
717.4248856897547
 20
215.5048087386307
 30
0.0
 41
1.0
 10
717.3556074014639
 20
215.5055529641173
 30
0.0
 41
1.0
  0
SPLINE
  5
111
330
1F
100
AcDbEntity
  8
2
  6
________________
 62
     7
370
     9
100
AcDbSpline
210
0.0
220
0.0
230
1.0
 70
    12
 71
     3
 72
     9
 73
     5
 74
     0
 42
0.000000001
 43
0.0001
 40
0.6672703603889943
 40
0.6672703603889943
 40
0.6672703603889943
 40
0.6672703603889943
 40
0.671506833995652
 40
0.675134569326571
 40
0.675134569326571
 40
0.675134569326571
 40
0.675134569326571
 10
722.8368747768644
 20
272.1933278019545
 30
0.0
 41
1.0
 10
722.7505932373716
 20
272.660605029949
 30
0.0
 41
1.0
 10
722.5904279402338
 20
273.3021741532655
 30
0.0
 41
1.0
 10
722.430262643096
 20
273.5044745606951
 30
0.0
 41
1.0
 10
722.3563788854508
 20
273.5043735288734
 30
0.0
 41
1.0
  0
SPLINE
  5
112
330
1F
100
AcDbEntity
  8
2
  6
________________
 62
     7
370
     9
100
AcDbSpline
210
0.0
220
0.0
230
1.0
 70
    12
 71
     3
 72
     9
 73
     5
 74
     0
 42
0.000000001
 43
0.0001
 40
0.5854352560020604
 40
0.5854352560020604
 40
0.5854352560020604
 40
0.5854352560020604
 40
0.589433776507295
 40
0.5932986880034754
 40
0.5932986880034754
 40
0.5932986880034754
 40
0.5932986880034754
 10
727.8369239545323
 20
216.8168786109424
 30
0.0
 41
1.0
 10
727.7554886531667
 20
216.3757595167352
 30
0.0
 41
1.0
 10
727.5953391793892
 20
215.7213700559737
 30
0.0
 41
1.0
 10
727.4351897056114
 20
215.5055800619524
 30
0.0
 41
1.0
 10
727.3564755331992
 20
215.5055553630767
 30
0.0
 41
1.0
  0
ARC
  5
113
330
1F
100
AcDbEntity
  8
2
  6
________________
 62
     7
370
     9
100
AcDbCircle
 10
730.9242112007056
 20
272.2363491938434
 30
0.0
 40
1.912987642311395
100
AcDbArc
 50
358.7341413102749
 51
41.51799357609399
  0
ARC
  5
114
330
1F
100
AcDbEntity
  8
2
  6
________________
 62
     7
370
     9
100
AcDbCircle
 10
-735.811001208857
 20
216.8152656210887
 30
0.0
 40
2.025784878727654
210
0.0
220
0.0
230
-1.0
100
AcDbArc
 50
179.9756216639686
 51
220.2807046021306
  0
ARC
  5
115
330
1F
100
AcDbEntity
  8
2
  6
________________
 62
     7
370
     9
100
AcDbCircle
 10
740.6855556370045
 20
272.1498567271086
 30
0.0
 40
2.151661945976909
100
AcDbArc
 50
1.173472561137645
 51
39.01639000058984
  0
ARC
  5
116
330
1F
100
AcDbEntity
  8
2
  6
________________
 62
     7
370
     9
100
AcDbCircle
 10
-745.5757826382475
 20
216.9013598057095
 30
0.0
 40
2.262458001169922
210
0.0
220
0.0
230
-1.0
100
AcDbArc
 50
182.1862359535556
 51
218.0958341733144
  0
ARC
  5
117
330
1F
100
AcDbEntity
  8
2
  6
________________
 62
     7
370
     9
100
AcDbCircle
 10
190.3250299496809
 20
202.971232945902
 30
0.0
 40
776.6455022329801
210
0.0
220
0.0
230
-1.0
100
AcDbArc
 50
175.4347247534934
 51
176.9344529813527
  0
LWPOLYLINE
  5
118
330
1F
100
AcDbEntity
  8
2
  6
________________
 62
     7
370
     9
100
AcDbPolyline
 90
        7
 70
     0
 43
0.0
 10
585.2090990614023
 20
244.5049647519704
 42
0.0223717743347766
 10
587.3184692909886
 20
218.314120915717
 10
587.3965941143065
 20
218.0237621810825
 10
587.4747189376245
 20
217.7971989829206
 10
587.5528437609426
 20
217.6349771318203
 10
587.6309685842605
 20
217.53748743443
 10
587.7090934075785
 20
217.5049647519696
  0
LWPOLYLINE
  5
119
330
1F
100
AcDbEntity
  8
2
  6
________________
 62
     7
370
     9
100
AcDbPolyline
 90
        7
 70
     0
 43
0.0
 10
595.2090601823138
 20
244.5049647519605
 42
0.0223716540845478
 10
597.3184189063185
 20
218.3141209157156
 10
597.3965433035039
 20
218.0237621810814
 10
597.4746677006892
 20
217.7971989829198
 10
597.5527920978747
 20
217.6349771318198
 10
597.63091649506
 20
217.5374874344297
 10
597.7090408922451
 20
217.5049647519696
  0
LWPOLYLINE
  5
11A
330
1F
100
AcDbEntity
  8
2
  6
________________
 62
     7
370
     9
100
AcDbPolyline
 90
        7
 70
     0
 43
0.0
 10
605.2090675377547
 20
244.5049647519696
 42
0.0223717673969684
 10
607.3184371035293
 20
218.3141209157169
 10
607.3965619022616
 20
218.0237621810824
 10
607.474686700994
 20
217.7971989829205
 10
607.5528114997264
 20
217.6349771318203
 10
607.6309362984589
 20
217.5374874344299
 10
607.7090610971912
 20
217.5049647519696
  0
LWPOLYLINE
  5
11B
330
1F
100
AcDbEntity
  8
2
  6
________________
 62
     7
370
     9
100
AcDbPolyline
 90
        7
 70
     0
 43
0.0
 10
615.2089952116173
 20
244.5049647519696
 42
0.0223720330323899
 10
617.3183901934809
 20
218.314120915717
 10
617.39651593355
 20
218.0237621810824
 10
617.4746416736189
 20
217.7971989829205
 10
617.5527674136879
 20
217.6349771318203
 10
617.6308931537569
 20
217.5374874344299
 10
617.709018893826
 20
217.5049647519696
  0
LWPOLYLINE
  5
11C
330
1F
100
AcDbEntity
  8
2
  6
________________
 62
     7
370
     9
100
AcDbPolyline
 90
        7
 70
     0
 43
0.0
 10
625.2090227108379
 20
244.5049647519697
 42
0.0223716214825581
 10
627.3183783154764
 20
218.314120915717
 10
627.3965025971297
 20
218.0237621810824
 10
627.474626878783
 20
217.7971989829205
 10
627.5527511604363
 20
217.6349771318203
 10
627.6308754420896
 20
217.5374874344299
 10
627.708999723743
 20
217.5049647519696
  0
LWPOLYLINE
  5
11D
330
1F
100
AcDbEntity
  8
2
  6
________________
 62
     7
370
     9
100
AcDbPolyline
 90
        4
 70
     0
 43
0.0
 10
656.8113508107765
 20
221.6870184435545
 42
0.0648513267454281
 10
657.5527791078518
 20
217.6349771318203
 10
657.6309042484452
 20
217.5374874344299
 10
657.7090293890385
 20
217.5049647519696
  0
LWPOLYLINE
  5
11E
330
1F
100
AcDbEntity
  8
2
  6
________________
 62
     7
370
     9
100
AcDbPolyline
 90
        7
 70
     0
 43
0.0
 10
665.2091083731834
 20
244.5049647519591
 42
0.0223715379311893
 10
667.3184559836016
 20
218.3141209157154
 10
667.3965799691725
 20
218.0237621810813
 10
667.4747039547436
 20
217.7971989829197
 10
667.5528279403146
 20
217.6349771318197
 10
667.6309519258857
 20
217.5374874344297
 10
667.7090759114565
 20
217.5049647519696
  0
LWPOLYLINE
  5
11F
330
1F
100
AcDbEntity
  8
2
  6
________________
 62
     7
370
     9
100
AcDbPolyline
 90
        7
 70
     0
 43
0.0
 10
675.209060494162
 20
244.5049647519697
 42
0.0223718809350585
 10
677.3184409232986
 20
218.314120915717
 10
677.3965661243778
 20
218.0237621810824
 10
677.4746913254569
 20
217.7971989829205
 10
677.552816526536
 20
217.6349771318203
 10
677.6309417276152
 20
217.5374874344299
 10
677.7090669286944
 20
217.5049647519696
  0
LWPOLYLINE
  5
120
330
1F
100
AcDbEntity
  8
2
  6
________________
 62
     7
370
     9
100
AcDbPolyline
 90
        7
 70
     0
 43
0.0
 10
685.2090668297049
 20
244.5049647519696
 42
0.0223719188520953
 10
687.3184508867566
 20
218.3141209157169
 10
687.396576222203
 20
218.0237621810824
 10
687.4747015576493
 20
217.7971989829205
 10
687.5528268930957
 20
217.6349771318203
 10
687.6309522285421
 20
217.5374874344299
 10
687.7090775639884
 20
217.5049647519696
  0
LWPOLYLINE
  5
121
330
1F
100
AcDbEntity
  8
2
  6
________________
 62
     7
370
     9
100
AcDbPolyline
 90
        7
 70
     0
 43
0.0
 10
695.209147266246
 20
244.5049647519696
 42
0.0223718084504341
 10
697.3185207600292
 20
218.3141209157169
 10
697.3966457042434
 20
218.0237621810824
 10
697.4747706484576
 20
217.7971989829205
 10
697.5528955926718
 20
217.6349771318203
 10
697.631020536886
 20
217.5374874344299
 10
697.7091454811002
 20
217.5049647519696
  0
LWPOLYLINE
  5
122
330
1F
100
AcDbEntity
  8
2
  6
________________
 62
     7
370
     9
100
AcDbPolyline
 90
        7
 70
     0
 43
0.0
 10
705.2091119908462
 20
244.5049647519719
 42
0.0223718746446768
 10
707.3184918181172
 20
218.3141209157172
 10
707.396616996905
 20
218.0237621810826
 10
707.4747421756929
 20
217.7971989829207
 10
707.5528673544808
 20
217.6349771318204
 10
707.6309925332686
 20
217.53748743443
 10
707.7091177120565
 20
217.5049647519696
  0
LWPOLYLINE
  5
123
330
1F
100
AcDbEntity
  8
2
  6
________________
 62
     7
370
     9
100
AcDbPolyline
 90
        7
 70
     0
 43
0.0
 10
715.2090965746177
 20
244.5049647519697
 42
0.0223719172528897
 10
717.3184804786569
 20
218.314120915717
 10
717.3966058084361
 20
218.0237621810824
 10
717.4747311382154
 20
217.7971989829205
 10
717.5528564679946
 20
217.6349771318203
 10
717.6309817977739
 20
217.5374874344299
 10
717.7091071275531
 20
217.5049647519696
  0
LWPOLYLINE
  5
124
330
1F
100
AcDbEntity
  8
2
  6
________________
 62
     7
370
     9
100
AcDbPolyline
 90
        7
 70
     0
 43
0.0
 10
725.2091091557818
 20
244.5049647519695
 42
0.0223717530587319
 10
727.3184773496697
 20
218.3141209157169
 10
727.3966020975914
 20
218.0237621810824
 10
727.4747268455131
 20
217.7971989829205
 10
727.552851593435
 20
217.6349771318203
 10
727.6309763413567
 20
217.5374874344299
 10
727.7091010892785
 20
217.5049647519696
  0
LWPOLYLINE
  5
125
330
1F
100
AcDbEntity
  8
2
  6
________________
 62
     7
370
     9
100
AcDbPolyline
 90
        7
 70
     0
 43
0.0
 10
735.2091087257647
 20
244.5049647519695
 42
0.022371775913319
 10
737.318479106386
 20
218.3141209157169
 10
737.396603935298
 20
218.0237621810824
 10
737.4747287642099
 20
217.7971989829205
 10
737.5528535931218
 20
217.6349771318203
 10
737.6309784220338
 20
217.5374874344299
 10
737.7091032509456
 20
217.5049647519696
  0
LWPOLYLINE
  5
126
330
1F
100
AcDbEntity
  8
2
  6
________________
 62
     7
370
     9
100
AcDbPolyline
 90
        7
 70
     0
 43
0.0
 10
745.2090934846193
 20
244.5049647519696
 42
0.0210995615957632
 10
747.2837882506107
 20
218.4633123853511
 10
747.3667760412503
 20
218.1271144580457
 10
747.44976383189
 20
217.8626176997564
 10
747.5327516225296
 20
217.6705410745596
 10
747.6157394131693
 20
217.5514066916647
 10
747.7091003003179
 20
217.5049647519823
  0
LINE
  5
127
330
1F
100
AcDbEntity
  8
2
  6
________________
 62
     7
370
     9
100
AcDbLine
 10
583.8564097604417
 20
261.5514290563574
 30
0.0
 11
583.8564097604417
 21
264.7881767969344
 31
0.0
  0
LINE
  5
128
330
1F
100
AcDbEntity
  8
2
  6
________________
 62
     7
370
     9
100
AcDbLine
 10
598.5628702359118
 20
271.4864398784337
 30
0.0
 11
592.9676592432296
 21
271.4864398784337
 31
0.0
  0
LINE
  5
129
330
1F
100
AcDbEntity
  8
2
  6
________________
 62
     7
370
     9
100
AcDbLine
 10
738.5628738566191
 20
271.4864398784337
 30
0.0
 11
732.9676541642096
 21
271.4864398784337
 31
0.0
  0
LINE
  5
12A
330
1F
100
AcDbEntity
  8
2
  6
________________
 62
     7
370
     9
100
AcDbLine
 10
582.8564097604418
 20
218.5675400532838
 30
0.0
 11
582.8564097604418
 21
217.5049647519697
 31
0.0
  0
LINE
  5
12B
330
1F
100
AcDbEntity
  8
2
  6
________________
 62
     7
370
     9
100
AcDbLine
 10
582.8564097604418
 20
218.5675400532837
 30
0.0
 11
581.8564097604418
 21
218.5675400532837
 31
0.0
  0
LINE
  5
12C
330
1F
100
AcDbEntity
  8
2
  6
________________
 62
     7
370
     9
100
AcDbLine
 10
581.8564097604418
 20
237.0049647519696
 30
0.0
 11
581.8564097604418
 21
218.5675400532838
 31
0.0
  0
LINE
  5
12D
330
1F
100
AcDbEntity
  8
2
  6
________________
 62
     7
370
     9
100
AcDbLine
 10
582.8564097604418
 20
237.0049647519696
 30
0.0
 11
581.8564097604418
 21
237.0049647519696
 31
0.0
  0
LINE
  5
12E
330
1F
100
AcDbEntity
  8
2
  6
________________
 62
     7
370
     9
100
AcDbLine
 10
582.8564097604418
 20
252.0049647519696
 30
0.0
 11
582.8564097604418
 21
237.0049647519696
 31
0.0
  0
LINE
  5
12F
330
1F
100
AcDbEntity
  8
2
  6
________________
 62
     7
370
     9
100
AcDbLine
 10
581.8564097604418
 20
252.0049647519696
 30
0.0
 11
582.8564097604418
 21
252.0049647519696
 31
0.0
  0
LINE
  5
130
330
1F
100
AcDbEntity
  8
2
  6
________________
 62
     7
370
     9
100
AcDbLine
 10
581.8564097604418
 20
270.4423894506555
 30
0.0
 11
581.8564097604418
 21
252.0049647519696
 31
0.0
  0
LINE
  5
131
330
1F
100
AcDbEntity
  8
2
  6
________________
 62
     7
370
     9
100
AcDbLine
 10
582.8564097604418
 20
270.4423894506555
 30
0.0
 11
581.8564097604418
 21
270.4423894506555
 31
0.0
  0
LINE
  5
132
330
1F
100
AcDbEntity
  8
2
  6
________________
 62
     7
370
     9
100
AcDbLine
 10
582.8564097604418
 20
271.4864398784337
 30
0.0
 11
582.8564097604418
 21
270.4423894506555
 31
0.0
  0
LINE
  5
133
330
1F
100
AcDbEntity
  8
2
  6
________________
 62
     7
370
     9
100
AcDbLine
 10
588.5628742033808
 20
271.4864398784337
 30
0.0
 11
582.8564097604418
 21
271.4864398784337
 31
0.0
  0
LINE
  5
134
330
1F
100
AcDbEntity
  8
2
  6
________________
 62
     7
370
     9
100
AcDbLine
 10
748.5628733605881
 20
271.4864398784337
 30
0.0
 11
742.9676555328623
 21
271.4864398784337
 31
0.0
  0
LINE
  5
135
330
1F
100
AcDbEntity
  8
2
  6
________________
 62
     7
370
     9
100
AcDbLine
 10
751.8564097604418
 20
271.4864398784337
 30
0.0
 11
749.8564097604418
 21
271.4864398784337
 31
0.0
  0
LINE
  5
136
330
1F
100
AcDbEntity
  8
2
  6
________________
 62
     7
370
     9
100
AcDbLine
 10
751.8564097604418
 20
271.4864398784337
 30
0.0
 11
751.8564097604418
 21
217.5049647519697
 31
0.0
  0
LINE
  5
137
330
1F
100
AcDbEntity
  8
2
  6
________________
 62
     7
370
     9
100
AcDbLine
 10
773.1564097604418
 20
273.7367829337878
 30
0.0
 11
773.1564097604418
 21
279.3004192974242
 31
0.0
  0
LINE
  5
138
330
1F
100
AcDbEntity
  8
2
  6
________________
 62
     7
370
     9
100
AcDbLine
 10
772.8564097604418
 20
279.3004192974242
 30
0.0
 11
773.1564097604418
 21
279.3004192974242
 31
0.0
  0
LINE
  5
139
330
1F
100
AcDbEntity
  8
2
  6
________________
 62
     7
370
     9
100
AcDbLine
 10
773.1564097604418
 20
273.7095102065151
 30
0.0
 11
773.1564097604418
 21
273.7168063879364
 31
0.0
  0
LINE
  5
13A
330
1F
100
AcDbEntity
  8
2
  6
________________
 62
     7
370
     9
100
AcDbLine
 10
759.3080074281373
 20
204.9823764428834
 30
0.0
 11
766.8564097604418
 21
207.0049647519696
 31
0.0
  0
LINE
  5
13B
330
1F
100
AcDbEntity
  8
2
  6
________________
 62
     7
370
     9
100
AcDbLine
 10
758.8564097604418
 20
284.1485582914186
 30
0.0
 11
756.4425340754066
 21
284.7953543318529
 31
0.0
  0
LINE
  5
13C
330
1F
100
AcDbEntity
  8
2
  6
________________
 62
     7
370
     9
100
AcDbLine
 10
756.8206477607415
 20
274.5838591513595
 30
0.0
 11
753.8564097604418
 21
273.5049647519696
 31
0.0
  0
LINE
  5
13D
330
1F
100
AcDbEntity
  8
2
  6
________________
 62
     7
370
     9
100
AcDbLine
 10
753.8564097604418
 20
215.5049647519696
 30
0.0
 11
759.0028332524108
 21
213.6318197879646
 31
0.0
  0
LINE
  5
13E
330
1F
100
AcDbEntity
  8
2
  6
________________
 62
     7
370
     9
100
AcDbLine
 10
633.9949017429159
 20
207.0049647519696
 30
0.0
 11
656.8113508107765
 21
207.0049647519696
 31
0.0
  0
LINE
  5
13F
330
1F
100
AcDbEntity
  8
2
  6
________________
 62
     7
370
     9
100
AcDbLine
 10
656.8113508107765
 20
282.0049647519696
 30
0.0
 11
633.9949017429159
 21
282.0049647519696
 31
0.0
  0
LINE
  5
140
330
1F
100
AcDbEntity
  8
2
  6
________________
 62
     7
370
     9
100
AcDbLine
 10
652.8564097604418
 20
246.4419035468455
 30
0.0
 11
633.9949017429159
 21
246.4419035468455
 31
0.0
  0
LINE
  5
141
330
1F
100
AcDbEntity
  8
2
  6
________________
 62
     7
370
     9
100
AcDbLine
 10
633.9949017429159
 20
242.5680259570938
 30
0.0
 11
652.8564097604418
 21
242.5680259570938
 31
0.0
  0
LINE
  5
142
330
1F
100
AcDbEntity
  8
2
  6
________________
 62
     7
370
     9
100
AcDbLine
 10
629.3028231977958
 20
242.7206593423768
 30
0.0
 11
633.9413393331232
 21
242.5749813162405
 31
0.0
  0
LINE
  5
143
330
1F
100
AcDbEntity
  8
2
  6
________________
 62
     7
370
     9
100
AcDbLine
 10
633.9413393331232
 20
246.4349481876987
 30
0.0
 11
629.3028231977958
 21
246.2892701615624
 31
0.0
  0
ARC
  5
144
330
1F
100
AcDbEntity
  8
2
  6
________________
 62
     7
370
     9
100
AcDbCircle
 10
629.3564097604418
 20
243.2136962885072
 30
0.0
 40
0.5000000000000004
100
AcDbArc
 50
180.0
 51
268.2012214391311
  0
ARC
  5
145
330
1F
100
AcDbEntity
  8
2
  6
________________
 62
     7
370
     9
100
AcDbCircle
 10
629.3564097604418
 20
245.796233215432
 30
0.0
 40
0.5000000000000003
100
AcDbArc
 50
91.7987785608689
 51
180.0000000000153
  0
LINE
  5
146
330
1F
100
AcDbEntity
  8
2
  6
________________
 62
     7
370
     9
100
AcDbLine
 10
652.8564097604418
 20
272.1642472524135
 30
0.0
 11
633.9949017429159
 21
272.1642472524135
 31
0.0
  0
ARC
  5
147
330
1F
100
AcDbEntity
  8
2
  6
________________
 62
     7
370
     9
100
AcDbCircle
 10
633.9949017429159
 20
271.6642472524135
 30
0.0
 40
0.5000000000000004
100
AcDbArc
 50
90.0
 51
114.0334120261656
  0
ARC
  5
148
330
1F
100
AcDbEntity
  8
2
  6
________________
 62
     7
370
     9
100
AcDbCircle
 10
633.9949017429159
 20
217.3456822515257
 30
0.0
 40
0.4999999999999999
100
AcDbArc
 50
245.9665879738344
 51
270.0
  0
LINE
  5
149
330
1F
100
AcDbEntity
  8
2
  6
________________
 62
     7
370
     9
100
AcDbLine
 10
633.9949017429159
 20
216.8456822515257
 30
0.0
 11
652.8564097604418
 21
216.8456822515257
 31
0.0
  0
LINE
  5
14A
330
1F
100
AcDbEntity
  8
2
  6
________________
 62
     7
370
     9
100
AcDbLine
 10
629.1524339548832
 20
218.9576286239331
 30
0.0
 11
633.7909283652946
 21
216.8891805149548
 31
0.0
  0
LINE
  5
14B
330
1F
100
AcDbEntity
  8
2
  6
________________
 62
     7
370
     9
100
AcDbLine
 10
633.7909283652948
 20
272.1207489889845
 30
0.0
 11
629.1524339548833
 21
270.0523008800062
 31
0.0
  0
LINE
  5
14C
330
1F
100
AcDbEntity
  8
2
  6
________________
 62
     7
370
     9
100
AcDbLine
 10
628.8656560780269
 20
266.7527639043079
 30
0.0
 11
628.8565705012062
 21
266.7311888295165
 31
0.0
  0
LINE
  5
14D
330
1F
100
AcDbEntity
  8
2
  6
________________
 62
     7
370
     9
100
AcDbLine
 10
628.8565390709331
 20
222.2788089040033
 30
0.0
 11
628.8656560780456
 21
222.2571655997024
 31
0.0
  0
ARC
  5
14E
330
1F
100
AcDbEntity
  8
2
  6
________________
 62
     7
370
     9
100
AcDbCircle
 10
629.3564097604418
 20
269.5958002269508
 30
0.0
 40
0.5000000000000006
100
AcDbArc
 50
114.0337415191555
 51
180.0000000000012
  0
ARC
  5
14F
330
1F
100
AcDbEntity
  8
2
  6
________________
 62
     7
370
     9
100
AcDbCircle
 10
629.3564097604418
 20
219.4141292769884
 30
0.0
 40
0.5000000000000004
100
AcDbArc
 50
180.0
 51
245.9662584808441
  0
ARC
  5
150
330
1F
100
AcDbEntity
  8
2
  6
________________
 62
     7
370
     9
100
AcDbCircle
 10
633.9949017429159
 20
281.5049647519696
 30
0.0
 40
0.5000000000000004
100
AcDbArc
 50
90.0
 51
120.9637565320706
  0
ARC
  5
151
330
1F
100
AcDbEntity
  8
2
  6
________________
 62
     7
370
     9
100
AcDbCircle
 10
633.9949017429159
 20
207.5049647519696
 30
0.0
 40
0.500000000000008
100
AcDbArc
 50
239.0362434679293
 51
270.0
  0
LINE
  5
152
330
1F
100
AcDbEntity
  8
2
  6
________________
 62
     7
370
     9
100
AcDbLine
 10
633.7376538652023
 20
281.9337112148259
 30
0.0
 11
629.0991618827279
 21
279.1506160253413
 31
0.0
  0
LINE
  5
153
330
1F
100
AcDbEntity
  8
2
  6
________________
 62
     7
370
     9
100
AcDbLine
 10
629.0991618827279
 20
209.8593134785979
 30
0.0
 11
633.7376538652022
 21
207.0762182891133
 31
0.0
  0
ARC
  5
154
330
1F
100
AcDbEntity
  8
2
  6
________________
 62
     7
370
     9
100
AcDbCircle
 10
629.3564097604418
 20
210.2880599414541
 30
0.0
 40
0.5000000000000004
100
AcDbArc
 50
180.0
 51
239.036243467922
  0
ARC
  5
155
330
1F
100
AcDbEntity
  8
2
  6
________________
 62
     7
370
     9
100
AcDbCircle
 10
629.3564097604418
 20
278.7218695624851
 30
0.0
 40
0.5000000000000008
100
AcDbArc
 50
120.963756532078
 51
180.0
  0
ARC
  5
156
330
1F
100
AcDbEntity
  8
2
  6
________________
 62
     7
370
     9
100
AcDbCircle
 10
771.8564097604418
 20
208.0049647519696
 30
0.0
 40
1.000000000000001
100
AcDbArc
 50
270.0
 51
0.0
  0
LINE
  5
157
330
1F
100
AcDbEntity
  8
2
  6
________________
 62
     7
370
     9
100
AcDbLine
 10
766.8564097604418
 20
207.0049647519696
 30
0.0
 11
771.8564097604418
 21
207.0049647519696
 31
0.0
  0
LINE
  5
158
330
1F
100
AcDbEntity
  8
2
  6
________________
 62
     7
370
     9
100
AcDbLine
 10
773.0564097604417
 20
246.980563058384
 30
0.0
 11
772.8564097604418
 21
246.980563058384
 31
0.0
  0
LINE
  5
159
330
1F
100
AcDbEntity
  8
2
  6
________________
 62
     7
370
     9
100
AcDbLine
 10
592.3564702720937
 20
273.5044668494397
 30
0.0
 11
588.8564702721027
 21
273.5044749098849
 31
0.0
  0
LINE
  5
15A
330
1F
100
AcDbEntity
  8
2
  6
________________
 62
     7
370
     9
100
AcDbLine
 10
602.3561896314974
 20
273.504552184074
 30
0.0
 11
598.8561896315065
 21
273.504560244543
 31
0.0
  0
LINE
  5
15B
330
1F
100
AcDbEntity
  8
2
  6
________________
 62
     7
370
     9
100
AcDbLine
 10
612.3563147259315
 20
273.5046513054641
 30
0.0
 11
608.8563147259415
 21
273.5046593659605
 31
0.0
  0
LINE
  5
15C
330
1F
100
AcDbEntity
  8
2
  6
________________
 62
     7
370
     9
100
AcDbLine
 10
622.3568426618153
 20
273.5047492195902
 30
0.0
 11
618.8568426618245
 21
273.5047572801139
 31
0.0
  0
LINE
  5
15D
330
1F
100
AcDbEntity
  8
2
  6
________________
 62
     7
370
     9
100
AcDbLine
 10
662.3559605109859
 20
273.504819395998
 30
0.0
 11
658.8559605109951
 21
273.5048274565412
 31
0.0
  0
LINE
  5
15E
330
1F
100
AcDbEntity
  8
2
  6
________________
 62
     7
370
     9
100
AcDbLine
 10
672.3554770766485
 20
273.5047239380932
 30
0.0
 11
668.8554770766577
 21
273.5047319986099
 31
0.0
  0
LINE
  5
15F
330
1F
100
AcDbEntity
  8
2
  6
________________
 62
     7
370
     9
100
AcDbLine
 10
682.3562111408929
 20
273.5046304547984
 30
0.0
 11
678.8562111409021
 21
273.5046385152892
 31
0.0
  0
LINE
  5
160
330
1F
100
AcDbEntity
  8
2
  6
________________
 62
     7
370
     9
100
AcDbLine
 10
692.3564187840541
 20
273.5045341950697
 30
0.0
 11
688.8564187840632
 21
273.5045422555336
 31
0.0
  0
LINE
  5
161
330
1F
100
AcDbEntity
  8
2
  6
________________
 62
     7
370
     9
100
AcDbLine
 10
702.3566653150859
 20
273.5044535932407
 30
0.0
 11
698.8566653150953
 21
273.5044616536823
 31
0.0
  0
LINE
  5
162
330
1F
100
AcDbEntity
  8
2
  6
________________
 62
     7
370
     9
100
AcDbLine
 10
712.3565407064742
 20
273.5043978838389
 30
0.0
 11
708.8565407064835
 21
273.5044059442649
 31
0.0
  0
LINE
  5
163
330
1F
100
AcDbEntity
  8
2
  6
________________
 62
     7
370
     9
100
AcDbLine
 10
722.3564516918403
 20
273.504373598193
 30
0.0
 11
718.8564516918497
 21
273.5043816586124
 31
0.0
  0
LINE
  5
164
330
1F
100
AcDbEntity
  8
2
  6
________________
 62
     7
370
     9
100
AcDbLine
 10
732.3565570568071
 20
273.5043830422225
 30
0.0
 11
728.8565570568164
 21
273.5043911026445
 31
0.0
  0
LINE
  5
165
330
1F
100
AcDbEntity
  8
2
  6
________________
 62
     7
370
     9
100
AcDbLine
 10
742.3573241072394
 20
273.5044197390783
 30
0.0
 11
738.8573241072487
 21
273.5044277995106
 31
0.0
  0
LINE
  5
166
330
1F
100
AcDbEntity
  8
2
  6
________________
 62
     7
370
     9
100
AcDbLine
 10
749.856409773342
 20
273.5045017241807
 30
0.0
 11
748.8565775741819
 21
273.5045040267809
 31
0.0
  0
LINE
  5
167
330
1F
100
AcDbEntity
  8
2
  6
________________
 62
     7
370
     9
100
AcDbLine
 10
743.8562932237788
 20
215.5054634455337
 30
0.0
 11
747.3562932237696
 21
215.5054715059765
 31
0.0
  0
LINE
  5
168
330
1F
100
AcDbEntity
  8
2
  6
________________
 62
     7
370
     9
100
AcDbLine
 10
733.8565172603053
 20
215.505521096301
 30
0.0
 11
737.3565172602961
 21
215.5055291567278
 31
0.0
  0
LINE
  5
169
330
1F
100
AcDbEntity
  8
2
  6
________________
 62
     7
370
     9
100
AcDbLine
 10
723.856476197123
 20
215.5055473028681
 30
0.0
 11
727.3564761971138
 21
215.5055553632875
 31
0.0
  0
LINE
  5
16A
330
1F
100
AcDbEntity
  8
2
  6
________________
 62
     7
370
     9
100
AcDbLine
 10
713.8556078613207
 20
215.5055448987584
 30
0.0
 11
717.3556078613113
 21
215.5055529591785
 31
0.0
  0
LINE
  5
16B
330
1F
100
AcDbEntity
  8
2
  6
________________
 62
     7
370
     9
100
AcDbLine
 10
703.8562427769436
 20
215.505500244162
 30
0.0
 11
707.3562427769346
 21
215.5055083045946
 31
0.0
  0
LINE
  5
16C
330
1F
100
AcDbEntity
  8
2
  6
________________
 62
     7
370
     9
100
AcDbLine
 10
693.8569481007928
 20
215.5054302315952
 30
0.0
 11
697.3569481007835
 21
215.5054382920472
 31
0.0
  0
LINE
  5
16D
330
1F
100
AcDbEntity
  8
2
  6
________________
 62
     7
370
     9
100
AcDbLine
 10
683.8572061326504
 20
215.5053403149955
 30
0.0
 11
687.3572061326411
 21
215.5053483754726
 31
0.0
  0
LINE
  5
16E
330
1F
100
AcDbEntity
  8
2
  6
________________
 62
     7
370
     9
100
AcDbLine
 10
673.8564439437257
 20
215.5052387453794
 30
0.0
 11
677.3564439437165
 21
215.5052468058846
 31
0.0
  0
LINE
  5
16F
330
1F
100
AcDbEntity
  8
2
  6
________________
 62
     7
370
     9
100
AcDbLine
 10
663.8568668777971
 20
215.5051408740229
 30
0.0
 11
667.3568668777876
 21
215.5051489345555
 31
0.0
  0
LINE
  5
170
330
1F
100
AcDbEntity
  8
2
  6
________________
 62
     7
370
     9
100
AcDbLine
 10
656.8113508107765
 20
215.505071458421
 30
0.0
 11
657.3566991484099
 21
215.5050727143666
 31
0.0
  0
LINE
  5
171
330
1F
100
AcDbEntity
  8
2
  6
________________
 62
     7
370
     9
100
AcDbLine
 10
623.8555869186954
 20
215.5051266367132
 30
0.0
 11
627.3555869186864
 21
215.5051346972496
 31
0.0
  0
LINE
  5
172
330
1F
100
AcDbEntity
  8
2
  6
________________
 62
     7
370
     9
100
AcDbLine
 10
613.8559409485523
 20
215.5052194043229
 30
0.0
 11
617.3559409485431
 21
215.5052274648336
 31
0.0
  0
LINE
  5
173
330
1F
100
AcDbEntity
  8
2
  6
________________
 62
     7
370
     9
100
AcDbLine
 10
603.8565901277607
 20
215.5053216247722
 30
0.0
 11
607.3565901277515
 21
215.5053296852544
 31
0.0
  0
LINE
  5
174
330
1F
100
AcDbEntity
  8
2
  6
________________
 62
     7
370
     9
100
AcDbLine
 10
593.8573055126571
 20
215.5054209569911
 30
0.0
 11
597.3573055126485
 21
215.5054290174457
 31
0.0
  0
LINE
  5
175
330
1F
100
AcDbEntity
  8
2
  6
________________
 62
     7
370
     9
100
AcDbLine
 10
583.8566159246166
 20
215.5054889267863
 30
0.0
 11
587.3566159246078
 21
215.5054969872221
 31
0.0
  0
LINE
  5
176
330
1F
100
AcDbEntity
  8
2
  6
________________
 62
     7
370
     9
100
AcDbLine
 10
588.3759493425373
 20
272.192768182949
 30
0.0
 11
588.2452627964133
 21
271.485893325125
 31
0.0
  0
LINE
  5
177
330
1F
100
AcDbEntity
  8
2
  6
________________
 62
     7
370
     9
100
AcDbLine
 10
598.3761084543437
 20
272.1937222674143
 30
0.0
 11
598.2452454775635
 21
271.4858943127662
 31
0.0
  0
LINE
  5
178
330
1F
100
AcDbEntity
  8
2
  6
________________
 62
     7
370
     9
100
AcDbLine
 10
608.3759567444914
 20
272.1929989738837
 30
0.0
 11
608.2486558302334
 21
271.5044145355502
 31
0.0
  0
LINE
  5
179
330
1F
100
AcDbEntity
  8
2
  6
________________
 62
     7
370
     9
100
AcDbLine
 10
618.3762147557931
 20
272.1944840598206
 30
0.0
 11
618.2486415141694
 21
271.5044167517846
 31
0.0
  0
LINE
  5
17A
330
1F
100
AcDbEntity
  8
2
  6
________________
 62
     7
370
     9
100
AcDbLine
 10
628.3761896439535
 20
272.1944080502578
 30
0.0
 11
628.2486337514588
 21
271.5044168214854
 31
0.0
  0
LINE
  5
17B
330
1F
100
AcDbEntity
  8
2
  6
________________
 62
     7
370
     9
100
AcDbLine
 10
658.3763299635594
 20
272.1950567809488
 30
0.0
 11
658.2486612796762
 21
271.504414278531
 31
0.0
  0
LINE
  5
17C
330
1F
100
AcDbEntity
  8
2
  6
________________
 62
     7
370
     9
100
AcDbLine
 10
668.3765511729652
 20
272.1961608142905
 30
0.0
 11
668.2486783043122
 21
271.5044139874637
 31
0.0
  0
LINE
  5
17D
330
1F
100
AcDbEntity
  8
2
  6
________________
 62
     7
370
     9
100
AcDbLine
 10
678.3763983428094
 20
272.1952382356412
 30
0.0
 11
678.2486948507915
 21
271.5044128366762
 31
0.0
  0
LINE
  5
17E
330
1F
100
AcDbEntity
  8
2
  6
________________
 62
     7
370
     9
100
AcDbLine
 10
688.3764081251865
 20
272.195208115543
 30
0.0
 11
688.2487084927501
 21
271.5044125940295
 31
0.0
  0
LINE
  5
17F
330
1F
100
AcDbEntity
  8
2
  6
________________
 62
     7
370
     9
100
AcDbLine
 10
698.3763792354649
 20
272.1949900908456
 30
0.0
 11
698.2487177817466
 21
271.5044122155126
 31
0.0
  0
LINE
  5
180
330
1F
100
AcDbEntity
  8
2
  6
________________
 62
     7
370
     9
100
AcDbLine
 10
708.3762855834918
 20
272.1944496577137
 30
0.0
 11
708.2487217457293
 21
271.5044121395111
 31
0.0
  0
LINE
  5
181
330
1F
100
AcDbEntity
  8
2
  6
________________
 62
     7
370
     9
100
AcDbLine
 10
718.3762068169751
 20
272.1940217199637
 30
0.0
 11
718.2487198615602
 21
271.5044117740421
 31
0.0
  0
LINE
  5
182
330
1F
100
AcDbEntity
  8
2
  6
________________
 62
     7
370
     9
100
AcDbLine
 10
728.3761327734964
 20
272.1936515948409
 30
0.0
 11
728.2487123608545
 21
271.5044123486035
 31
0.0
  0
LINE
  5
183
330
1F
100
AcDbEntity
  8
2
  6
________________
 62
     7
370
     9
100
AcDbLine
 10
738.376052514447
 20
272.1932770945308
 30
0.0
 11
738.2452724321602
 21
271.4858928660802
 31
0.0
  0
LINE
  5
184
330
1F
100
AcDbEntity
  8
2
  6
________________
 62
     7
370
     9
100
AcDbLine
 10
748.3760289474271
 20
272.1932325008934
 30
0.0
 11
748.245256474461
 21
271.4858940729302
 31
0.0
  0
LINE
  5
185
330
1F
100
AcDbEntity
  8
2
  6
________________
 62
     7
370
     9
100
AcDbLine
 10
742.9884397509619
 20
218.9085356187855
 30
0.0
 11
743.3760085085688
 21
216.8168515140147
 31
0.0
  0
LINE
  5
186
330
1F
100
AcDbEntity
  8
2
  6
________________
 62
     7
370
     9
100
AcDbLine
 10
732.9885786746429
 20
218.907874059031
 30
0.0
 11
733.3762394502728
 21
216.8156737352346
 31
0.0
  0
LINE
  5
187
330
1F
100
AcDbEntity
  8
2
  6
________________
 62
     7
370
     9
100
AcDbLine
 10
722.9885662006577
 20
218.9080112508602
 30
0.0
 11
723.376160324402
 21
216.8161480514881
 31
0.0
  0
LINE
  5
188
330
1F
100
AcDbEntity
  8
2
  6
________________
 62
     7
370
     9
100
AcDbLine
 10
712.988608830139
 20
218.9078282765281
 30
0.0
 11
713.3762515432585
 21
216.8156689679654
 31
0.0
  0
LINE
  5
189
330
1F
100
AcDbEntity
  8
2
  6
________________
 62
     7
370
     9
100
AcDbLine
 10
702.9886891512025
 20
218.9074140095273
 30
0.0
 11
703.3761938876688
 21
216.8159636766919
 31
0.0
  0
LINE
  5
18A
330
1F
100
AcDbEntity
  8
2
  6
________________
 62
     7
370
     9
100
AcDbLine
 10
692.9887840296769
 20
218.9068913353004
 30
0.0
 11
693.3764239683107
 21
216.8146695703467
 31
0.0
  0
LINE
  5
18B
330
1F
100
AcDbEntity
  8
2
  6
________________
 62
     7
370
     9
100
AcDbLine
 10
682.9888941352416
 20
218.906258058691
 30
0.0
 11
683.3763868517881
 21
216.8147972062869
 31
0.0
  0
LINE
  5
18C
330
1F
100
AcDbEntity
  8
2
  6
________________
 62
     7
370
     9
100
AcDbLine
 10
672.9888866753068
 20
218.9062332580502
 30
0.0
 11
673.3765182463459
 21
216.813995194137
 31
0.0
  0
LINE
  5
18D
330
1F
100
AcDbEntity
  8
2
  6
________________
 62
     7
370
     9
100
AcDbLine
 10
662.9888860346955
 20
218.9061547563544
 30
0.0
 11
663.3763535509547
 21
216.8147909719175
 31
0.0
  0
LINE
  5
18E
330
1F
100
AcDbEntity
  8
2
  6
________________
 62
     7
370
     9
100
AcDbLine
 10
622.9886685977038
 20
218.9070657684997
 30
0.0
 11
623.3762875610646
 21
216.8150165309499
 31
0.0
  0
LINE
  5
18F
330
1F
100
AcDbEntity
  8
2
  6
________________
 62
     7
370
     9
100
AcDbLine
 10
612.9885935003256
 20
218.9074976582802
 30
0.0
 11
613.3759966568825
 21
216.816667991339
 31
0.0
  0
LINE
  5
190
330
1F
100
AcDbEntity
  8
2
  6
________________
 62
     7
370
     9
100
AcDbLine
 10
602.9883957599662
 20
218.9086286065198
 30
0.0
 11
603.3761457711126
 21
216.8159560247963
 31
0.0
  0
LINE
  5
191
330
1F
100
AcDbEntity
  8
2
  6
________________
 62
     7
370
     9
100
AcDbLine
 10
592.9885821067586
 20
218.9077127222749
 30
0.0
 11
593.3760630436103
 21
216.8165008667401
 31
0.0
  0
LINE
  5
192
330
1F
100
AcDbEntity
  8
2
  6
________________
 62
     7
370
     9
100
AcDbLine
 10
593.2229089433076
 20
270.1097499287473
 30
0.0
 11
592.8366255487688
 21
272.1947120279097
 31
0.0
  0
LINE
  5
193
330
1F
100
AcDbEntity
  8
2
  6
________________
 62
     7
370
     9
100
AcDbLine
 10
603.2241317567266
 20
270.1032051236
 30
0.0
 11
602.836501352737
 21
272.1954508280654
 31
0.0
  0
LINE
  5
194
330
1F
100
AcDbEntity
  8
2
  6
________________
 62
     7
370
     9
100
AcDbLine
 10
613.2240767452407
 20
270.1035592095773
 30
0.0
 11
612.8365473478863
 21
272.1952878838198
 31
0.0
  0
LINE
  5
195
330
1F
100
AcDbEntity
  8
2
  6
________________
 62
     7
370
     9
100
AcDbLine
 10
623.2241721166354
 20
270.1031233640791
 30
0.0
 11
622.8365463046963
 21
272.1953893186604
 31
0.0
  0
LINE
  5
196
330
1F
100
AcDbEntity
  8
2
  6
________________
 62
     7
370
     9
100
AcDbLine
 10
652.8564097604418
 20
272.0880420665989
 30
0.0
 11
652.8423445800928
 21
272.1641917305905
 31
0.0
  0
LINE
  5
197
330
1F
100
AcDbEntity
  8
2
  6
________________
 62
     7
370
     9
100
AcDbLine
 10
652.8423445800928
 20
272.1641917305905
 30
0.0
 11
652.836557018461
 21
272.1955308119489
 31
0.0
  0
LINE
  5
198
330
1F
100
AcDbEntity
  8
2
  6
________________
 62
     7
370
     9
100
AcDbLine
 10
663.2242791086318
 20
270.1028314203157
 30
0.0
 11
662.8369577103803
 21
272.19334034256
 31
0.0
  0
LINE
  5
199
330
1F
100
AcDbEntity
  8
2
  6
________________
 62
     7
370
     9
100
AcDbLine
 10
673.2245396060183
 20
270.1014179789561
 30
0.0
 11
672.8368951400911
 21
272.193612535151
 31
0.0
  0
LINE
  5
19A
330
1F
100
AcDbEntity
  8
2
  6
________________
 62
     7
370
     9
100
AcDbLine
 10
683.2242458793994
 20
270.1029415523637
 30
0.0
 11
682.8368491923585
 21
272.1937698521353
 31
0.0
  0
LINE
  5
19B
330
1F
100
AcDbEntity
  8
2
  6
________________
 62
     7
370
     9
100
AcDbLine
 10
693.2245680895627
 20
270.1011255495984
 30
0.0
 11
692.8369951820794
 21
272.1928813672596
 31
0.0
  0
LINE
  5
19C
330
1F
100
AcDbEntity
  8
2
  6
________________
 62
     7
370
     9
100
AcDbLine
 10
703.2244895725481
 20
270.1014572245606
 30
0.0
 11
702.8368529227998
 21
272.193561406584
 31
0.0
  0
LINE
  5
19D
330
1F
100
AcDbEntity
  8
2
  6
________________
 62
     7
370
     9
100
AcDbLine
 10
713.2245208605427
 20
270.1012035792945
 30
0.0
 11
712.8369450477711
 21
272.1929914965354
 31
0.0
  0
LINE
  5
19E
330
1F
100
AcDbEntity
  8
2
  6
________________
 62
     7
370
     9
100
AcDbLine
 10
723.2243948413812
 20
270.1018128946839
 30
0.0
 11
722.8367347553249
 21
272.1940860135257
 31
0.0
  0
LINE
  5
19F
330
1F
100
AcDbEntity
  8
2
  6
________________
 62
     7
370
     9
100
AcDbLine
 10
733.2230356305931
 20
270.1090788234612
 30
0.0
 11
732.836713781481
 21
272.1941867738237
 31
0.0
  0
LINE
  5
1A0
330
1F
100
AcDbEntity
  8
2
  6
________________
 62
     7
370
     9
100
AcDbLine
 10
743.2229797747564
 20
270.1093634107799
 30
0.0
 11
742.8366245566211
 21
272.1946895329419
 31
0.0
  0
LINE
  5
1A1
330
1F
100
AcDbEntity
  8
2
  6
________________
 62
     7
370
     9
100
AcDbLine
 10
747.8365693526563
 20
216.8149196250432
 30
0.0
 11
747.9642311579173
 21
217.5055169447057
 31
0.0
  0
LINE
  5
1A2
330
1F
100
AcDbEntity
  8
2
  6
________________
 62
     7
370
     9
100
AcDbLine
 10
737.8366671269445
 20
216.8154842878389
 30
0.0
 11
737.9642268672468
 21
217.5055175219727
 31
0.0
  0
LINE
  5
1A3
330
1F
100
AcDbEntity
  8
2
  6
________________
 62
     7
370
     9
100
AcDbLine
 10
727.8367848718882
 20
216.8161253328355
 30
0.0
 11
727.9642283372726
 21
217.5055174573714
 31
0.0
  0
LINE
  5
1A4
330
1F
100
AcDbEntity
  8
2
  6
________________
 62
     7
370
     9
100
AcDbLine
 10
717.8368430076732
 20
216.8164112703752
 30
0.0
 11
717.9642355394658
 21
217.5055173435379
 31
0.0
  0
LINE
  5
1A5
330
1F
100
AcDbEntity
  8
2
  6
________________
 62
     7
370
     9
100
AcDbLine
 10
707.8368825245701
 20
216.8165668466552
 30
0.0
 11
707.9642476810187
 21
217.5055165197645
 31
0.0
  0
LINE
  5
1A6
330
1F
100
AcDbEntity
  8
2
  6
________________
 62
     7
370
     9
100
AcDbLine
 10
697.8367870909116
 20
216.8159684378005
 30
0.0
 11
697.9642635817371
 21
217.5055162143195
 31
0.0
  0
LINE
  5
1A7
330
1F
100
AcDbEntity
  8
2
  6
________________
 62
     7
370
     9
100
AcDbLine
 10
687.8369804071286
 20
216.8169192379289
 30
0.0
 11
687.9642809663503
 21
217.5055151456695
 31
0.0
  0
LINE
  5
1A8
330
1F
100
AcDbEntity
  8
2
  6
________________
 62
     7
370
     9
100
AcDbLine
 10
677.8367965251273
 20
216.8158269598212
 30
0.0
 11
677.9642977186485
 21
217.5055141305569
 31
0.0
  0
LINE
  5
1A9
330
1F
100
AcDbEntity
  8
2
  6
________________
 62
     7
370
     9
100
AcDbLine
 10
667.8369714221582
 20
216.8166923524073
 30
0.0
 11
667.9643102503406
 21
217.5055135557723
 31
0.0
  0
LINE
  5
1AA
330
1F
100
AcDbEntity
  8
2
  6
________________
 62
     7
370
     9
100
AcDbLine
 10
657.8366458418087
 20
216.8148829031427
 30
0.0
 11
657.9643152558134
 21
217.5055116509082
 31
0.0
  0
LINE
  5
1AB
330
1F
100
AcDbEntity
  8
2
  6
________________
 62
     7
370
     9
100
AcDbLine
 10
627.8364402040987
 20
216.8139180729527
 30
0.0
 11
627.9642820733899
 21
217.505515062463
 31
0.0
  0
LINE
  5
1AC
330
1F
100
AcDbEntity
  8
2
  6
________________
 62
     7
370
     9
100
AcDbLine
 10
617.8365763073118
 20
216.814751037427
 30
0.0
 11
617.964264769674
 21
217.5055159487938
 31
0.0
  0
LINE
  5
1AD
330
1F
100
AcDbEntity
  8
2
  6
________________
 62
     7
370
     9
100
AcDbLine
 10
607.8364854097663
 20
216.8143511671176
 30
0.0
 11
607.9642490620425
 21
217.5055164766147
 31
0.0
  0
LINE
  5
1AE
330
1F
100
AcDbEntity
  8
2
  6
________________
 62
     7
370
     9
100
AcDbLine
 10
597.8367030675417
 20
216.815607309085
 30
0.0
 11
597.9642364916261
 21
217.5055172792182
 31
0.0
  0
LINE
  5
1AF
330
1F
100
AcDbEntity
  8
2
  6
________________
 62
     7
370
     9
100
AcDbLine
 10
587.8366232374982
 20
216.815228171501
 30
0.0
 11
587.9642288840938
 21
217.505517346379
 31
0.0
  0
LINE
  5
1B0
330
1F
100
AcDbEntity
  8
2
  6
________________
 62
     7
370
     9
100
AcDbLine
 10
727.7091010892785
 20
217.5049647519696
 30
0.0
 11
733.248706630294
 21
217.5049647519696
 31
0.0
  0
LINE
  5
1B1
330
1F
100
AcDbEntity
  8
2
  6
________________
 62
     7
370
     9
100
AcDbLine
 10
717.7091071275531
 20
217.5049647519696
 30
0.0
 11
723.2487167985662
 21
217.5049647519696
 31
0.0
  0
LINE
  5
1B2
330
1F
100
AcDbEntity
  8
2
  6
________________
 62
     7
370
     9
100
AcDbLine
 10
707.7091177120565
 20
217.5049647519696
 30
0.0
 11
713.2487215318143
 21
217.5049647519696
 31
0.0
  0
LINE
  5
1B3
330
1F
100
AcDbEntity
  8
2
  6
________________
 62
     7
370
     9
100
AcDbLine
 10
697.7091454811003
 20
217.5049647519696
 30
0.0
 11
703.2487205754506
 21
217.5049647519696
 31
0.0
  0
LINE
  5
1B4
330
1F
100
AcDbEntity
  8
2
  6
________________
 62
     7
370
     9
100
AcDbLine
 10
687.7090775639884
 20
217.5049647519696
 30
0.0
 11
693.2487137398266
 21
217.5049647519696
 31
0.0
  0
LINE
  5
1B5
330
1F
100
AcDbEntity
  8
2
  6
________________
 62
     7
370
     9
100
AcDbLine
 10
677.7090669286943
 20
217.5049647519696
 30
0.0
 11
683.2487021569523
 21
217.5049647519696
 31
0.0
  0
LINE
  5
1B6
330
1F
100
AcDbEntity
  8
2
  6
________________
 62
     7
370
     9
100
AcDbLine
 10
667.7090759114565
 20
217.5049647519696
 30
0.0
 11
673.2486867791728
 21
217.5049647519696
 31
0.0
  0
LINE
  5
1B7
330
1F
100
AcDbEntity
  8
2
  6
________________
 62
     7
370
     9
100
AcDbLine
 10
657.7090293890385
 20
217.5049647519696
 30
0.0
 11
663.2486697943829
 21
217.5049647519696
 31
0.0
  0
LINE
  5
1B8
330
1F
100
AcDbEntity
  8
2
  6
________________
 62
     7
370
     9
100
AcDbLine
 10
627.708999723743
 20
217.5049647519696
 30
0.0
 11
628.8564097604418
 21
217.5049647519696
 31
0.0
  0
LINE
  5
1B9
330
1F
100
AcDbEntity
  8
2
  6
________________
 62
     7
370
     9
100
AcDbLine
 10
617.709018893826
 20
217.5049647519696
 30
0.0
 11
623.2486365130453
 21
217.5049647519696
 31
0.0
  0
LINE
  5
1BA
330
1F
100
AcDbEntity
  8
2
  6
________________
 62
     7
370
     9
100
AcDbLine
 10
607.7090610971912
 20
217.5049647519696
 30
0.0
 11
613.2486481276098
 21
217.5049647519696
 31
0.0
  0
LINE
  5
1BB
330
1F
100
AcDbEntity
  8
2
  6
________________
 62
     7
370
     9
100
AcDbLine
 10
597.7090408922451
 20
217.5049647519696
 30
0.0
 11
603.2486641674939
 21
217.5049647519696
 31
0.0
  0
LINE
  5
1BC
330
1F
100
AcDbEntity
  8
2
  6
________________
 62
     7
370
     9
100
AcDbLine
 10
608.5038705883095
 20
271.5049647519696
 30
0.0
 11
602.9642423258261
 21
271.5049647519696
 31
0.0
  0
LINE
  5
1BD
330
1F
100
AcDbEntity
  8
2
  6
________________
 62
     7
370
     9
100
AcDbLine
 10
618.5038930885621
 20
271.5049647519696
 30
0.0
 11
612.9642565942106
 21
271.5049647519696
 31
0.0
  0
LINE
  5
1BE
330
1F
100
AcDbEntity
  8
2
  6
________________
 62
     7
370
     9
100
AcDbLine
 10
628.5038930594943
 20
271.5049647519696
 30
0.0
 11
622.9642733689908
 21
271.5049647519696
 31
0.0
  0
LINE
  5
1BF
330
1F
100
AcDbEntity
  8
2
  6
________________
 62
     7
370
     9
100
AcDbLine
 10
658.5039057780482
 20
271.5049647519696
 30
0.0
 11
656.8113508107765
 21
271.5049647519696
 31
0.0
  0
LINE
  5
1C0
330
1F
100
AcDbEntity
  8
2
  6
________________
 62
     7
370
     9
100
AcDbLine
 10
668.5039033678811
 20
271.5049647519696
 30
0.0
 11
662.9643138636125
 21
271.5049647519696
 31
0.0
  0
LINE
  5
1C1
330
1F
100
AcDbEntity
  8
2
  6
________________
 62
     7
370
     9
100
AcDbLine
 10
678.5039341229008
 20
271.5049647519696
 30
0.0
 11
672.9643047310299
 21
271.5049647519696
 31
0.0
  0
LINE
  5
1C2
330
1F
100
AcDbEntity
  8
2
  6
________________
 62
     7
370
     9
100
AcDbLine
 10
688.5038738421266
 20
271.5049647519696
 30
0.0
 11
682.9642896051332
 21
271.5049647519696
 31
0.0
  0
LINE
  5
1C3
330
1F
100
AcDbEntity
  8
2
  6
________________
 62
     7
370
     9
100
AcDbLine
 10
698.5038692985074
 20
271.5049647519696
 30
0.0
 11
692.9642721593169
 21
271.5049647519696
 31
0.0
  0
LINE
  5
1C4
330
1F
100
AcDbEntity
  8
2
  6
________________
 62
     7
370
     9
100
AcDbLine
 10
708.5039075339623
 20
271.5049647519696
 30
0.0
 11
702.9642552803801
 21
271.5049647519696
 31
0.0
  0
LINE
  5
1C5
330
1F
100
AcDbEntity
  8
2
  6
________________
 62
     7
370
     9
100
AcDbLine
 10
718.5038387673974
 20
271.5049647519696
 30
0.0
 11
712.9642410205339
 21
271.5049647519696
 31
0.0
  0
LINE
  5
1C6
330
1F
100
AcDbEntity
  8
2
  6
________________
 62
     7
370
     9
100
AcDbLine
 10
728.5038384306033
 20
271.5049647519696
 30
0.0
 11
722.9642313045807
 21
271.5049647519696
 31
0.0
  0
LINE
  5
1C7
330
1F
100
AcDbEntity
  8
2
  6
________________
 62
     7
370
     9
100
AcDbLine
 10
737.7091032509456
 20
217.5049647519696
 30
0.0
 11
743.2486923017509
 21
217.5049647519696
 31
0.0
  0
LINE
  5
1C8
330
1F
100
AcDbEntity
  8
2
  6
________________
 62
     7
370
     9
100
AcDbLine
 10
587.7090934075785
 20
217.5049647519696
 30
0.0
 11
593.2486818207045
 21
217.5049647519696
 31
0.0
  0
LINE
  5
1C9
330
1F
100
AcDbEntity
  8
2
  6
________________
 62
     7
370
     9
100
AcDbLine
 10
582.8564097604418
 20
217.5049647519696
 30
0.0
 11
583.8564097604418
 21
217.5049647519696
 31
0.0
  0
LINE
  5
1CA
330
1F
100
AcDbEntity
  8
2
  6
________________
 62
     7
370
     9
100
AcDbLine
 10
747.7091003003179
 20
217.5049647519696
 30
0.0
 11
751.8564097604418
 21
217.5049647519696
 31
0.0
  0
LINE
  5
1CB
330
1F
100
AcDbEntity
  8
2
  6
________________
 62
     7
370
     9
100
AcDbLine
 10
751.8564097604418
 20
217.8049647519696
 30
0.0
 11
753.8564097604418
 21
217.8049647519696
 31
0.0
  0
LINE
  5
1CC
330
1F
100
AcDbEntity
  8
2
  6
________________
 62
     7
370
     9
100
AcDbLine
 10
753.8564097604418
 20
271.2049647519696
 30
0.0
 11
751.8564097604418
 21
271.2049647519696
 31
0.0
  0
LINE
  5
1CD
330
1F
100
AcDbEntity
  8
2
  6
________________
 62
     7
370
     9
100
AcDbLine
 10
772.8564097604418
 20
273.7367829337878
 30
0.0
 11
773.1564097604418
 21
273.7367829337878
 31
0.0
  0
LINE
  5
1CE
330
1F
100
AcDbEntity
  8
2
  6
________________
 62
     7
370
     9
100
AcDbLine
 10
772.8564097604418
 20
273.7095102065151
 30
0.0
 11
773.1564097604418
 21
273.7095102065151
 31
0.0
  0
LINE
  5
1CF
330
1F
100
AcDbEntity
  8
2
  6
________________
 62
     7
370
     9
100
AcDbLine
 10
773.1564097604418
 20
273.7367829337878
 30
0.0
 11
773.1939097604418
 21
273.7367829337878
 31
0.0
  0
LINE
  5
1D0
330
1F
100
AcDbEntity
  8
2
  6
________________
 62
     7
370
     9
100
AcDbLine
 10
773.1939097604418
 20
279.3004192974242
 30
0.0
 11
773.1564097604418
 21
279.3004192974242
 31
0.0
  0
LINE
  5
1D1
330
1F
100
AcDbEntity
  8
2
  6
________________
 62
     7
370
     9
100
AcDbLine
 10
841.6453313943565
 20
281.9916290474227
 30
0.0
 11
841.6453313943565
 21
284.1359439061747
 31
0.0
  0
ARC
  5
1D2
330
1F
100
AcDbEntity
  8
2
  6
________________
 62
     7
370
     9
100
AcDbCircle
 10
-840.6453313943565
 20
244.5049647519696
 30
0.0
 40
39.64359353944899
210
0.0
220
0.0
230
-1.0
100
AcDbArc
 50
88.55457459216852
 51
91.44542540783135
  0
LINE
  5
1D3
330
1F
100
AcDbEntity
  8
2
  6
________________
 62
     7
370
     9
100
AcDbLine
 10
839.6453313943565
 20
281.9916290474227
 30
0.0
 11
839.6453313943565
 21
284.1359439061747
 31
0.0
  0
ARC
  5
1D4
330
1F
100
AcDbEntity
  8
2
  6
________________
 62
     7
370
     9
100
AcDbCircle
 10
840.6446735060473
 20
244.87665957685
 30
0.0
 40
39.89428313939113
100
AcDbArc
 50
234.7930025239932
 51
270.0009448527594
  0
ARC
  5
1D5
330
1F
100
AcDbEntity
  8
2
  6
________________
 62
     7
370
     9
100
AcDbCircle
 10
840.6520077531851
 20
244.8872197730174
 30
0.0
 40
39.90714003540673
100
AcDbArc
 50
180.5488224490503
 51
234.793139874166
  0
ARC
  5
1D6
330
1F
100
AcDbEntity
  8
2
  6
________________
 62
     7
370
     9
100
AcDbCircle
 10
840.648450515814
 20
244.8898857695865
 30
0.0
 40
39.90360858911633
100
AcDbArc
 50
90.00447860486327
 51
180.5526991812932
  0
ARC
  5
1D7
330
1F
100
AcDbEntity
  8
2
  6
________________
 62
     7
370
     9
100
AcDbCircle
 10
840.6421101367973
 20
244.8897828670923
 30
0.0
 40
39.90371149972459
100
AcDbArc
 50
359.4474500036579
 51
89.99537475447453
  0
ARC
  5
1D8
330
1F
100
AcDbEntity
  8
2
  6
________________
 62
     7
370
     9
100
AcDbCircle
 10
840.6426488744128
 20
244.8855081442655
 30
0.0
 40
39.90313179154935
100
AcDbArc
 50
270.003851754598
 51
359.4535802120384
  0
LINE
  5
1D9
330
1F
100
AcDbEntity
  8
2
  6
________________
 62
     7
370
     9
100
AcDbLine
 10
841.6453313943565
 20
283.1132821110085
 30
0.0
 11
839.6453313943565
 21
283.1132821110085
 31
0.0
  0
ARC
  5
1DA
330
1F
100
AcDbEntity
  8
2
  6
________________
 62
     7
370
     9
100
AcDbCircle
 10
840.6453313943565
 20
244.5049647519696
 30
0.0
 40
37.49999999999998
100
AcDbArc
 50
0.0
 51
88.47193140538926
  0
LINE
  5
1DB
330
1F
100
AcDbEntity
  8
2
  6
________________
 62
     7
370
     9
100
AcDbLine
 10
839.6453313943565
 20
281.0049647519696
 30
0.0
 11
839.6453313943565
 21
281.9916290474227
 31
0.0
  0
LINE
  5
1DC
330
1F
100
AcDbEntity
  8
2
  6
________________
 62
     7
370
     9
100
AcDbLine
 10
840.6453313943565
 20
281.0049647519696
 30
0.0
 11
839.6453313943565
 21
281.0049647519696
 31
0.0
  0
LINE
  5
1DD
330
1F
100
AcDbEntity
  8
2
  6
________________
 62
     7
370
     9
100
AcDbLine
 10
841.6453313943565
 20
281.0049647519696
 30
0.0
 11
840.6453313943565
 21
281.0049647519696
 31
0.0
  0
LINE
  5
1DE
330
1F
100
AcDbEntity
  8
2
  6
________________
 62
     7
370
     9
100
AcDbLine
 10
841.6453313943565
 20
281.9916290474227
 30
0.0
 11
841.6453313943565
 21
281.0049647519696
 31
0.0
  0
ARC
  5
1DF
330
1F
100
AcDbEntity
  8
2
  6
________________
 62
     7
370
     9
100
AcDbCircle
 10
840.6453313943565
 20
244.5049647519696
 30
0.0
 40
37.50000000000001
100
AcDbArc
 50
91.52806859461079
 51
0.0
  0
CIRCLE
  5
1E0
330
1F
100
AcDbEntity
  8
2
  6
________________
 62
     7
370
     9
100
AcDbCircle
 10
840.6453313943565
 20
244.5049647519696
 30
0.0
 40
23.64999999999998
  0
ARC
  5
1E1
330
1F
100
AcDbEntity
  8
2
  6
________________
 62
     7
370
     9
100
AcDbCircle
 10
840.6453313943565
 20
244.5049647519696
 30
0.0
 40
20.00000000000002
100
AcDbArc
 50
180.0
 51
0.0
  0
ARC
  5
1E2
330
1F
100
AcDbEntity
  8
2
  6
________________
 62
     7
370
     9
100
AcDbCircle
 10
840.6453313943565
 20
244.5049647519696
 30
0.0
 40
20.00000000000002
100
AcDbArc
 50
0.0
 51
180.0
  0
MTEXT
  5
1E3
330
1F
100
AcDbEntity
  8
2
 62
     7
100
AcDbMText
 10
742.2494055132789
 20
189.7028103392916
 30
0.0
 40
6.0
 41
0.0
 46
0.0
 71
     1
 72
     1
  1
{\FＭＳ ゴシック;BMHM-40P}
 73
     1
 44
1.0
  0
ENDSEC
  0
SECTION
  2
OBJECTS
  0
DICTIONARY
  5
C
330
0
100
AcDbDictionary
281
     1
  3
ACAD_GROUP
350
D
  3
ACAD_LAYOUT
350
1A
  3
ACAD_MLEADERSTYLE
350
1E5
  3
ACAD_MLINESTYLE
350
17
  3
ACAD_PLOTSETTINGS
350
19
  3
ACAD_PLOTSTYLENAME
350
E
  3
ACAD_TABLESTYLE
350
1E4
  3
ACAD_VISUALSTYLE
350
2A
  0
DICTIONARY
  5
D
102
{ACAD_REACTORS
330
C
102
}
330
C
100
AcDbDictionary
281
     1
  0
DICTIONARY
  5
1A
102
{ACAD_REACTORS
330
C
102
}
330
C
100
AcDbDictionary
281
     1
  3
Layout1
350
1E
  3
Layout2
350
26
  3
Model
350
22
  0
DICTIONARY
  5
1E5
102
{ACAD_REACTORS
330
C
102
}
330
C
100
AcDbDictionary
281
     1
  0
DICTIONARY
  5
17
102
{ACAD_REACTORS
330
C
102
}
330
C
100
AcDbDictionary
281
     1
  3
Standard
350
18
  0
DICTIONARY
  5
19
102
{ACAD_REACTORS
330
C
102
}
330
C
100
AcDbDictionary
281
     1
  0
ACDBDICTIONARYWDFLT
  5
E
102
{ACAD_REACTORS
330
C
102
}
330
C
100
AcDbDictionary
281
     1
  3
Normal
350
F
100
AcDbDictionaryWithDefault
340
F
  0
DICTIONARY
  5
1E4
102
{ACAD_REACTORS
330
C
102
}
330
C
100
AcDbDictionary
281
     1
  0
DICTIONARY
  5
2A
102
{ACAD_REACTORS
330
C
102
}
330
C
100
AcDbDictionary
281
     1
  3
2dWireframe
350
2F
  3
3D Hidden
350
31
  3
3dWireframe
350
30
  3
Basic
350
32
  3
Brighten
350
36
  3
ColorChange
350
3A
  3
Conceptual
350
34
  3
Dim
350
35
  3
Facepattern
350
39
  3
Flat
350
2B
  3
FlatWithEdges
350
2C
  3
Gouraud
350
2D
  3
GouraudWithEdges
350
2E
  3
Linepattern
350
38
  3
Realistic
350
33
  3
Thicken
350
37
  0
LAYOUT
  5
1E
102
{ACAD_REACTORS
330
1A
102
}
330
1A
100
AcDbPlotSettings
  1

  2
none_device
  4

  6

 40
0.0
 41
0.0
 42
0.0
 43
0.0
 44
0.0
 45
0.0
 46
0.0
 47
0.0
 48
0.0
 49
0.0
140
0.0
141
0.0
142
1.0
143
1.0
 70
   688
 72
     0
 73
     0
 74
     5
  7

 75
    16
 76
     0
 77
     2
 78
   300
147
1.0
148
0.0
149
0.0
100
AcDbLayout
  1
Layout1
 70
     1
 71
     1
 10
0.0
 20
0.0
 11
12.0
 21
9.0
 12
0.0
 22
0.0
 32
0.0
 14
1.000000000000000E+20
 24
1.000000000000000E+20
 34
1.000000000000000E+20
 15
-1.000000000000000E+20
 25
-1.000000000000000E+20
 35
-1.000000000000000E+20
146
0.0
 13
0.0
 23
0.0
 33
0.0
 16
1.0
 26
0.0
 36
0.0
 17
0.0
 27
1.0
 37
0.0
 76
     0
330
1B
  0
LAYOUT
  5
26
102
{ACAD_REACTORS
330
1A
102
}
330
1A
100
AcDbPlotSettings
  1

  2
none_device
  4

  6

 40
0.0
 41
0.0
 42
0.0
 43
0.0
 44
0.0
 45
0.0
 46
0.0
 47
0.0
 48
0.0
 49
0.0
140
0.0
141
0.0
142
1.0
143
1.0
 70
   688
 72
     0
 73
     0
 74
     5
  7

 75
    16
 76
     0
 77
     2
 78
   300
147
1.0
148
0.0
149
0.0
100
AcDbLayout
  1
Layout2
 70
     1
 71
     2
 10
0.0
 20
0.0
 11
0.0
 21
0.0
 12
0.0
 22
0.0
 32
0.0
 14
0.0
 24
0.0
 34
0.0
 15
0.0
 25
0.0
 35
0.0
146
0.0
 13
0.0
 23
0.0
 33
0.0
 16
1.0
 26
0.0
 36
0.0
 17
0.0
 27
1.0
 37
0.0
 76
     0
330
23
  0
LAYOUT
  5
22
102
{ACAD_REACTORS
330
1A
102
}
330
1A
100
AcDbPlotSettings
  1

  2
none_device
  4

  6

 40
0.0
 41
0.0
 42
0.0
 43
0.0
 44
0.0
 45
0.0
 46
0.0
 47
0.0
 48
0.0
 49
0.0
140
0.0
141
0.0
142
1.0
143
1.0
 70
  1712
 72
     0
 73
     0
 74
     0
  7

 75
     0
 76
     0
 77
     2
 78
   300
147
1.0
148
0.0
149
0.0
100
AcDbLayout
  1
Model
 70
     1
 71
     0
 10
0.0
 20
0.0
 11
12.0
 21
9.0
 12
0.0
 22
0.0
 32
0.0
 14
0.0
 24
0.0
 34
0.0
 15
880.545821636522
 25
284.7953543318529
 35
10.0
146
0.0
 13
0.0
 23
0.0
 33
0.0
 16
1.0
 26
0.0
 36
0.0
 17
0.0
 27
1.0
 37
0.0
 76
     0
330
1F
331
29
  0
MLINESTYLE
  5
18
102
{ACAD_REACTORS
330
17
102
}
330
17
100
AcDbMlineStyle
  2
Standard
 70
     0
  3

 62
   256
 51
90.0
 52
90.0
 71
     2
 49
0.5
 62
   256
  6
BYLAYER
 49
-0.5
 62
   256
  6
BYLAYER
  0
ACDBPLACEHOLDER
  5
F
102
{ACAD_REACTORS
330
E
102
}
330
E
  0
VISUALSTYLE
  5
2F
102
{ACAD_REACTORS
330
2A
102
}
330
2A
100
AcDbVisualStyle
  2
2dWireframe
 70
     4
 71
     0
 72
     2
 73
     0
 90
        0
 40
-0.6
 41
-30.0
 62
     5
 63
     7
421
 16777215
 74
     1
 91
        4
 64
     7
 65
   257
 75
     1
175
     1
 42
1.0
 92
        0
 66
   257
 43
1.0
 76
     1
 77
     6
 78
     2
 67
     7
 79
     5
170
     0
171
     0
290
     0
174
     0
 93
        1
 44
0.0
173
     0
291
     0
 45
0.0
  0
VISUALSTYLE
  5
31
102
{ACAD_REACTORS
330
2A
102
}
330
2A
100
AcDbVisualStyle
  2
3D Hidden
 70
     6
 71
     1
 72
     2
 73
     2
 90
        0
 40
-0.6
 41
-30.0
 62
     5
 63
     7
421
 16777215
 74
     2
 91
        2
 64
     7
 65
   257
 75
     2
175
     1
 42
40.0
 92
        0
 66
   257
 43
1.0
 76
     1
 77
     6
 78
     2
 67
     7
 79
     3
170
     0
171
     0
290
     0
174
     0
 93
        1
 44
0.0
173
     0
291
     0
 45
0.0
  0
VISUALSTYLE
  5
30
102
{ACAD_REACTORS
330
2A
102
}
330
2A
100
AcDbVisualStyle
  2
3dWireframe
 70
     5
 71
     0
 72
     2
 73
     0
 90
        0
 40
-0.6
 41
-30.0
 62
     5
 63
     7
421
 16777215
 74
     1
 91
        4
 64
     7
 65
   257
 75
     1
175
     1
 42
1.0
 92
        0
 66
   257
 43
1.0
 76
     1
 77
     6
 78
     2
 67
     7
 79
     5
170
     0
171
     0
290
     0
174
     0
 93
        1
 44
0.0
173
     0
291
     0
 45
0.0
  0
VISUALSTYLE
  5
32
102
{ACAD_REACTORS
330
2A
102
}
330
2A
100
AcDbVisualStyle
  2
Basic
 70
     7
 71
     1
 72
     0
 73
     1
 90
        0
 40
-0.6
 41
-30.0
 62
     5
 63
     7
421
 16777215
 74
     0
 91
        4
 64
     7
 65
   257
 75
     1
175
     1
 42
1.0
 92
        8
 66
     7
 43
1.0
 76
     1
 77
     6
 78
     2
 67
     7
 79
     5
170
     0
171
     0
290
     0
174
     0
 93
        1
 44
0.0
173
     0
291
     1
 45
0.0
  0
VISUALSTYLE
  5
36
102
{ACAD_REACTORS
330
2A
102
}
330
2A
100
AcDbVisualStyle
  2
Brighten
 70
    12
 71
     2
 72
     2
 73
     0
 90
        0
 40
-0.6
 41
-30.0
 62
     5
 63
     7
421
 16777215
 74
     1
 91
        4
 64
     7
 65
   257
 75
     1
175
     1
 42
1.0
 92
        8
 66
     7
 43
1.0
 76
     1
 77
     6
 78
     2
 67
     7
 79
     5
170
     0
171
     0
290
     0
174
     0
 93
        1
 44
50.0
173
     0
291
     1
 45
0.0
  0
VISUALSTYLE
  5
3A
102
{ACAD_REACTORS
330
2A
102
}
330
2A
100
AcDbVisualStyle
  2
ColorChange
 70
    16
 71
     2
 72
     2
 73
     3
 90
        0
 40
-0.6
 41
-30.0
 62
     5
 63
     8
421
  8421504
 74
     1
 91
        4
 64
     7
 65
   257
 75
     1
175
     1
 42
1.0
 92
        8
 66
     8
424
  8421504
 43
1.0
 76
     1
 77
     6
 78
     2
 67
     7
 79
     5
170
     0
171
     0
290
     0
174
     0
 93
        1
 44
0.0
173
     0
291
     1
 45
0.0
  0
VISUALSTYLE
  5
34
102
{ACAD_REACTORS
330
2A
102
}
330
2A
100
AcDbVisualStyle
  2
Conceptual
 70
     9
 71
     3
 72
     2
 73
     0
 90
        0
 40
-0.6
 41
-30.0
 62
     5
 63
     7
421
 16777215
 74
     2
 91
        2
 64
     7
 65
   257
 75
     1
175
     1
 42
40.0
 92
        8
 66
     7
 43
1.0
 76
     1
 77
     6
 78
     2
 67
     7
 79
     3
170
     0
171
     0
290
     0
174
     0
 93
        1
 44
0.0
173
     0
291
     0
 45
0.0
  0
VISUALSTYLE
  5
35
102
{ACAD_REACTORS
330
2A
102
}
330
2A
100
AcDbVisualStyle
  2
Dim
 70
    11
 71
     2
 72
     2
 73
     0
 90
        0
 40
-0.6
 41
-30.0
 62
     5
 63
     7
421
 16777215
 74
     1
 91
        4
 64
     7
 65
   257
 75
     1
175
     1
 42
1.0
 92
        8
 66
     7
 43
1.0
 76
     1
 77
     6
 78
     2
 67
     7
 79
     5
170
     0
171
     0
290
     0
174
     0
 93
        1
 44
-50.0
173
     0
291
     1
 45
0.0
  0
VISUALSTYLE
  5
39
102
{ACAD_REACTORS
330
2A
102
}
330
2A
100
AcDbVisualStyle
  2
Facepattern
 70
    15
 71
     2
 72
     2
 73
     0
 90
        0
 40
-0.6
 41
-30.0
 62
     5
 63
     7
421
 16777215
 74
     1
 91
        4
 64
     7
 65
   257
 75
     1
175
     1
 42
1.0
 92
        8
 66
     7
 43
1.0
 76
     1
 77
     6
 78
     2
 67
     7
 79
     5
170
     0
171
     0
290
     0
174
     0
 93
        1
 44
0.0
173
     0
291
     1
 45
0.0
  0
VISUALSTYLE
  5
2B
102
{ACAD_REACTORS
330
2A
102
}
330
2A
100
AcDbVisualStyle
  2
Flat
 70
     0
 71
     2
 72
     1
 73
     1
 90
        2
 40
-0.6
 41
30.0
 62
     5
 63
     7
421
 16777215
 74
     0
 91
        4
 64
     7
 65
   257
 75
     1
175
     1
 42
1.0
 92
        8
 66
     7
 43
1.0
 76
     1
 77
     6
 78
     2
 67
     7
 79
     5
170
     0
171
     0
290
     0
174
     0
 93
       13
 44
0.0
173
     0
291
     1
 45
0.0
  0
VISUALSTYLE
  5
2C
102
{ACAD_REACTORS
330
2A
102
}
330
2A
100
AcDbVisualStyle
  2
FlatWithEdges
 70
     1
 71
     2
 72
     1
 73
     1
 90
        2
 40
-0.6
 41
30.0
 62
     5
 63
     7
421
 16777215
 74
     1
 91
        4
 64
     7
 65
   257
 75
     1
175
     1
 42
1.0
 92
        0
 66
   257
 43
1.0
 76
     1
 77
     6
 78
     2
 67
     7
 79
     5
170
     0
171
     0
290
     0
174
     0
 93
       13
 44
0.0
173
     0
291
     1
 45
0.0
  0
VISUALSTYLE
  5
2D
102
{ACAD_REACTORS
330
2A
102
}
330
2A
100
AcDbVisualStyle
  2
Gouraud
 70
     2
 71
     2
 72
     2
 73
     1
 90
        2
 40
-0.6
 41
30.0
 62
     5
 63
     7
421
 16777215
 74
     0
 91
        4
 64
     7
 65
   257
 75
     1
175
     1
 42
1.0
 92
        0
 66
     7
 43
1.0
 76
     1
 77
     6
 78
     2
 67
     7
 79
     5
170
     0
171
     0
290
     0
174
     0
 93
       13
 44
0.0
173
     0
291
     1
 45
0.0
  0
VISUALSTYLE
  5
2E
102
{ACAD_REACTORS
330
2A
102
}
330
2A
100
AcDbVisualStyle
  2
GouraudWithEdges
 70
     3
 71
     2
 72
     2
 73
     1
 90
        2
 40
-0.6
 41
30.0
 62
     5
 63
     7
421
 16777215
 74
     1
 91
        4
 64
     7
 65
   257
 75
     1
175
     1
 42
1.0
 92
        0
 66
   257
 43
1.0
 76
     1
 77
     6
 78
     2
 67
     7
 79
     5
170
     0
171
     0
290
     0
174
     0
 93
       13
 44
0.0
173
     0
291
     1
 45
0.0
  0
VISUALSTYLE
  5
38
102
{ACAD_REACTORS
330
2A
102
}
330
2A
100
AcDbVisualStyle
  2
Linepattern
 70
    14
 71
     2
 72
     2
 73
     0
 90
        0
 40
-0.6
 41
-30.0
 62
     5
 63
     7
421
 16777215
 74
     1
 91
        4
 64
     7
 65
   257
 75
     7
175
     7
 42
1.0
 92
        8
 66
     7
 43
1.0
 76
     1
 77
     6
 78
     2
 67
     7
 79
     5
170
     0
171
     0
290
     0
174
     0
 93
        1
 44
0.0
173
     0
291
     1
 45
0.0
  0
VISUALSTYLE
  5
33
102
{ACAD_REACTORS
330
2A
102
}
330
2A
100
AcDbVisualStyle
  2
Realistic
 70
     8
 71
     2
 72
     2
 73
     0
 90
        0
 40
-0.6
 41
-30.0
 62
     5
 63
     7
421
 16777215
 74
     1
 91
        0
 64
     7
 65
   257
 75
     1
175
     1
 42
1.0
 92
        8
 66
     8
424
  7895160
 43
1.0
 76
     1
 77
     6
 78
     2
 67
     7
 79
     5
170
     0
171
     0
290
     0
174
     0
 93
       13
 44
0.0
173
     0
291
     0
 45
0.0
  0
VISUALSTYLE
  5
37
102
{ACAD_REACTORS
330
2A
102
}
330
2A
100
AcDbVisualStyle
  2
Thicken
 70
    13
 71
     2
 72
     2
 73
     0
 90
        0
 40
-0.6
 41
-30.0
 62
     5
 63
     7
421
 16777215
 74
     1
 91
        4
 64
     7
 65
   257
 75
     1
175
     1
 42
1.0
 92
       12
 66
     7
 43
1.0
 76
     1
 77
     6
 78
     2
 67
     7
 79
     5
170
     0
171
     0
290
     0
174
     0
 93
        1
 44
0.0
173
     0
291
     1
 45
0.0
  0
ENDSEC
  0
EOF
