  0
SECTION
  2
HEADER
  9
$ACADVER
  1
AC1021
  9
$ACADMAINTVER
 70
    25
  9
$DWGCODEPAGE
  3
ANSI_932
  9
$INSBASE
 10
0.0
 20
0.0
 30
0.0
  9
$EXTMIN
 10
0.0
 20
-26.01599999112813
 30
0.0
  9
$EXTMAX
 10
1460.0
 20
89.97706351245908
 30
10.0
  9
$LIMMIN
 10
0.0
 20
0.0
  9
$LIMMAX
 10
12.0
 20
9.0
  9
$ORTHOMODE
 70
     0
  9
$REGENMODE
 70
     1
  9
$FILLMODE
 70
     1
  9
$QTEXTMODE
 70
     0
  9
$MIRRTEXT
 70
     1
  9
$LTSCALE
 40
1.0
  9
$ATTMODE
 70
     1
  9
$TEXTSIZE
 40
0.2
  9
$TRACEWID
 40
0.05
  9
$TEXTSTYLE
  7
Standard
  9
$CLAYER
  8
0
  9
$CELTYPE
  6
ByLayer
  9
$CECOLOR
 62
   256
  9
$CELTSCALE
 40
1.0
  9
$DISPSILH
 70
     0
  9
$DIMSCALE
 40
1.0
  9
$DIMASZ
 40
3.0
  9
$DIMEXO
 40
0.0625
  9
$DIMDLI
 40
0.38
  9
$DIMRND
 40
0.0
  9
$DIMDLE
 40
0.0
  9
$DIMEXE
 40
0.18
  9
$DIMTP
 40
0.0
  9
$DIMTM
 40
0.0
  9
$DIMTXT
 40
3.0
  9
$DIMCEN
 40
0.09
  9
$DIMTSZ
 40
0.0
  9
$DIMTOL
 70
     0
  9
$DIMLIM
 70
     0
  9
$DIMTIH
 70
     1
  9
$DIMTOH
 70
     1
  9
$DIMSE1
 70
     0
  9
$DIMSE2
 70
     0
  9
$DIMTAD
 70
     1
  9
$DIMZIN
 70
     0
  9
$DIMBLK
  1

  9
$DIMASO
 70
     1
  9
$DIMSHO
 70
     1
  9
$DIMPOST
  1

  9
$DIMAPOST
  1

  9
$DIMALT
 70
     0
  9
$DIMALTD
 70
     2
  9
$DIMALTF
 40
25.4
  9
$DIMLFAC
 40
1.0
  9
$DIMTOFL
 70
     0
  9
$DIMTVP
 40
0.0
  9
$DIMTIX
 70
     0
  9
$DIMSOXD
 70
     0
  9
$DIMSAH
 70
     0
  9
$DIMBLK1
  1

  9
$DIMBLK2
  1

  9
$DIMSTYLE
  2
Standard
  9
$DIMCLRD
 70
     0
  9
$DIMCLRE
 70
     0
  9
$DIMCLRT
 70
     0
  9
$DIMTFAC
 40
1.0
  9
$DIMGAP
 40
0.09
  9
$DIMJUST
 70
     0
  9
$DIMSD1
 70
     0
  9
$DIMSD2
 70
     0
  9
$DIMTOLJ
 70
     1
  9
$DIMTZIN
 70
     0
  9
$DIMALTZ
 70
     0
  9
$DIMALTTZ
 70
     0
  9
$DIMUPT
 70
     0
  9
$DIMDEC
 70
     2
  9
$DIMTDEC
 70
     4
  9
$DIMALTU
 70
     2
  9
$DIMALTTD
 70
     2
  9
$DIMTXSTY
  7
Standard
  9
$DIMAUNIT
 70
     0
  9
$DIMADEC
 70
     2
  9
$DIMALTRND
 40
0.0
  9
$DIMAZIN
 70
     0
  9
$DIMDSEP
 70
    46
  9
$DIMATFIT
 70
     3
  9
$DIMFRAC
 70
     0
  9
$DIMLDRBLK
  1

  9
$DIMLUNIT
 70
     2
  9
$DIMLWD
 70
    -2
  9
$DIMLWE
 70
    -2
  9
$DIMTMOVE
 70
     0
  9
$DIMFXL
 40
1.0
  9
$DIMFXLON
 70
     0
  9
$DIMJOGANG
 40
0.7853981633974483
  9
$DIMTFILL
 70
     0
  9
$DIMTFILLCLR
 70
     0
  9
$DIMARCSYM
 70
     0
  9
$DIMLTYPE
  6

  9
$DIMLTEX1
  6

  9
$DIMLTEX2
  6

  9
$LUNITS
 70
     2
  9
$LUPREC
 70
     4
  9
$SKETCHINC
 40
0.1
  9
$FILLETRAD
 40
0.5
  9
$AUNITS
 70
     0
  9
$AUPREC
 70
     0
  9
$MENU
  1
.
  9
$ELEVATION
 40
0.0
  9
$PELEVATION
 40
0.0
  9
$THICKNESS
 40
0.0
  9
$LIMCHECK
 70
     0
  9
$CHAMFERA
 40
0.5
  9
$CHAMFERB
 40
0.5
  9
$CHAMFERC
 40
1.0
  9
$CHAMFERD
 40
0.0
  9
$SKPOLY
 70
     0
  9
$TDCREATE
 40
2459298.58367647
  9
$TDUCREATE
 40
2459298.20867647
  9
$TDUPDATE
 40
2459298.583676482
  9
$TDUUPDATE
 40
2459298.208676482
  9
$TDINDWG
 40
0.0000000116
  9
$TDUSRTIMER
 40
0.0000000116
  9
$USRTIMER
 70
     1
  9
$ANGBASE
 50
0.0
  9
$ANGDIR
 70
     0
  9
$PDMODE
 70
     0
  9
$PDSIZE
 40
0.0
  9
$PLINEWID
 40
0.0
  9
$SPLFRAME
 70
     0
  9
$SPLINETYPE
 70
     6
  9
$SPLINESEGS
 70
     8
  9
$HANDSEED
  5
1C2
  9
$SURFTAB1
 70
     6
  9
$SURFTAB2
 70
     6
  9
$SURFTYPE
 70
     6
  9
$SURFU
 70
     6
  9
$SURFV
 70
     6
  9
$UCSBASE
  2

  9
$UCSNAME
  2

  9
$UCSORG
 10
0.0
 20
0.0
 30
0.0
  9
$UCSXDIR
 10
1.0
 20
0.0
 30
0.0
  9
$UCSYDIR
 10
0.0
 20
1.0
 30
0.0
  9
$UCSORTHOREF
  2

  9
$UCSORTHOVIEW
 70
     0
  9
$UCSORGTOP
 10
0.0
 20
0.0
 30
0.0
  9
$UCSORGBOTTOM
 10
0.0
 20
0.0
 30
0.0
  9
$UCSORGLEFT
 10
0.0
 20
0.0
 30
0.0
  9
$UCSORGRIGHT
 10
0.0
 20
0.0
 30
0.0
  9
$UCSORGFRONT
 10
0.0
 20
0.0
 30
0.0
  9
$UCSORGBACK
 10
0.0
 20
0.0
 30
0.0
  9
$PUCSBASE
  2

  9
$PUCSNAME
  2

  9
$PUCSORG
 10
0.0
 20
0.0
 30
0.0
  9
$PUCSXDIR
 10
1.0
 20
0.0
 30
0.0
  9
$PUCSYDIR
 10
0.0
 20
1.0
 30
0.0
  9
$PUCSORTHOREF
  2

  9
$PUCSORTHOVIEW
 70
     0
  9
$PUCSORGTOP
 10
0.0
 20
0.0
 30
0.0
  9
$PUCSORGBOTTOM
 10
0.0
 20
0.0
 30
0.0
  9
$PUCSORGLEFT
 10
0.0
 20
0.0
 30
0.0
  9
$PUCSORGRIGHT
 10
0.0
 20
0.0
 30
0.0
  9
$PUCSORGFRONT
 10
0.0
 20
0.0
 30
0.0
  9
$PUCSORGBACK
 10
0.0
 20
0.0
 30
0.0
  9
$USERI1
 70
     0
  9
$USERI2
 70
     0
  9
$USERI3
 70
     0
  9
$USERI4
 70
     0
  9
$USERI5
 70
     0
  9
$USERR1
 40
0.0
  9
$USERR2
 40
0.0
  9
$USERR3
 40
0.0
  9
$USERR4
 40
0.0
  9
$USERR5
 40
0.0
  9
$WORLDVIEW
 70
     1
  9
$SHADEDGE
 70
     3
  9
$SHADEDIF
 70
    70
  9
$TILEMODE
 70
     1
  9
$MAXACTVP
 70
    64
  9
$PINSBASE
 10
0.0
 20
0.0
 30
0.0
  9
$PLIMCHECK
 70
     0
  9
$PEXTMIN
 10
1.000000000000000E+20
 20
1.000000000000000E+20
 30
1.000000000000000E+20
  9
$PEXTMAX
 10
-1.000000000000000E+20
 20
-1.000000000000000E+20
 30
-1.000000000000000E+20
  9
$PLIMMIN
 10
0.0
 20
0.0
  9
$PLIMMAX
 10
12.0
 20
9.0
  9
$UNITMODE
 70
     0
  9
$VISRETAIN
 70
     1
  9
$PLINEGEN
 70
     0
  9
$PSLTSCALE
 70
     1
  9
$TREEDEPTH
 70
  3020
  9
$CMLSTYLE
  2
Standard
  9
$CMLJUST
 70
     0
  9
$CMLSCALE
 40
1.0
  9
$PROXYGRAPHICS
 70
     1
  9
$MEASUREMENT
 70
     1
  9
$CELWEIGHT
370
    -1
  9
$ENDCAPS
280
     0
  9
$JOINSTYLE
280
     0
  9
$LWDISPLAY
290
     1
  9
$INSUNITS
 70
     4
  9
$HYPERLINKBASE
  1

  9
$STYLESHEET
  1

  9
$XEDIT
290
     1
  9
$CEPSNTYPE
380
     0
  9
$PSTYLEMODE
290
     1
  9
$FINGERPRINTGUID
  2
{DF54314F-FE5D-4ACD-A3A7-0EC3E0699211}
  9
$VERSIONGUID
  2
{FAEB1C32-E019-11D5-929B-00C0DF256EC4}
  9
$EXTNAMES
290
     1
  9
$PSVPSCALE
 40
0.0
  9
$OLESTARTUP
290
     0
  9
$SORTENTS
280
   127
  9
$INDEXCTL
280
     0
  9
$HIDETEXT
280
     1
  9
$XCLIPFRAME
290
     0
  9
$HALOGAP
280
     0
  9
$OBSCOLOR
 70
   257
  9
$OBSLTYPE
280
     0
  9
$INTERSECTIONDISPLAY
280
     0
  9
$INTERSECTIONCOLOR
 70
   257
  9
$DIMASSOC
280
     2
  9
$PROJECTNAME
  1

  9
$CAMERADISPLAY
290
     0
  9
$LENSLENGTH
 40
50.0
  9
$CAMERAHEIGHT
 40
0.0
  9
$STEPSPERSEC
 40
2.0
  9
$STEPSIZE
 40
6.0
  9
$3DDWFPREC
 40
2.0
  9
$PSOLWIDTH
 40
0.25
  9
$PSOLHEIGHT
 40
4.0
  9
$LOFTANG1
 40
1.570796326794897
  9
$LOFTANG2
 40
1.570796326794897
  9
$LOFTMAG1
 40
0.0
  9
$LOFTMAG2
 40
0.0
  9
$LOFTPARAM
 70
     7
  9
$LOFTNORMALS
280
     1
  9
$LATITUDE
 40
37.795
  9
$LONGITUDE
 40
-122.394
  9
$NORTHDIRECTION
 40
0.0
  9
$TIMEZONE
 70
 -8000
  9
$LIGHTGLYPHDISPLAY
280
     1
  9
$TILEMODELIGHTSYNCH
280
     1
  9
$SOLIDHIST
280
     1
  9
$SHOWHIST
280
     1
  9
$DWFFRAME
280
     2
  9
$DGNFRAME
280
     2
  9
$REALWORLDSCALE
290
     1
  9
$INTERFERECOLOR
 62
   256
  9
$CSHADOW
280
     0
  9
$SHADOWPLANELOCATION
 40
0.0
  0
ENDSEC
  0
SECTION
  2
CLASSES
  0
CLASS
  1
ACDBDICTIONARYWDFLT
  2
AcDbDictionaryWithDefault
  3
ObjectDBX Classes
 90
        0
 91
        4
280
     0
281
     0
  0
CLASS
  1
VISUALSTYLE
  2
AcDbVisualStyle
  3
ObjectDBX Classes
 90
     4095
 91
        4
280
     0
281
     0
  0
ENDSEC
  0
SECTION
  2
TABLES
  0
TABLE
  2
VPORT
  5
8
330
0
100
AcDbSymbolTable
 70
     1
  0
VPORT
  5
29
330
8
100
AcDbSymbolTableRecord
100
AcDbViewportTableRecord
  2
*Active
 70
     0
 10
0.0
 20
0.0
 11
1.0
 21
1.0
 12
730.0000000000001
 22
31.98053176066548
 13
0.0
 23
0.0
 14
0.5
 24
0.5
 15
0.5
 25
0.5
 16
0.0
 26
0.0
 36
1.0
 17
0.0
 27
0.0
 37
0.0
 40
115.9930635035872
 41
1.6
 42
50.0
 43
0.0
 44
0.0
 50
0.0
 51
0.0
 71
     0
 72
   100
 73
     1
 74
     3
 75
     0
 76
     0
 77
     0
 78
     0
281
     0
 65
     1
110
0.0
120
0.0
130
0.0
111
1.0
121
0.0
131
0.0
112
0.0
122
1.0
132
0.0
 79
     0
146
0.0
 60
     3
 61
     5
292
     1
282
     1
141
0.0
142
0.0
 63
   250
  0
ENDTAB
  0
TABLE
  2
LTYPE
  5
5
330
0
100
AcDbSymbolTable
 70
     2
  0
LTYPE
  5
14
330
5
100
AcDbSymbolTableRecord
100
AcDbLinetypeTableRecord
  2
ByBlock
 70
     0
  3

 72
    65
 73
     0
 40
0.0
  0
LTYPE
  5
15
330
5
100
AcDbSymbolTableRecord
100
AcDbLinetypeTableRecord
  2
ByLayer
 70
     0
  3

 72
    65
 73
     0
 40
0.0
  0
LTYPE
  5
16
330
5
100
AcDbSymbolTableRecord
100
AcDbLinetypeTableRecord
  2
Continuous
 70
     0
  3
Solid line
 72
    65
 73
     0
 40
0.0
  0
LTYPE
  5
3D
330
5
100
AcDbSymbolTableRecord
100
AcDbLinetypeTableRecord
  2
________________
 70
     0
  3

 72
    65
 73
     0
 40
0.0
  0
ENDTAB
  0
TABLE
  2
LAYER
  5
2
330
0
100
AcDbSymbolTable
 70
     2
  0
LAYER
  5
10
330
2
100
AcDbSymbolTableRecord
100
AcDbLayerTableRecord
  2
0
 70
     0
 62
     7
  6
Continuous
370
    -3
390
F
347
0
  0
LAYER
  5
3B
330
2
100
AcDbSymbolTableRecord
100
AcDbLayerTableRecord
  2
9
 70
     0
 62
     7
  6
Continuous
370
    -3
390
F
347
0
  0
ENDTAB
  0
TABLE
  2
STYLE
  5
3
330
0
100
AcDbSymbolTable
 70
     1
  0
STYLE
  5
11
330
3
100
AcDbSymbolTableRecord
100
AcDbTextStyleTableRecord
  2
Standard
 70
     0
 40
0.0
 41
1.0
 50
0.0
 71
     0
 42
0.2
  3
txt
  4

  0
ENDTAB
  0
TABLE
  2
VIEW
  5
6
330
0
100
AcDbSymbolTable
 70
     0
  0
ENDTAB
  0
TABLE
  2
UCS
  5
7
330
0
100
AcDbSymbolTable
 70
     0
  0
ENDTAB
  0
TABLE
  2
APPID
  5
9
330
0
100
AcDbSymbolTable
 70
     1
  0
APPID
  5
12
330
9
100
AcDbSymbolTableRecord
100
AcDbRegAppTableRecord
  2
ACAD
 70
     0
  0
ENDTAB
  0
TABLE
  2
DIMSTYLE
  5
A
330
0
100
AcDbSymbolTable
 70
     1
100
AcDbDimStyleTable
  0
DIMSTYLE
105
27
330
A
100
AcDbSymbolTableRecord
100
AcDbDimStyleTableRecord
  2
Standard
 70
     0
340
11
  0
ENDTAB
  0
TABLE
  2
BLOCK_RECORD
  5
1
330
0
100
AcDbSymbolTable
 70
     1
  0
BLOCK_RECORD
  5
1F
330
1
100
AcDbSymbolTableRecord
100
AcDbBlockTableRecord
  2
*Model_Space
340
22
 70
     0
280
     1
281
     0
  0
BLOCK_RECORD
  5
1B
330
1
100
AcDbSymbolTableRecord
100
AcDbBlockTableRecord
  2
*Paper_Space
340
1E
 70
     0
280
     1
281
     0
  0
BLOCK_RECORD
  5
23
330
1
100
AcDbSymbolTableRecord
100
AcDbBlockTableRecord
  2
*Paper_Space0
340
26
 70
     0
280
     1
281
     0
  0
ENDTAB
  0
ENDSEC
  0
SECTION
  2
BLOCKS
  0
BLOCK
  5
20
330
1F
100
AcDbEntity
  8
0
100
AcDbBlockBegin
  2
*Model_Space
 70
     0
 10
0.0
 20
0.0
 30
0.0
  3
*Model_Space
  1

  0
ENDBLK
  5
21
330
1F
100
AcDbEntity
  8
0
100
AcDbBlockEnd
  0
BLOCK
  5
1C
330
1B
100
AcDbEntity
 67
     1
  8
0
100
AcDbBlockBegin
  2
*Paper_Space
 70
     0
 10
0.0
 20
0.0
 30
0.0
  3
*Paper_Space
  1

  0
ENDBLK
  5
1D
330
1B
100
AcDbEntity
 67
     1
  8
0
100
AcDbBlockEnd
  0
BLOCK
  5
24
330
23
100
AcDbEntity
  8
0
100
AcDbBlockBegin
  2
*Paper_Space0
 70
     0
 10
0.0
 20
0.0
 30
0.0
  3
*Paper_Space0
  1

  0
ENDBLK
  5
25
330
23
100
AcDbEntity
  8
0
100
AcDbBlockEnd
  0
ENDSEC
  0
SECTION
  2
ENTITIES
  0
LINE
  5
3C
330
1F
100
AcDbEntity
  8
9
  6
________________
 62
     7
370
     0
100
AcDbLine
 10
1324.380546851061
 20
89.96653603006028
 30
0.0
 11
1324.380546851061
 21
-5.022936487540916
 31
0.0
  0
LINE
  5
3E
330
1F
100
AcDbEntity
  8
9
  6
________________
 62
     7
370
     0
100
AcDbLine
 10
1329.380546851061
 20
89.96653603006028
 30
0.0
 11
1324.380546851061
 21
89.96653603006028
 31
0.0
  0
LINE
  5
3F
330
1F
100
AcDbEntity
  8
9
  6
________________
 62
     7
370
     0
100
AcDbLine
 10
1330.380546851061
 20
88.9770635124591
 30
0.0
 11
1330.380546851061
 21
-4.022936487540929
 31
0.0
  0
LWPOLYLINE
  5
40
330
1F
100
AcDbEntity
  8
9
  6
________________
 62
     7
370
     0
100
AcDbPolyline
 90
       39
 70
     0
 43
0.0
 10
1330.380489052604
 20
88.9770635124591
 10
1330.379469702895
 20
89.01272220121243
 10
1330.377175998329
 20
89.0483671911847
 10
1330.373595158951
 20
89.08404425141944
 10
1330.368731077967
 20
89.11961570449888
 10
1330.361542276964
 20
89.16038513687633
 10
1330.352656257942
 20
89.20089138535955
 10
1330.342039847147
 20
89.24120221613246
 10
1330.3297304757
 20
89.28110470246011
 10
1330.31547145475
 20
89.32123746740406
 10
1330.299486549129
 20
89.36079810771041
 10
1330.281727186873
 20
89.39985326665342
 10
1330.262272134599
 20
89.43818082096416
 10
1330.24199414533
 20
89.47427277082687
 10
1330.220201475138
 20
89.50955448104833
 10
1330.196840349571
 20
89.54407892427865
 10
1330.172016585716
 20
89.57765749091456
 10
1330.145276371243
 20
89.61080802140862
 10
1330.117096631805
 20
89.64284713674749
 10
1330.087409427745
 20
89.67382165458285
 10
1330.056362670491
 20
89.70354795737775
 10
1330.025284125506
 20
89.73088778584122
 10
1329.993044610495
 20
89.7569616998264
 10
1329.959575841975
 20
89.78180188041475
 10
1329.925040113998
 20
89.80526538113023
 10
1329.88883774972
 20
89.82769060753623
 10
1329.85164504264
 20
89.84859059976058
 10
1329.813382386559
 20
89.86798704854868
 10
1329.774250151495
 20
89.8857556667286
 10
1329.735881073739
 20
89.9012608598446
 10
1329.696835781255
 20
89.91518754511968
 10
1329.657039215873
 20
89.92754349543208
 10
1329.616691794352
 20
89.93824759939302
 10
1329.575115854009
 20
89.94742062498217
 10
1329.533110509903
 20
89.95482707998593
 10
1329.490593503956
 20
89.96046110641956
 10
1329.447794968029
 20
89.96427181139005
 10
1329.414209016397
 20
89.96596917314591
 10
1329.380546851061
 20
89.96653603006028
  0
LINE
  5
41
330
1F
100
AcDbEntity
  8
9
  6
________________
 62
     7
370
     0
100
AcDbLine
 10
1330.380546851061
 20
46.39771566800962
 30
0.0
 11
1330.580546851061
 21
46.39771566800962
 31
0.0
  0
LINE
  5
42
330
1F
100
AcDbEntity
  8
9
  6
________________
 62
     7
370
     0
100
AcDbLine
 10
1330.380546851061
 20
46.67691811242551
 30
0.0
 11
1330.580546851061
 21
46.67691811242551
 31
0.0
  0
LINE
  5
43
330
1F
100
AcDbEntity
  8
9
  6
________________
 62
     7
370
     0
100
AcDbLine
 10
1330.580546851061
 20
46.67691811242656
 30
0.0
 11
1330.580546851061
 21
46.39771566800962
 31
0.0
  0
LINE
  5
44
330
1F
100
AcDbEntity
  8
9
  6
________________
 62
     7
370
     0
100
AcDbLine
 10
1330.380546851061
 20
48.47706351245908
 30
0.0
 11
1330.580546851061
 21
48.47706351245908
 31
0.0
  0
LINE
  5
45
330
1F
100
AcDbEntity
  8
9
  6
________________
 62
     7
370
     0
100
AcDbLine
 10
1330.580546851061
 20
48.47706351245908
 30
0.0
 11
1330.580546851061
 21
46.67691811242551
 31
0.0
  0
LINE
  5
46
330
1F
100
AcDbEntity
  8
9
  6
________________
 62
     7
370
     0
100
AcDbLine
 10
1330.580546851061
 20
45.4308754909239
 30
0.0
 11
1330.580546851061
 21
39.47706351245908
 31
0.0
  0
LINE
  5
47
330
1F
100
AcDbEntity
  8
9
  6
________________
 62
     7
370
     0
100
AcDbLine
 10
1330.380546851061
 20
39.47706351245908
 30
0.0
 11
1330.580546851061
 21
39.47706351245908
 31
0.0
  0
LINE
  5
48
330
1F
100
AcDbEntity
  8
9
  6
________________
 62
     7
370
     0
100
AcDbLine
 10
1330.380546851061
 20
45.8963434998381
 30
0.0
 11
1330.580546851061
 21
45.89634349983848
 31
0.0
  0
LINE
  5
49
330
1F
100
AcDbEntity
  8
9
  6
________________
 62
     7
370
     0
100
AcDbLine
 10
1330.580546851061
 20
46.39771566800962
 30
0.0
 11
1330.580546851061
 21
45.89634349983848
 31
0.0
  0
LINE
  5
4A
330
1F
100
AcDbEntity
  8
9
  6
________________
 62
     7
370
     0
100
AcDbLine
 10
1330.380546851061
 20
45.73001673127109
 30
0.0
 11
1330.580546851061
 21
45.73001673127109
 31
0.0
  0
LINE
  5
4B
330
1F
100
AcDbEntity
  8
9
  6
________________
 62
     7
370
     0
100
AcDbLine
 10
1330.580546851061
 20
45.8963434998381
 30
0.0
 11
1330.580546851061
 21
45.73001673127113
 31
0.0
  0
LINE
  5
4C
330
1F
100
AcDbEntity
  8
9
  6
________________
 62
     7
370
     0
100
AcDbLine
 10
1330.580546851061
 20
45.73001673127109
 30
0.0
 11
1330.580546851061
 21
45.63460382580874
 31
0.0
  0
LINE
  5
4D
330
1F
100
AcDbEntity
  8
9
  6
________________
 62
     7
370
     0
100
AcDbLine
 10
1330.380546851061
 20
45.63460382580874
 30
0.0
 11
1330.580546851061
 21
45.63460382580874
 31
0.0
  0
LINE
  5
4E
330
1F
100
AcDbEntity
  8
9
  6
________________
 62
     7
370
     0
100
AcDbLine
 10
1330.580546851061
 20
45.63460382580874
 30
0.0
 11
1330.580546851061
 21
45.54206509470792
 31
0.0
  0
LINE
  5
4F
330
1F
100
AcDbEntity
  8
9
  6
________________
 62
     7
370
     0
100
AcDbLine
 10
1330.380546851061
 20
45.54206509470792
 30
0.0
 11
1330.580546851061
 21
45.54206509470792
 31
0.0
  0
LINE
  5
50
330
1F
100
AcDbEntity
  8
9
  6
________________
 62
     7
370
     0
100
AcDbLine
 10
1330.580546851061
 20
45.49766758955702
 30
0.0
 11
1330.580546851061
 21
45.47706351245908
 31
0.0
  0
LINE
  5
51
330
1F
100
AcDbEntity
  8
9
  6
________________
 62
     7
370
     0
100
AcDbLine
 10
1330.380546851061
 20
45.47706351245907
 30
0.0
 11
1330.580546851061
 21
45.47706351245907
 31
0.0
  0
LINE
  5
52
330
1F
100
AcDbEntity
  8
9
  6
________________
 62
     7
370
     0
100
AcDbLine
 10
1330.380546851061
 20
45.4976675895569
 30
0.0
 11
1330.580546851061
 21
45.4976675895569
 31
0.0
  0
LINE
  5
53
330
1F
100
AcDbEntity
  8
9
  6
________________
 62
     7
370
     0
100
AcDbLine
 10
1330.580546851061
 20
45.54206509470792
 30
0.0
 11
1330.580546851061
 21
45.4976675895569
 31
0.0
  0
LINE
  5
54
330
1F
100
AcDbEntity
  8
9
  6
________________
 62
     7
370
     0
100
AcDbLine
 10
1330.580546851061
 20
39.17706351245909
 30
0.0
 11
1330.580546851061
 21
39.4770635124591
 31
0.0
  0
LINE
  5
55
330
1F
100
AcDbEntity
  8
9
  6
________________
 62
     7
370
     0
100
AcDbLine
 10
1330.380546851061
 20
36.47706351245908
 30
0.0
 11
1330.580546851061
 21
36.47706351245908
 31
0.0
  0
LINE
  5
56
330
1F
100
AcDbEntity
  8
9
  6
________________
 62
     7
370
     0
100
AcDbLine
 10
1330.580546851061
 20
39.17706351245909
 30
0.0
 11
1330.580546851061
 21
36.47706351245908
 31
0.0
  0
LINE
  5
57
330
1F
100
AcDbEntity
  8
9
  6
________________
 62
     7
370
     0
100
AcDbLine
 10
1330.580546851061
 20
45.44778148015632
 30
0.0
 11
1330.580546851061
 21
45.4308754909239
 31
0.0
  0
SPLINE
  5
58
330
1F
100
AcDbEntity
  8
9
  6
________________
 62
     7
370
     0
100
AcDbSpline
210
0.0
220
0.0
230
1.0
 70
     8
 71
     3
 72
    14
 73
    10
 74
     0
 42
0.000000001
 43
0.0001
 40
2.884656765182859
 40
2.884656765182859
 40
2.884656765182859
 40
2.884656765182859
 40
2.887479386181314
 40
2.89494057322571
 40
2.902401760270106
 40
2.909862947314502
 40
2.917324134358899
 40
2.924785321403295
 40
2.925577564182929
 40
2.925577564182929
 40
2.925577564182929
 40
2.925577564182929
 10
1144.880769816775
 20
6.477706571815713
 30
0.0
 10
1144.823283306115
 20
6.477444329977544
 30
0.0
 10
1144.613839586604
 20
6.732436555897114
 30
0.0
 10
1144.252438658244
 20
8.787630902781
 30
0.0
 10
1143.796567031694
 20
14.12521337803425
 30
0.0
 10
1143.340695405144
 20
21.77302455824066
 30
0.0
 10
1142.884823778594
 20
31.10788843072986
 30
0.0
 10
1142.564774260567
 20
38.31192369455365
 30
0.0
 10
1142.396681951389
 20
42.11394582294861
 30
0.0
 10
1142.380546851061
 20
42.47890144850614
 30
0.0
  0
SPLINE
  5
59
330
1F
100
AcDbEntity
  8
9
  6
________________
 62
     7
370
     0
100
AcDbSpline
210
0.0
220
0.0
230
1.0
 70
     8
 71
     3
 72
    18
 73
    14
 74
     0
 42
0.000000001
 43
0.0001
 40
2.720987984164061
 40
2.720987984164061
 40
2.720987984164061
 40
2.720987984164061
 40
2.723333271204599
 40
2.730794458248995
 40
2.738255645293391
 40
2.745716832337787
 40
2.753178019382183
 40
2.760639206426579
 40
2.768100393470975
 40
2.775561580515372
 40
2.783022767559768
 40
2.790483954604164
 40
2.796428410575692
 40
2.796428410575692
 40
2.796428410575692
 40
2.796428410575692
 10
1154.880780937596
 20
6.477615042769203
 30
0.0
 10
1154.833015981362
 20
6.477340782947927
 30
0.0
 10
1154.633293816278
 20
6.679152842017505
 30
0.0
 10
1154.281614442343
 20
8.536042188964803
 30
0.0
 10
1153.825742815794
 20
13.70873124359371
 30
0.0
 10
1153.369871189243
 20
21.22558572961516
 30
0.0
 10
1152.913999562693
 20
30.47410053987676
 30
0.0
 10
1152.458127936144
 20
40.70066755739426
 30
0.0
 10
1152.002256309594
 20
51.07198283321875
 30
0.0
 10
1151.546384683043
 20
60.74294771789
 30
0.0
 10
1151.090513056494
 20
68.92553107498323
 30
0.0
 10
1150.665531718451
 20
74.54455571181434
 30
0.0
 10
1150.392507589258
 20
76.73064921739034
 30
0.0
 10
1150.271440668916
 20
77.39684763375871
 30
0.0
  0
SPLINE
  5
5A
330
1F
100
AcDbEntity
  8
9
  6
________________
 62
     7
370
     0
100
AcDbSpline
210
0.0
220
0.0
230
1.0
 70
     8
 71
     3
 72
    18
 73
    14
 74
     0
 42
0.000000001
 43
0.0001
 40
2.557320435349915
 40
2.557320435349915
 40
2.557320435349915
 40
2.557320435349915
 40
2.559187156227883
 40
2.566648343272279
 40
2.574109530316675
 40
2.581570717361072
 40
2.589031904405468
 40
2.596493091449864
 40
2.60395427849426
 40
2.611415465538656
 40
2.618876652583052
 40
2.626337839627448
 40
2.63275714486055
 40
2.63275714486055
 40
2.63275714486055
 40
2.63275714486055
 10
1164.880716771853
 20
6.477498733824236
 30
0.0
 10
1164.842698465566
 20
6.477291845215532
 30
0.0
 10
1164.652722950429
 20
6.630096584680049
 30
0.0
 10
1164.310790226442
 20
8.295859059855303
 30
0.0
 10
1163.854918599892
 20
13.30191645673851
 30
0.0
 10
1163.399046973342
 20
20.68528827507165
 30
0.0
 10
1162.943175346792
 20
29.84434614022655
 30
0.0
 10
1162.487303720242
 20
40.03277126559634
 30
0.0
 10
1162.031432093693
 20
50.42036766498217
 30
0.0
 10
1161.575560467142
 20
60.16071003409078
 30
0.0
 10
1161.119688840592
 20
68.46011406553171
 30
0.0
 10
1160.68503655234
 20
74.35454817146565
 30
0.0
 10
1160.402341472938
 20
76.67642015512519
 30
0.0
 10
1160.271603602385
 20
77.3960669811232
 30
0.0
  0
SPLINE
  5
5B
330
1F
100
AcDbEntity
  8
9
  6
________________
 62
     7
370
     0
100
AcDbSpline
210
0.0
220
0.0
230
1.0
 70
     8
 71
     3
 72
    18
 73
    14
 74
     0
 42
0.000000001
 43
0.0001
 40
2.393653674843159
 40
2.393653674843159
 40
2.393653674843159
 40
2.393653674843159
 40
2.395041041251168
 40
2.402502228295564
 40
2.40996341533996
 40
2.417424602384356
 40
2.424885789428752
 40
2.432346976473148
 40
2.439808163517545
 40
2.447269350561941
 40
2.454730537606337
 40
2.462191724650733
 40
2.469086912576891
 40
2.469086912576891
 40
2.469086912576891
 40
2.469086912576891
 10
1174.880604441257
 20
6.477372128731236
 30
0.0
 10
1174.852348839868
 20
6.477261870253492
 30
0.0
 10
1174.67213602963
 20
6.585179936926213
 30
0.0
 10
1174.339966010541
 20
8.067162226901438
 30
0.0
 10
1173.884094383992
 20
12.90490572403705
 30
0.0
 10
1173.428222757441
 20
20.15231375686499
 30
0.0
 10
1172.972351130892
 20
29.21883685526175
 30
0.0
 10
1172.516479504342
 20
39.36569635692646
 30
0.0
 10
1172.060607877791
 20
49.76608321854414
 30
0.0
 10
1171.604736251242
 20
59.5725299148417
 30
0.0
 10
1171.148864624692
 20
67.98596567816405
 30
0.0
 10
1170.704520338993
 20
74.16064245772444
 30
0.0
 10
1170.412133262145
 20
76.62259103497054
 30
0.0
 10
1170.271703394146
 20
77.39560851526676
 30
0.0
  0
SPLINE
  5
5C
330
1F
100
AcDbEntity
  8
9
  6
________________
 62
     7
370
     0
100
AcDbSpline
210
0.0
220
0.0
230
1.0
 70
     8
 71
     3
 72
    18
 73
    14
 74
     0
 42
0.000000001
 43
0.0001
 40
2.229987257316159
 40
2.229987257316159
 40
2.229987257316159
 40
2.229987257316159
 40
2.230894926274452
 40
2.238356113318849
 40
2.245817300363244
 40
2.253278487407641
 40
2.260739674452037
 40
2.268200861496433
 40
2.275662048540829
 40
2.283123235585225
 40
2.290584422629621
 40
2.298045609674018
 40
2.305419510278332
 40
2.305419510278332
 40
2.305419510278332
 40
2.305419510278332
 10
1184.880471154916
 20
6.477254021262771
 30
0.0
 10
1184.861985243674
 20
6.477228760471798
 30
0.0
 10
1184.691542123582
 20
6.544330892266574
 30
0.0
 10
1184.36914179464
 20
7.850028541683026
 30
0.0
 10
1183.913270168091
 20
12.51783245748854
 30
0.0
 10
1183.45739854154
 20
19.62684127644274
 30
0.0
 10
1183.00152691499
 20
28.59778288193155
 30
0.0
 10
1182.54565528844
 20
38.69966699610018
 30
0.0
 10
1182.08978366189
 20
49.10934936049597
 30
0.0
 10
1181.633912035341
 20
58.97860501295058
 30
0.0
 10
1181.17804040879
 20
67.50324524631858
 30
0.0
 10
1180.723946489156
 20
73.96335598025516
 30
0.0
 10
1180.421809778371
 20
76.56983560040246
 30
0.0
 10
1180.271630276437
 20
77.39605263765401
 30
0.0
  0
ARC
  5
5D
330
1F
100
AcDbEntity
  8
9
  6
________________
 62
     7
370
     0
100
AcDbCircle
 10
-1215.305688514222
 20
7.043656993616085
 30
0.0
 40
0.7077346771596789
210
0.0
220
0.0
230
-1.0
100
AcDbArc
 50
306.8312104402459
 51
0.0225701926863735
  0
SPLINE
  5
5E
330
1F
100
AcDbEntity
  8
9
  6
________________
 62
     7
370
     0
100
AcDbSpline
210
0.0
220
0.0
230
1.0
 70
     8
 71
     3
 72
    18
 73
    14
 74
     0
 42
0.000000001
 43
0.0001
 40
1.575298745803296
 40
1.575298745803296
 40
1.575298745803296
 40
1.575298745803296
 40
1.581771653411982
 40
1.589232840456378
 40
1.596694027500774
 40
1.604155214545171
 40
1.611616401589567
 40
1.619077588633963
 40
1.626538775678359
 40
1.633999962722755
 40
1.641461149767151
 40
1.648922336811548
 40
1.650739654958805
 40
1.650739654958805
 40
1.650739654958805
 40
1.650739654958805
 10
1224.881333598258
 20
6.477275753118246
 30
0.0
 10
1224.749504042518
 20
6.47645581715274
 30
0.0
 10
1224.465717277927
 20
7.27393907307191
 30
0.0
 10
1224.029973304486
 20
11.07146450392758
 30
0.0
 10
1223.574101677937
 20
17.60346428669066
 30
0.0
 10
1223.118230051387
 20
26.16227017397261
 30
0.0
 10
1222.662358424837
 20
36.05047444997504
 30
0.0
 10
1222.206486798287
 20
46.46234439353317
 30
0.0
 10
1221.750615171737
 20
56.54947678927346
 30
0.0
 10
1221.294743545187
 20
65.48992941117459
 30
0.0
 10
1220.838871918637
 20
72.55519635276337
 30
0.0
 10
1220.497945348366
 20
76.00608562003572
 30
0.0
 10
1220.308975986944
 20
77.19023530807725
 30
0.0
 10
1220.271963834373
 20
77.39386449922101
 30
0.0
  0
SPLINE
  5
5F
330
1F
100
AcDbEntity
  8
9
  6
________________
 62
     7
370
     0
100
AcDbSpline
210
0.0
220
0.0
230
1.0
 70
     8
 71
     3
 72
    18
 73
    14
 74
     0
 42
0.000000001
 43
0.0001
 40
1.41163155850196
 40
1.41163155850196
 40
1.41163155850196
 40
1.41163155850196
 40
1.417625538435266
 40
1.425086725479662
 40
1.432547912524058
 40
1.440009099568455
 40
1.447470286612851
 40
1.454931473657247
 40
1.462392660701643
 40
1.469853847746039
 40
1.477315034790435
 40
1.484776221834832
 40
1.487073365137661
 40
1.487073365137661
 40
1.487073365137661
 40
1.487073365137661
 10
1234.881247344417
 20
6.477395906325574
 30
0.0
 10
1234.759171801323
 20
6.476849016603579
 30
0.0
 10
1234.48513904938
 20
7.189028409485251
 30
0.0
 10
1234.059149088586
 20
10.73596136331252
 30
0.0
 10
1233.603277462036
 20
17.11809822357773
 30
0.0
 10
1233.147405835486
 20
25.56659086875698
 30
0.0
 10
1232.691534208936
 20
35.39302037275042
 30
0.0
 10
1232.235662582386
 20
45.79668768418446
 30
0.0
 10
1231.779790955836
 20
55.92985797285559
 30
0.0
 10
1231.323919329286
 20
64.96683765044206
 30
0.0
 10
1230.868047702736
 20
72.17125537756935
 30
0.0
 10
1230.517348841415
 20
75.8521758142398
 30
0.0
 10
1230.318607188944
 20
77.13719732086672
 30
0.0
 10
1230.271822745322
 20
77.39452764318824
 30
0.0
  0
SPLINE
  5
60
330
1F
100
AcDbEntity
  8
9
  6
________________
 62
     7
370
     0
100
AcDbSpline
210
0.0
220
0.0
230
1.0
 70
     8
 71
     3
 72
    18
 73
    14
 74
     0
 42
0.000000001
 43
0.0001
 40
1.247963973940598
 40
1.247963973940598
 40
1.247963973940598
 40
1.247963973940598
 40
1.25347942345855
 40
1.260940610502946
 40
1.268401797547343
 40
1.275862984591739
 40
1.283324171636135
 40
1.290785358680531
 40
1.298246545724927
 40
1.305707732769323
 40
1.31316891981372
 40
1.320630106858116
 40
1.323405484106605
 40
1.323405484106605
 40
1.323405484106605
 40
1.323405484106605
 10
1244.881185362796
 20
6.477521216439554
 30
0.0
 10
1244.768855741609
 20
6.477099117411774
 30
0.0
 10
1244.504568911572
 20
7.108301559014082
 30
0.0
 10
1244.088324872685
 20
10.41112454371935
 30
0.0
 10
1243.632453246135
 20
16.64125381996132
 30
0.0
 10
1243.176581619585
 20
24.97659418064158
 30
0.0
 10
1242.720709993035
 20
34.73794682654538
 30
0.0
 10
1242.264838366485
 20
45.12991544403498
 30
0.0
 10
1241.808966739935
 20
55.3057184619869
 30
0.0
 10
1241.353095113386
 20
64.43618839691882
 30
0.0
 10
1240.897223486836
 20
71.77733592773257
 30
0.0
 10
1240.536784741615
 20
75.69397107756271
 30
0.0
 10
1240.328303205245
 20
77.083754860891
 30
0.0
 10
1240.271778877725
 20
77.39468031601197
 30
0.0
  0
SPLINE
  5
61
330
1F
100
AcDbEntity
  8
9
  6
________________
 62
     7
370
     0
100
AcDbSpline
210
0.0
220
0.0
230
1.0
 70
     8
 71
     3
 72
    18
 73
    14
 74
     0
 42
0.000000001
 43
0.0001
 40
1.084295774274051
 40
1.084295774274051
 40
1.084295774274051
 40
1.084295774274051
 40
1.089333308481834
 40
1.096794495526231
 40
1.104255682570626
 40
1.111716869615023
 40
1.119178056659419
 40
1.126639243703815
 40
1.134100430748211
 40
1.141561617792608
 40
1.149022804837004
 40
1.1564839918814
 40
1.159737160313712
 40
1.159737160313712
 40
1.159737160313712
 40
1.159737160313712
 10
1254.881160963532
 20
6.477633925021861
 30
0.0
 10
1254.7785647368
 20
6.477213316306067
 30
0.0
 10
1254.524011301217
 20
7.031708439379031
 30
0.0
 10
1254.117500656784
 20
10.0970632037327
 30
0.0
 10
1253.661629030235
 20
16.17309131525181
 30
0.0
 10
1253.205757403685
 20
24.39247837287632
 30
0.0
 10
1252.749885777135
 20
34.08547394312157
 30
0.0
 10
1252.294014150584
 20
44.4622517360913
 30
0.0
 10
1251.838142524035
 20
54.6772679933155
 30
0.0
 10
1251.382270897485
 20
63.89815997066603
 30
0.0
 10
1250.926399270935
 20
71.3735703764552
 30
0.0
 10
1250.556229659262
 20
75.53168138980959
 30
0.0
 10
1250.33801725644
 20
77.03019755301207
 30
0.0
 10
1250.271762062467
 20
77.39471820391145
 30
0.0
  0
SPLINE
  5
62
330
1F
100
AcDbEntity
  8
9
  6
________________
 62
     7
370
     0
100
AcDbSpline
210
0.0
220
0.0
230
1.0
 70
     8
 71
     3
 72
    18
 73
    14
 74
     0
 42
0.000000001
 43
0.0001
 40
0.9206267698521113
 40
0.9206267698521113
 40
0.9206267698521113
 40
0.9206267698521113
 40
0.9251871935051184
 40
0.9326483805495145
 40
0.9401095675939107
 40
0.9475707546383068
 40
0.9550319416827029
 40
0.9624931287270991
 40
0.9699543157714954
 40
0.9774155028158915
 40
0.9848766898602878
 40
0.992337876904684
 40
0.9960709030470033
 40
0.9960709030470033
 40
0.9960709030470033
 40
0.9960709030470033
 10
1264.881185734079
 20
6.477720563961752
 30
0.0
 10
1264.788306511864
 20
6.477207200503418
 30
0.0
 10
1264.543470080799
 20
6.959211390417101
 30
0.0
 10
1264.146676440884
 20
9.793882880932332
 30
0.0
 10
1263.690804814334
 20
15.71376803138188
 30
0.0
 10
1263.234933187784
 20
23.81443973249325
 30
0.0
 10
1262.779061561234
 20
33.43582098031091
 30
0.0
 10
1262.323189934684
 20
43.79392092292913
 30
0.0
 10
1261.867318308134
 20
54.04471775214981
 30
0.0
 10
1261.411446681584
 20
63.35293317145235
 30
0.0
 10
1260.955575055034
 20
70.9600944056347
 30
0.0
 10
1260.575632489296
 20
75.36587171357431
 30
0.0
 10
1260.347647132408
 20
76.97724552541624
 30
0.0
 10
1260.27161898437
 20
77.39549026764003
 30
0.0
  0
SPLINE
  5
63
330
1F
100
AcDbEntity
  8
9
  6
________________
 62
     7
370
     0
100
AcDbSpline
210
0.0
220
0.0
230
1.0
 70
     8
 71
     3
 72
    18
 73
    14
 74
     0
 42
0.000000001
 43
0.0001
 40
0.7569582893837618
 40
0.7569582893837618
 40
0.7569582893837618
 40
0.7569582893837618
 40
0.7610410785284046
 40
0.7685022655728008
 40
0.7759634526171969
 40
0.7834246396615928
 40
0.790885826705989
 40
0.798347013750385
 40
0.8058082007947811
 40
0.8132693878391772
 40
0.8207305748835733
 40
0.8281917619279694
 40
0.8324025392420815
 40
0.8324025392420815
 40
0.8324025392420815
 40
0.8324025392420815
 10
1274.881178491546
 20
6.477771386907325
 30
0.0
 10
1274.798026944875
 20
6.477210300844041
 30
0.0
 10
1274.562918189354
 20
6.890988849891006
 30
0.0
 10
1274.175852224983
 20
9.501685456426378
 30
0.0
 10
1273.719980598433
 20
15.26343831994488
 30
0.0
 10
1273.264108971883
 20
23.24267250434668
 30
0.0
 10
1272.808237345333
 20
32.78920624833776
 30
0.0
 10
1272.352365718783
 20
43.12514759130183
 30
0.0
 10
1271.896494092233
 20
53.40828030149371
 30
0.0
 10
1271.440622465683
 20
62.80069121799804
 30
0.0
 10
1270.984750839133
 20
70.53704696027255
 30
0.0
 10
1270.595078221842
 20
75.19555256227162
 30
0.0
 10
1270.357362813401
 20
76.92372371045866
 30
0.0
 10
1270.271604613809
 20
77.39559510040867
 30
0.0
  0
SPLINE
  5
64
330
1F
100
AcDbEntity
  8
9
  6
________________
 62
     7
370
     0
100
AcDbSpline
210
0.0
220
0.0
230
1.0
 70
     8
 71
     3
 72
    18
 73
    14
 74
     0
 42
0.000000001
 43
0.0001
 40
0.5932909359412292
 40
0.5932909359412292
 40
0.5932909359412292
 40
0.5932909359412292
 40
0.596894963551691
 40
0.6043561505960872
 40
0.6118173376404833
 40
0.6192785246848793
 40
0.6267397117292753
 40
0.6342008987736714
 40
0.6416620858180675
 40
0.6491232728624636
 40
0.6565844599068597
 40
0.6640456469512558
 40
0.6687337256885083
 40
0.6687337256885083
 40
0.6687337256885083
 40
0.6687337256885083
 10
1284.881102388778
 20
6.477780808510413
 30
0.0
 10
1284.807701471063
 20
6.477259817256455
 30
0.0
 10
1284.582343344497
 20
6.827083479967806
 30
0.0
 10
1284.205028009082
 20
9.220569120614947
 30
0.0
 10
1283.749156382532
 20
14.82225351031716
 30
0.0
 10
1283.293284755982
 20
22.67736882583357
 30
0.0
 10
1282.837413129432
 20
32.14584703645095
 30
0.0
 10
1282.381541502882
 20
42.45615647666329
 30
0.0
 10
1281.925669876332
 20
52.76816951060946
 30
0.0
 10
1281.469798249782
 20
62.2416196864029
 30
0.0
 10
1281.013926623232
 20
70.1045702017791
 30
0.0
 10
1280.61453311413
 20
75.0210733337687
 30
0.0
 10
1280.367096813878
 20
76.87009529632127
 30
0.0
 10
1280.271617722475
 20
77.39558668233768
 30
0.0
  0
SPLINE
  5
65
330
1F
100
AcDbEntity
  8
9
  6
________________
 62
     7
370
     0
100
AcDbSpline
210
0.0
220
0.0
230
1.0
 70
     8
 71
     3
 72
    18
 73
    14
 74
     0
 42
0.000000001
 43
0.0001
 40
0.4296242289231058
 40
0.4296242289231058
 40
0.4296242289231058
 40
0.4296242289231058
 40
0.4327488485749772
 40
0.4402100356193734
 40
0.4476712226637695
 40
0.4551324097081656
 40
0.4625935967525617
 40
0.4700547837969578
 40
0.4775159708413539
 40
0.48497715788575
 40
0.492438344930146
 40
0.4998995319745422
 40
0.5050676227998435
 40
0.5050676227998435
 40
0.5050676227998435
 40
0.5050676227998435
 10
1294.880986790077
 20
6.477747961496194
 30
0.0
 10
1294.817349666628
 20
6.477312010822966
 30
0.0
 10
1294.60175533433
 20
6.767388093682672
 30
0.0
 10
1294.234203793181
 20
8.950628340194362
 30
0.0
 10
1293.778332166631
 20
14.3903618588125
 30
0.0
 10
1293.322460540081
 20
22.11871866233278
 30
0.0
 10
1292.866588913532
 20
31.50595953991159
 30
0.0
 10
1292.410717286981
 20
41.78717238765198
 30
0.0
 10
1291.954845660431
 20
52.12460048315454
 30
0.0
 10
1291.498974033881
 20
61.67590644778661
 30
0.0
 10
1291.043102407331
 20
69.66280946020284
 30
0.0
 10
1290.633932800045
 20
74.84321856783488
 30
0.0
 10
1290.376720401609
 20
76.81734919638686
 30
0.0
 10
1290.271465212023
 20
77.39652091680493
 30
0.0
  0
SPLINE
  5
66
330
1F
100
AcDbEntity
  8
9
  6
________________
 62
     7
370
     0
100
AcDbSpline
210
0.0
220
0.0
230
1.0
 70
     8
 71
     3
 72
    18
 73
    14
 74
     0
 42
0.000000001
 43
0.0001
 40
0.2659576824971743
 40
0.2659576824971743
 40
0.2659576824971743
 40
0.2659576824971743
 40
0.2686027335982615
 40
0.2760639206426576
 40
0.2835251076870538
 40
0.29098629473145
 40
0.2984474817758461
 40
0.3059086688202423
 40
0.3133698558646385
 40
0.3208310429090346
 40
0.3282922299534308
 40
0.335753416997827
 40
0.3413972474218552
 40
0.3413972474218552
 40
0.3413972474218552
 40
0.3413972474218552
 10
1304.880861379341
 20
6.47767632327454
 30
0.0
 10
1304.826991320837
 20
6.477337890929961
 30
0.0
 10
1304.621164053484
 20
6.711811752335185
 30
0.0
 10
1304.26337957728
 20
8.691953826413522
 30
0.0
 10
1303.80750795073
 20
13.96790849885948
 30
0.0
 10
1303.351636324181
 20
21.56690974336689
 30
0.0
 10
1302.895764697631
 20
30.86975878734027
 30
0.0
 10
1302.43989307108
 20
41.11842013054506
 30
0.0
 10
1301.984021444531
 20
51.47778948489587
 30
0.0
 10
1301.528149817981
 20
61.10374160515629
 30
0.0
 10
1301.072278191431
 20
69.21191318539411
 30
0.0
 10
1300.653419501009
 20
74.66017417084258
 30
0.0
 10
1300.386518019438
 20
76.76332470542216
 30
0.0
 10
1300.271573746716
 20
77.3960389992297
 30
0.0
  0
LINE
  5
67
330
1F
100
AcDbEntity
  8
9
  6
________________
 62
     7
370
     0
100
AcDbLine
 10
1307.380546851062
 20
78.47650583231268
 30
0.0
 11
1307.380546851061
 21
71.60220175407555
 31
0.0
  0
SPLINE
  5
68
330
1F
100
AcDbEntity
  8
9
  6
________________
 62
     7
370
     0
100
AcDbSpline
210
0.0
220
0.0
230
1.0
 70
     8
 71
     3
 72
     9
 73
     5
 74
     0
 42
0.000000001
 43
0.0001
 40
2.802822774605212
 40
2.802822774605212
 40
2.802822774605212
 40
2.802822774605212
 40
2.805406328692956
 40
2.809214325645329
 40
2.809214325645329
 40
2.809214325645329
 40
2.809214325645329
 10
1146.380750941735
 20
78.47647063384417
 30
0.0
 10
1146.328133353441
 20
78.47672572294275
 30
0.0
 10
1146.197960734728
 20
78.3317010251949
 30
0.0
 10
1146.067788116015
 20
77.82474778057293
 30
0.0
 10
1145.990233085595
 20
77.39875493762946
 30
0.0
  0
SPLINE
  5
69
330
1F
100
AcDbEntity
  8
9
  6
________________
 62
     7
370
     0
100
AcDbSpline
210
0.0
220
0.0
230
1.0
 70
     8
 71
     3
 72
     9
 73
     5
 74
     0
 42
0.000000001
 43
0.0001
 40
2.720987983937933
 40
2.720987983937933
 40
2.720987983937933
 40
2.720987983937933
 40
2.723333271204599
 40
2.727391836585537
 40
2.727391836585537
 40
2.727391836585537
 40
2.727391836585537
 10
1151.380780951422
 20
6.47760698239231
 30
0.0
 10
1151.333015990582
 20
6.477332713123097
 30
0.0
 10
1151.202592832923
 20
6.609120636187654
 30
0.0
 10
1151.072169675263
 20
7.1045474870833
 30
0.0
 10
1150.989511478444
 20
7.559332975595176
 30
0.0
  0
SPLINE
  5
6A
330
1F
100
AcDbEntity
  8
9
  6
________________
 62
     7
370
     0
100
AcDbSpline
210
0.0
220
0.0
230
1.0
 70
     8
 71
     3
 72
     9
 73
     5
 74
     0
 42
0.000000001
 43
0.0001
 40
2.639154882044213
 40
2.639154882044213
 40
2.639154882044213
 40
2.639154882044213
 40
2.641260213716241
 40
2.645557789440097
 40
2.645557789440097
 40
2.645557789440097
 40
2.645557789440097
 10
1156.380707778606
 20
78.47657616428063
 30
0.0
 10
1156.337829839388
 20
78.47679353128986
 30
0.0
 10
1156.207425933064
 20
78.3584317139525
 30
0.0
 10
1156.07702202674
 20
77.87625308987481
 30
0.0
 10
1155.989496059634
 20
77.3947256782495
 30
0.0
  0
SPLINE
  5
6B
330
1F
100
AcDbEntity
  8
9
  6
________________
 62
     7
370
     0
100
AcDbSpline
210
0.0
220
0.0
230
1.0
 70
     8
 71
     3
 72
     9
 73
     5
 74
     0
 42
0.000000001
 43
0.0001
 40
2.557320435349915
 40
2.557320435349915
 40
2.557320435349915
 40
2.557320435349915
 40
2.559187156227883
 40
2.563726754564322
 40
2.563726754564322
 40
2.563726754564322
 40
2.563726754564322
 10
1161.380716771862
 20
6.477490673341954
 30
0.0
 10
1161.342698465575
 20
6.477283784686927
 30
0.0
 10
1161.212225072933
 20
6.582228662554042
 30
0.0
 10
1161.08175168029
 20
7.051633101906201
 30
0.0
 10
1160.989296593935
 20
7.560472649548997
 30
0.0
  0
SPLINE
  5
6C
330
1F
100
AcDbEntity
  8
9
  6
________________
 62
     7
370
     0
100
AcDbSpline
210
0.0
220
0.0
230
1.0
 70
     8
 71
     3
 72
     9
 73
     5
 74
     0
 42
0.000000001
 43
0.0001
 40
2.475487962119638
 40
2.475487962119638
 40
2.475487962119638
 40
2.475487962119638
 40
2.477114098739525
 40
2.481889829849424
 40
2.481889829849424
 40
2.481889829849424
 40
2.481889829849424
 10
1166.380605188292
 20
78.47669970658616
 30
0.0
 10
1166.347486707212
 20
78.47683095222233
 30
0.0
 10
1166.2171039751
 20
78.3853083490725
 30
0.0
 10
1166.086721242988
 20
77.92960850611551
 30
0.0
 10
1165.989456991957
 20
77.39457230350169
 30
0.0
  0
SPLINE
  5
6D
330
1F
100
AcDbEntity
  8
9
  6
________________
 62
     7
370
     0
100
AcDbSpline
210
0.0
220
0.0
230
1.0
 70
     8
 71
     3
 72
     9
 73
     5
 74
     0
 42
0.000000001
 43
0.0001
 40
2.393653674843159
 40
2.393653674843159
 40
2.393653674843159
 40
2.393653674843159
 40
2.395041041251168
 40
2.40005636204898
 40
2.40005636204898
 40
2.40005636204898
 40
2.40005636204898
 10
1171.380604441267
 20
6.477364068220623
 30
0.0
 10
1171.352348839878
 20
6.477253809718183
 30
0.0
 10
1171.221949418024
 20
6.555341802652784
 30
0.0
 10
1171.091549996169
 20
6.997893727082108
 30
0.0
 10
1170.989406175704
 20
7.559790728827481
 30
0.0
  0
SPLINE
  5
6E
330
1F
100
AcDbEntity
  8
9
  6
________________
 62
     7
370
     0
100
AcDbSpline
210
0.0
220
0.0
230
1.0
 70
     8
 71
     3
 72
     9
 73
     5
 74
     0
 42
0.000000001
 43
0.0001
 40
2.311821521856547
 40
2.311821521856547
 40
2.311821521856547
 40
2.311821521856547
 40
2.31296798376281
 40
2.31822389360476
 40
2.31822389360476
 40
2.31822389360476
 40
2.31822389360476
 10
1176.380473291105
 20
78.47682455589674
 30
0.0
 10
1176.35712403712
 20
78.47686687091992
 30
0.0
 10
1176.226731039988
 20
78.41210012278356
 30
0.0
 10
1176.096338042857
 20
77.98274253950541
 30
0.0
 10
1175.98929429971
 20
77.39377137310838
 30
0.0
  0
SPLINE
  5
6F
330
1F
100
AcDbEntity
  8
9
  6
________________
 62
     7
370
     0
100
AcDbSpline
210
0.0
220
0.0
230
1.0
 70
     8
 71
     3
 72
     9
 73
     5
 74
     0
 42
0.000000001
 43
0.0001
 40
2.22998725731616
 40
2.22998725731616
 40
2.22998725731616
 40
2.22998725731616
 40
2.230894926274452
 40
2.236386615814913
 40
2.236386615814913
 40
2.236386615814913
 40
2.236386615814913
 10
1181.380471154925
 20
6.47724596072572
 30
0.0
 10
1181.361985243683
 20
6.477220699929092
 30
0.0
 10
1181.23165361547
 20
6.528531260583351
 30
0.0
 10
1181.101321987256
 20
6.944221613124725
 30
0.0
 10
1180.989476270285
 20
7.559298553742225
 30
0.0
  0
SPLINE
  5
70
330
1F
100
AcDbEntity
  8
9
  6
________________
 62
     7
370
     0
100
AcDbSpline
210
0.0
220
0.0
230
1.0
 70
     8
 71
     3
 72
     9
 73
     5
 74
     0
 42
0.000000001
 43
0.0001
 40
2.148155085659861
 40
2.148155085659861
 40
2.148155085659861
 40
2.148155085659861
 40
2.148821868786094
 40
2.154555110838296
 40
2.154555110838296
 40
2.154555110838296
 40
2.154555110838296
 10
1186.380341145464
 20
78.47692991609175
 30
0.0
 10
1186.366761201392
 20
78.47691483114738
 30
0.0
 10
1186.236415995342
 20
78.43890241114946
 30
0.0
 10
1186.106070789291
 20
78.03633280264285
 30
0.0
 10
1185.989305527312
 20
77.39394929879057
 30
0.0
  0
ARC
  5
71
330
1F
100
AcDbEntity
  8
9
  6
________________
 62
     7
370
     0
100
AcDbCircle
 10
1217.497772370207
 20
77.46617058564377
 30
0.0
 40
1.506823367299641
100
AcDbArc
 50
137.8731023118219
 51
182.1672431556872
  0
ARC
  5
72
330
1F
100
AcDbEntity
  8
9
  6
________________
 62
     7
370
     0
100
AcDbCircle
 10
-1222.505705032171
 20
7.496492838296835
 30
0.0
 40
1.517574057180723
210
0.0
220
0.0
230
-1.0
100
AcDbArc
 50
317.808184103797
 51
2.367562010825623
  0
SPLINE
  5
73
330
1F
100
AcDbEntity
  8
9
  6
________________
 62
     7
370
     0
100
AcDbSpline
210
0.0
220
0.0
230
1.0
 70
     8
 71
     3
 72
     9
 73
     5
 74
     0
 42
0.000000001
 43
0.0001
 40
1.493480368645125
 40
1.493480368645125
 40
1.493480368645125
 40
1.493480368645125
 40
1.499698595923624
 40
1.499875310010707
 40
1.499875310010707
 40
1.499875310010707
 40
1.499875310010707
 10
1226.380360757731
 20
78.47679990054063
 30
0.0
 10
1226.253718112853
 20
78.47579032611299
 30
0.0
 10
1226.123476445556
 20
78.12272247504609
 30
0.0
 10
1225.99323477826
 20
77.41589491895361
 30
0.0
 10
1225.989635755842
 20
77.39609342565512
 30
0.0
  0
SPLINE
  5
74
330
1F
100
AcDbEntity
  8
9
  6
________________
 62
     7
370
     0
100
AcDbSpline
210
0.0
220
0.0
230
1.0
 70
     8
 71
     3
 72
     9
 73
     5
 74
     0
 42
0.000000001
 43
0.0001
 40
1.411631558275846
 40
1.411631558275846
 40
1.411631558275846
 40
1.411631558275846
 40
1.417625538435266
 40
1.418038358252218
 40
1.418038358252218
 40
1.418038358252218
 40
1.418038358252218
 10
1231.381247358242
 20
6.477387845882178
 30
0.0
 10
1231.259171810543
 20
6.476840932039561
 30
0.0
 10
1231.12868862653
 20
6.815951682407596
 30
0.0
 10
1230.998205442517
 20
7.510913028431966
 30
0.0
 10
1230.989797806202
 20
7.557161306130017
 30
0.0
  0
SPLINE
  5
75
330
1F
100
AcDbEntity
  8
9
  6
________________
 62
     7
370
     0
100
AcDbSpline
210
0.0
220
0.0
230
1.0
 70
     8
 71
     3
 72
     9
 73
     5
 74
     0
 42
0.000000001
 43
0.0001
 40
1.329808643009813
 40
1.329808643009813
 40
1.329808643009813
 40
1.329808643009813
 40
1.335552480946908
 40
1.336209005745259
 40
1.336209005745259
 40
1.336209005745259
 40
1.336209005745259
 10
1236.380551791898
 20
78.47667549427071
 30
0.0
 10
1236.26357073033
 20
78.47604411240704
 30
0.0
 10
1236.133218649472
 20
78.15040648833488
 30
0.0
 10
1236.002866568615
 20
77.46888672094492
 30
0.0
 10
1235.989495549324
 20
77.39526877075073
 30
0.0
  0
SPLINE
  5
76
330
1F
100
AcDbEntity
  8
9
  6
________________
 62
     7
370
     0
100
AcDbSpline
210
0.0
220
0.0
230
1.0
 70
     8
 71
     3
 72
     9
 73
     5
 74
     0
 42
0.000000001
 43
0.0001
 40
1.247963973714499
 40
1.247963973714499
 40
1.247963973714499
 40
1.247963973714499
 40
1.25347942345855
 40
1.254368441316609
 40
1.254368441316609
 40
1.254368441316609
 40
1.254368441316609
 10
1241.381185376619
 20
6.477513156014234
 30
0.0
 10
1241.268855750828
 20
6.477091034844472
 30
0.0
 10
1241.138420068784
 20
6.788613694029472
 30
0.0
 10
1241.007984386742
 20
7.457192424214394
 30
0.0
 10
1240.98987833049
 20
7.556796213030937
 30
0.0
  0
ARC
  5
77
330
1F
100
AcDbEntity
  8
9
  6
________________
 62
     7
370
     0
100
AcDbCircle
 10
1248.634618549394
 20
77.04970431902943
 30
0.0
 40
2.667614208872577
100
AcDbArc
 50
147.6642940676085
 51
172.5704797326092
  0
ARC
  5
78
330
1F
100
AcDbEntity
  8
9
  6
________________
 62
     7
370
     0
100
AcDbCircle
 10
-1253.478833696072
 20
7.848757580013974
 30
0.0
 40
2.50603932010236
210
0.0
220
0.0
230
-1.0
100
AcDbArc
 50
326.829592937922
 51
353.3234732771899
  0
ARC
  5
79
330
1F
100
AcDbEntity
  8
9
  6
________________
 62
     7
370
     0
100
AcDbCircle
 10
1258.34122324527
 20
77.15606145353885
 30
0.0
 40
2.363673586859777
100
AcDbArc
 50
146.0396486247472
 51
174.145655378206
  0
ARC
  5
7A
330
1F
100
AcDbEntity
  8
9
  6
________________
 62
     7
370
     0
100
AcDbCircle
 10
-1263.199700700987
 20
7.747817468267083
 30
0.0
 40
2.218144101688325
210
0.0
220
0.0
230
-1.0
100
AcDbArc
 50
325.0684055955477
 51
355.0931849352099
  0
ARC
  5
7B
330
1F
100
AcDbEntity
  8
9
  6
________________
 62
     7
370
     0
100
AcDbCircle
 10
1268.069222740792
 20
77.25458053679476
 30
0.0
 40
2.084177866257964
100
AcDbArc
 50
144.1101561456972
 51
176.0706415950975
  0
ARC
  5
7C
330
1F
100
AcDbEntity
  8
9
  6
________________
 62
     7
370
     0
100
AcDbCircle
 10
-1272.936699425886
 20
7.652504596680067
 30
0.0
 40
1.949272270836139
210
0.0
220
0.0
230
-1.0
100
AcDbArc
 50
322.939619006704
 51
357.2217894213054
  0
ARC
  5
7D
330
1F
100
AcDbEntity
  8
9
  6
________________
 62
     7
370
     0
100
AcDbCircle
 10
1277.816164157427
 20
77.3460570316703
 30
0.0
 40
1.82707634243955
100
AcDbArc
 50
141.7832777533584
 51
178.4210211438432
  0
ARC
  5
7E
330
1F
100
AcDbEntity
  8
9
  6
________________
 62
     7
370
     0
100
AcDbCircle
 10
-1282.691613705664
 20
7.563669919572722
 30
0.0
 40
1.701943743446611
210
0.0
220
0.0
230
-1.0
100
AcDbArc
 50
320.3546595530491
 51
359.8204510637233
  0
ARC
  5
7F
330
1F
100
AcDbEntity
  8
9
  6
________________
 62
     7
370
     0
100
AcDbCircle
 10
1287.579277296149
 20
77.43184452448423
 30
0.0
 40
1.589942354135109
100
AcDbArc
 50
138.931841037012
 51
181.2889498403389
  0
ARC
  5
80
330
1F
100
AcDbEntity
  8
9
  6
________________
 62
     7
370
     0
100
AcDbCircle
 10
-1292.462972550315
 20
7.480578318235563
 30
0.0
 40
1.475255247813622
210
0.0
220
0.0
230
-1.0
100
AcDbArc
 50
317.1741072094172
 51
3.008344933816034
  0
SPLINE
  5
81
330
1F
100
AcDbEntity
  8
9
  6
________________
 62
     7
370
     0
100
AcDbSpline
210
0.0
220
0.0
230
1.0
 70
     8
 71
     3
 72
     9
 73
     5
 74
     0
 42
0.000000001
 43
0.0001
 40
0.3477984424642562
 40
0.3477984424642562
 40
0.3477984424642562
 40
0.3477984424642562
 40
0.3506757910866193
 40
0.3541961908619446
 40
0.3541961908619446
 40
0.3541961908619446
 40
0.3541961908619446
 10
1296.380466650967
 20
78.4764200093308
 30
0.0
 10
1296.321865537908
 20
78.47642680782526
 30
0.0
 10
1296.19156670159
 20
78.31413646495395
 30
0.0
 10
1296.061267865272
 20
77.78965227738215
 30
0.0
 10
1295.989570142012
 20
77.3951170935555
 30
0.0
  0
SPLINE
  5
82
330
1F
100
AcDbEntity
  8
9
  6
________________
 62
     7
370
     0
100
AcDbSpline
210
0.0
220
0.0
230
1.0
 70
     8
 71
     3
 72
     9
 73
     5
 74
     0
 42
0.000000001
 43
0.0001
 40
0.2659576824971924
 40
0.2659576824971924
 40
0.2659576824971924
 40
0.2659576824971924
 40
0.2686027335982615
 40
0.2723416832021994
 40
0.2723416832021994
 40
0.2723416832021994
 40
0.2723416832021994
 10
1301.380861379349
 20
6.477668262832033
 30
0.0
 10
1301.326991320846
 20
6.47732983041252
 30
0.0
 10
1301.196972474963
 20
6.625444451316755
 30
0.0
 10
1301.06695362908
 20
7.134549816099317
 30
0.0
 10
1300.9908048417
 20
7.552233551168783
 30
0.0
  0
SPLINE
  5
83
330
1F
100
AcDbEntity
  8
9
  6
________________
 62
     7
370
     0
100
AcDbSpline
210
0.0
220
0.0
230
1.0
 70
     8
 71
     3
 72
     9
 73
     5
 74
     0
 42
0.000000001
 43
0.0001
 40
0.184131319782314
 40
0.184131319782314
 40
0.184131319782314
 40
0.184131319782314
 40
0.1865296761099036
 40
0.1905283047015813
 40
0.1905283047015813
 40
0.1905283047015813
 40
0.1905283047015813
 10
1306.380376448941
 20
78.47650813563001
 30
0.0
 10
1306.33153066459
 20
78.47650311817226
 30
0.0
 10
1306.201247377547
 20
78.34111378857617
 30
0.0
 10
1306.070964090504
 20
77.84294101045887
 30
0.0
 10
1305.989526587811
 20
77.39487464265301
 30
0.0
  0
LINE
  5
84
330
1F
100
AcDbEntity
  8
9
  6
________________
 62
     7
370
     0
100
AcDbLine
 10
1142.380546851062
 20
6.47770081180122
 30
0.0
 11
1142.380546851061
 21
42.47890144850614
 31
0.0
  0
SPLINE
  5
85
330
1F
100
AcDbEntity
  8
9
  6
________________
 62
     7
370
     0
100
AcDbSpline
210
0.0
220
0.0
230
1.0
 70
     8
 71
     3
 72
    10
 73
     6
 74
     0
 42
0.000000001
 43
0.0001
 40
0.1677616709340883
 40
0.1677616709340883
 40
0.1677616709340883
 40
0.1677616709340883
 40
0.1716073020211114
 40
0.1790684890655075
 40
0.184131319782314
 40
0.184131319782314
 40
0.184131319782314
 40
0.184131319782314
 10
1307.380546851061
 20
71.60220175407738
 30
0.0
 10
1307.30222535037
 20
72.64343381883361
 30
0.0
 10
1307.07194664083
 20
75.39484085598671
 30
0.0
 10
1306.73855650679
 20
77.91705850228581
 30
0.0
 10
1306.48348787344
 20
78.47651872727515
 30
0.0
 10
1306.380376448941
 20
78.47650813563001
 30
0.0
  0
LWPOLYLINE
  5
86
330
1F
100
AcDbEntity
  8
9
  6
________________
 62
     7
370
     0
100
AcDbPolyline
 90
        7
 70
     0
 43
0.0
 10
1300.52087942347
 20
10.13152189445291
 42
-0.0164002587835188
 10
1298.144472182471
 20
48.65898585139698
 42
0.0231101511248218
 10
1296.26054606211
 20
75.2991439041311
 10
1296.193085470007
 20
75.55380749342574
 10
1296.124549832572
 20
75.75169569667167
 10
1296.055990175058
 20
75.88793106451774
 10
1295.987439591214
 20
75.96213481296553
  0
LWPOLYLINE
  5
87
330
1F
100
AcDbEntity
  8
9
  6
________________
 62
     7
370
     0
100
AcDbPolyline
 90
        8
 70
     0
 43
0.0
 10
1160.520447814398
 20
10.13378690765424
 42
-0.0164737958455272
 10
1158.245467140318
 20
46.55954649083012
 42
0.0233231110695239
 10
1156.240546933858
 20
75.3808226409721
 10
1156.188789727256
 20
75.56810586761424
 10
1156.142055288348
 20
75.70714260550929
 10
1156.095274962812
 20
75.81757147647008
 10
1156.041395072241
 20
75.90899963098136
 10
1155.987430422495
 20
75.96213481296552
  0
LWPOLYLINE
  5
88
330
1F
100
AcDbEntity
  8
9
  6
________________
 62
     7
370
     0
100
AcDbPolyline
 90
        9
 70
     0
 43
0.0
 10
1170.520563704951
 20
10.13305389396579
 42
-0.0175262604987137
 10
1168.267719025822
 20
46.09420330666559
 42
0.0221363312561545
 10
1166.264068374507
 20
75.28424725873064
 10
1166.21954066426
 20
75.46110274983039
 10
1166.174879366426
 20
75.6125422811794
 10
1166.130213989666
 20
75.73785983737297
 10
1166.059029288942
 20
75.88329915826323
 10
1165.987662532798
 20
75.9619800021458
 10
1165.939866711373
 20
75.9770635124119
  0
LWPOLYLINE
  5
89
330
1F
100
AcDbEntity
  8
9
  6
________________
 62
     7
370
     0
100
AcDbPolyline
 90
        8
 70
     0
 43
0.0
 10
1180.520574664866
 20
10.13288119355815
 42
-0.0163844976536966
 10
1178.134692610268
 20
48.86029426671559
 42
0.0239343083390275
 10
1176.233246562345
 20
75.4094785293348
 10
1176.181715378241
 20
75.59111721291305
 10
1176.129954915995
 20
75.73853354439
 10
1176.078175517264
 20
75.85074997364909
 10
1175.984558949393
 20
75.96386438744526
 10
1175.939846685802
 20
75.97706351243455
  0
LWPOLYLINE
  5
8A
330
1F
100
AcDbEntity
  8
9
  6
________________
 62
     7
370
     0
100
AcDbPolyline
 90
        7
 70
     0
 43
0.0
 10
1230.520837019719
 20
10.13127843854838
 42
-0.0172771775422639
 10
1228.220350249689
 20
47.08254921297427
 42
0.0230595584052532
 10
1226.239455618951
 20
75.38552828178973
 10
1226.197519087643
 20
75.53921219170174
 10
1226.121278605663
 20
75.7596926628247
 10
1226.044856841663
 20
75.90414148421279
 10
1225.939846745491
 20
75.97706351245021
  0
LWPOLYLINE
  5
8B
330
1F
100
AcDbEntity
  8
9
  6
________________
 62
     7
370
     0
100
AcDbPolyline
 90
        6
 70
     0
 43
0.0
 10
1240.521092295671
 20
10.12998105162695
 42
-0.0163954754164083
 10
1238.161775219262
 20
48.30156936681104
 42
0.0222347758997934
 10
1236.28366114431
 20
75.19877256408475
 42
0.063702326398804
 10
1236.071680780462
 20
75.8621606905591
 10
1235.952749541726
 20
75.9759647457047
 10
1235.939869519722
 20
75.97706351244847
  0
LWPOLYLINE
  5
8C
330
1F
100
AcDbEntity
  8
9
  6
________________
 62
     7
370
     0
100
AcDbPolyline
 90
        8
 70
     0
 43
0.0
 10
1250.521145812336
 20
10.12980030913735
 42
-0.0161461781925766
 10
1248.213276141414
 20
47.2309250609302
 42
0.0224946853617769
 10
1246.260216958527
 20
75.3009456950793
 10
1246.212315497543
 20
75.48751995941508
 10
1246.155595505403
 20
75.66975315636834
 10
1246.098881973591
 20
75.80990526938882
 10
1246.041913370956
 20
75.90816292222638
 10
1245.93988625561
 20
75.97706351243352
  0
LWPOLYLINE
  5
8D
330
1F
100
AcDbEntity
  8
9
  6
________________
 62
     7
370
     0
100
AcDbPolyline
 90
        8
 70
     0
 43
0.0
 10
1260.521085420083
 20
10.13023795296122
 42
-0.0186592470702363
 10
1258.374849916178
 20
43.84421839419291
 42
0.0202500577084312
 10
1256.283518817628
 20
75.19938424908327
 10
1256.215629205554
 20
75.47550638137847
 10
1256.147607191841
 20
75.6919991094958
 10
1256.079296631829
 20
75.84850736086013
 10
1256.02017407921
 20
75.93440268121692
 10
1255.939906585771
 20
75.97706351244672
  0
LWPOLYLINE
  5
8E
330
1F
100
AcDbEntity
  8
9
  6
________________
 62
     7
370
     0
100
AcDbPolyline
 90
        8
 70
     0
 43
0.0
 10
1270.521159225686
 20
10.12992142587132
 42
-0.0169692976438477
 10
1268.210201807946
 20
47.29555117864302
 42
0.0237402665695958
 10
1266.23362353259
 20
75.40806311229069
 10
1266.174430730755
 20
75.61378283586262
 10
1266.114938381076
 20
75.77447838018674
 10
1266.055481890465
 20
75.88868450665866
 10
1265.952413141295
 20
75.97603024083804
 10
1265.939918587686
 20
75.97706351244803
  0
LWPOLYLINE
  5
8F
330
1F
100
AcDbEntity
  8
9
  6
________________
 62
     7
370
     0
100
AcDbPolyline
 90
        6
 70
     0
 43
0.0
 10
1280.520936901146
 20
10.13119805088995
 42
-0.0167942111272488
 10
1278.264254024479
 20
46.16691084374727
 42
0.0196887940318344
 10
1276.315066792333
 20
75.0506571582884
 42
0.0599454440125329
 10
1276.087707650903
 20
75.83259612037702
 10
1276.028253733971
 20
75.92544161993081
 10
1275.939922616585
 20
75.97706351245718
  0
LWPOLYLINE
  5
90
330
1F
100
AcDbEntity
  8
9
  6
________________
 62
     7
370
     0
100
AcDbPolyline
 90
        7
 70
     0
 43
0.0
 10
1150.520831505275
 20
10.13175652021316
 42
-0.0167128760370458
 10
1148.168309199663
 20
48.16523535484138
 42
0.0222075702012942
 10
1146.276642653875
 20
75.229639411623
 10
1146.205317983769
 20
75.51203857577009
 10
1146.132711657929
 20
75.7313679711607
 10
1146.060070568641
 20
75.88155624301625
 10
1145.987438174096
 20
75.96213481296553
  0
SPLINE
  5
91
330
1F
100
AcDbEntity
  8
9
  6
________________
 62
     7
370
     0
100
AcDbSpline
210
0.0
220
0.0
230
1.0
 70
     8
 71
     3
 72
    18
 73
    14
 74
     0
 42
0.000000001
 43
0.0001
 40
2.727391836585537
 40
2.727391836585537
 40
2.727391836585537
 40
2.727391836585537
 40
2.730794458248995
 40
2.738255645293391
 40
2.745716832337787
 40
2.753178019382183
 40
2.760639206426579
 40
2.768100393470975
 40
2.775561580515372
 40
2.783022767559768
 40
2.790483954604164
 40
2.79794514164856
 40
2.802822774605212
 40
2.802822774605212
 40
2.802822774605212
 40
2.802822774605212
 10
1150.989511478444
 20
7.559332975595176
 30
0.0
 10
1150.920212466413
 20
7.940616214915257
 30
0.0
 10
1150.698956245533
 20
9.473941712362599
 30
0.0
 10
1150.325742815803
 20
13.70872480222047
 30
0.0
 10
1149.869871189253
 20
21.22558097130319
 30
0.0
 10
1149.413999562702
 20
30.47409785235343
 30
0.0
 10
1148.958127936153
 20
40.70066715965035
 30
0.0
 10
1148.502256309603
 20
51.07198475766411
 30
0.0
 10
1148.046384683052
 20
60.74295180771265
 30
0.0
 10
1147.590513056503
 20
68.92553699692716
 30
0.0
 10
1147.134641429953
 20
74.95298866376886
 30
0.0
 10
1146.731387391697
 20
77.9439026591069
 30
0.0
 10
1146.480090562291
 20
78.47598903719405
 30
0.0
 10
1146.380750941735
 20
78.47647063384417
 30
0.0
  0
SPLINE
  5
92
330
1F
100
AcDbEntity
  8
9
  6
________________
 62
     7
370
     0
100
AcDbSpline
210
0.0
220
0.0
230
1.0
 70
     8
 71
     3
 72
    18
 73
    14
 74
     0
 42
0.000000001
 43
0.0001
 40
2.563726754564322
 40
2.563726754564322
 40
2.563726754564322
 40
2.563726754564322
 40
2.566648343272279
 40
2.574109530316675
 40
2.581570717361072
 40
2.589031904405468
 40
2.596493091449864
 40
2.60395427849426
 40
2.611415465538656
 40
2.618876652583052
 40
2.626337839627448
 40
2.633799026671845
 40
2.639154882044213
 40
2.639154882044213
 40
2.639154882044213
 40
2.639154882044213
 10
1160.989296593935
 20
7.560472649548997
 30
0.0
 10
1160.92979447144
 20
7.887950934273594
 30
0.0
 10
1160.718335140096
 20
9.311127518483467
 30
0.0
 10
1160.354918599901
 20
13.30190992427745
 30
0.0
 10
1159.899046973352
 20
20.68528339578437
 30
0.0
 10
1159.443175346802
 20
29.84434331169809
 30
0.0
 10
1158.987303720251
 20
40.03277071830709
 30
0.0
 10
1158.531432093702
 20
50.42036944352765
 30
0.0
 10
1158.075560467151
 20
60.1607139935475
 30
0.0
 10
1157.619688840602
 20
68.46011988326644
 30
0.0
 10
1157.163817214052
 20
74.64231640620098
 30
0.0
 10
1156.75082352672
 20
77.86859272454672
 30
0.0
 10
1156.489787048238
 20
78.47602319380117
 30
0.0
 10
1156.380707778606
 20
78.47657616428063
 30
0.0
  0
SPLINE
  5
93
330
1F
100
AcDbEntity
  8
9
  6
________________
 62
     7
370
     0
100
AcDbSpline
210
0.0
220
0.0
230
1.0
 70
     8
 71
     3
 72
    18
 73
    14
 74
     0
 42
0.000000001
 43
0.0001
 40
2.40005636204898
 40
2.40005636204898
 40
2.40005636204898
 40
2.40005636204898
 40
2.402502228295564
 40
2.40996341533996
 40
2.417424602384356
 40
2.424885789428752
 40
2.432346976473148
 40
2.439808163517545
 40
2.447269350561941
 40
2.454730537606337
 40
2.462191724650733
 40
2.469652911695129
 40
2.475487962119638
 40
2.475487962119638
 40
2.475487962119638
 40
2.475487962119638
 10
1170.989406175704
 20
7.559790728827481
 30
0.0
 10
1170.939592787319
 20
7.833816053633211
 30
0.0
 10
1170.737822190085
 20
9.151112560301488
 30
0.0
 10
1170.384094384001
 20
12.90489910268327
 30
0.0
 10
1169.92822275745
 20
20.15230875824209
 30
0.0
 10
1169.472351130901
 20
29.21883388667861
 30
0.0
 10
1169.016479504351
 20
39.36569566027582
 30
0.0
 10
1168.5606078778
 20
49.76608485059204
 30
0.0
 10
1168.104736251251
 20
59.57253374260198
 30
0.0
 10
1167.648864624701
 20
67.98597138973459
 30
0.0
 10
1167.192992998151
 20
74.32083529544732
 30
0.0
 10
1166.770239852681
 20
77.78922064084198
 30
0.0
 10
1166.499443916062
 20
78.47622875912965
 30
0.0
 10
1166.380605188292
 20
78.47669970658616
 30
0.0
  0
SPLINE
  5
94
330
1F
100
AcDbEntity
  8
9
  6
________________
 62
     7
370
     0
100
AcDbSpline
210
0.0
220
0.0
230
1.0
 70
     8
 71
     3
 72
    18
 73
    14
 74
     0
 42
0.000000001
 43
0.0001
 40
2.236386615814913
 40
2.236386615814913
 40
2.236386615814913
 40
2.236386615814913
 40
2.238356113318849
 40
2.245817300363244
 40
2.253278487407641
 40
2.260739674452037
 40
2.268200861496433
 40
2.275662048540829
 40
2.283123235585225
 40
2.290584422629621
 40
2.298045609674018
 40
2.305506796718414
 40
2.311821521856547
 40
2.311821521856547
 40
2.311821521856547
 40
2.311821521856547
 10
1180.989476270285
 20
7.559298553742225
 30
0.0
 10
1180.949364778407
 20
7.77988503998641
 30
0.0
 10
1180.757296077678
 20
8.995242298554349
 30
0.0
 10
1180.4132701681
 20
12.51782574946712
 30
0.0
 10
1179.95739854155
 20
19.62683616016391
 30
0.0
 10
1179.501526915
 20
28.59777977429133
 30
0.0
 10
1179.04565528845
 20
38.69966615032224
 30
0.0
 10
1178.589783661899
 20
49.10935084549787
 30
0.0
 10
1178.13391203535
 20
58.97860870772814
 30
0.0
 10
1177.6780404088
 20
67.50325084980558
 30
0.0
 10
1177.22216878225
 20
73.9886533624355
 30
0.0
 10
1176.789646409685
 20
77.70569758429663
 30
0.0
 10
1176.50908124597
 20
78.47659148427086
 30
0.0
 10
1176.380473291105
 20
78.47682455589674
 30
0.0
  0
SPLINE
  5
95
330
1F
100
AcDbEntity
  8
9
  6
________________
 62
     7
370
     0
100
AcDbSpline
210
0.0
220
0.0
230
1.0
 70
     8
 71
     3
 72
    19
 73
    15
 74
     0
 42
0.000000001
 43
0.0001
 40
1.58171303585102
 40
1.58171303585102
 40
1.58171303585102
 40
1.58171303585102
 40
1.581771653411982
 40
1.589232840456378
 40
1.596694027500774
 40
1.604155214545171
 40
1.611616401589567
 40
1.619077588633963
 40
1.626538775678359
 40
1.633999962722755
 40
1.641461149767151
 40
1.648922336811548
 40
1.656383523855944
 40
1.657151268030315
 40
1.657151268030315
 40
1.657151268030315
 40
1.657151268030315
 10
1220.989426409797
 20
7.559183813408504
 30
0.0
 10
1220.988232583547
 20
7.56575404240023
 30
0.0
 10
1220.835081548447
 20
8.412426835681142
 30
0.0
 10
1220.529973304496
 20
11.07145747205718
 30
0.0
 10
1220.074101677946
 20
17.60345871736761
 30
0.0
 10
1219.618230051396
 20
26.16226652100894
 30
0.0
 10
1219.162358424846
 20
36.05047301102967
 30
0.0
 10
1218.706486798296
 20
46.46234528585745
 30
0.0
 10
1218.250615171746
 20
56.54947994015706
 30
0.0
 10
1217.794743545196
 20
65.48993456387014
 30
0.0
 10
1217.338871918646
 20
72.55520308740748
 30
0.0
 10
1216.883000292096
 20
77.1695775384888
 30
0.0
 10
1216.563449721442
 20
78.42254161883652
 30
0.0
 10
1216.395856359637
 20
78.47705215335981
 30
0.0
 10
1216.380220206683
 20
78.47690983096942
 30
0.0
  0
SPLINE
  5
96
330
1F
100
AcDbEntity
  8
9
  6
________________
 62
     7
370
     0
100
AcDbSpline
210
0.0
220
0.0
230
1.0
 70
     8
 71
     3
 72
    18
 73
    14
 74
     0
 42
0.000000001
 43
0.0001
 40
1.418038358252218
 40
1.418038358252218
 40
1.418038358252218
 40
1.418038358252218
 40
1.425086725479662
 40
1.432547912524058
 40
1.440009099568455
 40
1.447470286612851
 40
1.454931473657247
 40
1.462392660701643
 40
1.469853847746039
 40
1.477315034790435
 40
1.484776221834832
 40
1.492237408879228
 40
1.493480368645125
 40
1.493480368645125
 40
1.493480368645125
 40
1.493480368645125
 10
1230.989797806202
 20
7.557161306130017
 30
0.0
 10
1230.846248233667
 20
8.346791143329403
 30
0.0
 10
1230.550741452281
 20
10.85365997547193
 30
0.0
 10
1230.103277462045
 20
17.11809254557881
 30
0.0
 10
1229.647405835495
 20
25.56658708241773
 30
0.0
 10
1229.191534208945
 20
35.39301878659779
 30
0.0
 10
1228.735662582395
 20
45.79668842746487
 30
0.0
 10
1228.279790955846
 20
55.92986098500344
 30
0.0
 10
1227.823919329295
 20
64.96684268601477
 30
0.0
 10
1227.368047702746
 20
72.17126202624715
 30
0.0
 10
1226.912176076196
 20
76.95607243613185
 30
0.0
 10
1226.582947094524
 20
78.3826383145713
 30
0.0
 10
1226.405675321703
 20
78.47700170409944
 30
0.0
 10
1226.380360757731
 20
78.47679990054063
 30
0.0
  0
SPLINE
  5
97
330
1F
100
AcDbEntity
  8
9
  6
________________
 62
     7
370
     0
100
AcDbSpline
210
0.0
220
0.0
230
1.0
 70
     8
 71
     3
 72
    18
 73
    14
 74
     0
 42
0.000000001
 43
0.0001
 40
1.254368441316609
 40
1.254368441316609
 40
1.254368441316609
 40
1.254368441316609
 40
1.260940610502946
 40
1.268401797547343
 40
1.275862984591739
 40
1.283324171636135
 40
1.290785358680531
 40
1.298246545724927
 40
1.305707732769323
 40
1.31316891981372
 40
1.320630106858116
 40
1.328091293902512
 40
1.329808643009813
 40
1.329808643009813
 40
1.329808643009813
 40
1.329808643009813
 10
1240.98987833049
 20
7.556796213030944
 30
0.0
 10
1240.856027177892
 20
8.293128948947327
 30
0.0
 10
1240.570218816443
 20
10.658562236229
 30
0.0
 10
1240.132453246144
 20
16.64124803519457
 30
0.0
 10
1239.676581619595
 20
24.97659026219912
 30
0.0
 10
1239.220709993044
 20
34.73794509371852
 30
0.0
 10
1238.764838366495
 20
45.12991603802177
 30
0.0
 10
1238.308966739945
 20
55.30572133438679
 30
0.0
 10
1237.853095113395
 20
64.4361933136765
 30
0.0
 10
1237.397223486845
 20
71.77734248820984
 30
0.0
 10
1236.941351860295
 20
76.73098096301969
 30
0.0
 10
1236.602461295312
 20
78.33855094899674
 30
0.0
 10
1236.41552793918
 20
78.47686427102448
 30
0.0
 10
1236.380551791898
 20
78.47667549427071
 30
0.0
  0
SPLINE
  5
98
330
1F
100
AcDbEntity
  8
9
  6
________________
 62
     7
370
     0
100
AcDbSpline
210
0.0
220
0.0
230
1.0
 70
     8
 71
     3
 72
    18
 73
    14
 74
     0
 42
0.000000001
 43
0.0001
 40
1.090701297479041
 40
1.090701297479041
 40
1.090701297479041
 40
1.090701297479041
 40
1.096794495526231
 40
1.104255682570626
 40
1.111716869615023
 40
1.119178056659419
 40
1.126639243703815
 40
1.134100430748211
 40
1.141561617792608
 40
1.149022804837004
 40
1.1564839918814
 40
1.163945178925796
 40
1.166138030277519
 40
1.166138030277519
 40
1.166138030277519
 40
1.166138030277519
 10
1250.989789421053
 20
7.557395827383885
 30
0.0
 10
1250.8656931663
 20
8.24030504584615
 30
0.0
 10
1250.589639702697
 20
10.46839728829173
 30
0.0
 10
1250.161629030244
 20
16.17308542566111
 30
0.0
 10
1249.705757403694
 20
24.39247432364743
 30
0.0
 10
1249.249885777144
 20
34.0854720642028
 30
0.0
 10
1248.794014150594
 20
44.46225218058486
 30
0.0
 10
1248.338142524044
 20
54.6772707250022
 30
0.0
 10
1247.882270897494
 20
63.89816476695648
 30
0.0
 10
1247.426399270944
 20
71.37357684652736
 30
0.0
 10
1246.970527644394
 20
76.49437875918092
 30
0.0
 10
1246.621952830319
 20
78.29044763774712
 30
0.0
 10
1246.425335225094
 20
78.47669802307705
 30
0.0
 10
1246.380674828719
 20
78.47655514213977
 30
0.0
  0
SPLINE
  5
99
330
1F
100
AcDbEntity
  8
9
  6
________________
 62
     7
370
     0
100
AcDbSpline
210
0.0
220
0.0
230
1.0
 70
     8
 71
     3
 72
    18
 73
    14
 74
     0
 42
0.000000001
 43
0.0001
 40
0.9270343942468676
 40
0.9270343942468676
 40
0.9270343942468676
 40
0.9270343942468676
 40
0.9326483805495145
 40
0.9401095675939107
 40
0.9475707546383068
 40
0.9550319416827029
 40
0.9624931287270991
 40
0.9699543157714954
 40
0.9774155028158915
 40
0.9848766898602878
 40
0.992337876904684
 40
0.99979906394908
 40
1.002468448872892
 40
1.002468448872892
 40
1.002468448872892
 40
1.002468448872892
 10
1260.989685810848
 20
7.558087551757221
 30
0.0
 10
1260.875349354197
 20
8.187454388033366
 30
0.0
 10
1260.609055688695
 20
10.28241349601589
 30
0.0
 10
1260.190804814343
 20
15.71376203894644
 30
0.0
 10
1259.734933187793
 20
23.8144355538386
 30
0.0
 10
1259.279061561243
 20
33.43581895593158
 30
0.0
 10
1258.823189934693
 20
43.79392121778008
 30
0.0
 10
1258.367318308144
 20
54.04472034220535
 30
0.0
 10
1257.911446681593
 20
63.35293784566379
 30
0.0
 10
1257.455575055043
 20
70.96010078312752
 30
0.0
 10
1256.999703428494
 20
76.24634533272727
 30
0.0
 10
1256.641423360937
 20
78.23833090953266
 30
0.0
 10
1256.435100502231
 20
78.47653300188118
 30
0.0
 10
1256.380734852374
 20
78.47645460958681
 30
0.0
  0
SPLINE
  5
9A
330
1F
100
AcDbEntity
  8
9
  6
________________
 62
     7
370
     0
100
AcDbSpline
210
0.0
220
0.0
230
1.0
 70
     8
 71
     3
 72
    18
 73
    14
 74
     0
 42
0.000000001
 43
0.0001
 40
0.7633652643671257
 40
0.7633652643671257
 40
0.7633652643671257
 40
0.7633652643671257
 40
0.7685022655728008
 40
0.7759634526171969
 40
0.7834246396615928
 40
0.790885826705989
 40
0.798347013750385
 40
0.8058082007947811
 40
0.8132693878391772
 40
0.8207305748835733
 40
0.8281917619279694
 40
0.8356529489723653
 40
0.838799842842471
 40
0.838799842842471
 40
0.838799842842471
 40
0.838799842842471
 10
1270.989718246751
 20
7.558023519512319
 30
0.0
 10
1270.885096239498
 20
8.13381594035778
 30
0.0
 10
1270.628517023395
 20
10.09994692450161
 30
0.0
 10
1270.219980598442
 20
15.26343222667835
 30
0.0
 10
1269.764108971892
 20
23.24266819767051
 30
0.0
 10
1269.308237345343
 20
32.78920407917815
 30
0.0
 10
1268.852365718792
 20
43.1251477364111
 30
0.0
 10
1268.396494092243
 20
53.40828274904774
 30
0.0
 10
1267.940622465693
 20
62.80069576855973
 30
0.0
 10
1267.484750839142
 20
70.53705324304292
 30
0.0
 10
1267.028879212593
 20
75.98696403313232
 30
0.0
 10
1266.660874026735
 20
78.182202201872
 30
0.0
 10
1266.444826049726
 20
78.47639930374383
 30
0.0
 10
1266.380735281568
 20
78.47638554506852
 30
0.0
  0
SPLINE
  5
9B
330
1F
100
AcDbEntity
  8
9
  6
________________
 62
     7
370
     0
100
AcDbSpline
210
0.0
220
0.0
230
1.0
 70
     8
 71
     3
 72
    18
 73
    14
 74
     0
 42
0.000000001
 43
0.0001
 40
0.5996973188543632
 40
0.5996973188543632
 40
0.5996973188543632
 40
0.5996973188543632
 40
0.6043561505960872
 40
0.6118173376404833
 40
0.6192785246848793
 40
0.6267397117292753
 40
0.6342008987736714
 40
0.6416620858180675
 40
0.6491232728624636
 40
0.6565844599068597
 40
0.6640456469512558
 40
0.6715068339956518
 40
0.6751322559048347
 40
0.6751322559048347
 40
0.6751322559048347
 40
0.6751322559048347
 10
1280.989678318926
 20
7.558336512972982
 30
0.0
 10
1280.894794882314
 20
8.080495582106016
 30
0.0
 10
1280.647954236853
 20
9.92187606191041
 30
0.0
 10
1280.249156382542
 20
14.82224731826713
 30
0.0
 10
1279.793284755991
 20
22.6773643925831
 30
0.0
 10
1279.337413129442
 20
32.14584472324
 30
0.0
 10
1278.881541502891
 20
42.4561564719821
 30
0.0
 10
1278.425669876342
 20
52.76817181483946
 30
0.0
 10
1277.969798249792
 20
62.24162411178571
 30
0.0
 10
1277.513926623242
 20
70.10457638771578
 30
0.0
 10
1277.058054996692
 20
75.71632202322353
 30
0.0
 10
1276.680303937323
 20
78.12207253814665
 30
0.0
 10
1276.454510086804
 20
78.47633291070424
 30
0.0
 10
1276.380673445135
 20
78.47635538875298
 30
0.0
  0
SPLINE
  5
9C
330
1F
100
AcDbEntity
  8
9
  6
________________
 62
     7
370
     0
100
AcDbSpline
210
0.0
220
0.0
230
1.0
 70
     8
 71
     3
 72
    18
 73
    14
 74
     0
 42
0.000000001
 43
0.0001
 40
0.4360275409360982
 40
0.4360275409360982
 40
0.4360275409360982
 40
0.4360275409360982
 40
0.4402100356193734
 40
0.4476712226637695
 40
0.4551324097081656
 40
0.4625935967525617
 40
0.4700547837969578
 40
0.4775159708413539
 40
0.48497715788575
 40
0.492438344930146
 40
0.4998995319745422
 40
0.5073607190189382
 40
0.5114652798630818
 40
0.5114652798630818
 40
0.5114652798630818
 40
0.5114652798630818
 10
1290.989750349383
 20
7.558001782914554
 30
0.0
 10
1290.904568163985
 20
8.026585156280582
 30
0.0
 10
1290.667428769738
 20
9.747420619752035
 30
0.0
 10
1290.27833216664
 20
14.3903555700598
 30
0.0
 10
1289.822460540091
 20
22.11871410399774
 30
0.0
 10
1289.366588913541
 20
31.50595708342665
 30
0.0
 10
1288.910717286991
 20
41.78717223318192
 30
0.0
 10
1288.454845660441
 20
52.12460264328625
 30
0.0
 10
1287.998974033891
 20
61.6759107465034
 30
0.0
 10
1287.543102407341
 20
69.66281554722707
 30
0.0
 10
1287.087230780791
 20
75.4345102498913
 30
0.0
 10
1286.699721406187
 20
78.05789056348509
 30
0.0
 10
1286.464169240432
 20
78.47633999962126
 30
0.0
 10
1286.380574283528
 20
78.47636727531638
 30
0.0
  0
SPLINE
  5
9D
330
1F
100
AcDbEntity
  8
9
  6
________________
 62
     7
370
     0
100
AcDbSpline
210
0.0
220
0.0
230
1.0
 70
     8
 71
     3
 72
    18
 73
    14
 74
     0
 42
0.000000001
 43
0.0001
 40
0.2723416832021994
 40
0.2723416832021994
 40
0.2723416832021994
 40
0.2723416832021994
 40
0.2760639206426576
 40
0.2835251076870538
 40
0.29098629473145
 40
0.2984474817758461
 40
0.3059086688202423
 40
0.3133698558646385
 40
0.3208310429090346
 40
0.3282922299534308
 40
0.335753416997827
 40
0.3432146040422232
 40
0.3477984424642562
 40
0.3477984424642562
 40
0.3477984424642562
 40
0.3477984424642562
 10
1300.9908048417
 20
7.552233551168783
 30
0.0
 10
1300.91499642023
 20
7.968050345090953
 30
0.0
 10
1300.68723078991
 20
9.573241822032951
 30
0.0
 10
1300.30750795074
 20
13.96790211551736
 30
0.0
 10
1299.85163632419
 20
21.56690506147907
 30
0.0
 10
1299.39576469764
 20
30.86975618840679
 30
0.0
 10
1298.93989307109
 20
41.11841982633804
 30
0.0
 10
1298.48402144454
 20
51.47779150020335
 30
0.0
 10
1298.02814981799
 20
61.10374577576251
 30
0.0
 10
1297.57227819144
 20
69.21191917146041
 30
0.0
 10
1297.11640656489
 20
75.14162341352782
 30
0.0
 10
1296.719136051399
 20
77.98958078646199
 30
0.0
 10
1296.473822746758
 20
78.4764091788044
 30
0.0
 10
1296.380466650967
 20
78.4764200093308
 30
0.0
  0
LINE
  5
9E
330
1F
100
AcDbEntity
  8
9
  6
________________
 62
     7
370
     0
100
AcDbLine
 10
1307.380546851061
 20
71.60220175407554
 30
0.0
 11
1307.380546851062
 21
63.16504274429714
 31
0.0
  0
LWPOLYLINE
  5
9F
330
1F
100
AcDbEntity
  8
9
  6
________________
 62
     7
370
     0
100
AcDbPolyline
 90
        3
 70
     0
 43
0.0
 10
1307.380546851062
 20
63.16504274429714
 42
0.0449653366186121
 10
1306.071442466275
 20
75.86272805483611
 10
1305.98743603728
 20
75.96213481296553
  0
LWPOLYLINE
  5
A0
330
1F
100
AcDbEntity
  8
9
  6
________________
 62
     7
370
     0
100
AcDbPolyline
 90
        8
 70
     0
 43
0.0
 10
1280.740428417314
 20
74.82227908117368
 42
-0.0172581961649622
 10
1283.033133183796
 20
38.03191962878848
 42
0.0225066012893883
 10
1285.018277218363
 20
9.582774183085965
 10
1285.065114136532
 20
9.41052027169905
 10
1285.139630697297
 20
9.195355922296775
 10
1285.214261522769
 20
9.052900067243657
 10
1285.297844558971
 20
8.98071006039284
 10
1285.32132346421
 20
8.977063512459402
  0
LWPOLYLINE
  5
A1
330
1F
100
AcDbEntity
  8
9
  6
________________
 62
     7
370
     0
100
AcDbPolyline
 90
        6
 70
     0
 43
0.0
 10
1270.740350119938
 20
74.8226824649133
 42
-0.0165130643846416
 10
1273.094288381654
 20
36.76001319124606
 42
0.0224807000423581
 10
1274.96994764709
 20
9.790417115286964
 42
0.0709118832489414
 10
1275.192039566787
 20
9.087603999442965
 10
1275.295562949518
 20
8.981451413852405
 10
1275.321324060256
 20
8.977063512459527
  0
LWPOLYLINE
  5
A2
330
1F
100
AcDbEntity
  8
9
  6
________________
 62
     7
370
     0
100
AcDbPolyline
 90
        6
 70
     0
 43
0.0
 10
1260.740426739589
 20
74.82227483498612
 42
-0.0164038265792812
 10
1263.08469474659
 20
36.95933051492332
 42
0.0215666450245757
 10
1264.978643594271
 20
9.750936933037433
 42
0.0597836462138743
 10
1265.175743810669
 20
9.117178644734013
 10
1265.271122323483
 20
8.99372648651843
 10
1265.321330716183
 20
8.977063512460449
  0
LWPOLYLINE
  5
A3
330
1F
100
AcDbEntity
  8
9
  6
________________
 62
     7
370
     0
100
AcDbPolyline
 90
        6
 70
     0
 43
0.0
 10
1250.740547673263
 20
74.82166128724893
 42
-0.0186098183993901
 10
1252.871268999481
 20
41.4266515476205
 42
0.0195184411414077
 10
1254.962362891547
 20
9.825918829297418
 42
0.0452820911937639
 10
1255.144738672466
 20
9.183134168010358
 10
1255.220117669958
 20
9.044773887835943
 10
1255.321342861314
 20
8.977063512479678
  0
LWPOLYLINE
  5
A4
330
1F
100
AcDbEntity
  8
9
  6
________________
 62
     7
370
     0
100
AcDbPolyline
 90
        6
 70
     0
 43
0.0
 10
1240.740215875132
 20
74.82355862914815
 42
-0.0173880931214908
 10
1242.989544304782
 20
38.94303642489371
 42
0.0222151188696661
 10
1244.986224729256
 20
9.71732667509062
 42
0.0681023686662633
 10
1245.192822202576
 20
9.086198409092146
 10
1245.286413071692
 20
8.98513059331573
 10
1245.321363650944
 20
8.97706351246439
  0
LWPOLYLINE
  5
A5
330
1F
100
AcDbEntity
  8
9
  6
________________
 62
     7
370
     0
100
AcDbPolyline
 90
        6
 70
     0
 43
0.0
 10
1230.740469873333
 20
74.82227196315246
 42
-0.0163638700919946
 10
1233.100654678742
 20
36.62963387388979
 42
0.0213547858112302
 10
1234.97949265403
 20
9.747229322855674
 42
0.0545951247534334
 10
1235.168381045028
 20
9.131624584825179
 10
1235.26416119974
 20
8.99868462440935
 10
1235.3213832485
 20
8.97706351245925
  0
LWPOLYLINE
  5
A6
330
1F
100
AcDbEntity
  8
9
  6
________________
 62
     7
370
     0
100
AcDbPolyline
 90
        8
 70
     0
 43
0.0
 10
1160.740381775133
 20
74.82286260908846
 42
-0.0168292777392753
 10
1163.089128640498
 20
36.86707436391637
 42
0.0213938128607892
 10
1164.970727596851
 20
9.786589499382409
 10
1165.046940773501
 20
9.47372395640133
 10
1165.123362967352
 20
9.23603610681642
 10
1165.191700080201
 20
9.088284585303272
 10
1165.280778488171
 20
8.987974408196617
 10
1165.321372154913
 20
8.977063512461442
  0
LWPOLYLINE
  5
A7
330
1F
100
AcDbEntity
  8
9
  6
________________
 62
     7
370
     0
100
AcDbPolyline
 90
        9
 70
     0
 43
0.0
 10
1150.740166257999
 20
74.82393132205505
 42
-0.0168356886175255
 10
1153.060809427332
 20
37.45558176236354
 42
0.0219202905937161
 10
1154.978168266294
 20
9.752732377496354
 10
1155.037346590673
 20
9.509017459494096
 10
1155.096540236042
 20
9.310824219295458
 10
1155.156055604172
 20
9.157738225246057
 10
1155.215536988392
 20
9.051172141862427
 10
1155.318603623173
 20
8.977113532947293
 10
1155.321351656275
 20
8.97706351246158
  0
LWPOLYLINE
  5
A8
330
1F
100
AcDbEntity
  8
9
  6
________________
 62
     7
370
     0
100
AcDbPolyline
 90
        7
 70
     0
 43
0.0
 10
1290.740312171208
 20
74.82297674642646
 42
-0.0171532700555214
 10
1293.06013770006
 20
37.46937786407918
 42
0.0222499691207268
 10
1295.005861502181
 20
9.633124060096122
 10
1295.074017871041
 20
9.381022976661358
 10
1295.142211751674
 20
9.189376550858462
 10
1295.210384398715
 20
9.058627146637049
 10
1295.321331455288
 20
8.977063512483992
  0
LWPOLYLINE
  5
A9
330
1F
100
AcDbEntity
  8
9
  6
________________
 62
     7
370
     0
100
AcDbPolyline
 90
        7
 70
     0
 43
0.0
 10
1300.740196322073
 20
74.82370073125904
 42
-0.0169791169030672
 10
1303.069066791447
 20
37.28356961673231
 42
0.0229192480650388
 10
1305.020560815466
 20
9.573669092534404
 10
1305.086861101489
 20
9.340327116489654
 10
1305.153149089552
 20
9.164237211248004
 10
1305.219340645733
 20
9.045929638407383
 10
1305.321341913524
 20
8.977063512459083
  0
ARC
  5
AA
330
1F
100
AcDbEntity
  8
9
  6
________________
 62
     7
370
     0
100
AcDbCircle
 10
-1143.002810335346
 20
7.767843488911081
 30
0.0
 40
2.278417231049098
210
0.0
220
0.0
230
-1.0
100
AcDbArc
 50
185.2892431591144
 51
214.48862485471
  0
ARC
  5
AB
330
1F
100
AcDbEntity
  8
9
  6
________________
 62
     7
370
     0
100
AcDbCircle
 10
1147.864077525908
 20
77.13617262213057
 30
0.0
 40
2.421435269421029
100
AcDbArc
 50
6.180044627373611
 51
33.60818585913452
  0
ARC
  5
AC
330
1F
100
AcDbEntity
  8
9
  6
________________
 62
     7
370
     0
100
AcDbCircle
 10
-1152.720444160355
 20
7.869776553245791
 30
0.0
 40
2.570052268409281
210
0.0
220
0.0
230
-1.0
100
AcDbArc
 50
186.9932388925288
 51
212.7984907923382
  0
SPLINE
  5
AD
330
1F
100
AcDbEntity
  8
9
  6
________________
 62
     7
370
     0
100
AcDbSpline
210
0.0
220
0.0
230
1.0
 70
     8
 71
     3
 72
     9
 73
     5
 74
     0
 42
0.000000001
 43
0.0001
 40
2.63275714486055
 40
2.63275714486055
 40
2.63275714486055
 40
2.63275714486055
 40
2.633799026671845
 40
2.639154882044214
 40
2.639154882044214
 40
2.639154882044214
 40
2.639154882044214
 10
1160.271603602385
 20
77.3960669811232
 30
0.0
 10
1160.250384264087
 20
77.5128688640897
 30
0.0
 10
1160.120085656158
 20
78.1728110475885
 30
0.0
 10
1159.989787048229
 20
78.47601513345631
 30
0.0
 10
1159.880707778597
 20
78.47656810381187
 30
0.0
  0
SPLINE
  5
AE
330
1F
100
AcDbEntity
  8
9
  6
________________
 62
     7
370
     0
100
AcDbSpline
210
0.0
220
0.0
230
1.0
 70
     8
 71
     3
 72
     9
 73
     5
 74
     0
 42
0.000000001
 43
0.0001
 40
2.550924972851893
 40
2.550924972851893
 40
2.550924972851893
 40
2.550924972851893
 40
2.551725969183487
 40
2.557320435349915
 40
2.557320435349915
 40
2.557320435349915
 40
2.557320435349915
 10
1165.271473614453
 20
7.55729473987117
 30
0.0
 10
1165.255160236149
 20
7.467535416591897
 30
0.0
 10
1165.124907955283
 20
6.794933151409138
 30
0.0
 10
1164.994655674416
 20
6.478118768311066
 30
0.0
 10
1164.880716771853
 20
6.477498733824236
 30
0.0
  0
SPLINE
  5
AF
330
1F
100
AcDbEntity
  8
9
  6
________________
 62
     7
370
     0
100
AcDbSpline
210
0.0
220
0.0
230
1.0
 70
     8
 71
     3
 72
     9
 73
     5
 74
     0
 42
0.000000001
 43
0.0001
 40
2.469086912576891
 40
2.469086912576891
 40
2.469086912576891
 40
2.469086912576891
 40
2.469652911695129
 40
2.475487962119638
 40
2.475487962119638
 40
2.475487962119638
 40
2.475487962119638
 10
1170.271703394146
 20
77.39560851526676
 30
0.0
 10
1170.260176053295
 20
77.45906250911227
 30
0.0
 10
1170.129809984674
 20
78.14548262136344
 30
0.0
 10
1169.999443916052
 20
78.47622069873866
 30
0.0
 10
1169.880605188283
 20
78.47669164608969
 30
0.0
  0
SPLINE
  5
B0
330
1F
100
AcDbEntity
  8
9
  6
________________
 62
     7
370
     0
100
AcDbSpline
210
0.0
220
0.0
230
1.0
 70
     8
 71
     3
 72
     9
 73
     5
 74
     0
 42
0.000000001
 43
0.0001
 40
2.387255989446172
 40
2.387255989446172
 40
2.387255989446172
 40
2.387255989446172
 40
2.387579854206771
 40
2.393653674843159
 40
2.393653674843159
 40
2.393653674843159
 40
2.393653674843159
 10
1175.271497100927
 20
7.557354756974672
 30
0.0
 10
1175.264901155165
 20
7.521071405193175
 30
0.0
 10
1175.134603601942
 20
6.822187402901039
 30
0.0
 10
1175.004306048718
 20
6.477854834823562
 30
0.0
 10
1174.880604441257
 20
6.477372128731229
 30
0.0
  0
SPLINE
  5
B1
330
1F
100
AcDbEntity
  8
9
  6
________________
 62
     7
370
     0
100
AcDbSpline
210
0.0
220
0.0
230
1.0
 70
     8
 71
     3
 72
     9
 73
     5
 74
     0
 42
0.000000001
 43
0.0001
 40
2.305419510278332
 40
2.305419510278332
 40
2.305419510278332
 40
2.305419510278332
 40
2.305506796718414
 40
2.311821521856547
 40
2.311821521856547
 40
2.311821521856547
 40
2.311821521856547
 10
1180.271630276437
 20
77.39605263765401
 30
0.0
 10
1180.269852569521
 20
77.40583274560313
 30
0.0
 10
1180.139466907741
 20
78.11832979218534
 30
0.0
 10
1180.009081245961
 20
78.47658342379873
 30
0.0
 10
1179.880473291096
 20
78.47681649537235
 30
0.0
  0
ARC
  5
B2
330
1F
100
AcDbEntity
  8
9
  6
________________
 62
     7
370
     0
100
AcDbCircle
 10
-1183.748282278679
 20
7.498591379340774
 30
0.0
 40
1.524789051141195
210
0.0
220
0.0
230
-1.0
100
AcDbArc
 50
177.7164513145844
 51
222.0533335422622
  0
SPLINE
  5
B3
330
1F
100
AcDbEntity
  8
9
  6
________________
 62
     7
370
     0
100
AcDbSpline
210
0.0
220
0.0
230
1.0
 70
     8
 71
     3
 72
     9
 73
     5
 74
     0
 42
0.000000001
 43
0.0001
 40
1.732576696815673
 40
1.732576696815673
 40
1.732576696815673
 40
1.732576696815673
 40
1.738456581344302
 40
1.73896576528891
 40
1.73896576528891
 40
1.73896576528891
 40
1.73896576528891
 10
1215.271796279085
 20
7.559279475518217
 30
0.0
 10
1215.152044443885
 20
6.900731447882404
 30
0.0
 10
1215.021922386019
 20
6.507324468120489
 30
0.0
 10
1214.891800328152
 20
6.477275139125091
 30
0.0
 10
1214.881430105485
 20
6.477182655388644
 30
0.0
  0
SPLINE
  5
B4
330
1F
100
AcDbEntity
  8
9
  6
________________
 62
     7
370
     0
100
AcDbSpline
210
0.0
220
0.0
230
1.0
 70
     8
 71
     3
 72
     9
 73
     5
 74
     0
 42
0.000000001
 43
0.0001
 40
1.650739654958805
 40
1.650739654958805
 40
1.650739654958805
 40
1.650739654958805
 40
1.656383523855944
 40
1.657151268030415
 40
1.657151268030415
 40
1.657151268030415
 40
1.657151268030415
 10
1220.271963834373
 20
77.39386449922101
 30
0.0
 10
1220.157018778095
 20
78.02625594932591
 30
0.0
 10
1220.026437568859
 20
78.4345719456628
 30
0.0
 10
1219.895856359624
 20
78.47704409278575
 30
0.0
 10
1219.880220206667
 20
78.47690177042585
 30
0.0
  0
SPLINE
  5
B5
330
1F
100
AcDbEntity
  8
9
  6
________________
 62
     7
370
     0
100
AcDbSpline
210
0.0
220
0.0
230
1.0
 70
     8
 71
     3
 72
     9
 73
     5
 74
     0
 42
0.000000001
 43
0.0001
 40
1.5689238962387
 40
1.5689238962387
 40
1.5689238962387
 40
1.5689238962387
 40
1.574310466367586
 40
1.575298745803296
 40
1.575298745803296
 40
1.575298745803296
 40
1.575298745803296
 10
1225.270831009693
 20
7.554097419472417
 30
0.0
 10
1225.161126192324
 20
6.952220667534793
 30
0.0
 10
1225.031293721846
 20
6.53403660871435
 30
0.0
 10
1224.901461251368
 20
6.477400940422352
 30
0.0
 10
1224.881333598258
 20
6.477275753118239
 30
0.0
  0
SPLINE
  5
B6
330
1F
100
AcDbEntity
  8
9
  6
________________
 62
     7
370
     0
100
AcDbSpline
210
0.0
220
0.0
230
1.0
 70
     8
 71
     3
 72
     9
 73
     5
 74
     0
 42
0.000000001
 43
0.0001
 40
1.487073365137661
 40
1.487073365137661
 40
1.487073365137661
 40
1.487073365137661
 40
1.492237408879228
 40
1.493480368645129
 40
1.493480368645129
 40
1.493480368645129
 40
1.493480368645129
 10
1230.271822745322
 20
77.39452764318824
 30
0.0
 10
1230.166649980094
 20
77.97301355604505
 30
0.0
 10
1230.036162650894
 20
78.40753405772098
 30
0.0
 10
1229.905675321693
 20
78.47699364353544
 30
0.0
 10
1229.880360757722
 20
78.47679184002172
 30
0.0
  0
SPLINE
  5
B7
330
1F
100
AcDbEntity
  8
9
  6
________________
 62
     7
370
     0
100
AcDbSpline
210
0.0
220
0.0
230
1.0
 70
     8
 71
     3
 72
     9
 73
     5
 74
     0
 42
0.000000001
 43
0.0001
 40
1.405237429043897
 40
1.405237429043897
 40
1.405237429043897
 40
1.405237429043897
 40
1.41016435139087
 40
1.41163155850196
 40
1.41163155850196
 40
1.41163155850196
 40
1.41163155850196
 10
1235.271922739508
 20
7.560197560958451
 30
0.0
 10
1235.171579273567
 20
7.008090419435918
 30
0.0
 10
1235.04135414187
 20
6.561099370320219
 30
0.0
 10
1234.911129010173
 20
6.477529774055871
 30
0.0
 10
1234.881247344417
 20
6.477395906325574
 30
0.0
  0
SPLINE
  5
B8
330
1F
100
AcDbEntity
  8
9
  6
________________
 62
     7
370
     0
100
AcDbSpline
210
0.0
220
0.0
230
1.0
 70
     8
 71
     3
 72
     9
 73
     5
 74
     0
 42
0.000000001
 43
0.0001
 40
1.323405484106605
 40
1.323405484106605
 40
1.323405484106605
 40
1.323405484106605
 40
1.328091293902512
 40
1.329808642783708
 40
1.329808642783708
 40
1.329808642783708
 40
1.329808642783708
 10
1240.271778877725
 20
77.39468031601197
 30
0.0
 10
1240.176345996395
 20
77.91963148947707
 30
0.0
 10
1240.045936972388
 20
78.38036564644425
 30
0.0
 10
1239.915527948381
 20
78.4768562036767
 30
0.0
 10
1239.880551805703
 20
78.47666743385423
 30
0.0
  0
SPLINE
  5
B9
330
1F
100
AcDbEntity
  8
9
  6
________________
 62
     7
370
     0
100
AcDbSpline
210
0.0
220
0.0
230
1.0
 70
     8
 71
     3
 72
     9
 73
     5
 74
     0
 42
0.000000001
 43
0.0001
 40
1.241570180978898
 40
1.241570180978898
 40
1.241570180978898
 40
1.241570180978898
 40
1.246018236414154
 40
1.247963973940598
 40
1.247963973940598
 40
1.247963973940598
 40
1.247963973940598
 10
1245.27184019827
 20
7.559816079412696
 30
0.0
 10
1245.181249507442
 20
7.06136920309363
 30
0.0
 10
1245.051031228951
 20
6.588047679191535
 30
0.0
 10
1244.920812950459
 20
6.477670124323772
 30
0.0
 10
1244.881185362796
 20
6.477521216439554
 30
0.0
  0
SPLINE
  5
BA
330
1F
100
AcDbEntity
  8
9
  6
________________
 62
     7
370
     0
100
AcDbSpline
210
0.0
220
0.0
230
1.0
 70
     8
 71
     3
 72
     9
 73
     5
 74
     0
 42
0.000000001
 43
0.0001
 40
1.159737160313712
 40
1.159737160313712
 40
1.159737160313712
 40
1.159737160313712
 40
1.163945178925796
 40
1.166138030051428
 40
1.166138030051428
 40
1.166138030051428
 40
1.166138030051428
 10
1250.271762062467
 20
77.39471820391145
 30
0.0
 10
1250.186060047589
 20
77.86623073558314
 30
0.0
 10
1250.055697640942
 20
78.3532012889902
 30
0.0
 10
1249.925335234294
 20
78.47668995385726
 30
0.0
 10
1249.880674842524
 20
78.47654708171987
 30
0.0
  0
SPLINE
  5
BB
330
1F
100
AcDbEntity
  8
9
  6
________________
 62
     7
370
     0
100
AcDbSpline
210
0.0
220
0.0
230
1.0
 70
     8
 71
     3
 72
     9
 73
     5
 74
     0
 42
0.000000001
 43
0.0001
 40
1.077903783862629
 40
1.077903783862629
 40
1.077903783862629
 40
1.077903783862629
 40
1.081872121437438
 40
1.084295774274051
 40
1.084295774274051
 40
1.084295774274051
 40
1.084295774274051
 10
1255.271705664852
 20
7.559111212644284
 30
0.0
 10
1255.190885079863
 20
7.114462481028101
 30
0.0
 10
1255.060703512756
 20
6.615060148281851
 30
0.0
 10
1254.93052194565
 20
6.477836287817853
 30
0.0
 10
1254.881160963532
 20
6.477633925021875
 30
0.0
  0
SPLINE
  5
BC
330
1F
100
AcDbEntity
  8
9
  6
________________
 62
     7
370
     0
100
AcDbSpline
210
0.0
220
0.0
230
1.0
 70
     8
 71
     3
 72
     9
 73
     5
 74
     0
 42
0.000000001
 43
0.0001
 40
0.9960709030470033
 40
0.9960709030470033
 40
0.9960709030470033
 40
0.9960709030470033
 40
0.99979906394908
 40
1.00246844887291
 40
1.00246844887291
 40
1.00246844887291
 40
1.00246844887291
 10
1260.27161898437
 20
77.39549026764003
 30
0.0
 10
1260.195689923558
 20
77.81318991291741
 30
0.0
 10
1260.065395212889
 20
78.3260982463471
 30
0.0
 10
1259.935100502221
 20
78.47652494142292
 30
0.0
 10
1259.880734852364
 20
78.47644654914521
 30
0.0
  0
SPLINE
  5
BD
330
1F
100
AcDbEntity
  8
9
  6
________________
 62
     7
370
     0
100
AcDbSpline
210
0.0
220
0.0
230
1.0
 70
     8
 71
     3
 72
     9
 73
     5
 74
     0
 42
0.000000001
 43
0.0001
 40
0.914233554363728
 40
0.914233554363728
 40
0.914233554363728
 40
0.914233554363728
 40
0.9177260064607223
 40
0.9206267698521113
 40
0.9206267698521113
 40
0.9206267698521113
 40
0.9206267698521113
 10
1265.271805286468
 20
7.559654139424484
 30
0.0
 10
1265.20067675564
 20
7.168131813197282
 30
0.0
 10
1265.070470238177
 20
6.642272224954268
 30
0.0
 10
1264.940263720714
 20
6.478047100713535
 30
0.0
 10
1264.881185734079
 20
6.477720563961752
 30
0.0
  0
ARC
  5
BE
330
1F
100
AcDbEntity
  8
9
  6
________________
 62
     7
370
     0
100
AcDbCircle
 10
1268.780047922484
 20
77.46723851990312
 30
0.0
 40
1.49327631166966
100
AcDbArc
 50
357.2500454547703
 51
42.51541203921862
  0
ARC
  5
BF
330
1F
100
AcDbEntity
  8
9
  6
________________
 62
     7
370
     0
100
AcDbCircle
 10
-1273.662818834444
 20
7.528779837249914
 30
0.0
 40
1.609042888410458
210
0.0
220
0.0
230
-1.0
100
AcDbArc
 50
178.9445956820267
 51
220.7824412996699
  0
ARC
  5
C0
330
1F
100
AcDbEntity
  8
9
  6
________________
 62
     7
370
     0
100
AcDbCircle
 10
1278.549691407344
 20
77.3838017406471
 30
0.0
 40
1.721966642996455
100
AcDbArc
 50
0.3921287875529436
 51
39.3810915848057
  0
ARC
  5
C1
330
1F
100
AcDbEntity
  8
9
  6
________________
 62
     7
370
     0
100
AcDbCircle
 10
-1283.42427402689
 20
7.614987023050695
 30
0.0
 40
1.848130636721847
210
0.0
220
0.0
230
-1.0
100
AcDbArc
 50
181.7673425242532
 51
217.9757448743928
  0
ARC
  5
C2
330
1F
100
AcDbEntity
  8
9
  6
________________
 62
     7
370
     0
100
AcDbCircle
 10
1288.304023645865
 20
77.29499478553745
 30
0.0
 40
1.970059357374014
100
AcDbArc
 50
2.954021008877089
 51
36.84550121493646
  0
ARC
  5
C3
330
1F
100
AcDbEntity
  8
9
  6
________________
 62
     7
370
     0
100
AcDbCircle
 10
-1293.177515935701
 20
7.70290217833295
 30
0.0
 40
2.098288780587227
210
0.0
220
0.0
230
-1.0
100
AcDbArc
 50
184.1449739607289
 51
215.7240868984772
  0
ARC
  5
C4
330
1F
100
AcDbEntity
  8
9
  6
________________
 62
     7
370
     0
100
AcDbCircle
 10
1298.040135296403
 20
77.19921238398625
 30
0.0
 40
2.240102290968796
100
AcDbArc
 50
5.040794654346166
 51
34.76084962618345
  0
ARC
  5
C5
330
1F
100
AcDbEntity
  8
9
  6
________________
 62
     7
370
     0
100
AcDbCircle
 10
-1302.898255084444
 20
7.805372532994759
 30
0.0
 40
2.386106650145643
210
0.0
220
0.0
230
-1.0
100
AcDbArc
 50
185.9708239463284
 51
213.8091184361534
  0
LWPOLYLINE
  5
C6
330
1F
100
AcDbEntity
  8
9
  6
________________
 62
     7
370
     0
100
AcDbPolyline
 90
        5
 70
     0
 43
0.0
 10
1142.380546851062
 20
51.6386217618045
 42
0.0120397849355176
 10
1144.764814623339
 20
11.00478840433716
 42
0.0610012013008746
 10
1145.16604665438
 20
9.136747703317294
 10
1145.234216389905
 20
9.027415367332134
 10
1145.321334118908
 20
8.977063512500882
  0
LINE
  5
C7
330
1F
100
AcDbEntity
  8
9
  6
________________
 62
     7
370
     0
100
AcDbLine
 10
1142.380546851062
 20
42.47890144850614
 30
0.0
 11
1142.380546851062
 21
51.6386217618045
 31
0.0
  0
LINE
  5
C8
330
1F
100
AcDbEntity
  8
9
  6
________________
 62
     7
370
     0
100
AcDbLine
 10
1311.380546851062
 20
77.47706351245908
 30
0.0
 11
1311.380546851062
 21
7.477063512459081
 31
0.0
  0
LINE
  5
C9
330
1F
100
AcDbEntity
  8
9
  6
________________
 62
     7
370
     0
100
AcDbLine
 10
1310.34131636652
 20
75.67706351245904
 30
0.0
 11
1310.34131636652
 21
9.277063512459119
 31
0.0
  0
LINE
  5
CA
330
1F
100
AcDbEntity
  8
9
  6
________________
 62
     7
370
     0
100
AcDbLine
 10
1313.380546851061
 20
77.47706351245908
 30
0.0
 11
1313.380546851061
 21
7.477063512459081
 31
0.0
  0
LINE
  5
CB
330
1F
100
AcDbEntity
  8
9
  6
________________
 62
     7
370
     0
100
AcDbLine
 10
1295.987439591214
 20
75.96213481296554
 30
0.0
 11
1290.532519295094
 21
75.96213481296553
 31
0.0
  0
LINE
  5
CC
330
1F
100
AcDbEntity
  8
9
  6
________________
 62
     7
370
     0
100
AcDbLine
 10
1309.380546851061
 20
75.97706351245908
 30
0.0
 11
1309.380546851061
 21
8.977063512459083
 31
0.0
  0
LINE
  5
CD
330
1F
100
AcDbEntity
  8
9
  6
________________
 62
     7
370
     0
100
AcDbLine
 10
1305.98743603728
 20
75.96213481296553
 30
0.0
 11
1300.532575207814
 21
75.96213481296553
 31
0.0
  0
LINE
  5
CE
330
1F
100
AcDbEntity
  8
9
  6
________________
 62
     7
370
     0
100
AcDbLine
 10
1155.987430422495
 20
75.96213481296553
 30
0.0
 11
1150.532550840142
 21
75.96213481296553
 31
0.0
  0
LINE
  5
CF
330
1F
100
AcDbEntity
  8
9
  6
________________
 62
     7
370
     0
100
AcDbLine
 10
1140.380546851062
 20
75.12671894708811
 30
0.0
 11
1139.380546851061
 21
75.12671894708811
 31
0.0
  0
LINE
  5
D0
330
1F
100
AcDbEntity
  8
9
  6
________________
 62
     7
370
     0
100
AcDbLine
 10
1140.380546851062
 20
75.96213481296556
 30
0.0
 11
1140.380546851062
 21
75.12671894708814
 31
0.0
  0
LINE
  5
D1
330
1F
100
AcDbEntity
  8
9
  6
________________
 62
     7
370
     0
100
AcDbLine
 10
1145.987438174096
 20
75.96213481296553
 30
0.0
 11
1140.380546851062
 21
75.96213481296553
 31
0.0
  0
LINE
  5
D2
330
1F
100
AcDbEntity
  8
9
  6
________________
 62
     7
370
     0
100
AcDbLine
 10
1140.380546851062
 20
9.827408077830064
 30
0.0
 11
1140.380546851062
 21
8.977063512459083
 31
0.0
  0
LINE
  5
D3
330
1F
100
AcDbEntity
  8
9
  6
________________
 62
     7
370
     0
100
AcDbLine
 10
1140.380546851062
 20
9.827408077830064
 30
0.0
 11
1139.380546851061
 21
9.827408077830064
 31
0.0
  0
LINE
  5
D4
330
1F
100
AcDbEntity
  8
9
  6
________________
 62
     7
370
     0
100
AcDbLine
 10
1139.380546851061
 20
34.97706351245908
 30
0.0
 11
1139.380546851061
 21
9.827408077830023
 31
0.0
  0
LINE
  5
D5
330
1F
100
AcDbEntity
  8
9
  6
________________
 62
     7
370
     0
100
AcDbLine
 10
1140.380546851062
 20
34.97706351245908
 30
0.0
 11
1139.380546851061
 21
34.97706351245909
 31
0.0
  0
LINE
  5
D6
330
1F
100
AcDbEntity
  8
9
  6
________________
 62
     7
370
     0
100
AcDbLine
 10
1139.380546851061
 20
49.97706351245908
 30
0.0
 11
1140.380546851062
 21
49.97706351245908
 31
0.0
  0
LINE
  5
D7
330
1F
100
AcDbEntity
  8
9
  6
________________
 62
     7
370
     0
100
AcDbLine
 10
1139.380546851061
 20
75.12671894708808
 30
0.0
 11
1139.380546851061
 21
49.97706351245907
 31
0.0
  0
LINE
  5
D8
330
1F
100
AcDbEntity
  8
9
  6
________________
 62
     7
370
     0
100
AcDbLine
 10
1140.380546851062
 20
49.97706351245908
 30
0.0
 11
1140.380546851062
 21
34.97706351245908
 31
0.0
  0
LINE
  5
D9
330
1F
100
AcDbEntity
  8
9
  6
________________
 62
     7
370
     0
100
AcDbLine
 10
1330.680546851061
 20
78.28615442155001
 30
0.0
 11
1330.680546851061
 21
85.70433623973182
 31
0.0
  0
LINE
  5
DA
330
1F
100
AcDbEntity
  8
9
  6
________________
 62
     7
370
     0
100
AcDbLine
 10
1330.380546851061
 20
85.70433623973182
 30
0.0
 11
1330.680546851061
 21
85.70433623973182
 31
0.0
  0
LINE
  5
DB
330
1F
100
AcDbEntity
  8
9
  6
________________
 62
     7
370
     0
100
AcDbLine
 10
1330.680546851061
 20
78.24979078518638
 30
0.0
 11
1330.680546851061
 21
78.26275704917134
 31
0.0
  0
LINE
  5
DC
330
1F
100
AcDbEntity
  8
9
  6
________________
 62
     7
370
     0
100
AcDbLine
 10
1324.380546851061
 20
-5.022936487540916
 30
0.0
 11
1329.380546851061
 21
-5.022936487540916
 31
0.0
  0
ARC
  5
DD
330
1F
100
AcDbEntity
  8
9
  6
________________
 62
     7
370
     0
100
AcDbCircle
 10
1329.380546851061
 20
-4.022936487540929
 30
0.0
 40
1.000000000000001
100
AcDbArc
 50
270.0
 51
359.9999999999996
  0
LINE
  5
DE
330
1F
100
AcDbEntity
  8
9
  6
________________
 62
     7
370
     0
100
AcDbLine
 10
1330.580546851061
 20
45.44778148015632
 30
0.0
 11
1330.380546851061
 21
45.44778148015632
 31
0.0
  0
LINE
  5
DF
330
1F
100
AcDbEntity
  8
9
  6
________________
 62
     7
370
     0
100
AcDbLine
 10
1149.880750914097
 20
78.47646257353294
 30
0.0
 11
1146.380750914106
 21
78.47647063397811
 31
0.0
  0
LINE
  5
E0
330
1F
100
AcDbEntity
  8
9
  6
________________
 62
     7
370
     0
100
AcDbLine
 10
1159.880707778597
 20
78.47656810381187
 30
0.0
 11
1156.380707778606
 21
78.47657616428063
 31
0.0
  0
LINE
  5
E1
330
1F
100
AcDbEntity
  8
9
  6
________________
 62
     7
370
     0
100
AcDbLine
 10
1169.880605188283
 20
78.47669164608969
 30
0.0
 11
1166.380605188292
 21
78.47669970658616
 31
0.0
  0
LINE
  5
E2
330
1F
100
AcDbEntity
  8
9
  6
________________
 62
     7
370
     0
100
AcDbLine
 10
1179.880473291096
 20
78.47681649537235
 30
0.0
 11
1176.380473291105
 21
78.47682455589675
 31
0.0
  0
LINE
  5
E3
330
1F
100
AcDbEntity
  8
9
  6
________________
 62
     7
370
     0
100
AcDbLine
 10
1219.880220206667
 20
78.47690177042585
 30
0.0
 11
1216.380220206677
 21
78.47690983096938
 31
0.0
  0
LINE
  5
E4
330
1F
100
AcDbEntity
  8
9
  6
________________
 62
     7
370
     0
100
AcDbLine
 10
1229.880360757722
 20
78.47679184002172
 30
0.0
 11
1226.380360757731
 21
78.47679990054063
 31
0.0
  0
LINE
  5
E5
330
1F
100
AcDbEntity
  8
9
  6
________________
 62
     7
370
     0
100
AcDbLine
 10
1239.880551805703
 20
78.47666743385423
 30
0.0
 11
1236.380551805712
 21
78.47667549434529
 31
0.0
  0
LINE
  5
E6
330
1F
100
AcDbEntity
  8
9
  6
________________
 62
     7
370
     0
100
AcDbLine
 10
1249.880674842524
 20
78.47654708171987
 30
0.0
 11
1246.380674842533
 21
78.47655514218395
 31
0.0
  0
LINE
  5
E7
330
1F
100
AcDbEntity
  8
9
  6
________________
 62
     7
370
     0
100
AcDbLine
 10
1259.880734866178
 20
78.47644654916513
 30
0.0
 11
1256.380734866188
 21
78.47645460960672
 31
0.0
  0
LINE
  5
E8
330
1F
100
AcDbEntity
  8
9
  6
________________
 62
     7
370
     0
100
AcDbLine
 10
1269.880735295371
 20
78.47637748464537
 30
0.0
 11
1266.38073529538
 21
78.47638554507148
 31
0.0
  0
LINE
  5
E9
330
1F
100
AcDbEntity
  8
9
  6
________________
 62
     7
370
     0
100
AcDbLine
 10
1279.880673458938
 20
78.47634732832941
 30
0.0
 11
1276.380673458948
 21
78.47635538874879
 31
0.0
  0
LINE
  5
EA
330
1F
100
AcDbEntity
  8
9
  6
________________
 62
     7
370
     0
100
AcDbLine
 10
1289.880574283518
 20
78.47635921489434
 30
0.0
 11
1286.380574283527
 21
78.47636727531638
 31
0.0
  0
LINE
  5
EB
330
1F
100
AcDbEntity
  8
9
  6
________________
 62
     7
370
     0
100
AcDbLine
 10
1299.880466650958
 20
78.47641194889694
 30
0.0
 11
1296.380466650968
 21
78.47642000933078
 31
0.0
  0
LINE
  5
EC
330
1F
100
AcDbEntity
  8
9
  6
________________
 62
     7
370
     0
100
AcDbLine
 10
1307.380546876248
 20
78.47650583224933
 30
0.0
 11
1306.380376435126
 21
78.47650813562859
 31
0.0
  0
LINE
  5
ED
330
1F
100
AcDbEntity
  8
9
  6
________________
 62
     7
370
     0
100
AcDbLine
 10
1301.380861365536
 20
6.477668262745248
 30
0.0
 11
1304.880861365526
 21
6.477676323187763
 31
0.0
  0
LINE
  5
EE
330
1F
100
AcDbEntity
  8
9
  6
________________
 62
     7
370
     0
100
AcDbLine
 10
1291.380986790086
 20
6.477739901069722
 30
0.0
 11
1294.880986790077
 21
6.477747961496194
 31
0.0
  0
LINE
  5
EF
330
1F
100
AcDbEntity
  8
9
  6
________________
 62
     7
370
     0
100
AcDbLine
 10
1281.381102402601
 20
6.477772748189365
 30
0.0
 11
1284.881102402592
 21
6.47778080860846
 31
0.0
  0
LINE
  5
F0
330
1F
100
AcDbEntity
  8
9
  6
________________
 62
     7
370
     0
100
AcDbLine
 10
1271.381178505368
 20
6.477763326579296
 30
0.0
 11
1274.881178505359
 21
6.477771387000522
 31
0.0
  0
LINE
  5
F1
330
1F
100
AcDbEntity
  8
9
  6
________________
 62
     7
370
     0
100
AcDbLine
 10
1261.381185747901
 20
6.477712503605508
 30
0.0
 11
1264.881185747892
 21
6.4777205640381
 31
0.0
  0
LINE
  5
F2
330
1F
100
AcDbEntity
  8
9
  6
________________
 62
     7
370
     0
100
AcDbLine
 10
1251.381160977355
 20
6.477625864626482
 30
0.0
 11
1254.881160977346
 21
6.477633925078504
 31
0.0
  0
LINE
  5
F3
330
1F
100
AcDbEntity
  8
9
  6
________________
 62
     7
370
     0
100
AcDbLine
 10
1241.381185376619
 20
6.477513156014227
 30
0.0
 11
1244.88118537661
 21
6.477521216491477
 31
0.0
  0
LINE
  5
F4
330
1F
100
AcDbEntity
  8
9
  6
________________
 62
     7
370
     0
100
AcDbLine
 10
1231.381247358242
 20
6.477387845882171
 30
0.0
 11
1234.881247358232
 21
6.477395906387469
 31
0.0
  0
LINE
  5
F5
330
1F
100
AcDbEntity
  8
9
  6
________________
 62
     7
370
     0
100
AcDbLine
 10
1221.381333598267
 20
6.477267692586046
 30
0.0
 11
1224.881333598258
 21
6.477275753118239
 31
0.0
  0
LINE
  5
F6
330
1F
100
AcDbEntity
  8
9
  6
________________
 62
     7
370
     0
100
AcDbLine
 10
1214.597953891974
 20
6.477182002661799
 30
0.0
 11
1214.8814301193
 21
6.477182655511844
 31
0.0
  0
LINE
  5
F7
330
1F
100
AcDbEntity
  8
9
  6
________________
 62
     7
370
     0
100
AcDbLine
 10
1181.380471154925
 20
6.477245960725727
 30
0.0
 11
1184.880471154916
 21
6.477254021262771
 31
0.0
  0
LINE
  5
F8
330
1F
100
AcDbEntity
  8
9
  6
________________
 62
     7
370
     0
100
AcDbLine
 10
1171.380604427451
 20
6.477364068166708
 30
0.0
 11
1174.880604427442
 21
6.477372128677321
 31
0.0
  0
LINE
  5
F9
330
1F
100
AcDbEntity
  8
9
  6
________________
 62
     7
370
     0
100
AcDbLine
 10
1161.380716758048
 20
6.477490673266778
 30
0.0
 11
1164.880716758038
 21
6.477498733749059
 31
0.0
  0
LINE
  5
FA
330
1F
100
AcDbEntity
  8
9
  6
________________
 62
     7
370
     0
100
AcDbLine
 10
1151.380780923792
 20
6.477606982233666
 30
0.0
 11
1154.880780923783
 21
6.477615042689893
 31
0.0
  0
LINE
  5
FB
330
1F
100
AcDbEntity
  8
9
  6
________________
 62
     7
370
     0
100
AcDbLine
 10
1142.380546865362
 20
6.477700813785181
 30
0.0
 11
1144.880769802962
 21
6.477706571752701
 31
0.0
  0
ARC
  5
FC
330
1F
100
AcDbEntity
  8
9
  6
________________
 62
     7
370
     0
100
AcDbCircle
 10
-1321.380546851062
 20
78.97706351245908
 30
0.0
 40
2.999999999999892
210
0.0
220
0.0
230
-1.0
100
AcDbArc
 50
180.0
 51
270.0
  0
ARC
  5
FD
330
1F
100
AcDbEntity
  8
9
  6
________________
 62
     7
370
     0
100
AcDbCircle
 10
-1321.380546851062
 20
5.97706351245908
 30
0.0
 40
3.000000000000003
210
0.0
220
0.0
230
-1.0
100
AcDbArc
 50
90.0
 51
180.0
  0
LINE
  5
FE
330
1F
100
AcDbEntity
  8
9
  6
________________
 62
     7
370
     0
100
AcDbLine
 10
1145.990234287896
 20
77.39876154159636
 30
0.0
 11
1145.728753947232
 21
75.96211414475128
 31
0.0
  0
LINE
  5
FF
330
1F
100
AcDbEntity
  8
9
  6
________________
 62
     7
370
     0
100
AcDbLine
 10
1155.98957083973
 20
77.39513704534784
 30
0.0
 11
1155.728746285434
 21
75.96211178192674
 31
0.0
  0
LINE
  5
100
330
1F
100
AcDbEntity
  8
9
  6
________________
 62
     7
370
     0
100
AcDbLine
 10
1165.989561209161
 20
77.39514551220496
 30
0.0
 11
1165.731449601183
 21
75.97702276037778
 31
0.0
  0
LINE
  5
101
330
1F
100
AcDbEntity
  8
9
  6
________________
 62
     7
370
     0
100
AcDbLine
 10
1175.989401847643
 20
77.39436303883177
 30
0.0
 11
1175.731432581115
 21
75.97703304027372
 31
0.0
  0
LINE
  5
102
330
1F
100
AcDbEntity
  8
9
  6
________________
 62
     7
370
     0
100
AcDbLine
 10
1185.989387322157
 20
77.39439924663202
 30
0.0
 11
1185.731409583709
 21
75.97702235810236
 31
0.0
  0
LINE
  5
103
330
1F
100
AcDbEntity
  8
9
  6
________________
 62
     7
370
     0
100
AcDbLine
 10
1215.992093484619
 20
77.40955208725487
 30
0.0
 11
1215.731366475575
 21
75.97703545724362
 31
0.0
  0
LINE
  5
104
330
1F
100
AcDbEntity
  8
9
  6
________________
 62
     7
370
     0
100
AcDbLine
 10
1225.989732731019
 20
77.39662690903859
 30
0.0
 11
1225.73136728817
 21
75.97702528287533
 31
0.0
  0
LINE
  5
105
330
1F
100
AcDbEntity
  8
9
  6
________________
 62
     7
370
     0
100
AcDbLine
 10
1235.98960292315
 20
77.39585986813721
 30
0.0
 11
1235.731164784954
 21
75.97583952609348
 31
0.0
  0
LINE
  5
106
330
1F
100
AcDbEntity
  8
9
  6
________________
 62
     7
370
     0
100
AcDbLine
 10
1245.989502166745
 20
77.39520779216978
 30
0.0
 11
1245.731400630886
 21
75.97702329021728
 31
0.0
  0
LINE
  5
107
330
1F
100
AcDbEntity
  8
9
  6
________________
 62
     7
370
     0
100
AcDbLine
 10
1255.989912306336
 20
77.39734678296017
 30
0.0
 11
1255.731421610768
 21
75.97702512835667
 31
0.0
  0
LINE
  5
108
330
1F
100
AcDbEntity
  8
9
  6
________________
 62
     7
370
     0
100
AcDbLine
 10
1265.989986758362
 20
77.39763626384585
 30
0.0
 11
1265.731441531701
 21
75.97702511659831
 31
0.0
  0
LINE
  5
109
330
1F
100
AcDbEntity
  8
9
  6
________________
 62
     7
370
     0
100
AcDbLine
 10
1275.989848980533
 20
77.39677279726165
 30
0.0
 11
1275.73145773104
 21
75.97702443812287
 31
0.0
  0
LINE
  5
10A
330
1F
100
AcDbEntity
  8
9
  6
________________
 62
     7
370
     0
100
AcDbLine
 10
1285.989826273004
 20
77.39656925632775
 30
0.0
 11
1285.731468343739
 21
75.97702433905123
 31
0.0
  0
LINE
  5
10B
330
1F
100
AcDbEntity
  8
9
  6
________________
 62
     7
370
     0
100
AcDbLine
 10
1295.989662052897
 20
77.39562279883711
 30
0.0
 11
1295.728754632494
 21
75.96211141400357
 31
0.0
  0
LINE
  5
10C
330
1F
100
AcDbEntity
  8
9
  6
________________
 62
     7
370
     0
100
AcDbLine
 10
1305.989615007551
 20
77.39536107134658
 30
0.0
 11
1305.728751850733
 21
75.96211220070354
 31
0.0
  0
LINE
  5
10D
330
1F
100
AcDbEntity
  8
9
  6
________________
 62
     7
370
     0
100
AcDbLine
 10
1300.519656067631
 20
10.13822071137452
 30
0.0
 11
1300.990878639773
 21
7.551828798756863
 31
0.0
  0
LINE
  5
10E
330
1F
100
AcDbEntity
  8
9
  6
________________
 62
     7
370
     0
100
AcDbLine
 10
1290.519900352245
 20
10.13689767758388
 30
0.0
 11
1290.989751823901
 21
7.557993671670905
 31
0.0
  0
LINE
  5
10F
330
1F
100
AcDbEntity
  8
9
  6
________________
 62
     7
370
     0
100
AcDbLine
 10
1280.520491720871
 20
10.13363613984534
 30
0.0
 11
1280.989766344323
 21
7.557852148078539
 31
0.0
  0
LINE
  5
110
330
1F
100
AcDbEntity
  8
9
  6
________________
 62
     7
370
     0
100
AcDbLine
 10
1270.52048606623
 20
10.13360761094319
 30
0.0
 11
1270.989816876354
 21
7.557480773510656
 31
0.0
  0
LINE
  5
111
330
1F
100
AcDbEntity
  8
9
  6
________________
 62
     7
370
     0
100
AcDbLine
 10
1260.520846376924
 20
10.13154740723921
 30
0.0
 11
1260.98978467934
 21
7.55754339590746
 31
0.0
  0
LINE
  5
112
330
1F
100
AcDbEntity
  8
9
  6
________________
 62
     7
370
     0
100
AcDbLine
 10
1250.521059473134
 20
10.13027341760567
 30
0.0
 11
1250.989864796003
 21
7.556981073652505
 31
0.0
  0
LINE
  5
113
330
1F
100
AcDbEntity
  8
9
  6
________________
 62
     7
370
     0
100
AcDbLine
 10
1240.520472673789
 20
10.13337439002088
 30
0.0
 11
1240.989920618714
 21
7.556563592327453
 31
0.0
  0
LINE
  5
114
330
1F
100
AcDbEntity
  8
9
  6
________________
 62
     7
370
     0
100
AcDbLine
 10
1230.520519936606
 20
10.13301534333712
 30
0.0
 11
1230.989808421068
 21
7.557102917225347
 31
0.0
  0
LINE
  5
115
330
1F
100
AcDbEntity
  8
9
  6
________________
 62
     7
370
     0
100
AcDbLine
 10
1220.520208827539
 20
10.13464904109064
 30
0.0
 11
1220.989489428516
 21
7.558837017113644
 31
0.0
  0
LINE
  5
116
330
1F
100
AcDbEntity
  8
9
  6
________________
 62
     7
370
     0
100
AcDbLine
 10
1180.519944888661
 20
10.13632977191215
 30
0.0
 11
1180.989505060215
 21
7.559140234007562
 31
0.0
  0
LINE
  5
117
330
1F
100
AcDbEntity
  8
9
  6
________________
 62
     7
370
     0
100
AcDbLine
 10
1170.519514734079
 20
10.13879775171394
 30
0.0
 11
1170.989434606736
 21
7.559634334205533
 31
0.0
  0
LINE
  5
118
330
1F
100
AcDbEntity
  8
9
  6
________________
 62
     7
370
     0
100
AcDbLine
 10
1160.519198955677
 20
10.14062533052289
 30
0.0
 11
1160.989356319893
 21
7.560143963867214
 31
0.0
  0
LINE
  5
119
330
1F
100
AcDbEntity
  8
9
  6
________________
 62
     7
370
     0
100
AcDbLine
 10
1150.520732351731
 20
10.13229966875319
 30
0.0
 11
1150.989604647259
 21
7.558820420301801
 31
0.0
  0
LINE
  5
11A
330
1F
100
AcDbEntity
  8
9
  6
________________
 62
     7
370
     0
100
AcDbLine
 10
1150.740431025705
 20
74.82248105052821
 30
0.0
 11
1150.271343528351
 21
77.39738210687031
 31
0.0
  0
LINE
  5
11B
330
1F
100
AcDbEntity
  8
9
  6
________________
 62
     7
370
     0
100
AcDbLine
 10
1160.741346598445
 20
74.81757870793707
 30
0.0
 11
1160.271548287721
 21
77.3963714396493
 31
0.0
  0
LINE
  5
11C
330
1F
100
AcDbEntity
  8
9
  6
________________
 62
     7
370
     0
100
AcDbLine
 10
1170.74052426699
 20
74.82218978233628
 30
0.0
 11
1170.271694456736
 21
77.39565771204474
 31
0.0
  0
LINE
  5
11D
330
1F
100
AcDbEntity
  8
9
  6
________________
 62
     7
370
     0
100
AcDbLine
 10
1180.742062239395
 20
74.8138496337263
 30
0.0
 11
1180.271603125558
 21
77.3962020039138
 31
0.0
  0
LINE
  5
11E
330
1F
100
AcDbEntity
  8
9
  6
________________
 62
     7
370
     0
100
AcDbLine
 10
1220.741484913306
 20
74.8168279191784
 30
0.0
 11
1220.271889731023
 21
77.3942721546669
 31
0.0
  0
LINE
  5
11F
330
1F
100
AcDbEntity
  8
9
  6
________________
 62
     7
370
     0
100
AcDbLine
 10
1230.741002985
 20
74.819352762875
 30
0.0
 11
1230.271819550821
 21
77.39454521396397
 31
0.0
  0
LINE
  5
120
330
1F
100
AcDbEntity
  8
9
  6
________________
 62
     7
370
     0
100
AcDbLine
 10
1240.740387765974
 20
74.82261762611164
 30
0.0
 11
1240.271721163248
 21
77.39499776527595
 31
0.0
  0
LINE
  5
121
330
1F
100
AcDbEntity
  8
9
  6
________________
 62
     7
370
     0
100
AcDbLine
 10
1250.741482564426
 20
74.81654186570383
 30
0.0
 11
1250.271679650929
 21
77.39517156634886
 31
0.0
  0
LINE
  5
122
330
1F
100
AcDbEntity
  8
9
  6
________________
 62
     7
370
     0
100
AcDbLine
 10
1260.740977252399
 20
74.81926008061866
 30
0.0
 11
1260.271520426807
 21
77.39603238408938
 31
0.0
  0
LINE
  5
123
330
1F
100
AcDbEntity
  8
9
  6
________________
 62
     7
370
     0
100
AcDbLine
 10
1270.741029967885
 20
74.81895944067502
 30
0.0
 11
1270.271512142031
 21
77.3961038534874
 31
0.0
  0
LINE
  5
124
330
1F
100
AcDbEntity
  8
9
  6
________________
 62
     7
370
     0
100
AcDbLine
 10
1280.74145593006
 20
74.81665215494817
 30
0.0
 11
1280.271543335144
 21
77.39599605227768
 31
0.0
  0
LINE
  5
125
330
1F
100
AcDbEntity
  8
9
  6
________________
 62
     7
370
     0
100
AcDbLine
 10
1290.741692882493
 20
74.81541572756842
 30
0.0
 11
1290.271435131628
 21
77.39668642939212
 31
0.0
  0
LINE
  5
126
330
1F
100
AcDbEntity
  8
9
  6
________________
 62
     7
370
     0
100
AcDbLine
 10
1300.741279170991
 20
74.81777071971057
 30
0.0
 11
1300.27151253738
 21
77.39637590209665
 31
0.0
  0
LINE
  5
127
330
1F
100
AcDbEntity
  8
9
  6
________________
 62
     7
370
     0
100
AcDbLine
 10
1305.271341980223
 20
7.556751638127537
 30
0.0
 11
1305.529831250651
 21
8.977101771400369
 31
0.0
  0
LINE
  5
128
330
1F
100
AcDbEntity
  8
9
  6
________________
 62
     7
370
     0
100
AcDbLine
 10
1295.270214933882
 20
7.550680789879791
 30
0.0
 11
1295.529810965953
 21
8.977098462305975
 31
0.0
  0
LINE
  5
129
330
1F
100
AcDbEntity
  8
9
  6
________________
 62
     7
370
     0
100
AcDbLine
 10
1285.271427435255
 20
7.557449085220657
 30
0.0
 11
1285.529794673824
 21
8.977102593851455
 31
0.0
  0
LINE
  5
12A
330
1F
100
AcDbEntity
  8
9
  6
________________
 62
     7
370
     0
100
AcDbLine
 10
1275.271507152307
 20
7.557968209708394
 30
0.0
 11
1275.529783665243
 21
8.97710314816498
 31
0.0
  0
LINE
  5
12B
330
1F
100
AcDbEntity
  8
9
  6
________________
 62
     7
370
     0
100
AcDbLine
 10
1265.271769634161
 20
7.559457902375548
 30
0.0
 11
1265.529776933851
 21
8.977089318749776
 31
0.0
  0
LINE
  5
12C
330
1F
100
AcDbEntity
  8
9
  6
________________
 62
     7
370
     0
100
AcDbLine
 10
1255.271650885791
 20
7.558809856571549
 30
0.0
 11
1255.529782098707
 21
8.977104202499115
 31
0.0
  0
LINE
  5
12D
330
1F
100
AcDbEntity
  8
9
  6
________________
 62
     7
370
     0
100
AcDbLine
 10
1245.271748269856
 20
7.559310330197216
 30
0.0
 11
1245.529791770349
 21
8.977104773288364
 31
0.0
  0
LINE
  5
12E
330
1F
100
AcDbEntity
  8
9
  6
________________
 62
     7
370
     0
100
AcDbLine
 10
1235.271818529637
 20
7.559624254850163
 30
0.0
 11
1235.529807362491
 21
8.977105091215083
 31
0.0
  0
LINE
  5
12F
330
1F
100
AcDbEntity
  8
9
  6
________________
 62
     7
370
     0
100
AcDbLine
 10
1225.270736534805
 20
7.553579160564677
 30
0.0
 11
1225.52982667623
 21
8.977100295266244
 31
0.0
  0
LINE
  5
130
330
1F
100
AcDbEntity
  8
9
  6
________________
 62
     7
370
     0
100
AcDbLine
 10
1215.271737166074
 20
7.558954421018241
 30
0.0
 11
1215.529848708674
 21
8.977103976611632
 31
0.0
  0
LINE
  5
131
330
1F
100
AcDbEntity
  8
9
  6
________________
 62
     7
370
     0
100
AcDbLine
 10
1185.271771319282
 20
7.558855914438715
 30
0.0
 11
1185.52988820698
 21
8.97710362580295
 31
0.0
  0
LINE
  5
132
330
1F
100
AcDbEntity
  8
9
  6
________________
 62
     7
370
     0
100
AcDbLine
 10
1175.271385643625
 20
7.556741732407605
 30
0.0
 11
1175.529880793204
 21
8.97710181497837
 31
0.0
  0
LINE
  5
133
330
1F
100
AcDbEntity
  8
9
  6
________________
 62
     7
370
     0
100
AcDbLine
 10
1165.27136387494
 20
7.55669101536819
 30
0.0
 11
1165.529864853996
 21
8.977101279811905
 31
0.0
  0
LINE
  5
134
330
1F
100
AcDbEntity
  8
9
  6
________________
 62
     7
370
     0
100
AcDbLine
 10
1155.271315707554
 20
7.556532050841613
 30
0.0
 11
1155.529844566096
 21
8.977100758594563
 31
0.0
  0
LINE
  5
135
330
1F
100
AcDbEntity
  8
9
  6
________________
 62
     7
370
     0
100
AcDbLine
 10
1145.271516061394
 20
7.557755336157726
 30
0.0
 11
1145.529821019004
 21
8.977088011621872
 31
0.0
  0
LINE
  5
136
330
1F
100
AcDbEntity
  8
9
  6
________________
 62
     7
370
     0
100
AcDbLine
 10
1311.380546851062
 20
77.47706351245908
 30
0.0
 11
1310.34131636652
 21
75.67706351245909
 31
0.0
  0
LINE
  5
137
330
1F
100
AcDbEntity
  8
9
  6
________________
 62
     7
370
     0
100
AcDbLine
 10
1310.34131636652
 20
9.277063512459083
 30
0.0
 11
1311.380546851062
 21
7.477063512459081
 31
0.0
  0
LINE
  5
138
330
1F
100
AcDbEntity
  8
9
  6
________________
 62
     7
370
     0
100
AcDbLine
 10
1313.380546851061
 20
77.47706351245908
 30
0.0
 11
1311.380546851062
 21
77.47706351245908
 31
0.0
  0
LINE
  5
139
330
1F
100
AcDbEntity
  8
9
  6
________________
 62
     7
370
     0
100
AcDbLine
 10
1311.380546851062
 20
7.477063512459081
 30
0.0
 11
1313.380546851061
 21
7.477063512459081
 31
0.0
  0
LINE
  5
13A
330
1F
100
AcDbEntity
  8
9
  6
________________
 62
     7
370
     0
100
AcDbLine
 10
1295.321338306377
 20
8.977063512459083
 30
0.0
 11
1300.731471854871
 21
8.977063512459083
 31
0.0
  0
LINE
  5
13B
330
1F
100
AcDbEntity
  8
9
  6
________________
 62
     7
370
     0
100
AcDbLine
 10
1321.380546851061
 20
75.97706351245908
 30
0.0
 11
1313.380546851061
 21
75.97706351245908
 31
0.0
  0
LINE
  5
13C
330
1F
100
AcDbEntity
  8
9
  6
________________
 62
     7
370
     0
100
AcDbLine
 10
1313.380546851061
 20
8.977063512459083
 30
0.0
 11
1321.380546851061
 21
8.977063512459083
 31
0.0
  0
LINE
  5
13D
330
1F
100
AcDbEntity
  8
9
  6
________________
 62
     7
370
     0
100
AcDbLine
 10
1309.380546851061
 20
75.97706351245908
 30
0.0
 11
1307.380546851062
 21
75.97706351245908
 31
0.0
  0
LINE
  5
13E
330
1F
100
AcDbEntity
  8
9
  6
________________
 62
     7
370
     0
100
AcDbLine
 10
1305.321355692304
 20
8.977063512459083
 30
0.0
 11
1309.380546851061
 21
8.977063512459083
 31
0.0
  0
LINE
  5
13F
330
1F
100
AcDbEntity
  8
9
  6
________________
 62
     7
370
     0
100
AcDbLine
 10
1165.939867593115
 20
75.97706351245908
 30
0.0
 11
1160.529854918109
 21
75.97706351245908
 31
0.0
  0
LINE
  5
140
330
1F
100
AcDbEntity
  8
9
  6
________________
 62
     7
370
     0
100
AcDbLine
 10
1175.939848175409
 20
75.97706351245908
 30
0.0
 11
1170.529914012649
 21
75.97706351245908
 31
0.0
  0
LINE
  5
141
330
1F
100
AcDbEntity
  8
9
  6
________________
 62
     7
370
     0
100
AcDbLine
 10
1185.939833301403
 20
75.97706351245908
 30
0.0
 11
1180.529885870531
 21
75.97706351245908
 31
0.0
  0
LINE
  5
142
330
1F
100
AcDbEntity
  8
9
  6
________________
 62
     7
370
     0
100
AcDbLine
 10
1215.939830413971
 20
75.97706351245908
 30
0.0
 11
1214.597953891974
 21
75.97706351245908
 31
0.0
  0
LINE
  5
143
330
1F
100
AcDbEntity
  8
9
  6
________________
 62
     7
370
     0
100
AcDbLine
 10
1225.939848891727
 20
75.97706351245908
 30
0.0
 11
1220.529837900797
 21
75.97706351245908
 31
0.0
  0
LINE
  5
144
330
1F
100
AcDbEntity
  8
9
  6
________________
 62
     7
370
     0
100
AcDbLine
 10
1235.939868253917
 20
75.97706351245908
 30
0.0
 11
1230.529857274423
 21
75.97706351245908
 31
0.0
  0
LINE
  5
145
330
1F
100
AcDbEntity
  8
9
  6
________________
 62
     7
370
     0
100
AcDbLine
 10
1245.939886755852
 20
75.97706351245908
 30
0.0
 11
1240.529829266134
 21
75.97706351245908
 31
0.0
  0
LINE
  5
146
330
1F
100
AcDbEntity
  8
9
  6
________________
 62
     7
370
     0
100
AcDbLine
 10
1255.939903012433
 20
75.97706351245908
 30
0.0
 11
1250.529786117708
 21
75.97706351245908
 31
0.0
  0
LINE
  5
147
330
1F
100
AcDbEntity
  8
9
  6
________________
 62
     7
370
     0
100
AcDbLine
 10
1265.939915785738
 20
75.97706351245908
 30
0.0
 11
1260.529779819112
 21
75.97706351245908
 31
0.0
  0
LINE
  5
148
330
1F
100
AcDbEntity
  8
9
  6
________________
 62
     7
370
     0
100
AcDbLine
 10
1275.939920663419
 20
75.97706351245908
 30
0.0
 11
1270.5297806118
 21
75.97706351245908
 31
0.0
  0
LINE
  5
149
330
1F
100
AcDbEntity
  8
9
  6
________________
 62
     7
370
     0
100
AcDbLine
 10
1285.939921567485
 20
75.97706351245908
 30
0.0
 11
1280.529788348785
 21
75.97706351245908
 31
0.0
  0
LINE
  5
14A
330
1F
100
AcDbEntity
  8
9
  6
________________
 62
     7
370
     0
100
AcDbLine
 10
1285.321325125939
 20
8.977063512459083
 30
0.0
 11
1290.731471193605
 21
8.977063512459083
 31
0.0
  0
LINE
  5
14B
330
1F
100
AcDbEntity
  8
9
  6
________________
 62
     7
370
     0
100
AcDbLine
 10
1275.321326063399
 20
8.977063512459083
 30
0.0
 11
1280.731463845625
 21
8.977063512459083
 31
0.0
  0
LINE
  5
14C
330
1F
100
AcDbEntity
  8
9
  6
________________
 62
     7
370
     0
100
AcDbLine
 10
1265.321331560602
 20
8.977063512459083
 30
0.0
 11
1270.731409742914
 21
8.977063512459083
 31
0.0
  0
LINE
  5
14D
330
1F
100
AcDbEntity
  8
9
  6
________________
 62
     7
370
     0
100
AcDbLine
 10
1255.321346765171
 20
8.977063512459083
 30
0.0
 11
1260.731401774902
 21
8.977063512459083
 31
0.0
  0
LINE
  5
14E
330
1F
100
AcDbEntity
  8
9
  6
________________
 62
     7
370
     0
100
AcDbLine
 10
1245.321364761206
 20
8.977063512459083
 30
0.0
 11
1250.731410985668
 21
8.977063512459083
 31
0.0
  0
LINE
  5
14F
330
1F
100
AcDbEntity
  8
9
  6
________________
 62
     7
370
     0
100
AcDbLine
 10
1235.321383736059
 20
8.977063512459083
 30
0.0
 11
1240.731390273916
 21
8.977063512459083
 31
0.0
  0
LINE
  5
150
330
1F
100
AcDbEntity
  8
9
  6
________________
 62
     7
370
     0
100
AcDbLine
 10
1225.321404338243
 20
8.977063512459083
 30
0.0
 11
1230.731373260046
 21
8.977063512459083
 31
0.0
  0
LINE
  5
151
330
1F
100
AcDbEntity
  8
9
  6
________________
 62
     7
370
     0
100
AcDbLine
 10
1215.321414299632
 20
8.977063512459083
 30
0.0
 11
1220.731363906367
 21
8.977063512459083
 31
0.0
  0
LINE
  5
152
330
1F
100
AcDbEntity
  8
9
  6
________________
 62
     7
370
     0
100
AcDbLine
 10
1185.321410380398
 20
8.977063512459083
 30
0.0
 11
1186.380546851062
 21
8.977063512459083
 31
0.0
  0
LINE
  5
153
330
1F
100
AcDbEntity
  8
9
  6
________________
 62
     7
370
     0
100
AcDbLine
 10
1175.321391621522
 20
8.977063512459083
 30
0.0
 11
1180.731420391555
 21
8.977063512459083
 31
0.0
  0
LINE
  5
154
330
1F
100
AcDbEntity
  8
9
  6
________________
 62
     7
370
     0
100
AcDbLine
 10
1165.321371897281
 20
8.977063512459083
 30
0.0
 11
1170.731440734583
 21
8.977063512459083
 31
0.0
  0
LINE
  5
155
330
1F
100
AcDbEntity
  8
9
  6
________________
 62
     7
370
     0
100
AcDbLine
 10
1155.321352448839
 20
8.977063512459083
 30
0.0
 11
1160.731457333726
 21
8.977063512459083
 31
0.0
  0
LINE
  5
156
330
1F
100
AcDbEntity
  8
9
  6
________________
 62
     7
370
     0
100
AcDbLine
 10
1145.321340933961
 20
8.977063512459083
 30
0.0
 11
1150.731468141245
 21
8.977063512459083
 31
0.0
  0
LINE
  5
157
330
1F
100
AcDbEntity
  8
9
  6
________________
 62
     7
370
     0
100
AcDbLine
 10
1140.380546851062
 20
8.977063512459083
 30
0.0
 11
1142.380546851062
 21
8.977063512459083
 31
0.0
  0
LINE
  5
158
330
1F
100
AcDbEntity
  8
9
  6
________________
 62
     7
370
     0
100
AcDbLine
 10
1310.34131636652
 20
75.67706351245909
 30
0.0
 11
1309.380546851061
 21
75.67706351245909
 31
0.0
  0
LINE
  5
159
330
1F
100
AcDbEntity
  8
9
  6
________________
 62
     7
370
     0
100
AcDbLine
 10
1309.380546851061
 20
9.277063512459083
 30
0.0
 11
1310.34131636652
 21
9.277063512459083
 31
0.0
  0
LINE
  5
15A
330
1F
100
AcDbEntity
  8
9
  6
________________
 62
     7
370
     0
100
AcDbLine
 10
1330.380546851061
 20
78.28615442155001
 30
0.0
 11
1330.680546851061
 21
78.28615442155001
 31
0.0
  0
LINE
  5
15B
330
1F
100
AcDbEntity
  8
9
  6
________________
 62
     7
370
     0
100
AcDbLine
 10
1330.380546851061
 20
78.24979078518638
 30
0.0
 11
1330.680546851061
 21
78.24979078518638
 31
0.0
  0
LINE
  5
15C
330
1F
100
AcDbEntity
  8
9
  6
________________
 62
     7
370
     0
100
AcDbLine
 10
1330.680546851061
 20
78.28615442155001
 30
0.0
 11
1330.718046851061
 21
78.28615442155001
 31
0.0
  0
LINE
  5
15D
330
1F
100
AcDbEntity
  8
9
  6
________________
 62
     7
370
     0
100
AcDbLine
 10
1330.718046851061
 20
85.70433623973182
 30
0.0
 11
1330.680546851061
 21
85.70433623973182
 31
0.0
  0
LWPOLYLINE
  5
15E
330
1F
100
AcDbEntity
  8
9
  6
________________
 62
     7
370
     0
100
AcDbPolyline
 90
        8
 70
     0
 43
0.0
 10
1220.520690313598
 20
10.13201193599714
 42
-0.0167106318040139
 10
1218.213607565653
 20
47.22279687013216
 42
0.0231143771619619
 10
1216.253059567953
 20
75.33072196443266
 10
1216.205359601038
 20
75.51224046890647
 10
1216.15746883627
 20
75.66456538325667
 10
1216.109563112009
 20
75.78686384893743
 10
1216.052842231392
 20
75.89266066218391
 10
1215.939830162466
 20
75.9770635124588
  0
LWPOLYLINE
  5
15F
330
1F
100
AcDbEntity
  8
9
  6
________________
 62
     7
370
     0
100
AcDbPolyline
 90
        6
 70
     0
 43
0.0
 10
1220.740662212128
 20
74.82133293341694
 42
-0.0167918802796882
 10
1223.101631989569
 20
36.6095259999256
 42
0.0226734315031492
 10
1225.008797070515
 20
9.621154307782147
 42
0.0558246508235062
 10
1225.176214047674
 20
9.116208489705333
 10
1225.25244384169
 20
9.008461047264847
 10
1225.321406835723
 20
8.977063512523156
  0
LINE
  5
160
330
1F
100
AcDbEntity
  8
9
  6
________________
 62
     7
370
     0
100
AcDbLine
 10
1214.597953891974
 20
89.97706351245908
 30
0.0
 11
1214.597953891974
 21
-5.022936487540916
 31
0.0
  0
LINE
  5
161
330
1F
100
AcDbEntity
  8
9
  6
________________
 62
     7
370
     0
100
AcDbLine
 10
1210.380546851062
 20
7.517806342390867
 30
0.0
 11
1210.380546851062
 21
-4.981601489117665
 31
0.0
  0
LINE
  5
162
330
1F
100
AcDbEntity
  8
9
  6
________________
 62
     7
370
     0
100
AcDbLine
 10
1210.380546851062
 20
40.49587289363652
 30
0.0
 11
1210.380546851062
 21
10.31963298517605
 31
0.0
  0
LINE
  5
163
330
1F
100
AcDbEntity
  8
9
  6
________________
 62
     7
370
     0
100
AcDbLine
 10
1210.380546851062
 20
74.63449403974207
 30
0.0
 11
1210.380546851062
 21
44.45825413128159
 31
0.0
  0
LINE
  5
164
330
1F
100
AcDbEntity
  8
9
  6
________________
 62
     7
370
     0
100
AcDbLine
 10
1210.380546851062
 20
89.93572851403583
 30
0.0
 11
1210.380546851062
 21
77.43632068252725
 31
0.0
  0
ELLIPSE
  5
165
330
1F
100
AcDbEntity
  8
9
  6
________________
 62
     7
370
     0
100
AcDbEllipse
 10
1191.519038833536
 20
44.43739949318876
 30
0.0
 11
-0.01569393886158288
 21
0.4997536395895535
 31
0.0
210
0.0
220
0.0
230
1.0
 40
0.5138120359403519
 41
0.0
 42
0.1615283423161224
  0
LINE
  5
166
330
1F
100
AcDbEntity
  8
9
  6
________________
 62
     7
370
     0
100
AcDbLine
 10
1191.519038833536
 20
44.93739949318874
 30
0.0
 11
1191.519038833536
 21
44.93671426056602
 31
0.0
  0
ELLIPSE
  5
167
330
1F
100
AcDbEntity
  8
9
  6
________________
 62
     7
370
     0
100
AcDbEllipse
 10
1191.519038833536
 20
44.43739949318876
 30
0.0
 11
-0.01569393886158288
 21
0.4997536395895535
 31
3.851859888774418E-34
210
2.418034143896892E-35
220
-7.699923994416272E-34
230
1.0
 40
0.5138120359403519
 41
-0.0610424320390639
 42
0.0
  0
ELLIPSE
  5
168
330
1F
100
AcDbEntity
  8
9
  6
________________
 62
     7
370
     0
100
AcDbEllipse
 10
1191.519038833536
 20
40.51672753172941
 30
0.0
 11
0.01569393886158288
 21
0.4997536395895605
 31
3.851859888774445E-34
210
-2.418034143890639E-35
220
-7.699923994416239E-34
230
1.0
 40
0.5138120359403434
 41
3.141592653589572
 42
3.202635085628414
  0
ELLIPSE
  5
169
330
1F
100
AcDbEntity
  8
9
  6
________________
 62
     7
370
     0
100
AcDbEllipse
 10
1191.519038833536
 20
40.51672753172941
 30
0.0
 11
0.01569393886158288
 21
0.4997536395895605
 31
0.0
210
0.0
220
0.0
230
1.0
 40
0.5138120359403437
 41
2.980063907385059
 42
3.141592653589569
  0
ELLIPSE
  5
16A
330
1F
100
AcDbEntity
  8
9
  6
________________
 62
     7
370
     0
100
AcDbEllipse
 10
1186.880546851061
 20
40.66239224154464
 30
0.0
 11
0.01569405407386704
 21
0.4997536359714963
 31
0.0
210
0.0
220
0.0
230
0.9999999999999998
 40
0.513814812110503
 41
2.979992307393921
 42
3.141592653589572
  0
LINE
  5
16B
330
1F
100
AcDbEntity
  8
9
  6
________________
 62
     7
370
     0
100
AcDbLine
 10
1186.380546851062
 20
40.66239224154464
 30
0.0
 11
1186.380546851062
 21
44.29173478337357
 31
0.0
  0
ELLIPSE
  5
16C
330
1F
100
AcDbEntity
  8
9
  6
________________
 62
     7
370
     0
100
AcDbEllipse
 10
1186.880546851061
 20
44.29173478337352
 30
0.0
 11
-0.01569405407386704
 21
0.4997536359714963
 31
3.851859888774505E-34
210
2.418051895162015E-35
220
-7.699923938671197E-34
230
0.9999999999999998
 40
0.513814812110503
 41
0.0
 42
0.161599875505698
  0
LINE
  5
16D
330
1F
100
AcDbEntity
  8
9
  6
________________
 62
     7
370
     0
100
AcDbLine
 10
1210.380546851062
 20
14.70590893979107
 30
0.0
 11
1199.793391108314
 21
15.32569524995948
 31
0.0
  0
LINE
  5
16E
330
1F
100
AcDbEntity
  8
9
  6
________________
 62
     7
370
     0
100
AcDbLine
 10
1210.380546851062
 20
70.24821808512709
 30
0.0
 11
1199.793391108314
 21
69.62843177495868
 31
0.0
  0
LINE
  5
16F
330
1F
100
AcDbEntity
  8
9
  6
________________
 62
     7
370
     0
100
AcDbLine
 10
1198.902110115243
 20
69.1000541550294
 30
0.0
 11
1198.880546851061
 21
68.94581793206444
 31
0.0
  0
ELLIPSE
  5
170
330
1F
100
AcDbEntity
  8
9
  6
________________
 62
     7
370
     0
100
AcDbEllipse
 10
1199.880546851061
 20
68.96184741257308
 30
0.0
 11
1.000000000000112
 21
0.0
 31
0.0
210
0.0
220
0.0
230
1.0
 40
0.6691306063587811
 41
1.658062789394604
 42
2.933548386005397
  0
LINE
  5
171
330
1F
100
AcDbEntity
  8
9
  6
________________
 62
     7
370
     0
100
AcDbLine
 10
1198.880546851061
 20
68.94581793206454
 30
0.0
 11
1198.880546851061
 21
44.93739949318873
 31
0.0
  0
ELLIPSE
  5
172
330
1F
100
AcDbEntity
  8
9
  6
________________
 62
     7
370
     0
100
AcDbEllipse
 10
1199.880546851061
 20
15.99227961234508
 30
0.0
 11
1.000000000000112
 21
0.0
 31
0.0
210
0.0
220
0.0
230
-1.0
 40
0.6691306063587759
 41
1.658062789394602
 42
2.933548386005388
  0
LINE
  5
173
330
1F
100
AcDbEntity
  8
9
  6
________________
 62
     7
370
     0
100
AcDbLine
 10
1198.880546851061
 20
16.00830909285369
 30
0.0
 11
1198.902110115243
 21
15.85407286988874
 31
0.0
  0
LINE
  5
174
330
1F
100
AcDbEntity
  8
9
  6
________________
 62
     7
370
     0
100
AcDbLine
 10
1198.880546851061
 20
40.01672753172939
 30
0.0
 11
1198.880546851061
 21
16.00830909285369
 31
0.0
  0
LINE
  5
175
330
1F
100
AcDbEntity
  8
9
  6
________________
 62
     7
370
     0
100
AcDbLine
 10
1186.380546851062
 20
39.55694223824203
 30
0.0
 11
1186.380546851062
 21
40.6629107196067
 31
0.0
  0
LINE
  5
176
330
1F
100
AcDbEntity
  8
9
  6
________________
 62
     7
370
     0
100
AcDbLine
 10
1186.380546851062
 20
40.6629107196067
 30
0.0
 11
1186.380546851061
 21
40.89357159957504
 31
0.0
  0
LINE
  5
177
330
1F
100
AcDbEntity
  8
9
  6
________________
 62
     7
370
     0
100
AcDbLine
 10
1186.380546851062
 20
44.06055542534312
 30
0.0
 11
1186.380546851062
 21
44.29121630531093
 31
0.0
  0
LINE
  5
178
330
1F
100
AcDbEntity
  8
9
  6
________________
 62
     7
370
     0
100
AcDbLine
 10
1186.380546851062
 20
44.29121630531093
 30
0.0
 11
1186.380546851062
 21
45.39718478667613
 31
0.0
  0
LINE
  5
179
330
1F
100
AcDbEntity
  8
9
  6
________________
 62
     7
370
     0
100
AcDbLine
 10
1186.380546851062
 20
67.77015800427452
 30
0.0
 11
1186.380546851062
 21
45.39718478667613
 31
0.0
  0
LINE
  5
17A
330
1F
100
AcDbEntity
  8
9
  6
________________
 62
     7
370
     0
100
AcDbLine
 10
1186.380546851062
 20
39.55694223824204
 30
0.0
 11
1186.380546851062
 21
17.18396902064366
 31
0.0
  0
LINE
  5
17B
330
1F
100
AcDbEntity
  8
9
  6
________________
 62
     7
370
     0
100
AcDbLine
 10
1186.380546851062
 20
69.47793243450612
 30
0.0
 11
1186.380546851062
 21
72.43362857767907
 31
0.0
  0
LINE
  5
17C
330
1F
100
AcDbEntity
  8
9
  6
________________
 62
     7
370
     0
100
AcDbLine
 10
1186.380546851062
 20
12.52049844723909
 30
0.0
 11
1186.380546851062
 21
15.47619459041204
 31
0.0
  0
LINE
  5
17D
330
1F
100
AcDbEntity
  8
9
  6
________________
 62
     7
370
     0
100
AcDbLine
 10
1186.380546851062
 20
72.43362857767907
 30
0.0
 11
1186.380546851062
 21
74.99996130025512
 31
0.0
  0
LINE
  5
17E
330
1F
100
AcDbEntity
  8
9
  6
________________
 62
     7
370
     0
100
AcDbLine
 10
1186.380546851062
 20
9.954165724663108
 30
0.0
 11
1186.380546851062
 21
12.52049844723926
 31
0.0
  0
LINE
  5
17F
330
1F
100
AcDbEntity
  8
9
  6
________________
 62
     7
370
     0
100
AcDbLine
 10
1186.380546851062
 20
15.54078257296024
 30
0.0
 11
1186.380546851062
 21
15.64073997411557
 31
0.0
  0
LINE
  5
180
330
1F
100
AcDbEntity
  8
9
  6
________________
 62
     7
370
     0
100
AcDbLine
 10
1186.380546851062
 20
15.64073997411557
 30
0.0
 11
1186.380546851062
 21
17.18396902064364
 31
0.0
  0
LINE
  5
181
330
1F
100
AcDbEntity
  8
9
  6
________________
 62
     7
370
     0
100
AcDbLine
 10
1186.380546851062
 20
15.47619459041204
 30
0.0
 11
1186.380546851062
 21
15.54078257296024
 31
0.0
  0
LINE
  5
182
330
1F
100
AcDbEntity
  8
9
  6
________________
 62
     7
370
     0
100
AcDbLine
 10
1186.380546851062
 20
69.41334445195831
 30
0.0
 11
1186.380546851061
 21
69.47793243450612
 31
0.0
  0
LINE
  5
183
330
1F
100
AcDbEntity
  8
9
  6
________________
 62
     7
370
     0
100
AcDbLine
 10
1186.380546851062
 20
67.77015800427452
 30
0.0
 11
1186.380546851062
 21
69.31338705079997
 31
0.0
  0
LINE
  5
184
330
1F
100
AcDbEntity
  8
9
  6
________________
 62
     7
370
     0
100
AcDbLine
 10
1186.380546851062
 20
69.31338705079997
 30
0.0
 11
1186.380546851062
 21
69.41334445195831
 31
0.0
  0
LINE
  5
185
330
1F
100
AcDbEntity
  8
9
  6
________________
 62
     7
370
     0
100
AcDbLine
 10
1210.380546851062
 20
83.92352389993599
 30
0.0
 11
1199.793391108314
 21
82.99853719526446
 31
0.0
  0
LINE
  5
186
330
1F
100
AcDbEntity
  8
9
  6
________________
 62
     7
370
     0
100
AcDbLine
 10
1210.380546851062
 20
1.030603124982182
 30
0.0
 11
1199.793391108314
 21
1.9555898296537
 31
0.0
  0
LINE
  5
187
330
1F
100
AcDbEntity
  8
9
  6
________________
 62
     7
370
     0
100
AcDbLine
 10
1198.902110115243
 20
82.20997141789557
 30
0.0
 11
1198.880546851061
 21
82.00257328208329
 31
0.0
  0
ELLIPSE
  5
188
330
1F
100
AcDbEntity
  8
9
  6
________________
 62
     7
370
     0
100
AcDbEllipse
 10
1199.880546851061
 20
82.00370774738414
 30
0.0
 11
1.000000000000112
 21
-1.387778780781446E-14
 31
-2.465190328815664E-32
210
2.465190328815388E-32
220
-3.889384548663214E-62
230
1.0
 40
0.998629534754463
 41
1.658062789394617
 42
2.933548386005397
  0
LINE
  5
189
330
1F
100
AcDbEntity
  8
9
  6
________________
 62
     7
370
     0
100
AcDbLine
 10
1198.880546851061
 20
82.00257328208329
 30
0.0
 11
1198.880546851061
 21
77.56832850178974
 31
0.0
  0
ELLIPSE
  5
18A
330
1F
100
AcDbEntity
  8
9
  6
________________
 62
     7
370
     0
100
AcDbEllipse
 10
1199.880546851061
 20
2.950419277534033
 30
0.0
 11
1.000000000000112
 21
-9.540979117872441E-15
 31
0.0
210
0.0
220
0.0
230
-1.0
 40
0.998629534754463
 41
1.658062789394595
 42
2.933548386005379
  0
LINE
  5
18B
330
1F
100
AcDbEntity
  8
9
  6
________________
 62
     7
370
     0
100
AcDbLine
 10
1198.880546851061
 20
2.951553742834879
 30
0.0
 11
1198.902110115243
 21
2.744155607022611
 31
0.0
  0
LINE
  5
18C
330
1F
100
AcDbEntity
  8
9
  6
________________
 62
     7
370
     0
100
AcDbLine
 10
1198.880546851061
 20
7.3857985231284
 30
0.0
 11
1198.880546851061
 21
2.951553742834879
 31
0.0
  0
LINE
  5
18D
330
1F
100
AcDbEntity
  8
9
  6
________________
 62
     7
370
     0
100
AcDbLine
 10
1186.380546851062
 20
81.16702205138576
 30
0.0
 11
1186.380546851062
 21
74.99996130025507
 31
0.0
  0
LINE
  5
18E
330
1F
100
AcDbEntity
  8
9
  6
________________
 62
     7
370
     0
100
AcDbLine
 10
1186.380546851062
 20
9.954165724663074
 30
0.0
 11
1186.380546851062
 21
3.7871049735324
 31
0.0
  0
LINE
  5
18F
330
1F
100
AcDbEntity
  8
9
  6
________________
 62
     7
370
     0
100
AcDbLine
 10
1186.380546851062
 20
2.708576574157913
 30
0.0
 11
1186.380546851062
 21
3.787104973532407
 31
0.0
  0
LINE
  5
190
330
1F
100
AcDbEntity
  8
9
  6
________________
 62
     7
370
     0
100
AcDbLine
 10
1186.380546851062
 20
81.16702205138576
 30
0.0
 11
1186.380546851062
 21
82.24555045076026
 31
0.0
  0
LINE
  5
191
330
1F
100
AcDbEntity
  8
9
  6
________________
 62
     7
370
     0
100
AcDbLine
 10
1186.380546851062
 20
-1.702588355801518
 30
0.0
 11
1186.380546851062
 21
2.708576574157913
 31
0.0
  0
LINE
  5
192
330
1F
100
AcDbEntity
  8
9
  6
________________
 62
     7
370
     0
100
AcDbLine
 10
1186.380546851062
 20
82.24555045076025
 30
0.0
 11
1186.380546851062
 21
86.65671538071969
 31
0.0
  0
LINE
  5
193
330
1F
100
AcDbEntity
  8
9
  6
________________
 62
     7
370
     0
100
AcDbLine
 10
1186.380546851062
 20
-1.73984129805637
 30
0.0
 11
1186.380546851062
 21
-1.702588355801518
 31
0.0
  0
LINE
  5
194
330
1F
100
AcDbEntity
  8
9
  6
________________
 62
     7
370
     0
100
AcDbLine
 10
1186.380546851062
 20
86.65671538071967
 30
0.0
 11
1186.380546851062
 21
86.69396832297451
 31
0.0
  0
LINE
  5
195
330
1F
100
AcDbEntity
  8
9
  6
________________
 62
     7
370
     0
100
AcDbLine
 10
1186.380543825663
 20
74.70084939538285
 30
0.0
 11
1186.3273558461
 21
74.9888595396207
 31
0.0
  0
LWPOLYLINE
  5
196
330
1F
100
AcDbEntity
  8
9
  6
________________
 62
     7
370
     0
100
AcDbPolyline
 90
        4
 70
     0
 43
0.0
 10
1186.3273558461
 20
74.9888595396207
 42
0.048672888033613
 10
1186.102615360273
 20
75.80218504926034
 10
1186.006809967727
 20
75.94744180612484
 10
1185.939832280055
 20
75.97706351243988
  0
LWPOLYLINE
  5
197
330
1F
100
AcDbEntity
  8
9
  6
________________
 62
     7
370
     0
100
AcDbPolyline
 90
        8
 70
     0
 43
0.0
 10
1290.520880592044
 20
10.13152992107352
 42
-0.0170501547339295
 10
1288.236922800131
 20
46.73838392307659
 42
0.0226130363674276
 10
1286.250359263355
 20
75.34148542447564
 10
1286.182036584786
 20
75.58984978887383
 10
1286.122906877713
 20
75.75569282636638
 10
1286.063794193519
 20
75.87558527547662
 10
1285.944867186596
 20
75.9769018548882
 10
1285.939923106839
 20
75.97706351245317
  0
LWPOLYLINE
  5
198
330
1F
100
AcDbEntity
  8
9
  6
________________
 62
     7
370
     0
100
AcDbPolyline
 90
        4
 70
     0
 43
0.0
 10
1214.597950889716
 20
12.37828032414167
 42
0.0599023228866958
 10
1215.183663146444
 20
9.102317101195654
 10
1215.242851961313
 20
9.01783011898319
 10
1215.321418494834
 20
8.977063512476104
  0
LWPOLYLINE
  5
199
330
1F
100
AcDbEntity
  8
9
  6
________________
 62
     7
370
     0
100
AcDbPolyline
 90
        8
 70
     0
 43
0.0
 10
1180.740347777289
 20
74.82323827288164
 42
-0.0162371067851525
 10
1183.067528972728
 20
37.3168932836531
 42
0.0238743577784994
 10
1185.021332302896
 20
9.570409205976702
 10
1185.080914830173
 20
9.358540188689055
 10
1185.14009884598
 20
9.194096702861392
 10
1185.199293552274
 20
9.075609669085244
 10
1185.318272224898
 20
8.977128728853527
 10
1185.321410217892
 20
8.977063512462149
  0
LWPOLYLINE
  5
19A
330
1F
100
AcDbEntity
  8
9
  6
________________
 62
     7
370
     0
100
AcDbPolyline
 90
        6
 70
     0
 43
0.0
 10
1170.74023069549
 20
74.82379740791414
 42
-0.0166672122698629
 10
1173.006214369924
 20
38.59601315910241
 42
0.0215386071114274
 10
1174.985789616078
 20
9.718789454505606
 42
0.0811427337594181
 10
1175.207984141157
 20
9.062119117213676
 10
1175.311529494238
 20
8.977707605513606
 10
1175.321391134551
 20
8.9770635124653
  0
LINE
  5
19B
330
1F
100
AcDbEntity
  8
9
  6
________________
 62
     7
370
     0
100
AcDbLine
 10
1214.597953891974
 20
89.97706351245908
 30
0.0
 11
1191.519038833536
 21
89.97706351245908
 31
0.0
  0
LINE
  5
19C
330
1F
100
AcDbEntity
  8
9
  6
________________
 62
     7
370
     0
100
AcDbLine
 10
1191.519038833536
 20
-5.022936487540916
 30
0.0
 11
1214.597953891974
 21
-5.022936487540916
 31
0.0
  0
LINE
  5
19D
330
1F
100
AcDbEntity
  8
9
  6
________________
 62
     7
370
     0
100
AcDbLine
 10
1210.380546851062
 20
44.93739949318874
 30
0.0
 11
1191.519038833536
 21
44.93739949318874
 31
0.0
  0
LINE
  5
19E
330
1F
100
AcDbEntity
  8
9
  6
________________
 62
     7
370
     0
100
AcDbLine
 10
1191.519038833536
 20
40.01672753172939
 30
0.0
 11
1210.380546851062
 21
40.01672753172939
 31
0.0
  0
LINE
  5
19F
330
1F
100
AcDbEntity
  8
9
  6
________________
 62
     7
370
     0
100
AcDbLine
 10
1186.82374161481
 20
40.170447379999
 30
0.0
 11
1191.462251881841
 21
40.02477633025688
 31
0.0
  0
LINE
  5
1A0
330
1F
100
AcDbEntity
  8
9
  6
________________
 62
     7
370
     0
100
AcDbLine
 10
1191.462251881841
 20
44.92935069466127
 30
0.0
 11
1186.82374161481
 21
44.78367964491915
 31
0.0
  0
ARC
  5
1A1
330
1F
100
AcDbEntity
  8
9
  6
________________
 62
     7
370
     0
100
AcDbCircle
 10
1186.880546851061
 20
44.29173478337352
 30
0.0
 40
0.5000000000000043
100
AcDbArc
 50
91.79870155704516
 51
180.000000000025
  0
ARC
  5
1A2
330
1F
100
AcDbEntity
  8
9
  6
________________
 62
     7
370
     0
100
AcDbCircle
 10
1186.880546851061
 20
40.66239224154464
 30
0.0
 40
0.4999999999999449
100
AcDbArc
 50
180.0
 51
268.2012984429676
  0
ARC
  5
1A3
330
1F
100
AcDbEntity
  8
9
  6
________________
 62
     7
370
     0
100
AcDbCircle
 10
1191.519038833536
 20
77.06832850178972
 30
0.0
 40
0.5000000000000004
100
AcDbArc
 50
90.0
 51
114.0326719592989
  0
LINE
  5
1A4
330
1F
100
AcDbEntity
  8
9
  6
________________
 62
     7
370
     0
100
AcDbLine
 10
1210.380546851062
 20
77.56832850178974
 30
0.0
 11
1191.519038833536
 21
77.56832850178974
 31
0.0
  0
ARC
  5
1A5
330
1F
100
AcDbEntity
  8
9
  6
________________
 62
     7
370
     0
100
AcDbCircle
 10
1191.519038833536
 20
7.885798523128429
 30
0.0
 40
0.4999999999999758
100
AcDbArc
 50
245.9673280407135
 51
270.0000000000092
  0
LINE
  5
1A6
330
1F
100
AcDbEntity
  8
9
  6
________________
 62
     7
370
     0
100
AcDbLine
 10
1191.519038833536
 20
7.3857985231284
 30
0.0
 11
1210.380546851062
 21
7.3857985231284
 31
0.0
  0
LINE
  5
1A7
330
1F
100
AcDbEntity
  8
9
  6
________________
 62
     7
370
     0
100
AcDbLine
 10
1191.315333805379
 20
77.52495111358722
 30
0.0
 11
1186.676840430549
 21
75.45658329068846
 31
0.0
  0
LINE
  5
1A8
330
1F
100
AcDbEntity
  8
9
  6
________________
 62
     7
370
     0
100
AcDbLine
 10
1186.676840430549
 20
9.497543734229701
 30
0.0
 11
1191.315333805379
 21
7.429175911330944
 31
0.0
  0
ARC
  5
1A9
330
1F
100
AcDbEntity
  8
9
  6
________________
 62
     7
370
     0
100
AcDbCircle
 10
1186.880546851061
 20
74.99996130025508
 30
0.0
 40
0.5000000000000796
100
AcDbArc
 50
114.0328285644338
 51
180.0000000000097
  0
ARC
  5
1AA
330
1F
100
AcDbEntity
  8
9
  6
________________
 62
     7
370
     0
100
AcDbCircle
 10
1186.880546851061
 20
9.954165724663074
 30
0.0
 40
0.4999999999999449
100
AcDbArc
 50
180.0
 51
245.9671714355762
  0
LINE
  5
1AB
330
1F
100
AcDbEntity
  8
9
  6
________________
 62
     7
370
     0
100
AcDbLine
 10
1186.38056471658
 20
15.54082563160709
 30
0.0
 11
1186.383515763408
 21
15.51547853362699
 31
0.0
  0
LINE
  5
1AC
330
1F
100
AcDbEntity
  8
9
  6
________________
 62
     7
370
     0
100
AcDbLine
 10
1186.383515763408
 20
69.43864849129118
 30
0.0
 11
1186.38056471658
 21
69.41330139331133
 31
0.0
  0
LINE
  5
1AD
330
1F
100
AcDbEntity
  8
9
  6
________________
 62
     7
370
     0
100
AcDbLine
 10
1186.380625051995
 20
71.67418103761858
 30
0.0
 11
1186.340870484607
 21
71.56989898621518
 31
0.0
  0
LINE
  5
1AE
330
1F
100
AcDbEntity
  8
9
  6
________________
 62
     7
370
     0
100
AcDbLine
 10
1186.351226054253
 20
13.37538453954241
 30
0.0
 11
1186.380655158117
 21
13.2919899173895
 31
0.0
  0
ARC
  5
1AF
330
1F
100
AcDbEntity
  8
9
  6
________________
 62
     7
370
     0
100
AcDbCircle
 10
1191.519038833536
 20
89.47706351245908
 30
0.0
 40
0.5000000000000004
100
AcDbArc
 50
90.0
 51
120.9637565320749
  0
ARC
  5
1B0
330
1F
100
AcDbEntity
  8
9
  6
________________
 62
     7
370
     0
100
AcDbCircle
 10
1191.519038833536
 20
-4.522936487540916
 30
0.0
 40
0.4999999999999657
100
AcDbArc
 50
239.0362434679406
 51
270.0000000000156
  0
LINE
  5
1B1
330
1F
100
AcDbEntity
  8
9
  6
________________
 62
     7
370
     0
100
AcDbLine
 10
1191.261790955822
 20
89.90580997531536
 30
0.0
 11
1186.623298973348
 21
87.12271478583081
 31
0.0
  0
LINE
  5
1B2
330
1F
100
AcDbEntity
  8
9
  6
________________
 62
     7
370
     0
100
AcDbLine
 10
1186.623298973348
 20
-2.168587760912645
 30
0.0
 11
1191.261790955822
 21
-4.95168295039719
 31
0.0
  0
ARC
  5
1B3
330
1F
100
AcDbEntity
  8
9
  6
________________
 62
     7
370
     0
100
AcDbCircle
 10
1186.880546851061
 20
-1.73984129805637
 30
0.0
 40
0.4999999999999449
100
AcDbArc
 50
180.0
 51
239.036243467925
  0
ARC
  5
1B4
330
1F
100
AcDbEntity
  8
9
  6
________________
 62
     7
370
     0
100
AcDbCircle
 10
1186.880546851061
 20
86.69396832297454
 30
0.0
 40
0.4999999999999627
100
AcDbArc
 50
120.9637565320596
 51
179.9999999999847
  0
ARC
  5
1B5
330
1F
100
AcDbEntity
  8
9
  6
________________
 62
     7
370
     0
100
AcDbCircle
 10
1412.5
 20
42.47706351245908
 30
0.0
 40
47.49999999999999
100
AcDbArc
 50
88.79368394247048
 51
91.20631605752953
  0
ARC
  5
1B6
330
1F
100
AcDbEntity
  8
9
  6
________________
 62
     7
370
     0
100
AcDbCircle
 10
1412.5
 20
42.47706351245908
 30
0.0
 40
47.5000000000001
100
AcDbArc
 50
0.0
 51
88.79368394247047
  0
LINE
  5
1B7
330
1F
100
AcDbEntity
  8
9
  6
________________
 62
     7
370
     0
100
AcDbLine
 10
1413.5
 20
88.9770635124591
 30
0.0
 11
1412.5
 21
88.9770635124591
 31
0.0
  0
LINE
  5
1B8
330
1F
100
AcDbEntity
  8
9
  6
________________
 62
     7
370
     0
100
AcDbLine
 10
1413.5
 20
89.96653603006028
 30
0.0
 11
1413.5
 21
88.9770635124591
 31
0.0
  0
ARC
  5
1B9
330
1F
100
AcDbEntity
  8
9
  6
________________
 62
     7
370
     0
100
AcDbCircle
 10
1412.5
 20
42.47706351245908
 30
0.0
 40
47.5
100
AcDbArc
 50
91.20631605752953
 51
0.0
  0
LINE
  5
1BA
330
1F
100
AcDbEntity
  8
9
  6
________________
 62
     7
370
     0
100
AcDbLine
 10
1411.5
 20
88.9770635124591
 30
0.0
 11
1411.5
 21
89.96653603006028
 31
0.0
  0
LINE
  5
1BB
330
1F
100
AcDbEntity
  8
9
  6
________________
 62
     7
370
     0
100
AcDbLine
 10
1412.5
 20
88.9770635124591
 30
0.0
 11
1411.5
 21
88.9770635124591
 31
0.0
  0
CIRCLE
  5
1BC
330
1F
100
AcDbEntity
  8
9
  6
________________
 62
     7
370
     0
100
AcDbCircle
 10
1412.5
 20
42.47706351245908
 30
0.0
 40
29.6
  0
ARC
  5
1BD
330
1F
100
AcDbEntity
  8
9
  6
________________
 62
     7
370
     0
100
AcDbCircle
 10
1412.5
 20
42.47706351245908
 30
0.0
 40
25.50000000000008
100
AcDbArc
 50
180.0
 51
0.0
  0
ARC
  5
1BE
330
1F
100
AcDbEntity
  8
9
  6
________________
 62
     7
370
     0
100
AcDbCircle
 10
1412.5
 20
42.47706351245908
 30
0.0
 40
25.50000000000008
100
AcDbArc
 50
0.0
 51
180.0
  0
MTEXT
  5
1BF
330
1F
100
AcDbEntity
  8
9
 62
     7
100
AcDbMText
 10
1300.812269876626
 20
-20.69781817294631
 30
0.0
 40
6.0
 41
0.0
 46
0.0
 71
     1
 72
     1
  1
{\FＭＳ ゴシック;BMHM-50}
 73
     1
 44
1.0
  0
ENDSEC
  0
SECTION
  2
OBJECTS
  0
DICTIONARY
  5
C
330
0
100
AcDbDictionary
281
     1
  3
ACAD_GROUP
350
D
  3
ACAD_LAYOUT
350
1A
  3
ACAD_MLEADERSTYLE
350
1C1
  3
ACAD_MLINESTYLE
350
17
  3
ACAD_PLOTSETTINGS
350
19
  3
ACAD_PLOTSTYLENAME
350
E
  3
ACAD_TABLESTYLE
350
1C0
  3
ACAD_VISUALSTYLE
350
2A
  0
DICTIONARY
  5
D
102
{ACAD_REACTORS
330
C
102
}
330
C
100
AcDbDictionary
281
     1
  0
DICTIONARY
  5
1A
102
{ACAD_REACTORS
330
C
102
}
330
C
100
AcDbDictionary
281
     1
  3
Layout1
350
1E
  3
Layout2
350
26
  3
Model
350
22
  0
DICTIONARY
  5
1C1
102
{ACAD_REACTORS
330
C
102
}
330
C
100
AcDbDictionary
281
     1
  0
DICTIONARY
  5
17
102
{ACAD_REACTORS
330
C
102
}
330
C
100
AcDbDictionary
281
     1
  3
Standard
350
18
  0
DICTIONARY
  5
19
102
{ACAD_REACTORS
330
C
102
}
330
C
100
AcDbDictionary
281
     1
  0
ACDBDICTIONARYWDFLT
  5
E
102
{ACAD_REACTORS
330
C
102
}
330
C
100
AcDbDictionary
281
     1
  3
Normal
350
F
100
AcDbDictionaryWithDefault
340
F
  0
DICTIONARY
  5
1C0
102
{ACAD_REACTORS
330
C
102
}
330
C
100
AcDbDictionary
281
     1
  0
DICTIONARY
  5
2A
102
{ACAD_REACTORS
330
C
102
}
330
C
100
AcDbDictionary
281
     1
  3
2dWireframe
350
2F
  3
3D Hidden
350
31
  3
3dWireframe
350
30
  3
Basic
350
32
  3
Brighten
350
36
  3
ColorChange
350
3A
  3
Conceptual
350
34
  3
Dim
350
35
  3
Facepattern
350
39
  3
Flat
350
2B
  3
FlatWithEdges
350
2C
  3
Gouraud
350
2D
  3
GouraudWithEdges
350
2E
  3
Linepattern
350
38
  3
Realistic
350
33
  3
Thicken
350
37
  0
LAYOUT
  5
1E
102
{ACAD_REACTORS
330
1A
102
}
330
1A
100
AcDbPlotSettings
  1

  2
none_device
  4

  6

 40
0.0
 41
0.0
 42
0.0
 43
0.0
 44
0.0
 45
0.0
 46
0.0
 47
0.0
 48
0.0
 49
0.0
140
0.0
141
0.0
142
1.0
143
1.0
 70
   688
 72
     0
 73
     0
 74
     5
  7

 75
    16
 76
     0
 77
     2
 78
   300
147
1.0
148
0.0
149
0.0
100
AcDbLayout
  1
Layout1
 70
     1
 71
     1
 10
0.0
 20
0.0
 11
12.0
 21
9.0
 12
0.0
 22
0.0
 32
0.0
 14
1.000000000000000E+20
 24
1.000000000000000E+20
 34
1.000000000000000E+20
 15
-1.000000000000000E+20
 25
-1.000000000000000E+20
 35
-1.000000000000000E+20
146
0.0
 13
0.0
 23
0.0
 33
0.0
 16
1.0
 26
0.0
 36
0.0
 17
0.0
 27
1.0
 37
0.0
 76
     0
330
1B
  0
LAYOUT
  5
26
102
{ACAD_REACTORS
330
1A
102
}
330
1A
100
AcDbPlotSettings
  1

  2
none_device
  4

  6

 40
0.0
 41
0.0
 42
0.0
 43
0.0
 44
0.0
 45
0.0
 46
0.0
 47
0.0
 48
0.0
 49
0.0
140
0.0
141
0.0
142
1.0
143
1.0
 70
   688
 72
     0
 73
     0
 74
     5
  7

 75
    16
 76
     0
 77
     2
 78
   300
147
1.0
148
0.0
149
0.0
100
AcDbLayout
  1
Layout2
 70
     1
 71
     2
 10
0.0
 20
0.0
 11
0.0
 21
0.0
 12
0.0
 22
0.0
 32
0.0
 14
0.0
 24
0.0
 34
0.0
 15
0.0
 25
0.0
 35
0.0
146
0.0
 13
0.0
 23
0.0
 33
0.0
 16
1.0
 26
0.0
 36
0.0
 17
0.0
 27
1.0
 37
0.0
 76
     0
330
23
  0
LAYOUT
  5
22
102
{ACAD_REACTORS
330
1A
102
}
330
1A
100
AcDbPlotSettings
  1

  2
none_device
  4

  6

 40
0.0
 41
0.0
 42
0.0
 43
0.0
 44
0.0
 45
0.0
 46
0.0
 47
0.0
 48
0.0
 49
0.0
140
0.0
141
0.0
142
1.0
143
1.0
 70
  1712
 72
     0
 73
     0
 74
     0
  7

 75
     0
 76
     0
 77
     2
 78
   300
147
1.0
148
0.0
149
0.0
100
AcDbLayout
  1
Model
 70
     1
 71
     0
 10
0.0
 20
0.0
 11
12.0
 21
9.0
 12
0.0
 22
0.0
 32
0.0
 14
0.0
 24
-26.01599999112813
 34
0.0
 15
1460.0
 25
89.97706351245908
 35
10.0
146
0.0
 13
0.0
 23
0.0
 33
0.0
 16
1.0
 26
0.0
 36
0.0
 17
0.0
 27
1.0
 37
0.0
 76
     0
330
1F
331
29
  0
MLINESTYLE
  5
18
102
{ACAD_REACTORS
330
17
102
}
330
17
100
AcDbMlineStyle
  2
Standard
 70
     0
  3

 62
   256
 51
90.0
 52
90.0
 71
     2
 49
0.5
 62
   256
  6
BYLAYER
 49
-0.5
 62
   256
  6
BYLAYER
  0
ACDBPLACEHOLDER
  5
F
102
{ACAD_REACTORS
330
E
102
}
330
E
  0
VISUALSTYLE
  5
2F
102
{ACAD_REACTORS
330
2A
102
}
330
2A
100
AcDbVisualStyle
  2
2dWireframe
 70
     4
 71
     0
 72
     2
 73
     0
 90
        0
 40
-0.6
 41
-30.0
 62
     5
 63
     7
421
 16777215
 74
     1
 91
        4
 64
     7
 65
   257
 75
     1
175
     1
 42
1.0
 92
        0
 66
   257
 43
1.0
 76
     1
 77
     6
 78
     2
 67
     7
 79
     5
170
     0
171
     0
290
     0
174
     0
 93
        1
 44
0.0
173
     0
291
     0
 45
0.0
  0
VISUALSTYLE
  5
31
102
{ACAD_REACTORS
330
2A
102
}
330
2A
100
AcDbVisualStyle
  2
3D Hidden
 70
     6
 71
     1
 72
     2
 73
     2
 90
        0
 40
-0.6
 41
-30.0
 62
     5
 63
     7
421
 16777215
 74
     2
 91
        2
 64
     7
 65
   257
 75
     2
175
     1
 42
40.0
 92
        0
 66
   257
 43
1.0
 76
     1
 77
     6
 78
     2
 67
     7
 79
     3
170
     0
171
     0
290
     0
174
     0
 93
        1
 44
0.0
173
     0
291
     0
 45
0.0
  0
VISUALSTYLE
  5
30
102
{ACAD_REACTORS
330
2A
102
}
330
2A
100
AcDbVisualStyle
  2
3dWireframe
 70
     5
 71
     0
 72
     2
 73
     0
 90
        0
 40
-0.6
 41
-30.0
 62
     5
 63
     7
421
 16777215
 74
     1
 91
        4
 64
     7
 65
   257
 75
     1
175
     1
 42
1.0
 92
        0
 66
   257
 43
1.0
 76
     1
 77
     6
 78
     2
 67
     7
 79
     5
170
     0
171
     0
290
     0
174
     0
 93
        1
 44
0.0
173
     0
291
     0
 45
0.0
  0
VISUALSTYLE
  5
32
102
{ACAD_REACTORS
330
2A
102
}
330
2A
100
AcDbVisualStyle
  2
Basic
 70
     7
 71
     1
 72
     0
 73
     1
 90
        0
 40
-0.6
 41
-30.0
 62
     5
 63
     7
421
 16777215
 74
     0
 91
        4
 64
     7
 65
   257
 75
     1
175
     1
 42
1.0
 92
        8
 66
     7
 43
1.0
 76
     1
 77
     6
 78
     2
 67
     7
 79
     5
170
     0
171
     0
290
     0
174
     0
 93
        1
 44
0.0
173
     0
291
     1
 45
0.0
  0
VISUALSTYLE
  5
36
102
{ACAD_REACTORS
330
2A
102
}
330
2A
100
AcDbVisualStyle
  2
Brighten
 70
    12
 71
     2
 72
     2
 73
     0
 90
        0
 40
-0.6
 41
-30.0
 62
     5
 63
     7
421
 16777215
 74
     1
 91
        4
 64
     7
 65
   257
 75
     1
175
     1
 42
1.0
 92
        8
 66
     7
 43
1.0
 76
     1
 77
     6
 78
     2
 67
     7
 79
     5
170
     0
171
     0
290
     0
174
     0
 93
        1
 44
50.0
173
     0
291
     1
 45
0.0
  0
VISUALSTYLE
  5
3A
102
{ACAD_REACTORS
330
2A
102
}
330
2A
100
AcDbVisualStyle
  2
ColorChange
 70
    16
 71
     2
 72
     2
 73
     3
 90
        0
 40
-0.6
 41
-30.0
 62
     5
 63
     8
421
  8421504
 74
     1
 91
        4
 64
     7
 65
   257
 75
     1
175
     1
 42
1.0
 92
        8
 66
     8
424
  8421504
 43
1.0
 76
     1
 77
     6
 78
     2
 67
     7
 79
     5
170
     0
171
     0
290
     0
174
     0
 93
        1
 44
0.0
173
     0
291
     1
 45
0.0
  0
VISUALSTYLE
  5
34
102
{ACAD_REACTORS
330
2A
102
}
330
2A
100
AcDbVisualStyle
  2
Conceptual
 70
     9
 71
     3
 72
     2
 73
     0
 90
        0
 40
-0.6
 41
-30.0
 62
     5
 63
     7
421
 16777215
 74
     2
 91
        2
 64
     7
 65
   257
 75
     1
175
     1
 42
40.0
 92
        8
 66
     7
 43
1.0
 76
     1
 77
     6
 78
     2
 67
     7
 79
     3
170
     0
171
     0
290
     0
174
     0
 93
        1
 44
0.0
173
     0
291
     0
 45
0.0
  0
VISUALSTYLE
  5
35
102
{ACAD_REACTORS
330
2A
102
}
330
2A
100
AcDbVisualStyle
  2
Dim
 70
    11
 71
     2
 72
     2
 73
     0
 90
        0
 40
-0.6
 41
-30.0
 62
     5
 63
     7
421
 16777215
 74
     1
 91
        4
 64
     7
 65
   257
 75
     1
175
     1
 42
1.0
 92
        8
 66
     7
 43
1.0
 76
     1
 77
     6
 78
     2
 67
     7
 79
     5
170
     0
171
     0
290
     0
174
     0
 93
        1
 44
-50.0
173
     0
291
     1
 45
0.0
  0
VISUALSTYLE
  5
39
102
{ACAD_REACTORS
330
2A
102
}
330
2A
100
AcDbVisualStyle
  2
Facepattern
 70
    15
 71
     2
 72
     2
 73
     0
 90
        0
 40
-0.6
 41
-30.0
 62
     5
 63
     7
421
 16777215
 74
     1
 91
        4
 64
     7
 65
   257
 75
     1
175
     1
 42
1.0
 92
        8
 66
     7
 43
1.0
 76
     1
 77
     6
 78
     2
 67
     7
 79
     5
170
     0
171
     0
290
     0
174
     0
 93
        1
 44
0.0
173
     0
291
     1
 45
0.0
  0
VISUALSTYLE
  5
2B
102
{ACAD_REACTORS
330
2A
102
}
330
2A
100
AcDbVisualStyle
  2
Flat
 70
     0
 71
     2
 72
     1
 73
     1
 90
        2
 40
-0.6
 41
30.0
 62
     5
 63
     7
421
 16777215
 74
     0
 91
        4
 64
     7
 65
   257
 75
     1
175
     1
 42
1.0
 92
        8
 66
     7
 43
1.0
 76
     1
 77
     6
 78
     2
 67
     7
 79
     5
170
     0
171
     0
290
     0
174
     0
 93
       13
 44
0.0
173
     0
291
     1
 45
0.0
  0
VISUALSTYLE
  5
2C
102
{ACAD_REACTORS
330
2A
102
}
330
2A
100
AcDbVisualStyle
  2
FlatWithEdges
 70
     1
 71
     2
 72
     1
 73
     1
 90
        2
 40
-0.6
 41
30.0
 62
     5
 63
     7
421
 16777215
 74
     1
 91
        4
 64
     7
 65
   257
 75
     1
175
     1
 42
1.0
 92
        0
 66
   257
 43
1.0
 76
     1
 77
     6
 78
     2
 67
     7
 79
     5
170
     0
171
     0
290
     0
174
     0
 93
       13
 44
0.0
173
     0
291
     1
 45
0.0
  0
VISUALSTYLE
  5
2D
102
{ACAD_REACTORS
330
2A
102
}
330
2A
100
AcDbVisualStyle
  2
Gouraud
 70
     2
 71
     2
 72
     2
 73
     1
 90
        2
 40
-0.6
 41
30.0
 62
     5
 63
     7
421
 16777215
 74
     0
 91
        4
 64
     7
 65
   257
 75
     1
175
     1
 42
1.0
 92
        0
 66
     7
 43
1.0
 76
     1
 77
     6
 78
     2
 67
     7
 79
     5
170
     0
171
     0
290
     0
174
     0
 93
       13
 44
0.0
173
     0
291
     1
 45
0.0
  0
VISUALSTYLE
  5
2E
102
{ACAD_REACTORS
330
2A
102
}
330
2A
100
AcDbVisualStyle
  2
GouraudWithEdges
 70
     3
 71
     2
 72
     2
 73
     1
 90
        2
 40
-0.6
 41
30.0
 62
     5
 63
     7
421
 16777215
 74
     1
 91
        4
 64
     7
 65
   257
 75
     1
175
     1
 42
1.0
 92
        0
 66
   257
 43
1.0
 76
     1
 77
     6
 78
     2
 67
     7
 79
     5
170
     0
171
     0
290
     0
174
     0
 93
       13
 44
0.0
173
     0
291
     1
 45
0.0
  0
VISUALSTYLE
  5
38
102
{ACAD_REACTORS
330
2A
102
}
330
2A
100
AcDbVisualStyle
  2
Linepattern
 70
    14
 71
     2
 72
     2
 73
     0
 90
        0
 40
-0.6
 41
-30.0
 62
     5
 63
     7
421
 16777215
 74
     1
 91
        4
 64
     7
 65
   257
 75
     7
175
     7
 42
1.0
 92
        8
 66
     7
 43
1.0
 76
     1
 77
     6
 78
     2
 67
     7
 79
     5
170
     0
171
     0
290
     0
174
     0
 93
        1
 44
0.0
173
     0
291
     1
 45
0.0
  0
VISUALSTYLE
  5
33
102
{ACAD_REACTORS
330
2A
102
}
330
2A
100
AcDbVisualStyle
  2
Realistic
 70
     8
 71
     2
 72
     2
 73
     0
 90
        0
 40
-0.6
 41
-30.0
 62
     5
 63
     7
421
 16777215
 74
     1
 91
        0
 64
     7
 65
   257
 75
     1
175
     1
 42
1.0
 92
        8
 66
     8
424
  7895160
 43
1.0
 76
     1
 77
     6
 78
     2
 67
     7
 79
     5
170
     0
171
     0
290
     0
174
     0
 93
       13
 44
0.0
173
     0
291
     0
 45
0.0
  0
VISUALSTYLE
  5
37
102
{ACAD_REACTORS
330
2A
102
}
330
2A
100
AcDbVisualStyle
  2
Thicken
 70
    13
 71
     2
 72
     2
 73
     0
 90
        0
 40
-0.6
 41
-30.0
 62
     5
 63
     7
421
 16777215
 74
     1
 91
        4
 64
     7
 65
   257
 75
     1
175
     1
 42
1.0
 92
       12
 66
     7
 43
1.0
 76
     1
 77
     6
 78
     2
 67
     7
 79
     5
170
     0
171
     0
290
     0
174
     0
 93
        1
 44
0.0
173
     0
291
     1
 45
0.0
  0
ENDSEC
  0
EOF
