  0
SECTION
  2
HEADER
  9
$ACADVER
  1
AC1021
  9
$ACADMAINTVER
 70
    25
  9
$DWGCODEPAGE
  3
ANSI_932
  9
$INSBASE
 10
0.0
 20
0.0
 30
0.0
  9
$EXTMIN
 10
0.0
 20
-27.36642498100461
 30
0.0
  9
$EXTMAX
 10
902.6273833245813
 20
92.33745746851915
 30
10.0
  9
$LIMMIN
 10
0.0
 20
0.0
  9
$LIMMAX
 10
12.0
 20
9.0
  9
$ORTHOMODE
 70
     0
  9
$REGENMODE
 70
     1
  9
$FILLMODE
 70
     1
  9
$QTEXTMODE
 70
     0
  9
$MIRRTEXT
 70
     1
  9
$LTSCALE
 40
1.0
  9
$ATTMODE
 70
     1
  9
$TEXTSIZE
 40
0.2
  9
$TRACEWID
 40
0.05
  9
$TEXTSTYLE
  7
Standard
  9
$CLAYER
  8
0
  9
$CELTYPE
  6
ByLayer
  9
$CECOLOR
 62
   256
  9
$CELTSCALE
 40
1.0
  9
$DISPSILH
 70
     0
  9
$DIMSCALE
 40
1.0
  9
$DIMASZ
 40
3.0
  9
$DIMEXO
 40
0.0625
  9
$DIMDLI
 40
0.38
  9
$DIMRND
 40
0.0
  9
$DIMDLE
 40
0.0
  9
$DIMEXE
 40
0.18
  9
$DIMTP
 40
0.0
  9
$DIMTM
 40
0.0
  9
$DIMTXT
 40
3.0
  9
$DIMCEN
 40
0.09
  9
$DIMTSZ
 40
0.0
  9
$DIMTOL
 70
     0
  9
$DIMLIM
 70
     0
  9
$DIMTIH
 70
     1
  9
$DIMTOH
 70
     1
  9
$DIMSE1
 70
     0
  9
$DIMSE2
 70
     0
  9
$DIMTAD
 70
     1
  9
$DIMZIN
 70
     0
  9
$DIMBLK
  1

  9
$DIMASO
 70
     1
  9
$DIMSHO
 70
     1
  9
$DIMPOST
  1

  9
$DIMAPOST
  1

  9
$DIMALT
 70
     0
  9
$DIMALTD
 70
     2
  9
$DIMALTF
 40
25.4
  9
$DIMLFAC
 40
1.0
  9
$DIMTOFL
 70
     0
  9
$DIMTVP
 40
0.0
  9
$DIMTIX
 70
     0
  9
$DIMSOXD
 70
     0
  9
$DIMSAH
 70
     0
  9
$DIMBLK1
  1

  9
$DIMBLK2
  1

  9
$DIMSTYLE
  2
Standard
  9
$DIMCLRD
 70
     0
  9
$DIMCLRE
 70
     0
  9
$DIMCLRT
 70
     0
  9
$DIMTFAC
 40
1.0
  9
$DIMGAP
 40
0.09
  9
$DIMJUST
 70
     0
  9
$DIMSD1
 70
     0
  9
$DIMSD2
 70
     0
  9
$DIMTOLJ
 70
     1
  9
$DIMTZIN
 70
     0
  9
$DIMALTZ
 70
     0
  9
$DIMALTTZ
 70
     0
  9
$DIMUPT
 70
     0
  9
$DIMDEC
 70
     2
  9
$DIMTDEC
 70
     4
  9
$DIMALTU
 70
     2
  9
$DIMALTTD
 70
     2
  9
$DIMTXSTY
  7
Standard
  9
$DIMAUNIT
 70
     0
  9
$DIMADEC
 70
     2
  9
$DIMALTRND
 40
0.0
  9
$DIMAZIN
 70
     0
  9
$DIMDSEP
 70
    46
  9
$DIMATFIT
 70
     3
  9
$DIMFRAC
 70
     0
  9
$DIMLDRBLK
  1

  9
$DIMLUNIT
 70
     2
  9
$DIMLWD
 70
    -2
  9
$DIMLWE
 70
    -2
  9
$DIMTMOVE
 70
     0
  9
$DIMFXL
 40
1.0
  9
$DIMFXLON
 70
     0
  9
$DIMJOGANG
 40
0.7853981633974483
  9
$DIMTFILL
 70
     0
  9
$DIMTFILLCLR
 70
     0
  9
$DIMARCSYM
 70
     0
  9
$DIMLTYPE
  6

  9
$DIMLTEX1
  6

  9
$DIMLTEX2
  6

  9
$LUNITS
 70
     2
  9
$LUPREC
 70
     4
  9
$SKETCHINC
 40
0.1
  9
$FILLETRAD
 40
0.5
  9
$AUNITS
 70
     0
  9
$AUPREC
 70
     0
  9
$MENU
  1
.
  9
$ELEVATION
 40
0.0
  9
$PELEVATION
 40
0.0
  9
$THICKNESS
 40
0.0
  9
$LIMCHECK
 70
     0
  9
$CHAMFERA
 40
0.5
  9
$CHAMFERB
 40
0.5
  9
$CHAMFERC
 40
1.0
  9
$CHAMFERD
 40
0.0
  9
$SKPOLY
 70
     0
  9
$TDCREATE
 40
2459298.583901018
  9
$TDUCREATE
 40
2459298.208901018
  9
$TDUPDATE
 40
2459298.58390103
  9
$TDUUPDATE
 40
2459298.20890103
  9
$TDINDWG
 40
0.0000000116
  9
$TDUSRTIMER
 40
0.0000000116
  9
$USRTIMER
 70
     1
  9
$ANGBASE
 50
0.0
  9
$ANGDIR
 70
     0
  9
$PDMODE
 70
     0
  9
$PDSIZE
 40
0.0
  9
$PLINEWID
 40
0.0
  9
$SPLFRAME
 70
     0
  9
$SPLINETYPE
 70
     6
  9
$SPLINESEGS
 70
     8
  9
$HANDSEED
  5
1C7
  9
$SURFTAB1
 70
     6
  9
$SURFTAB2
 70
     6
  9
$SURFTYPE
 70
     6
  9
$SURFU
 70
     6
  9
$SURFV
 70
     6
  9
$UCSBASE
  2

  9
$UCSNAME
  2

  9
$UCSORG
 10
0.0
 20
0.0
 30
0.0
  9
$UCSXDIR
 10
1.0
 20
0.0
 30
0.0
  9
$UCSYDIR
 10
0.0
 20
1.0
 30
0.0
  9
$UCSORTHOREF
  2

  9
$UCSORTHOVIEW
 70
     0
  9
$UCSORGTOP
 10
0.0
 20
0.0
 30
0.0
  9
$UCSORGBOTTOM
 10
0.0
 20
0.0
 30
0.0
  9
$UCSORGLEFT
 10
0.0
 20
0.0
 30
0.0
  9
$UCSORGRIGHT
 10
0.0
 20
0.0
 30
0.0
  9
$UCSORGFRONT
 10
0.0
 20
0.0
 30
0.0
  9
$UCSORGBACK
 10
0.0
 20
0.0
 30
0.0
  9
$PUCSBASE
  2

  9
$PUCSNAME
  2

  9
$PUCSORG
 10
0.0
 20
0.0
 30
0.0
  9
$PUCSXDIR
 10
1.0
 20
0.0
 30
0.0
  9
$PUCSYDIR
 10
0.0
 20
1.0
 30
0.0
  9
$PUCSORTHOREF
  2

  9
$PUCSORTHOVIEW
 70
     0
  9
$PUCSORGTOP
 10
0.0
 20
0.0
 30
0.0
  9
$PUCSORGBOTTOM
 10
0.0
 20
0.0
 30
0.0
  9
$PUCSORGLEFT
 10
0.0
 20
0.0
 30
0.0
  9
$PUCSORGRIGHT
 10
0.0
 20
0.0
 30
0.0
  9
$PUCSORGFRONT
 10
0.0
 20
0.0
 30
0.0
  9
$PUCSORGBACK
 10
0.0
 20
0.0
 30
0.0
  9
$USERI1
 70
     0
  9
$USERI2
 70
     0
  9
$USERI3
 70
     0
  9
$USERI4
 70
     0
  9
$USERI5
 70
     0
  9
$USERR1
 40
0.0
  9
$USERR2
 40
0.0
  9
$USERR3
 40
0.0
  9
$USERR4
 40
0.0
  9
$USERR5
 40
0.0
  9
$WORLDVIEW
 70
     1
  9
$SHADEDGE
 70
     3
  9
$SHADEDIF
 70
    70
  9
$TILEMODE
 70
     1
  9
$MAXACTVP
 70
    64
  9
$PINSBASE
 10
0.0
 20
0.0
 30
0.0
  9
$PLIMCHECK
 70
     0
  9
$PEXTMIN
 10
1.000000000000000E+20
 20
1.000000000000000E+20
 30
1.000000000000000E+20
  9
$PEXTMAX
 10
-1.000000000000000E+20
 20
-1.000000000000000E+20
 30
-1.000000000000000E+20
  9
$PLIMMIN
 10
0.0
 20
0.0
  9
$PLIMMAX
 10
12.0
 20
9.0
  9
$UNITMODE
 70
     0
  9
$VISRETAIN
 70
     1
  9
$PLINEGEN
 70
     0
  9
$PSLTSCALE
 70
     1
  9
$TREEDEPTH
 70
  3020
  9
$CMLSTYLE
  2
Standard
  9
$CMLJUST
 70
     0
  9
$CMLSCALE
 40
1.0
  9
$PROXYGRAPHICS
 70
     1
  9
$MEASUREMENT
 70
     1
  9
$CELWEIGHT
370
    -1
  9
$ENDCAPS
280
     0
  9
$JOINSTYLE
280
     0
  9
$LWDISPLAY
290
     1
  9
$INSUNITS
 70
     4
  9
$HYPERLINKBASE
  1

  9
$STYLESHEET
  1

  9
$XEDIT
290
     1
  9
$CEPSNTYPE
380
     0
  9
$PSTYLEMODE
290
     1
  9
$FINGERPRINTGUID
  2
{D3547008-8823-424B-9AEB-A91F9030E3E5}
  9
$VERSIONGUID
  2
{FAEB1C32-E019-11D5-929B-00C0DF256EC4}
  9
$EXTNAMES
290
     1
  9
$PSVPSCALE
 40
0.0
  9
$OLESTARTUP
290
     0
  9
$SORTENTS
280
   127
  9
$INDEXCTL
280
     0
  9
$HIDETEXT
280
     1
  9
$XCLIPFRAME
290
     0
  9
$HALOGAP
280
     0
  9
$OBSCOLOR
 70
   257
  9
$OBSLTYPE
280
     0
  9
$INTERSECTIONDISPLAY
280
     0
  9
$INTERSECTIONCOLOR
 70
   257
  9
$DIMASSOC
280
     2
  9
$PROJECTNAME
  1

  9
$CAMERADISPLAY
290
     0
  9
$LENSLENGTH
 40
50.0
  9
$CAMERAHEIGHT
 40
0.0
  9
$STEPSPERSEC
 40
2.0
  9
$STEPSIZE
 40
6.0
  9
$3DDWFPREC
 40
2.0
  9
$PSOLWIDTH
 40
0.25
  9
$PSOLHEIGHT
 40
4.0
  9
$LOFTANG1
 40
1.570796326794897
  9
$LOFTANG2
 40
1.570796326794897
  9
$LOFTMAG1
 40
0.0
  9
$LOFTMAG2
 40
0.0
  9
$LOFTPARAM
 70
     7
  9
$LOFTNORMALS
280
     1
  9
$LATITUDE
 40
37.795
  9
$LONGITUDE
 40
-122.394
  9
$NORTHDIRECTION
 40
0.0
  9
$TIMEZONE
 70
 -8000
  9
$LIGHTGLYPHDISPLAY
280
     1
  9
$TILEMODELIGHTSYNCH
280
     1
  9
$SOLIDHIST
280
     1
  9
$SHOWHIST
280
     1
  9
$DWFFRAME
280
     2
  9
$DGNFRAME
280
     2
  9
$REALWORLDSCALE
290
     1
  9
$INTERFERECOLOR
 62
   256
  9
$CSHADOW
280
     0
  9
$SHADOWPLANELOCATION
 40
0.0
  0
ENDSEC
  0
SECTION
  2
CLASSES
  0
CLASS
  1
ACDBDICTIONARYWDFLT
  2
AcDbDictionaryWithDefault
  3
ObjectDBX Classes
 90
        0
 91
        4
280
     0
281
     0
  0
CLASS
  1
VISUALSTYLE
  2
AcDbVisualStyle
  3
ObjectDBX Classes
 90
     4095
 91
        4
280
     0
281
     0
  0
ENDSEC
  0
SECTION
  2
TABLES
  0
TABLE
  2
VPORT
  5
8
330
0
100
AcDbSymbolTable
 70
     1
  0
VPORT
  5
29
330
8
100
AcDbSymbolTableRecord
100
AcDbViewportTableRecord
  2
*Active
 70
     0
 10
0.0
 20
0.0
 11
1.0
 21
1.0
 12
451.3136916622906
 22
32.48551624375727
 13
0.0
 23
0.0
 14
0.5
 24
0.5
 15
0.5
 25
0.5
 16
0.0
 26
0.0
 36
1.0
 17
0.0
 27
0.0
 37
0.0
 40
119.7038824495237
 41
1.6
 42
50.0
 43
0.0
 44
0.0
 50
0.0
 51
0.0
 71
     0
 72
   100
 73
     1
 74
     3
 75
     0
 76
     0
 77
     0
 78
     0
281
     0
 65
     1
110
0.0
120
0.0
130
0.0
111
1.0
121
0.0
131
0.0
112
0.0
122
1.0
132
0.0
 79
     0
146
0.0
 60
     3
 61
     5
292
     1
282
     1
141
0.0
142
0.0
 63
   250
  0
ENDTAB
  0
TABLE
  2
LTYPE
  5
5
330
0
100
AcDbSymbolTable
 70
     2
  0
LTYPE
  5
14
330
5
100
AcDbSymbolTableRecord
100
AcDbLinetypeTableRecord
  2
ByBlock
 70
     0
  3

 72
    65
 73
     0
 40
0.0
  0
LTYPE
  5
15
330
5
100
AcDbSymbolTableRecord
100
AcDbLinetypeTableRecord
  2
ByLayer
 70
     0
  3

 72
    65
 73
     0
 40
0.0
  0
LTYPE
  5
16
330
5
100
AcDbSymbolTableRecord
100
AcDbLinetypeTableRecord
  2
Continuous
 70
     0
  3
Solid line
 72
    65
 73
     0
 40
0.0
  0
LTYPE
  5
3D
330
5
100
AcDbSymbolTableRecord
100
AcDbLinetypeTableRecord
  2
________________
 70
     0
  3

 72
    65
 73
     0
 40
0.0
  0
ENDTAB
  0
TABLE
  2
LAYER
  5
2
330
0
100
AcDbSymbolTable
 70
     2
  0
LAYER
  5
10
330
2
100
AcDbSymbolTableRecord
100
AcDbLayerTableRecord
  2
0
 70
     0
 62
     7
  6
Continuous
370
    -3
390
F
347
0
  0
LAYER
  5
3B
330
2
100
AcDbSymbolTableRecord
100
AcDbLayerTableRecord
  2
3
 70
     0
 62
     7
  6
Continuous
370
    -3
390
F
347
0
  0
ENDTAB
  0
TABLE
  2
STYLE
  5
3
330
0
100
AcDbSymbolTable
 70
     1
  0
STYLE
  5
11
330
3
100
AcDbSymbolTableRecord
100
AcDbTextStyleTableRecord
  2
Standard
 70
     0
 40
0.0
 41
1.0
 50
0.0
 71
     0
 42
0.2
  3
txt
  4

  0
ENDTAB
  0
TABLE
  2
VIEW
  5
6
330
0
100
AcDbSymbolTable
 70
     0
  0
ENDTAB
  0
TABLE
  2
UCS
  5
7
330
0
100
AcDbSymbolTable
 70
     0
  0
ENDTAB
  0
TABLE
  2
APPID
  5
9
330
0
100
AcDbSymbolTable
 70
     1
  0
APPID
  5
12
330
9
100
AcDbSymbolTableRecord
100
AcDbRegAppTableRecord
  2
ACAD
 70
     0
  0
ENDTAB
  0
TABLE
  2
DIMSTYLE
  5
A
330
0
100
AcDbSymbolTable
 70
     1
100
AcDbDimStyleTable
  0
DIMSTYLE
105
27
330
A
100
AcDbSymbolTableRecord
100
AcDbDimStyleTableRecord
  2
Standard
 70
     0
340
11
  0
ENDTAB
  0
TABLE
  2
BLOCK_RECORD
  5
1
330
0
100
AcDbSymbolTable
 70
     1
  0
BLOCK_RECORD
  5
1F
330
1
100
AcDbSymbolTableRecord
100
AcDbBlockTableRecord
  2
*Model_Space
340
22
 70
     0
280
     1
281
     0
  0
BLOCK_RECORD
  5
1B
330
1
100
AcDbSymbolTableRecord
100
AcDbBlockTableRecord
  2
*Paper_Space
340
1E
 70
     0
280
     1
281
     0
  0
BLOCK_RECORD
  5
23
330
1
100
AcDbSymbolTableRecord
100
AcDbBlockTableRecord
  2
*Paper_Space0
340
26
 70
     0
280
     1
281
     0
  0
ENDTAB
  0
ENDSEC
  0
SECTION
  2
BLOCKS
  0
BLOCK
  5
20
330
1F
100
AcDbEntity
  8
0
100
AcDbBlockBegin
  2
*Model_Space
 70
     0
 10
0.0
 20
0.0
 30
0.0
  3
*Model_Space
  1

  0
ENDBLK
  5
21
330
1F
100
AcDbEntity
  8
0
100
AcDbBlockEnd
  0
BLOCK
  5
1C
330
1B
100
AcDbEntity
 67
     1
  8
0
100
AcDbBlockBegin
  2
*Paper_Space
 70
     0
 10
0.0
 20
0.0
 30
0.0
  3
*Paper_Space
  1

  0
ENDBLK
  5
1D
330
1B
100
AcDbEntity
 67
     1
  8
0
100
AcDbBlockEnd
  0
BLOCK
  5
24
330
23
100
AcDbEntity
  8
0
100
AcDbBlockBegin
  2
*Paper_Space0
 70
     0
 10
0.0
 20
0.0
 30
0.0
  3
*Paper_Space0
  1

  0
ENDBLK
  5
25
330
23
100
AcDbEntity
  8
0
100
AcDbBlockEnd
  0
ENDSEC
  0
SECTION
  2
ENTITIES
  0
LINE
  5
3C
330
1F
100
AcDbEntity
  8
3
  6
________________
 62
     7
370
     0
100
AcDbLine
 10
751.6271464166587
 20
92.33745746851915
 30
0.0
 11
754.6842221609146
 21
1.787999125571704
 31
0.0
  0
LINE
  5
3E
330
1F
100
AcDbEntity
  8
3
  6
________________
 62
     7
370
     0
100
AcDbLine
 10
754.6842221609146
 20
1.787999125571725
 30
0.0
 11
754.9891311482153
 21
-7.369568508428284
 31
0.0
  0
LINE
  5
3F
330
1F
100
AcDbEntity
  8
3
  6
________________
 62
     7
370
     0
100
AcDbLine
 10
764.3805468510616
 20
89.61611104018382
 30
0.0
 11
755.3805468510616
 21
91.52952774854283
 31
0.0
  0
LINE
  5
40
330
1F
100
AcDbEntity
  8
3
  6
________________
 62
     7
370
     0
100
AcDbLine
 10
764.3805468510616
 20
89.61611104018382
 30
0.0
 11
764.3805468510616
 21
-5.373361477417377
 31
0.0
  0
LINE
  5
41
330
1F
100
AcDbEntity
  8
3
  6
________________
 62
     7
370
     0
100
AcDbLine
 10
755.3805468510616
 20
91.52952774854289
 30
0.0
 11
755.3805468510616
 21
91.53964757761285
 31
0.0
  0
LINE
  5
42
330
1F
100
AcDbEntity
  8
3
  6
________________
 62
     7
370
     0
100
AcDbLine
 10
751.3805468510616
 20
78.12663852258261
 30
0.0
 11
751.3805468510616
 21
6.126638522582605
 31
0.0
  0
LINE
  5
43
330
1F
100
AcDbEntity
  8
3
  6
________________
 62
     7
370
     0
100
AcDbLine
 10
764.3805468510616
 20
89.61611104018381
 30
0.0
 11
764.3805468510616
 21
-5.37336147741739
 31
0.0
  0
LINE
  5
44
330
1F
100
AcDbEntity
  8
3
  6
________________
 62
     7
370
     0
100
AcDbLine
 10
769.3805468510616
 20
89.61611104018381
 30
0.0
 11
764.3805468510616
 21
89.61611104018381
 31
0.0
  0
LINE
  5
45
330
1F
100
AcDbEntity
  8
3
  6
________________
 62
     7
370
     0
100
AcDbLine
 10
770.3805468510616
 20
88.62663852258262
 30
0.0
 11
770.3805468510616
 21
-4.373361477417403
 31
0.0
  0
LWPOLYLINE
  5
46
330
1F
100
AcDbEntity
  8
3
  6
________________
 62
     7
370
     0
100
AcDbPolyline
 90
       39
 70
     0
 43
0.0
 10
770.380489052604
 20
88.62663852258262
 10
770.3794697028953
 20
88.66229721133595
 10
770.3771759983292
 20
88.69794220130822
 10
770.3735951589509
 20
88.73361926154297
 10
770.3687310779675
 20
88.76919071462241
 10
770.361542276964
 20
88.80996014699984
 10
770.3526562579423
 20
88.85046639548308
 10
770.3420398471475
 20
88.89077722625599
 10
770.3297304756999
 20
88.93067971258364
 10
770.3154714547505
 20
88.97081247752759
 10
770.2994865491295
 20
89.01037311783394
 10
770.281727186873
 20
89.04942827677695
 10
770.2622721345996
 20
89.08775583108769
 10
770.2419941453301
 20
89.12384778095038
 10
770.220201475138
 20
89.15912949117185
 10
770.1968403495713
 20
89.19365393440218
 10
770.172016585716
 20
89.22723250103809
 10
770.1452763712426
 20
89.26038303153213
 10
770.1170966318049
 20
89.292422146871
 10
770.0874094277449
 20
89.32339666470637
 10
770.0563626704914
 20
89.35312296750128
 10
770.0252841255059
 20
89.38046279596475
 10
769.9930446104948
 20
89.40653670994992
 10
769.9595758419755
 20
89.43137689053827
 10
769.9250401139983
 20
89.45484039125375
 10
769.8888377497206
 20
89.47726561765975
 10
769.8516450426405
 20
89.4981656098841
 10
769.813382386559
 20
89.51756205867221
 10
769.7742501514953
 20
89.53533067685213
 10
769.735881073739
 20
89.55083586996813
 10
769.6968357812558
 20
89.5647625552432
 10
769.6570392158732
 20
89.5771185055556
 10
769.6166917943526
 20
89.58782260951655
 10
769.5751158540096
 20
89.5969956351057
 10
769.5331105099032
 20
89.60440209010946
 10
769.490593503956
 20
89.61003611654309
 10
769.4477949680296
 20
89.61384682151358
 10
769.414209016397
 20
89.61554418326944
 10
769.3805468510616
 20
89.61611104018381
  0
LINE
  5
47
330
1F
100
AcDbEntity
  8
3
  6
________________
 62
     7
370
     0
100
AcDbLine
 10
770.5805468510616
 20
48.1266385225826
 30
0.0
 11
770.5805468510616
 21
46.32649312254904
 31
0.0
  0
LINE
  5
48
330
1F
100
AcDbEntity
  8
3
  6
________________
 62
     7
370
     0
100
AcDbLine
 10
770.3805468510616
 20
46.32649312254904
 30
0.0
 11
770.5805468510616
 21
46.32649312254904
 31
0.0
  0
LINE
  5
49
330
1F
100
AcDbEntity
  8
3
  6
________________
 62
     7
370
     0
100
AcDbLine
 10
770.3805468510616
 20
48.1266385225826
 30
0.0
 11
770.5805468510616
 21
48.1266385225826
 31
0.0
  0
LINE
  5
4A
330
1F
100
AcDbEntity
  8
3
  6
________________
 62
     7
370
     0
100
AcDbLine
 10
770.3805468510616
 20
46.04729067813315
 30
0.0
 11
770.5805468510616
 21
46.04729067813315
 31
0.0
  0
LINE
  5
4B
330
1F
100
AcDbEntity
  8
3
  6
________________
 62
     7
370
     0
100
AcDbLine
 10
770.5805468510616
 20
46.32649312255009
 30
0.0
 11
770.5805468510616
 21
46.04729067813315
 31
0.0
  0
LINE
  5
4C
330
1F
100
AcDbEntity
  8
3
  6
________________
 62
     7
370
     0
100
AcDbLine
 10
770.5805468510616
 20
45.08045050104742
 30
0.0
 11
770.5805468510616
 21
39.12663852258261
 31
0.0
  0
LINE
  5
4D
330
1F
100
AcDbEntity
  8
3
  6
________________
 62
     7
370
     0
100
AcDbLine
 10
770.3805468510616
 20
39.12663852258261
 30
0.0
 11
770.5805468510616
 21
39.12663852258261
 31
0.0
  0
LINE
  5
4E
330
1F
100
AcDbEntity
  8
3
  6
________________
 62
     7
370
     0
100
AcDbLine
 10
770.3805468510616
 20
45.37959174139461
 30
0.0
 11
770.5805468510616
 21
45.37959174139461
 31
0.0
  0
LINE
  5
4F
330
1F
100
AcDbEntity
  8
3
  6
________________
 62
     7
370
     0
100
AcDbLine
 10
770.3805468510616
 20
45.54591850996162
 30
0.0
 11
770.5805468510616
 21
45.54591850996201
 31
0.0
  0
LINE
  5
50
330
1F
100
AcDbEntity
  8
3
  6
________________
 62
     7
370
     0
100
AcDbLine
 10
770.5805468510616
 20
45.54591850996162
 30
0.0
 11
770.5805468510616
 21
45.37959174139466
 31
0.0
  0
LINE
  5
51
330
1F
100
AcDbEntity
  8
3
  6
________________
 62
     7
370
     0
100
AcDbLine
 10
770.5805468510616
 20
46.04729067813315
 30
0.0
 11
770.5805468510616
 21
45.54591850996201
 31
0.0
  0
LINE
  5
52
330
1F
100
AcDbEntity
  8
3
  6
________________
 62
     7
370
     0
100
AcDbLine
 10
770.5805468510616
 20
45.28417883593226
 30
0.0
 11
770.5805468510616
 21
45.19164010483145
 31
0.0
  0
LINE
  5
53
330
1F
100
AcDbEntity
  8
3
  6
________________
 62
     7
370
     0
100
AcDbLine
 10
770.3805468510616
 20
45.19164010483145
 30
0.0
 11
770.5805468510616
 21
45.19164010483145
 31
0.0
  0
LINE
  5
54
330
1F
100
AcDbEntity
  8
3
  6
________________
 62
     7
370
     0
100
AcDbLine
 10
770.3805468510616
 20
45.28417883593226
 30
0.0
 11
770.5805468510616
 21
45.28417883593226
 31
0.0
  0
LINE
  5
55
330
1F
100
AcDbEntity
  8
3
  6
________________
 62
     7
370
     0
100
AcDbLine
 10
770.5805468510616
 20
45.37959174139461
 30
0.0
 11
770.5805468510616
 21
45.28417883593226
 31
0.0
  0
LINE
  5
56
330
1F
100
AcDbEntity
  8
3
  6
________________
 62
     7
370
     0
100
AcDbLine
 10
770.5805468510616
 20
45.19164010483145
 30
0.0
 11
770.5805468510616
 21
45.14724259968043
 31
0.0
  0
LINE
  5
57
330
1F
100
AcDbEntity
  8
3
  6
________________
 62
     7
370
     0
100
AcDbLine
 10
770.3805468510616
 20
45.14724259968043
 30
0.0
 11
770.5805468510616
 21
45.14724259968043
 31
0.0
  0
LINE
  5
58
330
1F
100
AcDbEntity
  8
3
  6
________________
 62
     7
370
     0
100
AcDbLine
 10
770.5805468510616
 20
45.14724259968055
 30
0.0
 11
770.5805468510616
 21
45.1266385225826
 31
0.0
  0
LINE
  5
59
330
1F
100
AcDbEntity
  8
3
  6
________________
 62
     7
370
     0
100
AcDbLine
 10
770.3805468510616
 20
45.12663852258259
 30
0.0
 11
770.5805468510616
 21
45.12663852258259
 31
0.0
  0
LINE
  5
5A
330
1F
100
AcDbEntity
  8
3
  6
________________
 62
     7
370
     0
100
AcDbLine
 10
770.5805468510616
 20
38.82663852258261
 30
0.0
 11
770.5805468510616
 21
39.12663852258262
 31
0.0
  0
LINE
  5
5B
330
1F
100
AcDbEntity
  8
3
  6
________________
 62
     7
370
     0
100
AcDbLine
 10
770.3805468510616
 20
36.1266385225826
 30
0.0
 11
770.5805468510616
 21
36.1266385225826
 31
0.0
  0
LINE
  5
5C
330
1F
100
AcDbEntity
  8
3
  6
________________
 62
     7
370
     0
100
AcDbLine
 10
770.5805468510616
 20
38.82663852258261
 30
0.0
 11
770.5805468510616
 21
36.1266385225826
 31
0.0
  0
LINE
  5
5D
330
1F
100
AcDbEntity
  8
3
  6
________________
 62
     7
370
     0
100
AcDbLine
 10
770.5805468510616
 20
45.09735649027984
 30
0.0
 11
770.5805468510616
 21
45.08045050104742
 31
0.0
  0
SPLINE
  5
5E
330
1F
100
AcDbEntity
  8
3
  6
________________
 62
     7
370
     0
100
AcDbSpline
210
0.0
220
0.0
230
1.0
 70
     8
 71
     3
 72
    14
 73
    10
 74
     0
 42
0.000000001
 43
0.0001
 40
2.884656765182859
 40
2.884656765182859
 40
2.884656765182859
 40
2.884656765182859
 40
2.887479386181314
 40
2.89494057322571
 40
2.902401760270106
 40
2.909862947314502
 40
2.917324134358899
 40
2.924785321403295
 40
2.925577564182929
 40
2.925577564182929
 40
2.925577564182929
 40
2.925577564182929
 10
584.8807698167755
 20
6.127281581939238
 30
0.0
 10
584.8232833061151
 20
6.12701934010107
 30
0.0
 10
584.6138395866046
 20
6.38201156602064
 30
0.0
 10
584.2524386582444
 20
8.437205912904526
 30
0.0
 10
583.7965670316942
 20
13.77478838815777
 30
0.0
 10
583.3406954051446
 20
21.42259956836419
 30
0.0
 10
582.8848237785944
 20
30.75746344085339
 30
0.0
 10
582.5647742605668
 20
37.96149870467718
 30
0.0
 10
582.3966819513892
 20
41.76352083307214
 30
0.0
 10
582.3805468510615
 20
42.12847645862966
 30
0.0
  0
SPLINE
  5
5F
330
1F
100
AcDbEntity
  8
3
  6
________________
 62
     7
370
     0
100
AcDbSpline
210
0.0
220
0.0
230
1.0
 70
     8
 71
     3
 72
    18
 73
    14
 74
     0
 42
0.000000001
 43
0.0001
 40
2.720987984164061
 40
2.720987984164061
 40
2.720987984164061
 40
2.720987984164061
 40
2.723333271204599
 40
2.730794458248995
 40
2.738255645293391
 40
2.745716832337787
 40
2.753178019382183
 40
2.760639206426579
 40
2.768100393470975
 40
2.775561580515372
 40
2.783022767559768
 40
2.790483954604164
 40
2.796428410575692
 40
2.796428410575692
 40
2.796428410575692
 40
2.796428410575692
 10
594.8807809375965
 20
6.127190052892729
 30
0.0
 10
594.8330159813621
 20
6.126915793071452
 30
0.0
 10
594.6332938162778
 20
6.32872785214103
 30
0.0
 10
594.2816144423433
 20
8.185617199088329
 30
0.0
 10
593.8257428157937
 20
13.35830625371723
 30
0.0
 10
593.3698711892437
 20
20.87516073973868
 30
0.0
 10
592.9139995626931
 20
30.12367555000028
 30
0.0
 10
592.4581279361437
 20
40.35024256751779
 30
0.0
 10
592.002256309594
 20
50.72155784334227
 30
0.0
 10
591.5463846830434
 20
60.39252272801352
 30
0.0
 10
591.090513056494
 20
68.57510608510675
 30
0.0
 10
590.6655317184508
 20
74.19413072193787
 30
0.0
 10
590.3925075892583
 20
76.38022422751386
 30
0.0
 10
590.2714406689158
 20
77.04642264388224
 30
0.0
  0
SPLINE
  5
60
330
1F
100
AcDbEntity
  8
3
  6
________________
 62
     7
370
     0
100
AcDbSpline
210
0.0
220
0.0
230
1.0
 70
     8
 71
     3
 72
    18
 73
    14
 74
     0
 42
0.000000001
 43
0.0001
 40
2.557320435349915
 40
2.557320435349915
 40
2.557320435349915
 40
2.557320435349915
 40
2.559187156227883
 40
2.566648343272279
 40
2.574109530316675
 40
2.581570717361072
 40
2.589031904405468
 40
2.596493091449864
 40
2.60395427849426
 40
2.611415465538656
 40
2.618876652583052
 40
2.626337839627448
 40
2.63275714486055
 40
2.63275714486055
 40
2.63275714486055
 40
2.63275714486055
 10
604.8807167718531
 20
6.127073743947761
 30
0.0
 10
604.8426984655663
 20
6.126866855339058
 30
0.0
 10
604.6527229504292
 20
6.279671594803575
 30
0.0
 10
604.3107902264424
 20
7.945434069978831
 30
0.0
 10
603.8549185998922
 20
12.95149146686203
 30
0.0
 10
603.3990469733426
 20
20.33486328519517
 30
0.0
 10
602.9431753467924
 20
29.49392115035008
 30
0.0
 10
602.4873037202424
 20
39.68234627571987
 30
0.0
 10
602.0314320936931
 20
50.0699426751057
 30
0.0
 10
601.5755604671424
 20
59.8102850442143
 30
0.0
 10
601.1196888405925
 20
68.10968907565523
 30
0.0
 10
600.6850365523405
 20
74.00412318158918
 30
0.0
 10
600.4023414729378
 20
76.32599516524871
 30
0.0
 10
600.2716036023852
 20
77.04564199124673
 30
0.0
  0
SPLINE
  5
61
330
1F
100
AcDbEntity
  8
3
  6
________________
 62
     7
370
     0
100
AcDbSpline
210
0.0
220
0.0
230
1.0
 70
     8
 71
     3
 72
    18
 73
    14
 74
     0
 42
0.000000001
 43
0.0001
 40
2.393653674843159
 40
2.393653674843159
 40
2.393653674843159
 40
2.393653674843159
 40
2.395041041251168
 40
2.402502228295564
 40
2.40996341533996
 40
2.417424602384356
 40
2.424885789428752
 40
2.432346976473148
 40
2.439808163517545
 40
2.447269350561941
 40
2.454730537606337
 40
2.462191724650733
 40
2.469086912576891
 40
2.469086912576891
 40
2.469086912576891
 40
2.469086912576891
 10
614.8806044412574
 20
6.126947138854762
 30
0.0
 10
614.8523488398687
 20
6.126836880377017
 30
0.0
 10
614.6721360296301
 20
6.234754947049739
 30
0.0
 10
614.3399660105413
 20
7.716737237024963
 30
0.0
 10
613.8840943839919
 20
12.55448073416057
 30
0.0
 10
613.4282227574411
 20
19.80188876698852
 30
0.0
 10
612.9723511308919
 20
28.86841186538527
 30
0.0
 10
612.5164795043416
 20
39.01527136704998
 30
0.0
 10
612.060607877791
 20
49.41565822866766
 30
0.0
 10
611.604736251242
 20
59.22210492496522
 30
0.0
 10
611.1488646246919
 20
67.63554068828758
 30
0.0
 10
610.7045203389936
 20
73.81021746784796
 30
0.0
 10
610.4121332621451
 20
76.27216604509407
 30
0.0
 10
610.2717033941467
 20
77.04518352539029
 30
0.0
  0
SPLINE
  5
62
330
1F
100
AcDbEntity
  8
3
  6
________________
 62
     7
370
     0
100
AcDbSpline
210
0.0
220
0.0
230
1.0
 70
     8
 71
     3
 72
    18
 73
    14
 74
     0
 42
0.000000001
 43
0.0001
 40
2.229987257316159
 40
2.229987257316159
 40
2.229987257316159
 40
2.229987257316159
 40
2.230894926274452
 40
2.238356113318849
 40
2.245817300363244
 40
2.253278487407641
 40
2.260739674452037
 40
2.268200861496433
 40
2.275662048540829
 40
2.283123235585225
 40
2.290584422629621
 40
2.298045609674018
 40
2.305419510278332
 40
2.305419510278332
 40
2.305419510278332
 40
2.305419510278332
 10
624.8804711549161
 20
6.126829031386296
 30
0.0
 10
624.8619852436741
 20
6.126803770595323
 30
0.0
 10
624.6915421235823
 20
6.1939059023901
 30
0.0
 10
624.3691417946404
 20
7.499603551806552
 30
0.0
 10
623.9132701680905
 20
12.16740746761206
 30
0.0
 10
623.4573985415403
 20
19.27641628656626
 30
0.0
 10
623.0015269149904
 20
28.24735789205507
 30
0.0
 10
622.5456552884407
 20
38.3492420062237
 30
0.0
 10
622.0897836618901
 20
48.7589243706195
 30
0.0
 10
621.6339120353412
 20
58.62818002307411
 30
0.0
 10
621.1780404087903
 20
67.1528202564421
 30
0.0
 10
620.7239464891559
 20
73.61293099037869
 30
0.0
 10
620.4218097783715
 20
76.21941061052598
 30
0.0
 10
620.2716302764368
 20
77.04562764777754
 30
0.0
  0
ARC
  5
63
330
1F
100
AcDbEntity
  8
3
  6
________________
 62
     7
370
     0
100
AcDbCircle
 10
-655.305688514222
 20
6.69323200373961
 30
0.0
 40
0.7077346771596117
210
0.0
220
0.0
230
-1.0
100
AcDbArc
 50
306.8312104402387
 51
0.0225701926792681
  0
SPLINE
  5
64
330
1F
100
AcDbEntity
  8
3
  6
________________
 62
     7
370
     0
100
AcDbSpline
210
0.0
220
0.0
230
1.0
 70
     8
 71
     3
 72
    18
 73
    14
 74
     0
 42
0.000000001
 43
0.0001
 40
1.575298745803296
 40
1.575298745803296
 40
1.575298745803296
 40
1.575298745803296
 40
1.581771653411982
 40
1.589232840456378
 40
1.596694027500774
 40
1.604155214545171
 40
1.611616401589567
 40
1.619077588633963
 40
1.626538775678359
 40
1.633999962722755
 40
1.641461149767151
 40
1.648922336811548
 40
1.650739654958805
 40
1.650739654958805
 40
1.650739654958805
 40
1.650739654958805
 10
664.8813335982584
 20
6.126850763241771
 30
0.0
 10
664.7495040425179
 20
6.126030827276265
 30
0.0
 10
664.4657172779273
 20
6.923514083195435
 30
0.0
 10
664.0299733044868
 20
10.72103951405111
 30
0.0
 10
663.574101677937
 20
17.25303929681418
 30
0.0
 10
663.1182300513871
 20
25.81184518409613
 30
0.0
 10
662.6623584248368
 20
35.70004946009857
 30
0.0
 10
662.206486798287
 20
46.11191940365669
 30
0.0
 10
661.7506151717372
 20
56.19905179939699
 30
0.0
 10
661.2947435451871
 20
65.13950442129811
 30
0.0
 10
660.8388719186371
 20
72.2047713628869
 30
0.0
 10
660.4979453483658
 20
75.65566063015925
 30
0.0
 10
660.3089759869447
 20
76.83981031820078
 30
0.0
 10
660.2719638343734
 20
77.04343950934454
 30
0.0
  0
SPLINE
  5
65
330
1F
100
AcDbEntity
  8
3
  6
________________
 62
     7
370
     0
100
AcDbSpline
210
0.0
220
0.0
230
1.0
 70
     8
 71
     3
 72
    18
 73
    14
 74
     0
 42
0.000000001
 43
0.0001
 40
1.41163155850196
 40
1.41163155850196
 40
1.41163155850196
 40
1.41163155850196
 40
1.417625538435266
 40
1.425086725479662
 40
1.432547912524058
 40
1.440009099568455
 40
1.447470286612851
 40
1.454931473657247
 40
1.462392660701643
 40
1.469853847746039
 40
1.477315034790435
 40
1.484776221834832
 40
1.487073365137661
 40
1.487073365137661
 40
1.487073365137661
 40
1.487073365137661
 10
674.881247344417
 20
6.1269709164491
 30
0.0
 10
674.7591718013234
 20
6.126424026727105
 30
0.0
 10
674.4851390493798
 20
6.838603419608777
 30
0.0
 10
674.0591490885863
 20
10.38553637343605
 30
0.0
 10
673.6032774620361
 20
16.76767323370125
 30
0.0
 10
673.1474058354861
 20
25.2161658788805
 30
0.0
 10
672.6915342089362
 20
35.04259538287394
 30
0.0
 10
672.2356625823862
 20
45.44626269430798
 30
0.0
 10
671.7797909558363
 20
55.57943298297912
 30
0.0
 10
671.3239193292864
 20
64.61641266056559
 30
0.0
 10
670.8680477027364
 20
71.82083038769288
 30
0.0
 10
670.5173488414152
 20
75.50175082436333
 30
0.0
 10
670.3186071889439
 20
76.78677233099025
 30
0.0
 10
670.2718227453227
 20
77.04410265331177
 30
0.0
  0
SPLINE
  5
66
330
1F
100
AcDbEntity
  8
3
  6
________________
 62
     7
370
     0
100
AcDbSpline
210
0.0
220
0.0
230
1.0
 70
     8
 71
     3
 72
    18
 73
    14
 74
     0
 42
0.000000001
 43
0.0001
 40
1.247963973940598
 40
1.247963973940598
 40
1.247963973940598
 40
1.247963973940598
 40
1.25347942345855
 40
1.260940610502946
 40
1.268401797547343
 40
1.275862984591739
 40
1.283324171636135
 40
1.290785358680531
 40
1.298246545724927
 40
1.305707732769323
 40
1.31316891981372
 40
1.320630106858116
 40
1.323405484106605
 40
1.323405484106605
 40
1.323405484106605
 40
1.323405484106605
 10
684.8811853627958
 20
6.127096226563079
 30
0.0
 10
684.768855741609
 20
6.1266741275353
 30
0.0
 10
684.5045689115719
 20
6.757876569137608
 30
0.0
 10
684.0883248726857
 20
10.06069955384287
 30
0.0
 10
683.6324532461352
 20
16.29082883008485
 30
0.0
 10
683.1765816195857
 20
24.6261691907651
 30
0.0
 10
682.7207099930355
 20
34.3875218366689
 30
0.0
 10
682.2648383664855
 20
44.77949045415851
 30
0.0
 10
681.8089667399355
 20
54.95529347211042
 30
0.0
 10
681.3530951133857
 20
64.08576340704235
 30
0.0
 10
680.8972234868357
 20
71.42691093785609
 30
0.0
 10
680.5367847416155
 20
75.34354608768624
 30
0.0
 10
680.3283032052453
 20
76.73332987101452
 30
0.0
 10
680.2717788777253
 20
77.0442553261355
 30
0.0
  0
SPLINE
  5
67
330
1F
100
AcDbEntity
  8
3
  6
________________
 62
     7
370
     0
100
AcDbSpline
210
0.0
220
0.0
230
1.0
 70
     8
 71
     3
 72
    18
 73
    14
 74
     0
 42
0.000000001
 43
0.0001
 40
1.084295774274051
 40
1.084295774274051
 40
1.084295774274051
 40
1.084295774274051
 40
1.089333308481834
 40
1.096794495526231
 40
1.104255682570626
 40
1.111716869615023
 40
1.119178056659419
 40
1.126639243703815
 40
1.134100430748211
 40
1.141561617792608
 40
1.149022804837004
 40
1.1564839918814
 40
1.159737160313712
 40
1.159737160313712
 40
1.159737160313712
 40
1.159737160313712
 10
694.8811609635325
 20
6.127208935145386
 30
0.0
 10
694.7785647367999
 20
6.126788326429593
 30
0.0
 10
694.5240113012175
 20
6.681283449502557
 30
0.0
 10
694.1175006567846
 20
9.746638213856226
 30
0.0
 10
693.661629030235
 20
15.82266632537534
 30
0.0
 10
693.2057574036846
 20
24.04205338299984
 30
0.0
 10
692.7498857771348
 20
33.7350489532451
 30
0.0
 10
692.2940141505848
 20
44.11182674621483
 30
0.0
 10
691.838142524035
 20
54.32684300343903
 30
0.0
 10
691.3822708974849
 20
63.54773498078957
 30
0.0
 10
690.9263992709349
 20
71.02314538657873
 30
0.0
 10
690.5562296592624
 20
75.18125639993312
 30
0.0
 10
690.3380172564397
 20
76.6797725631356
 30
0.0
 10
690.271762062467
 20
77.04429321403498
 30
0.0
  0
SPLINE
  5
68
330
1F
100
AcDbEntity
  8
3
  6
________________
 62
     7
370
     0
100
AcDbSpline
210
0.0
220
0.0
230
1.0
 70
     8
 71
     3
 72
    18
 73
    14
 74
     0
 42
0.000000001
 43
0.0001
 40
0.9206267698521113
 40
0.9206267698521113
 40
0.9206267698521113
 40
0.9206267698521113
 40
0.9251871935051184
 40
0.9326483805495145
 40
0.9401095675939107
 40
0.9475707546383068
 40
0.9550319416827029
 40
0.9624931287270991
 40
0.9699543157714954
 40
0.9774155028158915
 40
0.9848766898602878
 40
0.992337876904684
 40
0.9960709030470033
 40
0.9960709030470033
 40
0.9960709030470033
 40
0.9960709030470033
 10
704.8811857340788
 20
6.127295574085277
 30
0.0
 10
704.788306511864
 20
6.126782210626944
 30
0.0
 10
704.5434700807991
 20
6.608786400540627
 30
0.0
 10
704.1466764408842
 20
9.443457891055857
 30
0.0
 10
703.6908048143338
 20
15.36334304150541
 30
0.0
 10
703.2349331877842
 20
23.46401474261678
 30
0.0
 10
702.779061561234
 20
33.08539599043444
 30
0.0
 10
702.323189934684
 20
43.44349593305266
 30
0.0
 10
701.8673183081344
 20
53.69429276227333
 30
0.0
 10
701.4114466815842
 20
63.00250818157588
 30
0.0
 10
700.955575055034
 20
70.60966941575823
 30
0.0
 10
700.5756324892964
 20
75.01544672369783
 30
0.0
 10
700.3476471324083
 20
76.62682053553976
 30
0.0
 10
700.2716189843703
 20
77.04506527776356
 30
0.0
  0
SPLINE
  5
69
330
1F
100
AcDbEntity
  8
3
  6
________________
 62
     7
370
     0
100
AcDbSpline
210
0.0
220
0.0
230
1.0
 70
     8
 71
     3
 72
    18
 73
    14
 74
     0
 42
0.000000001
 43
0.0001
 40
0.7569582893837618
 40
0.7569582893837618
 40
0.7569582893837618
 40
0.7569582893837618
 40
0.7610410785284046
 40
0.7685022655728008
 40
0.7759634526171969
 40
0.7834246396615928
 40
0.790885826705989
 40
0.798347013750385
 40
0.8058082007947811
 40
0.8132693878391772
 40
0.8207305748835733
 40
0.8281917619279694
 40
0.8324025392420815
 40
0.8324025392420815
 40
0.8324025392420815
 40
0.8324025392420815
 10
714.881178491546
 20
6.127346397030851
 30
0.0
 10
714.7980269448751
 20
6.126785310967566
 30
0.0
 10
714.5629181893541
 20
6.540563860014531
 30
0.0
 10
714.1758522249829
 20
9.151260466549903
 30
0.0
 10
713.7199805984332
 20
14.91301333006841
 30
0.0
 10
713.2641089718832
 20
22.89224751447021
 30
0.0
 10
712.8082373453334
 20
32.43878125846128
 30
0.0
 10
712.3523657187831
 20
42.77472260142536
 30
0.0
 10
711.8964940922334
 20
53.05785531161724
 30
0.0
 10
711.4406224656834
 20
62.45026622812156
 30
0.0
 10
710.9847508391333
 20
70.18662197039608
 30
0.0
 10
710.5950782218421
 20
74.84512757239514
 30
0.0
 10
710.3573628134009
 20
76.57329872058219
 30
0.0
 10
710.2716046138096
 20
77.04517011053218
 30
0.0
  0
SPLINE
  5
6A
330
1F
100
AcDbEntity
  8
3
  6
________________
 62
     7
370
     0
100
AcDbSpline
210
0.0
220
0.0
230
1.0
 70
     8
 71
     3
 72
    18
 73
    14
 74
     0
 42
0.000000001
 43
0.0001
 40
0.5932909359412292
 40
0.5932909359412292
 40
0.5932909359412292
 40
0.5932909359412292
 40
0.596894963551691
 40
0.6043561505960872
 40
0.6118173376404833
 40
0.6192785246848793
 40
0.6267397117292753
 40
0.6342008987736714
 40
0.6416620858180675
 40
0.6491232728624636
 40
0.6565844599068597
 40
0.6640456469512558
 40
0.6687337256885083
 40
0.6687337256885083
 40
0.6687337256885083
 40
0.6687337256885083
 10
724.881102388778
 20
6.127355818633939
 30
0.0
 10
724.8077014710627
 20
6.126834827379981
 30
0.0
 10
724.5823433444973
 20
6.476658490091332
 30
0.0
 10
724.2050280090824
 20
8.870144130738472
 30
0.0
 10
723.7491563825323
 20
14.47182852044069
 30
0.0
 10
723.2932847559823
 20
22.32694383595709
 30
0.0
 10
722.8374131294325
 20
31.79542204657447
 30
0.0
 10
722.3815415028822
 20
42.10573148678681
 30
0.0
 10
721.9256698763324
 20
52.41774452073299
 30
0.0
 10
721.4697982497826
 20
61.89119469652642
 30
0.0
 10
721.0139266232326
 20
69.75414521190262
 30
0.0
 10
720.6145331141302
 20
74.67064834389222
 30
0.0
 10
720.3670968138779
 20
76.5196703064448
 30
0.0
 10
720.2716177224755
 20
77.04516169246119
 30
0.0
  0
SPLINE
  5
6B
330
1F
100
AcDbEntity
  8
3
  6
________________
 62
     7
370
     0
100
AcDbSpline
210
0.0
220
0.0
230
1.0
 70
     8
 71
     3
 72
    18
 73
    14
 74
     0
 42
0.000000001
 43
0.0001
 40
0.4296242289231058
 40
0.4296242289231058
 40
0.4296242289231058
 40
0.4296242289231058
 40
0.4327488485749772
 40
0.4402100356193734
 40
0.4476712226637695
 40
0.4551324097081656
 40
0.4625935967525617
 40
0.4700547837969578
 40
0.4775159708413539
 40
0.48497715788575
 40
0.492438344930146
 40
0.4998995319745422
 40
0.5050676227998435
 40
0.5050676227998435
 40
0.5050676227998435
 40
0.5050676227998435
 10
734.8809867900767
 20
6.127322971619719
 30
0.0
 10
734.8173496666283
 20
6.126887020946492
 30
0.0
 10
734.6017553343298
 20
6.416963103806197
 30
0.0
 10
734.2342037931815
 20
8.600203350317887
 30
0.0
 10
733.7783321666313
 20
14.03993686893603
 30
0.0
 10
733.3224605400816
 20
21.7682936724563
 30
0.0
 10
732.8665889135316
 20
31.15553455003512
 30
0.0
 10
732.4107172869816
 20
41.43674739777551
 30
0.0
 10
731.9548456604316
 20
51.77417549327807
 30
0.0
 10
731.4989740338817
 20
61.32548145791014
 30
0.0
 10
731.0431024073317
 20
69.31238447032636
 30
0.0
 10
730.6339328000455
 20
74.49279357795841
 30
0.0
 10
730.3767204016093
 20
76.46692420651038
 30
0.0
 10
730.2714652120231
 20
77.04609592692846
 30
0.0
  0
SPLINE
  5
6C
330
1F
100
AcDbEntity
  8
3
  6
________________
 62
     7
370
     0
100
AcDbSpline
210
0.0
220
0.0
230
1.0
 70
     8
 71
     3
 72
    18
 73
    14
 74
     0
 42
0.000000001
 43
0.0001
 40
0.2659576824971743
 40
0.2659576824971743
 40
0.2659576824971743
 40
0.2659576824971743
 40
0.2686027335982615
 40
0.2760639206426576
 40
0.2835251076870538
 40
0.29098629473145
 40
0.2984474817758461
 40
0.3059086688202423
 40
0.3133698558646385
 40
0.3208310429090346
 40
0.3282922299534308
 40
0.335753416997827
 40
0.3413972474218552
 40
0.3413972474218552
 40
0.3413972474218552
 40
0.3413972474218552
 10
744.8808613793409
 20
6.127251333398066
 30
0.0
 10
744.8269913208375
 20
6.126912901053487
 30
0.0
 10
744.6211640534841
 20
6.361386762458711
 30
0.0
 10
744.2633795772806
 20
8.341528836537048
 30
0.0
 10
743.8075079507306
 20
13.61748350898301
 30
0.0
 10
743.3516363241807
 20
21.21648475349042
 30
0.0
 10
742.8957646976309
 20
30.51933379746379
 30
0.0
 10
742.4398930710806
 20
40.76799514066859
 30
0.0
 10
741.9840214445309
 20
51.12736449501939
 30
0.0
 10
741.5281498179809
 20
60.75331661527982
 30
0.0
 10
741.0722781914309
 20
68.86148819551764
 30
0.0
 10
740.6534195010094
 20
74.30974918096611
 30
0.0
 10
740.3865180194377
 20
76.41289971554568
 30
0.0
 10
740.2715737467162
 20
77.04561400935323
 30
0.0
  0
LINE
  5
6D
330
1F
100
AcDbEntity
  8
3
  6
________________
 62
     7
370
     0
100
AcDbLine
 10
747.3805468510616
 20
78.12608084243621
 30
0.0
 11
747.3805468510616
 21
71.25177676419908
 31
0.0
  0
SPLINE
  5
6E
330
1F
100
AcDbEntity
  8
3
  6
________________
 62
     7
370
     0
100
AcDbSpline
210
0.0
220
0.0
230
1.0
 70
     8
 71
     3
 72
     9
 73
     5
 74
     0
 42
0.000000001
 43
0.0001
 40
2.802822774605212
 40
2.802822774605212
 40
2.802822774605212
 40
2.802822774605212
 40
2.805406328692956
 40
2.809214325645329
 40
2.809214325645329
 40
2.809214325645329
 40
2.809214325645329
 10
586.3807509417353
 20
78.1260456439677
 30
0.0
 10
586.3281333534413
 20
78.12630073306627
 30
0.0
 10
586.1979607347281
 20
77.98127603531843
 30
0.0
 10
586.0677881160146
 20
77.47432279069646
 30
0.0
 10
585.9902330855953
 20
77.04832994775299
 30
0.0
  0
SPLINE
  5
6F
330
1F
100
AcDbEntity
  8
3
  6
________________
 62
     7
370
     0
100
AcDbSpline
210
0.0
220
0.0
230
1.0
 70
     8
 71
     3
 72
     9
 73
     5
 74
     0
 42
0.000000001
 43
0.0001
 40
2.720987983937933
 40
2.720987983937933
 40
2.720987983937933
 40
2.720987983937933
 40
2.723333271204599
 40
2.727391836585537
 40
2.727391836585537
 40
2.727391836585537
 40
2.727391836585537
 10
591.3807809514219
 20
6.127181992515836
 30
0.0
 10
591.3330159905822
 20
6.126907723246623
 30
0.0
 10
591.202592832923
 20
6.25869564631118
 30
0.0
 10
591.0721696752637
 20
6.754122497206826
 30
0.0
 10
590.9895114784442
 20
7.208907985718701
 30
0.0
  0
SPLINE
  5
70
330
1F
100
AcDbEntity
  8
3
  6
________________
 62
     7
370
     0
100
AcDbSpline
210
0.0
220
0.0
230
1.0
 70
     8
 71
     3
 72
     9
 73
     5
 74
     0
 42
0.000000001
 43
0.0001
 40
2.639154882044213
 40
2.639154882044213
 40
2.639154882044213
 40
2.639154882044213
 40
2.641260213716241
 40
2.645557789440097
 40
2.645557789440097
 40
2.645557789440097
 40
2.645557789440097
 10
596.3807077786063
 20
78.12615117440416
 30
0.0
 10
596.3378298393882
 20
78.12636854141338
 30
0.0
 10
596.2074259330643
 20
78.00800672407603
 30
0.0
 10
596.0770220267403
 20
77.52582809999834
 30
0.0
 10
595.9894960596346
 20
77.04430068837301
 30
0.0
  0
SPLINE
  5
71
330
1F
100
AcDbEntity
  8
3
  6
________________
 62
     7
370
     0
100
AcDbSpline
210
0.0
220
0.0
230
1.0
 70
     8
 71
     3
 72
     9
 73
     5
 74
     0
 42
0.000000001
 43
0.0001
 40
2.557320435349915
 40
2.557320435349915
 40
2.557320435349915
 40
2.557320435349915
 40
2.559187156227883
 40
2.563726754564322
 40
2.563726754564322
 40
2.563726754564322
 40
2.563726754564322
 10
601.3807167718626
 20
6.12706568346548
 30
0.0
 10
601.3426984655755
 20
6.126858794810452
 30
0.0
 10
601.2122250729329
 20
6.231803672677567
 30
0.0
 10
601.0817516802903
 20
6.701208112029726
 30
0.0
 10
600.9892965939347
 20
7.210047659672522
 30
0.0
  0
SPLINE
  5
72
330
1F
100
AcDbEntity
  8
3
  6
________________
 62
     7
370
     0
100
AcDbSpline
210
0.0
220
0.0
230
1.0
 70
     8
 71
     3
 72
     9
 73
     5
 74
     0
 42
0.000000001
 43
0.0001
 40
2.475487962119638
 40
2.475487962119638
 40
2.475487962119638
 40
2.475487962119638
 40
2.477114098739525
 40
2.481889829849424
 40
2.481889829849424
 40
2.481889829849424
 40
2.481889829849424
 10
606.3806051882923
 20
78.12627471670969
 30
0.0
 10
606.3474867072118
 20
78.12640596234586
 30
0.0
 10
606.2171039751003
 20
78.03488335919603
 30
0.0
 10
606.0867212429886
 20
77.57918351623904
 30
0.0
 10
605.9894569919572
 20
77.04414731362522
 30
0.0
  0
SPLINE
  5
73
330
1F
100
AcDbEntity
  8
3
  6
________________
 62
     7
370
     0
100
AcDbSpline
210
0.0
220
0.0
230
1.0
 70
     8
 71
     3
 72
     9
 73
     5
 74
     0
 42
0.000000001
 43
0.0001
 40
2.393653674843159
 40
2.393653674843159
 40
2.393653674843159
 40
2.393653674843159
 40
2.395041041251168
 40
2.40005636204898
 40
2.40005636204898
 40
2.40005636204898
 40
2.40005636204898
 10
611.3806044412669
 20
6.126939078344148
 30
0.0
 10
611.3523488398781
 20
6.126828819841709
 30
0.0
 10
611.2219494180238
 20
6.204916812776309
 30
0.0
 10
611.0915499961695
 20
6.647468737205633
 30
0.0
 10
610.989406175704
 20
7.209365738951007
 30
0.0
  0
SPLINE
  5
74
330
1F
100
AcDbEntity
  8
3
  6
________________
 62
     7
370
     0
100
AcDbSpline
210
0.0
220
0.0
230
1.0
 70
     8
 71
     3
 72
     9
 73
     5
 74
     0
 42
0.000000001
 43
0.0001
 40
2.311821521856547
 40
2.311821521856547
 40
2.311821521856547
 40
2.311821521856547
 40
2.31296798376281
 40
2.31822389360476
 40
2.31822389360476
 40
2.31822389360476
 40
2.31822389360476
 10
616.380473291105
 20
78.12639956602027
 30
0.0
 10
616.35712403712
 20
78.12644188104345
 30
0.0
 10
616.2267310399884
 20
78.06167513290708
 30
0.0
 10
616.0963380428568
 20
77.63231754962894
 30
0.0
 10
615.9892942997101
 20
77.0433463832319
 30
0.0
  0
SPLINE
  5
75
330
1F
100
AcDbEntity
  8
3
  6
________________
 62
     7
370
     0
100
AcDbSpline
210
0.0
220
0.0
230
1.0
 70
     8
 71
     3
 72
     9
 73
     5
 74
     0
 42
0.000000001
 43
0.0001
 40
2.22998725731616
 40
2.22998725731616
 40
2.22998725731616
 40
2.22998725731616
 40
2.230894926274452
 40
2.236386615814913
 40
2.236386615814913
 40
2.236386615814913
 40
2.236386615814913
 10
621.3804711549253
 20
6.126820970849246
 30
0.0
 10
621.3619852436833
 20
6.126795710052618
 30
0.0
 10
621.23165361547
 20
6.178106270706876
 30
0.0
 10
621.1013219872565
 20
6.593796623248251
 30
0.0
 10
620.9894762702851
 20
7.20887356386575
 30
0.0
  0
SPLINE
  5
76
330
1F
100
AcDbEntity
  8
3
  6
________________
 62
     7
370
     0
100
AcDbSpline
210
0.0
220
0.0
230
1.0
 70
     8
 71
     3
 72
     9
 73
     5
 74
     0
 42
0.000000001
 43
0.0001
 40
2.148155085659861
 40
2.148155085659861
 40
2.148155085659861
 40
2.148155085659861
 40
2.148821868786094
 40
2.154555110838296
 40
2.154555110838296
 40
2.154555110838296
 40
2.154555110838296
 10
626.3803411454641
 20
78.12650492621528
 30
0.0
 10
626.3667612013925
 20
78.12648984127091
 30
0.0
 10
626.2364159953418
 20
78.08847742127297
 30
0.0
 10
626.1060707892912
 20
77.68590781276637
 30
0.0
 10
625.989305527312
 20
77.0435243089141
 30
0.0
  0
ARC
  5
77
330
1F
100
AcDbEntity
  8
3
  6
________________
 62
     7
370
     0
100
AcDbCircle
 10
657.4977723702079
 20
77.1157455957673
 30
0.0
 40
1.506823367299723
100
AcDbArc
 50
137.8731023118248
 51
182.1672431556901
  0
ARC
  5
78
330
1F
100
AcDbEntity
  8
3
  6
________________
 62
     7
370
     0
100
AcDbCircle
 10
-662.5057050321718
 20
7.146067848420673
 30
0.0
 40
1.517574057181262
210
0.0
220
0.0
230
-1.0
100
AcDbArc
 50
317.8081841037995
 51
2.367562010813003
  0
SPLINE
  5
79
330
1F
100
AcDbEntity
  8
3
  6
________________
 62
     7
370
     0
100
AcDbSpline
210
0.0
220
0.0
230
1.0
 70
     8
 71
     3
 72
     9
 73
     5
 74
     0
 42
0.000000001
 43
0.0001
 40
1.493480368645125
 40
1.493480368645125
 40
1.493480368645125
 40
1.493480368645125
 40
1.499698595923624
 40
1.499875310010707
 40
1.499875310010707
 40
1.499875310010707
 40
1.499875310010707
 10
666.3803607577314
 20
78.12637491066415
 30
0.0
 10
666.2537181128529
 20
78.12536533623651
 30
0.0
 10
666.1234764455563
 20
77.77229748516962
 30
0.0
 10
665.9932347782599
 20
77.06546992907712
 30
0.0
 10
665.9896357558418
 20
77.04566843577865
 30
0.0
  0
SPLINE
  5
7A
330
1F
100
AcDbEntity
  8
3
  6
________________
 62
     7
370
     0
100
AcDbSpline
210
0.0
220
0.0
230
1.0
 70
     8
 71
     3
 72
     9
 73
     5
 74
     0
 42
0.000000001
 43
0.0001
 40
1.411631558275846
 40
1.411631558275846
 40
1.411631558275846
 40
1.411631558275846
 40
1.417625538435266
 40
1.418038358252218
 40
1.418038358252218
 40
1.418038358252218
 40
1.418038358252218
 10
671.3812473582417
 20
6.126962856005703
 30
0.0
 10
671.259171810543
 20
6.126415942163087
 30
0.0
 10
671.12868862653
 20
6.465526692531122
 30
0.0
 10
670.998205442517
 20
7.160488038555491
 30
0.0
 10
670.9897978062027
 20
7.206736316253543
 30
0.0
  0
SPLINE
  5
7B
330
1F
100
AcDbEntity
  8
3
  6
________________
 62
     7
370
     0
100
AcDbSpline
210
0.0
220
0.0
230
1.0
 70
     8
 71
     3
 72
     9
 73
     5
 74
     0
 42
0.000000001
 43
0.0001
 40
1.329808643009813
 40
1.329808643009813
 40
1.329808643009813
 40
1.329808643009813
 40
1.335552480946908
 40
1.336209005745259
 40
1.336209005745259
 40
1.336209005745259
 40
1.336209005745259
 10
676.3805517918978
 20
78.12625050439422
 30
0.0
 10
676.2635707303303
 20
78.12561912253057
 30
0.0
 10
676.1332186494726
 20
77.79998149845841
 30
0.0
 10
676.0028665686149
 20
77.11846173106845
 30
0.0
 10
675.9894955493246
 20
77.04484378087426
 30
0.0
  0
SPLINE
  5
7C
330
1F
100
AcDbEntity
  8
3
  6
________________
 62
     7
370
     0
100
AcDbSpline
210
0.0
220
0.0
230
1.0
 70
     8
 71
     3
 72
     9
 73
     5
 74
     0
 42
0.000000001
 43
0.0001
 40
1.247963973714499
 40
1.247963973714499
 40
1.247963973714499
 40
1.247963973714499
 40
1.25347942345855
 40
1.254368441316609
 40
1.254368441316609
 40
1.254368441316609
 40
1.254368441316609
 10
681.3811853766196
 20
6.127088166137759
 30
0.0
 10
681.2688557508279
 20
6.126666044967997
 30
0.0
 10
681.1384200687847
 20
6.438188704152997
 30
0.0
 10
681.0079843867417
 20
7.10676743433792
 30
0.0
 10
680.9898783304902
 20
7.206371223154463
 30
0.0
  0
ARC
  5
7D
330
1F
100
AcDbEntity
  8
3
  6
________________
 62
     7
370
     0
100
AcDbCircle
 10
688.6346185493801
 20
76.69927932915814
 30
0.0
 40
2.667614208858365
100
AcDbArc
 50
147.6642940675468
 51
172.5704797326815
  0
ARC
  5
7E
330
1F
100
AcDbEntity
  8
3
  6
________________
 62
     7
370
     0
100
AcDbCircle
 10
-693.4788336960704
 20
7.498332590136578
 30
0.0
 40
2.506039320100832
210
0.0
220
0.0
230
-1.0
100
AcDbArc
 50
326.8295929379244
 51
353.3234732772071
  0
ARC
  5
7F
330
1F
100
AcDbEntity
  8
3
  6
________________
 62
     7
370
     0
100
AcDbCircle
 10
698.3412232452638
 20
76.80563646366481
 30
0.0
 40
2.363673586852803
100
AcDbArc
 50
146.0396486247043
 51
174.1456553782479
  0
ARC
  5
80
330
1F
100
AcDbEntity
  8
3
  6
________________
 62
     7
370
     0
100
AcDbCircle
 10
-703.199700700986
 20
7.39739247838982
 30
0.0
 40
2.218144101686599
210
0.0
220
0.0
230
-1.0
100
AcDbArc
 50
325.0684055955415
 51
355.0931849352266
  0
ARC
  5
81
330
1F
100
AcDbEntity
  8
3
  6
________________
 62
     7
370
     0
100
AcDbCircle
 10
708.0692227407881
 20
76.90415554691943
 30
0.0
 40
2.084177866254239
100
AcDbArc
 50
144.1101561456618
 51
176.0706415951219
  0
ARC
  5
82
330
1F
100
AcDbEntity
  8
3
  6
________________
 62
     7
370
     0
100
AcDbCircle
 10
-712.9366994258854
 20
7.302079606803043
 30
0.0
 40
1.949272270835099
210
0.0
220
0.0
230
-1.0
100
AcDbArc
 50
322.9396190067012
 51
357.2217894213202
  0
ARC
  5
83
330
1F
100
AcDbEntity
  8
3
  6
________________
 62
     7
370
     0
100
AcDbCircle
 10
717.8161641574272
 20
76.99563204179356
 30
0.0
 40
1.827076342439452
100
AcDbArc
 50
141.7832777533455
 51
178.4210211438348
  0
ARC
  5
84
330
1F
100
AcDbEntity
  8
3
  6
________________
 62
     7
370
     0
100
AcDbCircle
 10
-722.6916137056669
 20
7.213244929697125
 30
0.0
 40
1.701943743449394
210
0.0
220
0.0
230
-1.0
100
AcDbArc
 50
320.3546595530884
 51
359.8204510636941
  0
ARC
  5
85
330
1F
100
AcDbEntity
  8
3
  6
________________
 62
     7
370
     0
100
AcDbCircle
 10
727.5792772961502
 20
77.08141953460783
 30
0.0
 40
1.589942354135649
100
AcDbArc
 50
138.9318410370323
 51
181.2889498403409
  0
ARC
  5
86
330
1F
100
AcDbEntity
  8
3
  6
________________
 62
     7
370
     0
100
AcDbCircle
 10
-732.4629725503149
 20
7.130153328359087
 30
0.0
 40
1.475255247813621
210
0.0
220
0.0
230
-1.0
100
AcDbArc
 50
317.1741072094172
 51
3.00834493381609
  0
SPLINE
  5
87
330
1F
100
AcDbEntity
  8
3
  6
________________
 62
     7
370
     0
100
AcDbSpline
210
0.0
220
0.0
230
1.0
 70
     8
 71
     3
 72
     9
 73
     5
 74
     0
 42
0.000000001
 43
0.0001
 40
0.3477984424642562
 40
0.3477984424642562
 40
0.3477984424642562
 40
0.3477984424642562
 40
0.3506757910866193
 40
0.3541961908619446
 40
0.3541961908619446
 40
0.3541961908619446
 40
0.3541961908619446
 10
736.3804666509672
 20
78.12599501945432
 30
0.0
 10
736.3218655379083
 20
78.12600181794879
 30
0.0
 10
736.19156670159
 20
77.96371147507746
 30
0.0
 10
736.0612678652718
 20
77.43922728750567
 30
0.0
 10
735.9895701420126
 20
77.04469210367903
 30
0.0
  0
SPLINE
  5
88
330
1F
100
AcDbEntity
  8
3
  6
________________
 62
     7
370
     0
100
AcDbSpline
210
0.0
220
0.0
230
1.0
 70
     8
 71
     3
 72
     9
 73
     5
 74
     0
 42
0.000000001
 43
0.0001
 40
0.2659576824971924
 40
0.2659576824971924
 40
0.2659576824971924
 40
0.2659576824971924
 40
0.2686027335982615
 40
0.2723416832021994
 40
0.2723416832021994
 40
0.2723416832021994
 40
0.2723416832021994
 10
741.3808613793492
 20
6.127243272955559
 30
0.0
 10
741.3269913208461
 20
6.126904840536046
 30
0.0
 10
741.1969724749632
 20
6.275019461440281
 30
0.0
 10
741.0669536290801
 20
6.784124826222842
 30
0.0
 10
740.9908048417003
 20
7.201808561292308
 30
0.0
  0
SPLINE
  5
89
330
1F
100
AcDbEntity
  8
3
  6
________________
 62
     7
370
     0
100
AcDbSpline
210
0.0
220
0.0
230
1.0
 70
     8
 71
     3
 72
     9
 73
     5
 74
     0
 42
0.000000001
 43
0.0001
 40
0.184131319782314
 40
0.184131319782314
 40
0.184131319782314
 40
0.184131319782314
 40
0.1865296761099036
 40
0.1905283047015813
 40
0.1905283047015813
 40
0.1905283047015813
 40
0.1905283047015813
 10
746.3803764489406
 20
78.12608314575353
 30
0.0
 10
746.3315306645903
 20
78.12607812829579
 30
0.0
 10
746.2012473775472
 20
77.9906887986997
 30
0.0
 10
746.070964090504
 20
77.49251602058239
 30
0.0
 10
745.9895265878113
 20
77.04444965277652
 30
0.0
  0
LINE
  5
8A
330
1F
100
AcDbEntity
  8
3
  6
________________
 62
     7
370
     0
100
AcDbLine
 10
582.3805468510617
 20
6.127275825345606
 30
0.0
 11
582.3805468510614
 21
42.12847645862966
 31
0.0
  0
SPLINE
  5
8B
330
1F
100
AcDbEntity
  8
3
  6
________________
 62
     7
370
     0
100
AcDbSpline
210
0.0
220
0.0
230
1.0
 70
     8
 71
     3
 72
    10
 73
     6
 74
     0
 42
0.000000001
 43
0.0001
 40
0.1677616709340883
 40
0.1677616709340883
 40
0.1677616709340883
 40
0.1677616709340883
 40
0.1716073020211114
 40
0.1790684890655075
 40
0.184131319782314
 40
0.184131319782314
 40
0.184131319782314
 40
0.184131319782314
 10
747.3805468510614
 20
71.25177676420091
 30
0.0
 10
747.3022253503707
 20
72.29300882895714
 30
0.0
 10
747.0719466408301
 20
75.04441586611024
 30
0.0
 10
746.7385565067899
 20
77.56663351240933
 30
0.0
 10
746.4834878734403
 20
78.12609373739868
 30
0.0
 10
746.3803764489406
 20
78.12608314575353
 30
0.0
  0
LWPOLYLINE
  5
8C
330
1F
100
AcDbEntity
  8
3
  6
________________
 62
     7
370
     0
100
AcDbPolyline
 90
        7
 70
     0
 43
0.0
 10
740.52087942347
 20
9.78109690457641
 42
-0.0164002587835264
 10
738.1444721824714
 20
48.30856086152049
 42
0.0231101511248194
 10
736.2605460621097
 20
74.94871891425463
 10
736.1930854700068
 20
75.20338250354926
 10
736.1245498325716
 20
75.4012707067952
 10
736.0559901750585
 20
75.53750607464127
 10
735.9874395912142
 20
75.61170982308906
  0
LWPOLYLINE
  5
8D
330
1F
100
AcDbEntity
  8
3
  6
________________
 62
     7
370
     0
100
AcDbPolyline
 90
        8
 70
     0
 43
0.0
 10
600.5204237067951
 20
9.783494041677859
 42
-0.0165217826575583
 10
598.1832755091839
 20
47.50412998735057
 42
0.0232823054927096
 10
596.2353905918809
 20
75.05061677252777
 10
596.1887897272561
 20
75.21768087773776
 10
596.1420349530753
 20
75.35676831296932
 10
596.0952749628124
 20
75.4671464865936
 10
596.0413950722416
 20
75.55857464110488
 10
595.9874304224957
 20
75.61170982308904
  0
LWPOLYLINE
  5
8E
330
1F
100
AcDbEntity
  8
3
  6
________________
 62
     7
370
     0
100
AcDbPolyline
 90
        8
 70
     0
 43
0.0
 10
610.5205583198621
 20
9.782658403854178
 42
-0.0180871627570615
 10
608.3219307907219
 20
44.60790712243502
 42
0.0200305408419357
 10
606.3086159313629
 20
74.731265720669
 10
606.2589618229398
 20
74.95541079072414
 10
606.2092824233578
 20
75.14776759032401
 10
606.1302139896662
 20
75.3874348474965
 10
606.0509148381589
 20
75.5452090169433
 10
605.9398670222799
 20
75.62663852254575
  0
LWPOLYLINE
  5
8F
330
1F
100
AcDbEntity
  8
3
  6
________________
 62
     7
370
     0
100
AcDbPolyline
 90
        6
 70
     0
 43
0.0
 10
620.5205836578272
 20
9.78240694662795
 42
-0.0162731854598492
 10
618.2030108915553
 20
47.09315903962579
 42
0.0217420555500821
 10
616.2847814429041
 20
74.84285550791806
 42
0.0656887024335746
 10
616.0781755172644
 20
75.50032498377261
 10
615.9845589493929
 20
75.61343939756878
 10
615.9398465202165
 20
75.62663852255368
  0
LWPOLYLINE
  5
90
330
1F
100
AcDbEntity
  8
3
  6
________________
 62
     7
370
     0
100
AcDbPolyline
 90
        8
 70
     0
 43
0.0
 10
670.5208527932888
 20
9.780767001146732
 42
-0.0167158152917087
 10
668.1735954441604
 20
47.70545179856295
 42
0.0241794196718154
 10
666.2396065704174
 20
75.0345086537123
 10
666.1975190876431
 20
75.18878720182525
 10
666.1553004816878
 20
75.32028530995619
 10
666.1130737336154
 20
75.42845382352878
 10
666.0448568416627
 20
75.55371649433631
 10
665.9398468662819
 20
75.62663852257549
  0
LWPOLYLINE
  5
91
330
1F
100
AcDbEntity
  8
3
  6
________________
 62
     7
370
     0
100
AcDbPolyline
 90
        8
 70
     0
 43
0.0
 10
680.5210923190996
 20
9.77955593340566
 42
-0.0163550137357431
 10
678.1617752192622
 20
47.95114437693456
 42
0.0244501208529481
 10
676.2368705991564
 20
75.04522244083158
 10
676.1900639181739
 20
75.2136571948483
 10
676.1278706240511
 20
75.39316117095714
 10
676.0655886529252
 20
75.52209896659184
 10
675.9527495417257
 20
75.62553975582823
 10
675.9398699758881
 20
75.62663852256296
  0
LWPOLYLINE
  5
92
330
1F
100
AcDbEntity
  8
3
  6
________________
 62
     7
370
     0
100
AcDbPolyline
 90
        8
 70
     0
 43
0.0
 10
690.5211465464863
 20
9.779371297620298
 42
-0.0168549974334277
 10
688.2029673285526
 20
47.09531883953014
 42
0.0222730232347427
 10
686.2665307049602
 20
74.92370209970666
 10
686.2123154975428
 20
75.13709496953861
 10
686.157833331378
 20
75.31293567155802
 10
686.1033560933462
 20
75.44995636971605
 10
686.0441491364544
 20
75.55468670471762
 10
685.9398862502785
 20
75.62663852255687
  0
LWPOLYLINE
  5
93
330
1F
100
AcDbEntity
  8
3
  6
________________
 62
     7
370
     0
100
AcDbPolyline
 90
        8
 70
     0
 43
0.0
 10
700.521096146783
 20
9.779754197218631
 42
-0.018072377409963
 10
698.3230833201844
 20
44.58195509608549
 42
0.0211812915257875
 10
696.2835188176282
 20
74.84895925920678
 10
696.2158274147463
 20
75.12436240406103
 10
696.1476071918407
 20
75.34157411961932
 10
696.0792966318292
 20
75.49808237098365
 10
696.0171790178208
 20
75.5871092028765
 10
695.9399068309878
 20
75.62663852256543
  0
LWPOLYLINE
  5
94
330
1F
100
AcDbEntity
  8
3
  6
________________
 62
     7
370
     0
100
AcDbPolyline
 90
        8
 70
     0
 43
0.0
 10
710.5211655044168
 20
9.779462047916326
 42
-0.016883367310645
 10
708.2105036406742
 20
46.93883744279638
 42
0.0236916202854966
 10
706.2306243467367
 20
75.06916689884044
 10
706.1683377071716
 20
75.28194167606861
 10
706.1118934970183
 20
75.43103176889029
 10
706.0554818904657
 20
75.53825951678219
 10
705.9421018985744
 20
75.62660694357864
 10
705.9399176987426
 20
75.62663852258156
  0
LWPOLYLINE
  5
95
330
1F
100
AcDbEntity
  8
3
  6
________________
 62
     7
370
     0
100
AcDbPolyline
 90
        8
 70
     0
 43
0.0
 10
720.5209365422158
 20
9.780775027521893
 42
-0.0167329321785655
 10
718.1656875473997
 20
47.87026187966524
 42
0.0222840499055208
 10
716.2605869657924
 20
74.94875519396521
 10
716.2061062720136
 20
75.1588841734905
 10
716.1468889875594
 20
75.34350089219102
 10
716.087707650903
 20
75.48217113050055
 10
716.0282117254111
 20
75.57505700336034
 10
715.9399270007106
 20
75.62663852248461
  0
LWPOLYLINE
  5
96
330
1F
100
AcDbEntity
  8
3
  6
________________
 62
     7
370
     0
100
AcDbPolyline
 90
        7
 70
     0
 43
0.0
 10
590.5208315052755
 20
9.781331530336681
 42
-0.0167128760370462
 10
588.1683091996631
 20
47.81481036496491
 42
0.0222075702012945
 10
586.2766426538756
 20
74.87921442174652
 10
586.2053179837696
 20
75.16161358589362
 10
586.1327116579295
 20
75.38094298128422
 10
586.0600705686417
 20
75.53113125313978
 10
585.9874381740959
 20
75.61170982308906
  0
SPLINE
  5
97
330
1F
100
AcDbEntity
  8
3
  6
________________
 62
     7
370
     0
100
AcDbSpline
210
0.0
220
0.0
230
1.0
 70
     8
 71
     3
 72
    18
 73
    14
 74
     0
 42
0.000000001
 43
0.0001
 40
2.727391836585537
 40
2.727391836585537
 40
2.727391836585537
 40
2.727391836585537
 40
2.730794458248995
 40
2.738255645293391
 40
2.745716832337787
 40
2.753178019382183
 40
2.760639206426579
 40
2.768100393470975
 40
2.775561580515372
 40
2.783022767559768
 40
2.790483954604164
 40
2.79794514164856
 40
2.802822774605212
 40
2.802822774605212
 40
2.802822774605212
 40
2.802822774605212
 10
590.9895114784442
 20
7.208907985718701
 30
0.0
 10
590.9202124664137
 20
7.590191225038782
 30
0.0
 10
590.6989562455332
 20
9.123516722486125
 30
0.0
 10
590.3257428158031
 20
13.358299812344
 30
0.0
 10
589.8698711892529
 20
20.87515598142672
 30
0.0
 10
589.4139995627023
 20
30.12367286247695
 30
0.0
 10
588.9581279361531
 20
40.35024216977388
 30
0.0
 10
588.5022563096034
 20
50.72155976778764
 30
0.0
 10
588.0463846830526
 20
60.39252681783618
 30
0.0
 10
587.5905130565035
 20
68.57511200705069
 30
0.0
 10
587.1346414299526
 20
74.60256367389239
 30
0.0
 10
586.7313873916968
 20
77.59347766923042
 30
0.0
 10
586.4800905622913
 20
78.12556404731757
 30
0.0
 10
586.3807509417353
 20
78.1260456439677
 30
0.0
  0
SPLINE
  5
98
330
1F
100
AcDbEntity
  8
3
  6
________________
 62
     7
370
     0
100
AcDbSpline
210
0.0
220
0.0
230
1.0
 70
     8
 71
     3
 72
    18
 73
    14
 74
     0
 42
0.000000001
 43
0.0001
 40
2.563726754564322
 40
2.563726754564322
 40
2.563726754564322
 40
2.563726754564322
 40
2.566648343272279
 40
2.574109530316675
 40
2.581570717361072
 40
2.589031904405468
 40
2.596493091449864
 40
2.60395427849426
 40
2.611415465538656
 40
2.618876652583052
 40
2.626337839627448
 40
2.633799026671845
 40
2.639154882044213
 40
2.639154882044213
 40
2.639154882044213
 40
2.639154882044213
 10
600.9892965939347
 20
7.210047659672522
 30
0.0
 10
600.9297944714403
 20
7.537525944397119
 30
0.0
 10
600.718335140096
 20
8.960702528606992
 30
0.0
 10
600.3549185999016
 20
12.95148493440098
 30
0.0
 10
599.8990469733518
 20
20.33485840590789
 30
0.0
 10
599.4431753468017
 20
29.49391832182161
 30
0.0
 10
598.9873037202518
 20
39.68234572843061
 30
0.0
 10
598.5314320937023
 20
50.06994445365117
 30
0.0
 10
598.0755604671517
 20
59.81028900367102
 30
0.0
 10
597.6196888406018
 20
68.10969489338997
 30
0.0
 10
597.1638172140523
 20
74.2918914163245
 30
0.0
 10
596.7508235267201
 20
77.51816773467024
 30
0.0
 10
596.4897870482382
 20
78.1255982039247
 30
0.0
 10
596.3807077786063
 20
78.12615117440416
 30
0.0
  0
SPLINE
  5
99
330
1F
100
AcDbEntity
  8
3
  6
________________
 62
     7
370
     0
100
AcDbSpline
210
0.0
220
0.0
230
1.0
 70
     8
 71
     3
 72
    18
 73
    14
 74
     0
 42
0.000000001
 43
0.0001
 40
2.40005636204898
 40
2.40005636204898
 40
2.40005636204898
 40
2.40005636204898
 40
2.402502228295564
 40
2.40996341533996
 40
2.417424602384356
 40
2.424885789428752
 40
2.432346976473148
 40
2.439808163517545
 40
2.447269350561941
 40
2.454730537606337
 40
2.462191724650733
 40
2.469652911695129
 40
2.475487962119638
 40
2.475487962119638
 40
2.475487962119638
 40
2.475487962119638
 10
610.989406175704
 20
7.209365738951007
 30
0.0
 10
610.9395927873195
 20
7.483391063756735
 30
0.0
 10
610.7378221900852
 20
8.800687570425014
 30
0.0
 10
610.3840943840011
 20
12.55447411280679
 30
0.0
 10
609.9282227574505
 20
19.80188376836562
 30
0.0
 10
609.4723511309012
 20
28.86840889680213
 30
0.0
 10
609.016479504351
 20
39.01527067039935
 30
0.0
 10
608.5606078778004
 20
49.41565986071556
 30
0.0
 10
608.1047362512512
 20
59.22210875272551
 30
0.0
 10
607.6488646247011
 20
67.63554639985811
 30
0.0
 10
607.1929929981511
 20
73.97041030557085
 30
0.0
 10
606.7702398526812
 20
77.4387956509655
 30
0.0
 10
606.4994439160618
 20
78.12580376925318
 30
0.0
 10
606.3806051882923
 20
78.12627471670969
 30
0.0
  0
SPLINE
  5
9A
330
1F
100
AcDbEntity
  8
3
  6
________________
 62
     7
370
     0
100
AcDbSpline
210
0.0
220
0.0
230
1.0
 70
     8
 71
     3
 72
    18
 73
    14
 74
     0
 42
0.000000001
 43
0.0001
 40
2.236386615814913
 40
2.236386615814913
 40
2.236386615814913
 40
2.236386615814913
 40
2.238356113318849
 40
2.245817300363244
 40
2.253278487407641
 40
2.260739674452037
 40
2.268200861496433
 40
2.275662048540829
 40
2.283123235585225
 40
2.290584422629621
 40
2.298045609674018
 40
2.305506796718414
 40
2.311821521856547
 40
2.311821521856547
 40
2.311821521856547
 40
2.311821521856547
 10
620.9894762702851
 20
7.20887356386575
 30
0.0
 10
620.9493647784067
 20
7.429460050109935
 30
0.0
 10
620.7572960776782
 20
8.644817308677874
 30
0.0
 10
620.4132701680999
 20
12.16740075959065
 30
0.0
 10
619.9573985415497
 20
19.27641117028743
 30
0.0
 10
619.5015269149998
 20
28.24735478441486
 30
0.0
 10
619.04565528845
 20
38.34924116044577
 30
0.0
 10
618.5897836618994
 20
48.7589258556214
 30
0.0
 10
618.1339120353504
 20
58.62818371785166
 30
0.0
 10
617.6780404087997
 20
67.15282585992911
 30
0.0
 10
617.2221687822499
 20
73.63822837255903
 30
0.0
 10
616.7896464096854
 20
77.35527259442016
 30
0.0
 10
616.50908124597
 20
78.12616649439438
 30
0.0
 10
616.380473291105
 20
78.12639956602027
 30
0.0
  0
SPLINE
  5
9B
330
1F
100
AcDbEntity
  8
3
  6
________________
 62
     7
370
     0
100
AcDbSpline
210
0.0
220
0.0
230
1.0
 70
     8
 71
     3
 72
    19
 73
    15
 74
     0
 42
0.000000001
 43
0.0001
 40
1.58171303585102
 40
1.58171303585102
 40
1.58171303585102
 40
1.58171303585102
 40
1.581771653411982
 40
1.589232840456378
 40
1.596694027500774
 40
1.604155214545171
 40
1.611616401589567
 40
1.619077588633963
 40
1.626538775678359
 40
1.633999962722755
 40
1.641461149767151
 40
1.648922336811548
 40
1.656383523855944
 40
1.657151268030315
 40
1.657151268030315
 40
1.657151268030315
 40
1.657151268030315
 10
660.9894264097976
 20
7.20875882353203
 30
0.0
 10
660.9882325835472
 20
7.215329052523756
 30
0.0
 10
660.8350815484467
 20
8.062001845804668
 30
0.0
 10
660.5299733044961
 20
10.7210324821807
 30
0.0
 10
660.0741016779465
 20
17.25303372749113
 30
0.0
 10
659.6182300513963
 20
25.81184153113246
 30
0.0
 10
659.1623584248463
 20
35.70004802115319
 30
0.0
 10
658.7064867982964
 20
46.11192029598097
 30
0.0
 10
658.2506151717465
 20
56.19905495028059
 30
0.0
 10
657.7947435451964
 20
65.13950957399366
 30
0.0
 10
657.3388719186464
 20
72.204778097531
 30
0.0
 10
656.8830002920963
 20
76.81915254861232
 30
0.0
 10
656.5634497214421
 20
78.07211662896005
 30
0.0
 10
656.3958563596376
 20
78.12662716348332
 30
0.0
 10
656.380220206683
 20
78.12648484109295
 30
0.0
  0
SPLINE
  5
9C
330
1F
100
AcDbEntity
  8
3
  6
________________
 62
     7
370
     0
100
AcDbSpline
210
0.0
220
0.0
230
1.0
 70
     8
 71
     3
 72
    18
 73
    14
 74
     0
 42
0.000000001
 43
0.0001
 40
1.418038358252218
 40
1.418038358252218
 40
1.418038358252218
 40
1.418038358252218
 40
1.425086725479662
 40
1.432547912524058
 40
1.440009099568455
 40
1.447470286612851
 40
1.454931473657247
 40
1.462392660701643
 40
1.469853847746039
 40
1.477315034790435
 40
1.484776221834832
 40
1.492237408879228
 40
1.493480368645125
 40
1.493480368645125
 40
1.493480368645125
 40
1.493480368645125
 10
670.9897978062027
 20
7.206736316253543
 30
0.0
 10
670.846248233667
 20
7.996366153452929
 30
0.0
 10
670.5507414522813
 20
10.50323498559546
 30
0.0
 10
670.1032774620454
 20
16.76766755570234
 30
0.0
 10
669.6474058354954
 20
25.21616209254126
 30
0.0
 10
669.1915342089457
 20
35.04259379672132
 30
0.0
 10
668.7356625823955
 20
45.44626343758839
 30
0.0
 10
668.2797909558458
 20
55.57943599512697
 30
0.0
 10
667.8239193292957
 20
64.6164176961383
 30
0.0
 10
667.3680477027457
 20
71.82083703637068
 30
0.0
 10
666.9121760761958
 20
76.60564744625538
 30
0.0
 10
666.5829470945243
 20
78.03221332469481
 30
0.0
 10
666.4056753217029
 20
78.12657671422296
 30
0.0
 10
666.3803607577314
 20
78.12637491066415
 30
0.0
  0
SPLINE
  5
9D
330
1F
100
AcDbEntity
  8
3
  6
________________
 62
     7
370
     0
100
AcDbSpline
210
0.0
220
0.0
230
1.0
 70
     8
 71
     3
 72
    18
 73
    14
 74
     0
 42
0.000000001
 43
0.0001
 40
1.254368441316609
 40
1.254368441316609
 40
1.254368441316609
 40
1.254368441316609
 40
1.260940610502946
 40
1.268401797547343
 40
1.275862984591739
 40
1.283324171636135
 40
1.290785358680531
 40
1.298246545724927
 40
1.305707732769323
 40
1.31316891981372
 40
1.320630106858116
 40
1.328091293902512
 40
1.329808643009813
 40
1.329808643009813
 40
1.329808643009813
 40
1.329808643009813
 10
680.9898783304902
 20
7.20637122315447
 30
0.0
 10
680.8560271778919
 20
7.942703959070853
 30
0.0
 10
680.5702188164436
 20
10.30813724635253
 30
0.0
 10
680.1324532461446
 20
16.2908230453181
 30
0.0
 10
679.676581619595
 20
24.62616527232264
 30
0.0
 10
679.2207099930447
 20
34.38752010384205
 30
0.0
 10
678.7648383664949
 20
44.7794910481453
 30
0.0
 10
678.3089667399448
 20
54.95529634451032
 30
0.0
 10
677.853095113395
 20
64.08576832380002
 30
0.0
 10
677.3972234868451
 20
71.42691749833337
 30
0.0
 10
676.9413518602948
 20
76.38055597314322
 30
0.0
 10
676.6024612953127
 20
77.98812595912027
 30
0.0
 10
676.4155279391803
 20
78.12643928114801
 30
0.0
 10
676.3805517918978
 20
78.12625050439422
 30
0.0
  0
SPLINE
  5
9E
330
1F
100
AcDbEntity
  8
3
  6
________________
 62
     7
370
     0
100
AcDbSpline
210
0.0
220
0.0
230
1.0
 70
     8
 71
     3
 72
    18
 73
    14
 74
     0
 42
0.000000001
 43
0.0001
 40
1.090701297479041
 40
1.090701297479041
 40
1.090701297479041
 40
1.090701297479041
 40
1.096794495526231
 40
1.104255682570626
 40
1.111716869615023
 40
1.119178056659419
 40
1.126639243703815
 40
1.134100430748211
 40
1.141561617792608
 40
1.149022804837004
 40
1.1564839918814
 40
1.163945178925796
 40
1.166138030277519
 40
1.166138030277519
 40
1.166138030277519
 40
1.166138030277519
 10
690.9897894210532
 20
7.20697083750741
 30
0.0
 10
690.8656931663
 20
7.889880055969675
 30
0.0
 10
690.589639702697
 20
10.11797229841525
 30
0.0
 10
690.1616290302443
 20
15.82266043578463
 30
0.0
 10
689.705757403694
 20
24.04204933377095
 30
0.0
 10
689.2498857771442
 20
33.73504707432632
 30
0.0
 10
688.7940141505942
 20
44.11182719070838
 30
0.0
 10
688.3381425240442
 20
54.32684573512572
 30
0.0
 10
687.8822708974943
 20
63.54773977708
 30
0.0
 10
687.4263992709443
 20
71.02315185665088
 30
0.0
 10
686.9705276443946
 20
76.14395376930443
 30
0.0
 10
686.6219528303192
 20
77.94002264787065
 30
0.0
 10
686.4253352250942
 20
78.12627303320058
 30
0.0
 10
686.3806748287192
 20
78.1261301522633
 30
0.0
  0
SPLINE
  5
9F
330
1F
100
AcDbEntity
  8
3
  6
________________
 62
     7
370
     0
100
AcDbSpline
210
0.0
220
0.0
230
1.0
 70
     8
 71
     3
 72
    18
 73
    14
 74
     0
 42
0.000000001
 43
0.0001
 40
0.9270343942468676
 40
0.9270343942468676
 40
0.9270343942468676
 40
0.9270343942468676
 40
0.9326483805495145
 40
0.9401095675939107
 40
0.9475707546383068
 40
0.9550319416827029
 40
0.9624931287270991
 40
0.9699543157714954
 40
0.9774155028158915
 40
0.9848766898602878
 40
0.992337876904684
 40
0.99979906394908
 40
1.002468448872892
 40
1.002468448872892
 40
1.002468448872892
 40
1.002468448872892
 10
700.9896858108488
 20
7.207662561880746
 30
0.0
 10
700.875349354197
 20
7.837029398156892
 30
0.0
 10
700.6090556886952
 20
9.931988506139417
 30
0.0
 10
700.190804814343
 20
15.36333704906997
 30
0.0
 10
699.7349331877937
 20
23.46401056396212
 30
0.0
 10
699.2790615612433
 20
33.08539396605511
 30
0.0
 10
698.8231899346932
 20
43.44349622790361
 30
0.0
 10
698.3673183081438
 20
53.69429535232888
 30
0.0
 10
697.9114466815935
 20
63.00251285578731
 30
0.0
 10
697.4555750550434
 20
70.60967579325104
 30
0.0
 10
696.9997034284938
 20
75.8959203428508
 30
0.0
 10
696.6414233609373
 20
77.88790591965619
 30
0.0
 10
696.4351005022309
 20
78.1261080120047
 30
0.0
 10
696.3807348523745
 20
78.12602961971034
 30
0.0
  0
SPLINE
  5
A0
330
1F
100
AcDbEntity
  8
3
  6
________________
 62
     7
370
     0
100
AcDbSpline
210
0.0
220
0.0
230
1.0
 70
     8
 71
     3
 72
    18
 73
    14
 74
     0
 42
0.000000001
 43
0.0001
 40
0.7633652643671257
 40
0.7633652643671257
 40
0.7633652643671257
 40
0.7633652643671257
 40
0.7685022655728008
 40
0.7759634526171969
 40
0.7834246396615928
 40
0.790885826705989
 40
0.798347013750385
 40
0.8058082007947811
 40
0.8132693878391772
 40
0.8207305748835733
 40
0.8281917619279694
 40
0.8356529489723653
 40
0.838799842842471
 40
0.838799842842471
 40
0.838799842842471
 40
0.838799842842471
 10
710.989718246751
 20
7.207598529635844
 30
0.0
 10
710.885096239498
 20
7.783390950481306
 30
0.0
 10
710.6285170233951
 20
9.74952193462513
 30
0.0
 10
710.2199805984426
 20
14.91300723680188
 30
0.0
 10
709.7641089718926
 20
22.89224320779404
 30
0.0
 10
709.3082373453427
 20
32.43877908930168
 30
0.0
 10
708.8523657187925
 20
42.77472274653463
 30
0.0
 10
708.3964940922428
 20
53.05785775917126
 30
0.0
 10
707.9406224656927
 20
62.45027077868325
 30
0.0
 10
707.4847508391426
 20
70.18662825316645
 30
0.0
 10
707.0288792125929
 20
75.63653904325585
 30
0.0
 10
706.6608740267345
 20
77.83177721199552
 30
0.0
 10
706.4448260497261
 20
78.12597431386736
 30
0.0
 10
706.3807352815678
 20
78.12596055519205
 30
0.0
  0
SPLINE
  5
A1
330
1F
100
AcDbEntity
  8
3
  6
________________
 62
     7
370
     0
100
AcDbSpline
210
0.0
220
0.0
230
1.0
 70
     8
 71
     3
 72
    18
 73
    14
 74
     0
 42
0.000000001
 43
0.0001
 40
0.5996973188543632
 40
0.5996973188543632
 40
0.5996973188543632
 40
0.5996973188543632
 40
0.6043561505960872
 40
0.6118173376404833
 40
0.6192785246848793
 40
0.6267397117292753
 40
0.6342008987736714
 40
0.6416620858180675
 40
0.6491232728624636
 40
0.6565844599068597
 40
0.6640456469512558
 40
0.6715068339956518
 40
0.6751322559048347
 40
0.6751322559048347
 40
0.6751322559048347
 40
0.6751322559048347
 10
720.9896783189263
 20
7.207911523096508
 30
0.0
 10
720.8947948823146
 20
7.730070592229541
 30
0.0
 10
720.6479542368533
 20
9.571451072033936
 30
0.0
 10
720.2491563825416
 20
14.47182232839066
 30
0.0
 10
719.7932847559915
 20
22.32693940270662
 30
0.0
 10
719.3374131294419
 20
31.79541973336352
 30
0.0
 10
718.8815415028917
 20
42.10573148210563
 30
0.0
 10
718.4256698763417
 20
52.41774682496299
 30
0.0
 10
717.969798249792
 20
61.89119912190924
 30
0.0
 10
717.5139266232419
 20
69.75415139783931
 30
0.0
 10
717.0580549966918
 20
75.36589703334705
 30
0.0
 10
716.6803039373228
 20
77.77164754827018
 30
0.0
 10
716.4545100868039
 20
78.12590792082777
 30
0.0
 10
716.3806734451349
 20
78.1259303988765
 30
0.0
  0
SPLINE
  5
A2
330
1F
100
AcDbEntity
  8
3
  6
________________
 62
     7
370
     0
100
AcDbSpline
210
0.0
220
0.0
230
1.0
 70
     8
 71
     3
 72
    18
 73
    14
 74
     0
 42
0.000000001
 43
0.0001
 40
0.4360275409360982
 40
0.4360275409360982
 40
0.4360275409360982
 40
0.4360275409360982
 40
0.4402100356193734
 40
0.4476712226637695
 40
0.4551324097081656
 40
0.4625935967525617
 40
0.4700547837969578
 40
0.4775159708413539
 40
0.48497715788575
 40
0.492438344930146
 40
0.4998995319745422
 40
0.5073607190189382
 40
0.5114652798630818
 40
0.5114652798630818
 40
0.5114652798630818
 40
0.5114652798630818
 10
730.9897503493829
 20
7.20757679303808
 30
0.0
 10
730.9045681639855
 20
7.676160166404107
 30
0.0
 10
730.6674287697381
 20
9.39699562987556
 30
0.0
 10
730.2783321666406
 20
14.03993058018332
 30
0.0
 10
729.8224605400908
 20
21.76828911412126
 30
0.0
 10
729.366588913541
 20
31.15553209355017
 30
0.0
 10
728.9107172869908
 20
41.43674724330545
 30
0.0
 10
728.4548456604409
 20
51.77417765340977
 30
0.0
 10
727.998974033891
 20
61.32548575662693
 30
0.0
 10
727.5431024073409
 20
69.3123905573506
 30
0.0
 10
727.0872307807911
 20
75.08408526001483
 30
0.0
 10
726.6997214061868
 20
77.70746557360862
 30
0.0
 10
726.4641692404325
 20
78.12591500974479
 30
0.0
 10
726.3805742835283
 20
78.12594228543989
 30
0.0
  0
SPLINE
  5
A3
330
1F
100
AcDbEntity
  8
3
  6
________________
 62
     7
370
     0
100
AcDbSpline
210
0.0
220
0.0
230
1.0
 70
     8
 71
     3
 72
    18
 73
    14
 74
     0
 42
0.000000001
 43
0.0001
 40
0.2723416832021994
 40
0.2723416832021994
 40
0.2723416832021994
 40
0.2723416832021994
 40
0.2760639206426576
 40
0.2835251076870538
 40
0.29098629473145
 40
0.2984474817758461
 40
0.3059086688202423
 40
0.3133698558646385
 40
0.3208310429090346
 40
0.3282922299534308
 40
0.335753416997827
 40
0.3432146040422232
 40
0.3477984424642562
 40
0.3477984424642562
 40
0.3477984424642562
 40
0.3477984424642562
 10
740.9908048417003
 20
7.201808561292308
 30
0.0
 10
740.9149964202302
 20
7.617625355214479
 30
0.0
 10
740.68723078991
 20
9.222816832156477
 30
0.0
 10
740.3075079507399
 20
13.61747712564088
 30
0.0
 10
739.8516363241902
 20
21.21648007160259
 30
0.0
 10
739.3957646976401
 20
30.51933119853031
 30
0.0
 10
738.93989307109
 20
40.76799483646157
 30
0.0
 10
738.4840214445403
 20
51.12736651032688
 30
0.0
 10
738.0281498179902
 20
60.75332078588603
 30
0.0
 10
737.5722781914401
 20
68.86149418158394
 30
0.0
 10
737.1164065648903
 20
74.79119842365135
 30
0.0
 10
736.7191360513992
 20
77.6391557965855
 30
0.0
 10
736.4738227467582
 20
78.12598418892792
 30
0.0
 10
736.3804666509672
 20
78.12599501945432
 30
0.0
  0
LINE
  5
A4
330
1F
100
AcDbEntity
  8
3
  6
________________
 62
     7
370
     0
100
AcDbLine
 10
747.3805468510616
 20
71.25177676419906
 30
0.0
 11
747.3805468510616
 21
62.81461775442067
 31
0.0
  0
LWPOLYLINE
  5
A5
330
1F
100
AcDbEntity
  8
3
  6
________________
 62
     7
370
     0
100
AcDbPolyline
 90
        3
 70
     0
 43
0.0
 10
747.3805468510616
 20
62.81461775442067
 42
0.0449653366185995
 10
746.0714424662749
 20
75.51230306495964
 10
745.9874360372804
 20
75.61170982308906
  0
LWPOLYLINE
  5
A6
330
1F
100
AcDbEntity
  8
3
  6
________________
 62
     7
370
     0
100
AcDbPolyline
 90
        8
 70
     0
 43
0.0
 10
720.7404283790488
 20
74.47185430100883
 42
-0.0172639048756012
 10
723.0392222037623
 20
37.554476433274
 42
0.0238389655931259
 10
725.0182976081629
 20
9.232271870424732
 10
725.0651141365322
 20
9.060095281822576
 10
725.131213550266
 20
8.865597326209784
 10
725.2142615227694
 20
8.702475077367183
 10
725.2975427382115
 20
8.630379433560217
 10
725.3213234846373
 20
8.626638522582983
  0
LWPOLYLINE
  5
A7
330
1F
100
AcDbEntity
  8
3
  6
________________
 62
     7
370
     0
100
AcDbPolyline
 90
        6
 70
     0
 43
0.0
 10
710.7403388483876
 20
74.47231922188901
 42
-0.016505525828494
 10
713.1024918181108
 20
36.23961830939665
 42
0.0227431931273711
 10
714.9760419205529
 20
9.412156789850384
 42
0.0748543263757972
 10
715.2023476166671
 20
8.720257012491267
 10
715.2955629495181
 20
8.63102642397593
 10
715.3213240592543
 20
8.626638522583045
  0
LWPOLYLINE
  5
A8
330
1F
100
AcDbEntity
  8
3
  6
________________
 62
     7
370
     0
100
AcDbPolyline
 90
        8
 70
     0
 43
0.0
 10
700.7404103102324
 20
74.47193984071932
 42
-0.0164381910294517
 10
703.1499831112067
 20
35.25938456137999
 42
0.0240364811129622
 10
705.0356098677145
 20
9.165383773774245
 10
705.0822297578205
 20
9.004247315241527
 10
705.1289891689469
 20
8.87113490173385
 10
705.1757438106695
 20
8.766753654857538
 10
705.258499105557
 20
8.65273479896908
 10
705.3213297374297
 20
8.626638522596124
  0
LWPOLYLINE
  5
A9
330
1F
100
AcDbEntity
  8
3
  6
________________
 62
     7
370
     0
100
AcDbPolyline
 90
        8
 70
     0
 43
0.0
 10
690.7405461764231
 20
74.47124449714762
 42
-0.0192688920824199
 10
692.8121554969732
 20
42.3211626066737
 42
0.019635887871278
 10
694.9623628915474
 20
9.475493839420944
 10
695.0119519029722
 20
9.257974661664024
 10
695.0615574798576
 20
9.072173116320705
 10
695.1447386724665
 20
8.832709178133884
 10
695.2281669601987
 20
8.684008054266133
 10
695.3213428906414
 20
8.626638522602523
  0
LWPOLYLINE
  5
AA
330
1F
100
AcDbEntity
  8
3
  6
________________
 62
     7
370
     0
100
AcDbPolyline
 90
        6
 70
     0
 43
0.0
 10
680.7402145899109
 20
74.47314067287844
 42
-0.0174464945778365
 10
682.9830222957855
 20
38.72910217782163
 42
0.0224475369996547
 10
684.9862247292563
 20
9.366901685214145
 42
0.0710376096431293
 10
685.1928222025763
 20
8.735773419215672
 10
685.2864130716924
 20
8.634705603439256
 10
685.3213634809142
 20
8.626638522586106
  0
LWPOLYLINE
  5
AB
330
1F
100
AcDbEntity
  8
3
  6
________________
 62
     7
370
     0
100
AcDbPolyline
 90
        6
 70
     0
 43
0.0
 10
670.7404698482993
 20
74.47184711033988
 42
-0.0171530447833484
 10
673.0472296925527
 20
37.38889039729541
 42
0.0206340111961137
 10
674.9794926540296
 20
9.396804332979201
 42
0.0734552435852043
 10
675.2099492874759
 20
8.708637414275099
 10
675.318642125529
 20
8.626693874914688
 10
675.3213827210232
 20
8.626638522585745
  0
LWPOLYLINE
  5
AC
330
1F
100
AcDbEntity
  8
3
  6
________________
 62
     7
370
     0
100
AcDbPolyline
 90
        8
 70
     0
 43
0.0
 10
600.740387222319
 20
74.47240776089657
 42
-0.0167916338558195
 10
603.0414508685999
 20
37.50901853407875
 42
0.0227507056318049
 10
605.0129290845762
 20
9.2535951518673
 10
605.0551439318319
 20
9.094130154754062
 10
605.123362967352
 20
8.885611116939945
 10
605.1917000802014
 20
8.737859595426798
 10
605.2910368225557
 20
8.63273183272889
 10
605.3213688777379
 20
8.626638522630167
  0
LWPOLYLINE
  5
AD
330
1F
100
AcDbEntity
  8
3
  6
________________
 62
     7
370
     0
100
AcDbPolyline
 90
        8
 70
     0
 43
0.0
 10
590.7401533841761
 20
74.47357686410977
 42
-0.0167507960369304
 10
593.0605076763125
 20
37.1114398006857
 42
0.020821881642517
 10
594.9781682662938
 20
9.40230738761988
 10
595.0403454248001
 20
9.147443933104174
 10
595.102634447438
 20
8.942592752784451
 10
595.1591016769561
 20
8.800725303149639
 10
595.2155369883928
 20
8.700747151985952
 10
595.3213537964793
 20
8.626638522598027
  0
LWPOLYLINE
  5
AE
330
1F
100
AcDbEntity
  8
3
  6
________________
 62
     7
370
     0
100
AcDbPolyline
 90
        7
 70
     0
 43
0.0
 10
730.7403121712082
 20
74.47255175655
 42
-0.0171532700555214
 10
733.0601377000603
 20
37.11895287420271
 42
0.0222499691207134
 10
735.0058615021813
 20
9.282699070219648
 10
735.0740178710415
 20
9.030597986784883
 10
735.142211751674
 20
8.838951560981988
 10
735.2103843987152
 20
8.708202156760574
 10
735.3213314552883
 20
8.626638522607518
  0
LWPOLYLINE
  5
AF
330
1F
100
AcDbEntity
  8
3
  6
________________
 62
     7
370
     0
100
AcDbPolyline
 90
        7
 70
     0
 43
0.0
 10
740.7401963220738
 20
74.47327574138254
 42
-0.0169791169030655
 10
743.0690667914472
 20
36.93314462685582
 42
0.0229192480650228
 10
745.0205608154664
 20
9.22324410265793
 10
745.0868611014896
 20
8.98990212661318
 10
745.153149089552
 20
8.81381222137153
 10
745.2193406457328
 20
8.695504648530909
 10
745.3213419135244
 20
8.626638522582608
  0
ARC
  5
B0
330
1F
100
AcDbEntity
  8
3
  6
________________
 62
     7
370
     0
100
AcDbCircle
 10
-583.0028103353435
 20
7.417418499035731
 30
0.0
 40
2.278417231052186
210
0.0
220
0.0
230
-1.0
100
AcDbArc
 50
185.2892431591357
 51
214.4886248546893
  0
ARC
  5
B1
330
1F
100
AcDbEntity
  8
3
  6
________________
 62
     7
370
     0
100
AcDbCircle
 10
587.8640775259089
 20
76.7857476322541
 30
0.0
 40
2.421435269420808
100
AcDbArc
 50
6.180044627374143
 51
33.60818585913505
  0
ARC
  5
B2
330
1F
100
AcDbEntity
  8
3
  6
________________
 62
     7
370
     0
100
AcDbCircle
 10
-592.7204441603594
 20
7.519351563367715
 30
0.0
 40
2.570052268404458
210
0.0
220
0.0
230
-1.0
100
AcDbArc
 50
186.993238892506
 51
212.7984907923624
  0
SPLINE
  5
B3
330
1F
100
AcDbEntity
  8
3
  6
________________
 62
     7
370
     0
100
AcDbSpline
210
0.0
220
0.0
230
1.0
 70
     8
 71
     3
 72
     9
 73
     5
 74
     0
 42
0.000000001
 43
0.0001
 40
2.63275714486055
 40
2.63275714486055
 40
2.63275714486055
 40
2.63275714486055
 40
2.633799026671845
 40
2.639154882044214
 40
2.639154882044214
 40
2.639154882044214
 40
2.639154882044214
 10
600.2716036023852
 20
77.04564199124673
 30
0.0
 10
600.2503842640876
 20
77.16244387421322
 30
0.0
 10
600.1200856561582
 20
77.82238605771202
 30
0.0
 10
599.9897870482288
 20
78.12559014357984
 30
0.0
 10
599.8807077785971
 20
78.1261431139354
 30
0.0
  0
SPLINE
  5
B4
330
1F
100
AcDbEntity
  8
3
  6
________________
 62
     7
370
     0
100
AcDbSpline
210
0.0
220
0.0
230
1.0
 70
     8
 71
     3
 72
     9
 73
     5
 74
     0
 42
0.000000001
 43
0.0001
 40
2.550924972851893
 40
2.550924972851893
 40
2.550924972851893
 40
2.550924972851893
 40
2.551725969183487
 40
2.557320435349915
 40
2.557320435349915
 40
2.557320435349915
 40
2.557320435349915
 10
605.2714736144528
 20
7.206869749994696
 30
0.0
 10
605.2551602361494
 20
7.117110426715422
 30
0.0
 10
605.124907955283
 20
6.444508161532664
 30
0.0
 10
604.9946556744163
 20
6.127693778434591
 30
0.0
 10
604.8807167718531
 20
6.127073743947761
 30
0.0
  0
SPLINE
  5
B5
330
1F
100
AcDbEntity
  8
3
  6
________________
 62
     7
370
     0
100
AcDbSpline
210
0.0
220
0.0
230
1.0
 70
     8
 71
     3
 72
     9
 73
     5
 74
     0
 42
0.000000001
 43
0.0001
 40
2.469086912576891
 40
2.469086912576891
 40
2.469086912576891
 40
2.469086912576891
 40
2.469652911695129
 40
2.475487962119638
 40
2.475487962119638
 40
2.475487962119638
 40
2.475487962119638
 10
610.2717033941467
 20
77.04518352539029
 30
0.0
 10
610.260176053295
 20
77.1086375192358
 30
0.0
 10
610.1298099846737
 20
77.79505763148697
 30
0.0
 10
609.9994439160524
 20
78.12579570886219
 30
0.0
 10
609.8806051882827
 20
78.12626665621322
 30
0.0
  0
SPLINE
  5
B6
330
1F
100
AcDbEntity
  8
3
  6
________________
 62
     7
370
     0
100
AcDbSpline
210
0.0
220
0.0
230
1.0
 70
     8
 71
     3
 72
     9
 73
     5
 74
     0
 42
0.000000001
 43
0.0001
 40
2.387255989446172
 40
2.387255989446172
 40
2.387255989446172
 40
2.387255989446172
 40
2.387579854206771
 40
2.393653674843159
 40
2.393653674843159
 40
2.393653674843159
 40
2.393653674843159
 10
615.2714971009275
 20
7.206929767098198
 30
0.0
 10
615.2649011551654
 20
7.170646415316701
 30
0.0
 10
615.134603601942
 20
6.471762413024565
 30
0.0
 10
615.0043060487187
 20
6.127429844947088
 30
0.0
 10
614.8806044412574
 20
6.126947138854755
 30
0.0
  0
SPLINE
  5
B7
330
1F
100
AcDbEntity
  8
3
  6
________________
 62
     7
370
     0
100
AcDbSpline
210
0.0
220
0.0
230
1.0
 70
     8
 71
     3
 72
     9
 73
     5
 74
     0
 42
0.000000001
 43
0.0001
 40
2.305419510278332
 40
2.305419510278332
 40
2.305419510278332
 40
2.305419510278332
 40
2.305506796718414
 40
2.311821521856547
 40
2.311821521856547
 40
2.311821521856547
 40
2.311821521856547
 10
620.2716302764368
 20
77.04562764777754
 30
0.0
 10
620.2698525695216
 20
77.05540775572666
 30
0.0
 10
620.1394669077412
 20
77.76790480230885
 30
0.0
 10
620.0090812459607
 20
78.12615843392226
 30
0.0
 10
619.8804732910957
 20
78.12639150549587
 30
0.0
  0
ARC
  5
B8
330
1F
100
AcDbEntity
  8
3
  6
________________
 62
     7
370
     0
100
AcDbCircle
 10
-623.7482822786807
 20
7.148166389463751
 30
0.0
 40
1.524789051139664
210
0.0
220
0.0
230
-1.0
100
AcDbArc
 50
177.7164513145615
 51
222.0533335422861
  0
SPLINE
  5
B9
330
1F
100
AcDbEntity
  8
3
  6
________________
 62
     7
370
     0
100
AcDbSpline
210
0.0
220
0.0
230
1.0
 70
     8
 71
     3
 72
     9
 73
     5
 74
     0
 42
0.000000001
 43
0.0001
 40
1.732576696815673
 40
1.732576696815673
 40
1.732576696815673
 40
1.732576696815673
 40
1.738456581344302
 40
1.73896576528891
 40
1.73896576528891
 40
1.73896576528891
 40
1.73896576528891
 10
655.2717962790849
 20
7.208854485641742
 30
0.0
 10
655.1520444438856
 20
6.55030645800593
 30
0.0
 10
655.021922386019
 20
6.156899478244014
 30
0.0
 10
654.8918003281525
 20
6.126850149248616
 30
0.0
 10
654.881430105485
 20
6.126757665512169
 30
0.0
  0
SPLINE
  5
BA
330
1F
100
AcDbEntity
  8
3
  6
________________
 62
     7
370
     0
100
AcDbSpline
210
0.0
220
0.0
230
1.0
 70
     8
 71
     3
 72
     9
 73
     5
 74
     0
 42
0.000000001
 43
0.0001
 40
1.650739654958805
 40
1.650739654958805
 40
1.650739654958805
 40
1.650739654958805
 40
1.656383523855944
 40
1.657151268030415
 40
1.657151268030415
 40
1.657151268030415
 40
1.657151268030415
 10
660.2719638343734
 20
77.04343950934454
 30
0.0
 10
660.1570187780948
 20
77.67583095944944
 30
0.0
 10
660.0264375688595
 20
78.08414695578632
 30
0.0
 10
659.8958563596242
 20
78.12661910290927
 30
0.0
 10
659.8802202066677
 20
78.12647678054937
 30
0.0
  0
SPLINE
  5
BB
330
1F
100
AcDbEntity
  8
3
  6
________________
 62
     7
370
     0
100
AcDbSpline
210
0.0
220
0.0
230
1.0
 70
     8
 71
     3
 72
     9
 73
     5
 74
     0
 42
0.000000001
 43
0.0001
 40
1.5689238962387
 40
1.5689238962387
 40
1.5689238962387
 40
1.5689238962387
 40
1.574310466367586
 40
1.575298745803296
 40
1.575298745803296
 40
1.575298745803296
 40
1.575298745803296
 10
665.2708310096933
 20
7.203672429595943
 30
0.0
 10
665.1611261923244
 20
6.601795677658319
 30
0.0
 10
665.031293721846
 20
6.183611618837875
 30
0.0
 10
664.9014612513678
 20
6.126975950545877
 30
0.0
 10
664.8813335982584
 20
6.126850763241764
 30
0.0
  0
SPLINE
  5
BC
330
1F
100
AcDbEntity
  8
3
  6
________________
 62
     7
370
     0
100
AcDbSpline
210
0.0
220
0.0
230
1.0
 70
     8
 71
     3
 72
     9
 73
     5
 74
     0
 42
0.000000001
 43
0.0001
 40
1.487073365137661
 40
1.487073365137661
 40
1.487073365137661
 40
1.487073365137661
 40
1.492237408879228
 40
1.493480368645129
 40
1.493480368645129
 40
1.493480368645129
 40
1.493480368645129
 10
670.2718227453227
 20
77.04410265331177
 30
0.0
 10
670.1666499800939
 20
77.62258856616857
 30
0.0
 10
670.0361626508936
 20
78.05710906784451
 30
0.0
 10
669.9056753216934
 20
78.12656865365896
 30
0.0
 10
669.8803607577219
 20
78.12636685014525
 30
0.0
  0
SPLINE
  5
BD
330
1F
100
AcDbEntity
  8
3
  6
________________
 62
     7
370
     0
100
AcDbSpline
210
0.0
220
0.0
230
1.0
 70
     8
 71
     3
 72
     9
 73
     5
 74
     0
 42
0.000000001
 43
0.0001
 40
1.405237429043897
 40
1.405237429043897
 40
1.405237429043897
 40
1.405237429043897
 40
1.41016435139087
 40
1.41163155850196
 40
1.41163155850196
 40
1.41163155850196
 40
1.41163155850196
 10
675.2719227395082
 20
7.209772571081976
 30
0.0
 10
675.1715792735674
 20
6.657665429559444
 30
0.0
 10
675.0413541418703
 20
6.210674380443745
 30
0.0
 10
674.9111290101733
 20
6.127104784179396
 30
0.0
 10
674.881247344417
 20
6.1269709164491
 30
0.0
  0
SPLINE
  5
BE
330
1F
100
AcDbEntity
  8
3
  6
________________
 62
     7
370
     0
100
AcDbSpline
210
0.0
220
0.0
230
1.0
 70
     8
 71
     3
 72
     9
 73
     5
 74
     0
 42
0.000000001
 43
0.0001
 40
1.323405484106605
 40
1.323405484106605
 40
1.323405484106605
 40
1.323405484106605
 40
1.328091293902512
 40
1.329808642783708
 40
1.329808642783708
 40
1.329808642783708
 40
1.329808642783708
 10
680.2717788777253
 20
77.0442553261355
 30
0.0
 10
680.1763459963954
 20
77.5692064996006
 30
0.0
 10
680.0459369723881
 20
78.02994065656777
 30
0.0
 10
679.9155279483808
 20
78.12643121380023
 30
0.0
 10
679.8805518057034
 20
78.12624244397776
 30
0.0
  0
SPLINE
  5
BF
330
1F
100
AcDbEntity
  8
3
  6
________________
 62
     7
370
     0
100
AcDbSpline
210
0.0
220
0.0
230
1.0
 70
     8
 71
     3
 72
     9
 73
     5
 74
     0
 42
0.000000001
 43
0.0001
 40
1.241570180978898
 40
1.241570180978898
 40
1.241570180978898
 40
1.241570180978898
 40
1.246018236414154
 40
1.247963973940598
 40
1.247963973940598
 40
1.247963973940598
 40
1.247963973940598
 10
685.2718401982705
 20
7.209391089536221
 30
0.0
 10
685.1812495074423
 20
6.710944213217156
 30
0.0
 10
685.0510312289507
 20
6.237622689315061
 30
0.0
 10
684.9208129504591
 20
6.127245134447297
 30
0.0
 10
684.8811853627959
 20
6.127096226563079
 30
0.0
  0
SPLINE
  5
C0
330
1F
100
AcDbEntity
  8
3
  6
________________
 62
     7
370
     0
100
AcDbSpline
210
0.0
220
0.0
230
1.0
 70
     8
 71
     3
 72
     9
 73
     5
 74
     0
 42
0.000000001
 43
0.0001
 40
1.159737160313712
 40
1.159737160313712
 40
1.159737160313712
 40
1.159737160313712
 40
1.163945178925796
 40
1.166138030051428
 40
1.166138030051428
 40
1.166138030051428
 40
1.166138030051428
 10
690.271762062467
 20
77.04429321403498
 30
0.0
 10
690.1860600475896
 20
77.51580574570667
 30
0.0
 10
690.0556976409418
 20
78.00277629911373
 30
0.0
 10
689.9253352342942
 20
78.12626496398079
 30
0.0
 10
689.880674842524
 20
78.1261220918434
 30
0.0
  0
SPLINE
  5
C1
330
1F
100
AcDbEntity
  8
3
  6
________________
 62
     7
370
     0
100
AcDbSpline
210
0.0
220
0.0
230
1.0
 70
     8
 71
     3
 72
     9
 73
     5
 74
     0
 42
0.000000001
 43
0.0001
 40
1.077903783862629
 40
1.077903783862629
 40
1.077903783862629
 40
1.077903783862629
 40
1.081872121437438
 40
1.084295774274051
 40
1.084295774274051
 40
1.084295774274051
 40
1.084295774274051
 10
695.2717056648524
 20
7.20868622276781
 30
0.0
 10
695.1908850798632
 20
6.764037491151627
 30
0.0
 10
695.0607035127565
 20
6.264635158405376
 30
0.0
 10
694.9305219456498
 20
6.127411297941379
 30
0.0
 10
694.8811609635325
 20
6.127208935145401
 30
0.0
  0
SPLINE
  5
C2
330
1F
100
AcDbEntity
  8
3
  6
________________
 62
     7
370
     0
100
AcDbSpline
210
0.0
220
0.0
230
1.0
 70
     8
 71
     3
 72
     9
 73
     5
 74
     0
 42
0.000000001
 43
0.0001
 40
0.9960709030470033
 40
0.9960709030470033
 40
0.9960709030470033
 40
0.9960709030470033
 40
0.99979906394908
 40
1.00246844887291
 40
1.00246844887291
 40
1.00246844887291
 40
1.00246844887291
 10
700.2716189843703
 20
77.04506527776356
 30
0.0
 10
700.1956899235582
 20
77.46276492304094
 30
0.0
 10
700.0653952128896
 20
77.97567325647063
 30
0.0
 10
699.9351005022208
 20
78.12609995154644
 30
0.0
 10
699.880734852364
 20
78.12602155926874
 30
0.0
  0
SPLINE
  5
C3
330
1F
100
AcDbEntity
  8
3
  6
________________
 62
     7
370
     0
100
AcDbSpline
210
0.0
220
0.0
230
1.0
 70
     8
 71
     3
 72
     9
 73
     5
 74
     0
 42
0.000000001
 43
0.0001
 40
0.914233554363728
 40
0.914233554363728
 40
0.914233554363728
 40
0.914233554363728
 40
0.9177260064607223
 40
0.9206267698521113
 40
0.9206267698521113
 40
0.9206267698521113
 40
0.9206267698521113
 10
705.2718052864682
 20
7.20922914954801
 30
0.0
 10
705.20067675564
 20
6.817706823320807
 30
0.0
 10
705.0704702381768
 20
6.291847235077793
 30
0.0
 10
704.9402637207138
 20
6.127622110837061
 30
0.0
 10
704.8811857340788
 20
6.127295574085277
 30
0.0
  0
ARC
  5
C4
330
1F
100
AcDbEntity
  8
3
  6
________________
 62
     7
370
     0
100
AcDbCircle
 10
708.7800479224852
 20
77.11681353002687
 30
0.0
 40
1.493276311668784
100
AcDbArc
 50
357.2500454547594
 51
42.51541203923773
  0
ARC
  5
C5
330
1F
100
AcDbEntity
  8
3
  6
________________
 62
     7
370
     0
100
AcDbCircle
 10
-713.6628188344429
 20
7.178354847374029
 30
0.0
 40
1.609042888412001
210
0.0
220
0.0
230
-1.0
100
AcDbArc
 50
178.9445956820487
 51
220.7824412996496
  0
ARC
  5
C6
330
1F
100
AcDbEntity
  8
3
  6
________________
 62
     7
370
     0
100
AcDbCircle
 10
718.5496914073415
 20
77.03337675076976
 30
0.0
 40
1.721966642999125
100
AcDbArc
 50
0.3921287875809654
 51
39.38109158476923
  0
ARC
  5
C7
330
1F
100
AcDbEntity
  8
3
  6
________________
 62
     7
370
     0
100
AcDbCircle
 10
-723.4242740268921
 20
7.264562033173489
 30
0.0
 40
1.848130636719827
210
0.0
220
0.0
230
-1.0
100
AcDbArc
 50
181.7673425242324
 51
217.975744874413
  0
ARC
  5
C8
330
1F
100
AcDbEntity
  8
3
  6
________________
 62
     7
370
     0
100
AcDbCircle
 10
728.3040236458683
 20
76.94456979566206
 30
0.0
 40
1.970059357370632
100
AcDbArc
 50
2.954021008850674
 51
36.84550121497135
  0
ARC
  5
C9
330
1F
100
AcDbEntity
  8
3
  6
________________
 62
     7
370
     0
100
AcDbCircle
 10
-733.1775159357044
 20
7.352477188455536
 30
0.0
 40
2.098288780584501
210
0.0
220
0.0
230
-1.0
100
AcDbArc
 50
184.1449739607085
 51
215.7240868984987
  0
ARC
  5
CA
330
1F
100
AcDbEntity
  8
3
  6
________________
 62
     7
370
     0
100
AcDbCircle
 10
738.0401352964033
 20
76.84878739411027
 30
0.0
 40
2.240102290968532
100
AcDbArc
 50
5.04079465433393
 51
34.76084962617295
  0
ARC
  5
CB
330
1F
100
AcDbEntity
  8
3
  6
________________
 62
     7
370
     0
100
AcDbCircle
 10
-742.8982550844428
 20
7.454947543118561
 30
0.0
 40
2.386106650146997
210
0.0
220
0.0
230
-1.0
100
AcDbArc
 50
185.9708239463317
 51
213.8091184361397
  0
LWPOLYLINE
  5
CC
330
1F
100
AcDbEntity
  8
3
  6
________________
 62
     7
370
     0
100
AcDbPolyline
 90
        5
 70
     0
 43
0.0
 10
582.3805468510618
 20
51.28819677192803
 42
0.0120397849355187
 10
584.7648146233392
 20
10.65436341446069
 42
0.0610012013008764
 10
585.1660466543798
 20
8.78632271344082
 10
585.2342163899054
 20
8.67699037745566
 10
585.3213341189083
 20
8.626638522624408
  0
LINE
  5
CD
330
1F
100
AcDbEntity
  8
3
  6
________________
 62
     7
370
     0
100
AcDbLine
 10
582.3805468510616
 20
42.12847645862966
 30
0.0
 11
582.3805468510616
 21
51.28819677192803
 31
0.0
  0
LINE
  5
CE
330
1F
100
AcDbEntity
  8
3
  6
________________
 62
     7
370
     0
100
AcDbLine
 10
750.3413163665202
 20
75.32663852258257
 30
0.0
 11
750.3413163665202
 21
8.926638522582644
 31
0.0
  0
LINE
  5
CF
330
1F
100
AcDbEntity
  8
3
  6
________________
 62
     7
370
     0
100
AcDbLine
 10
735.9874395912142
 20
75.61170982308907
 30
0.0
 11
730.5325192950941
 21
75.61170982308906
 31
0.0
  0
LINE
  5
D0
330
1F
100
AcDbEntity
  8
3
  6
________________
 62
     7
370
     0
100
AcDbLine
 10
595.9874304224957
 20
75.61170982308906
 30
0.0
 11
590.5325508401417
 21
75.61170982308906
 31
0.0
  0
LINE
  5
D1
330
1F
100
AcDbEntity
  8
3
  6
________________
 62
     7
370
     0
100
AcDbLine
 10
749.3805468510616
 20
75.62663852258261
 30
0.0
 11
749.3805468510616
 21
8.626638522582608
 31
0.0
  0
LINE
  5
D2
330
1F
100
AcDbEntity
  8
3
  6
________________
 62
     7
370
     0
100
AcDbLine
 10
745.9874360372804
 20
75.61170982308906
 30
0.0
 11
740.5325752078143
 21
75.61170982308906
 31
0.0
  0
LINE
  5
D3
330
1F
100
AcDbEntity
  8
3
  6
________________
 62
     7
370
     0
100
AcDbLine
 10
580.3805468510617
 20
74.77629395721164
 30
0.0
 11
579.3805468510616
 21
74.77629395721164
 31
0.0
  0
LINE
  5
D4
330
1F
100
AcDbEntity
  8
3
  6
________________
 62
     7
370
     0
100
AcDbLine
 10
580.3805468510617
 20
75.61170982308909
 30
0.0
 11
580.3805468510617
 21
74.77629395721166
 31
0.0
  0
LINE
  5
D5
330
1F
100
AcDbEntity
  8
3
  6
________________
 62
     7
370
     0
100
AcDbLine
 10
585.9874381740959
 20
75.61170982308906
 30
0.0
 11
580.3805468510617
 21
75.61170982308906
 31
0.0
  0
LINE
  5
D6
330
1F
100
AcDbEntity
  8
3
  6
________________
 62
     7
370
     0
100
AcDbLine
 10
580.3805468510617
 20
9.47698308795359
 30
0.0
 11
580.3805468510617
 21
8.626638522582608
 31
0.0
  0
LINE
  5
D7
330
1F
100
AcDbEntity
  8
3
  6
________________
 62
     7
370
     0
100
AcDbLine
 10
580.3805468510617
 20
9.47698308795359
 30
0.0
 11
579.3805468510616
 21
9.47698308795359
 31
0.0
  0
LINE
  5
D8
330
1F
100
AcDbEntity
  8
3
  6
________________
 62
     7
370
     0
100
AcDbLine
 10
579.3805468510617
 20
34.62663852258261
 30
0.0
 11
579.3805468510617
 21
9.476983087953549
 31
0.0
  0
LINE
  5
D9
330
1F
100
AcDbEntity
  8
3
  6
________________
 62
     7
370
     0
100
AcDbLine
 10
580.3805468510617
 20
34.62663852258261
 30
0.0
 11
579.3805468510616
 21
34.62663852258262
 31
0.0
  0
LINE
  5
DA
330
1F
100
AcDbEntity
  8
3
  6
________________
 62
     7
370
     0
100
AcDbLine
 10
579.3805468510616
 20
49.6266385225826
 30
0.0
 11
580.3805468510617
 21
49.6266385225826
 31
0.0
  0
LINE
  5
DB
330
1F
100
AcDbEntity
  8
3
  6
________________
 62
     7
370
     0
100
AcDbLine
 10
579.3805468510616
 20
74.7762939572116
 30
0.0
 11
579.3805468510617
 21
49.6266385225826
 31
0.0
  0
LINE
  5
DC
330
1F
100
AcDbEntity
  8
3
  6
________________
 62
     7
370
     0
100
AcDbLine
 10
580.3805468510617
 20
49.6266385225826
 30
0.0
 11
580.3805468510617
 21
34.6266385225826
 31
0.0
  0
LINE
  5
DD
330
1F
100
AcDbEntity
  8
3
  6
________________
 62
     7
370
     0
100
AcDbLine
 10
770.6805468510615
 20
77.93572943167354
 30
0.0
 11
770.6805468510615
 21
85.35391124985534
 31
0.0
  0
LINE
  5
DE
330
1F
100
AcDbEntity
  8
3
  6
________________
 62
     7
370
     0
100
AcDbLine
 10
770.3805468510615
 20
85.35391124985534
 30
0.0
 11
770.6805468510615
 21
85.35391124985534
 31
0.0
  0
LINE
  5
DF
330
1F
100
AcDbEntity
  8
3
  6
________________
 62
     7
370
     0
100
AcDbLine
 10
770.6805468510615
 20
77.8993657953099
 30
0.0
 11
770.6805468510615
 21
77.91233205929487
 31
0.0
  0
LINE
  5
E0
330
1F
100
AcDbEntity
  8
3
  6
________________
 62
     7
370
     0
100
AcDbLine
 10
754.9902219628596
 20
-7.369336648618066
 30
0.0
 11
764.3805468510616
 21
-5.373361477417397
 31
0.0
  0
LINE
  5
E1
330
1F
100
AcDbEntity
  8
3
  6
________________
 62
     7
370
     0
100
AcDbLine
 10
755.3805468510616
 20
91.53964757761283
 30
0.0
 11
751.6282131188893
 21
92.3372307339618
 31
0.0
  0
LINE
  5
E2
330
1F
100
AcDbEntity
  8
3
  6
________________
 62
     7
370
     0
100
AcDbLine
 10
752.1030263995117
 20
78.38959957308452
 30
0.0
 11
751.3805468510616
 21
78.12663852258261
 31
0.0
  0
LINE
  5
E3
330
1F
100
AcDbEntity
  8
3
  6
________________
 62
     7
370
     0
100
AcDbLine
 10
751.3805468510616
 20
6.126638522582605
 30
0.0
 11
754.5783332731468
 21
4.962739449402946
 31
0.0
  0
LINE
  5
E4
330
1F
100
AcDbEntity
  8
3
  6
________________
 62
     7
370
     0
100
AcDbLine
 10
764.3805468510616
 20
-5.37336147741739
 30
0.0
 11
769.3805468510616
 21
-5.37336147741739
 31
0.0
  0
ARC
  5
E5
330
1F
100
AcDbEntity
  8
3
  6
________________
 62
     7
370
     0
100
AcDbCircle
 10
769.3805468510616
 20
-4.373361477417403
 30
0.0
 40
1.000000000000001
100
AcDbArc
 50
270.0000000000004
 51
0.0
  0
LINE
  5
E6
330
1F
100
AcDbEntity
  8
3
  6
________________
 62
     7
370
     0
100
AcDbLine
 10
770.5805468510616
 20
45.09735649027984
 30
0.0
 11
770.3805468510616
 21
45.09735649027984
 31
0.0
  0
LINE
  5
E7
330
1F
100
AcDbEntity
  8
3
  6
________________
 62
     7
370
     0
100
AcDbLine
 10
589.8807509140972
 20
78.12603758365647
 30
0.0
 11
586.3807509141063
 21
78.12604564410164
 31
0.0
  0
LINE
  5
E8
330
1F
100
AcDbEntity
  8
3
  6
________________
 62
     7
370
     0
100
AcDbLine
 10
599.8807077785971
 20
78.1261431139354
 30
0.0
 11
596.3807077786059
 21
78.12615117440416
 31
0.0
  0
LINE
  5
E9
330
1F
100
AcDbEntity
  8
3
  6
________________
 62
     7
370
     0
100
AcDbLine
 10
609.8806051882829
 20
78.12626665621322
 30
0.0
 11
606.3806051882923
 21
78.12627471670969
 31
0.0
  0
LINE
  5
EA
330
1F
100
AcDbEntity
  8
3
  6
________________
 62
     7
370
     0
100
AcDbLine
 10
619.8804732910957
 20
78.12639150549587
 30
0.0
 11
616.3804732911049
 21
78.12639956602028
 31
0.0
  0
LINE
  5
EB
330
1F
100
AcDbEntity
  8
3
  6
________________
 62
     7
370
     0
100
AcDbLine
 10
659.8802202066676
 20
78.12647678054937
 30
0.0
 11
656.3802202066768
 21
78.1264848410929
 31
0.0
  0
LINE
  5
EC
330
1F
100
AcDbEntity
  8
3
  6
________________
 62
     7
370
     0
100
AcDbLine
 10
669.8803607577219
 20
78.12636685014525
 30
0.0
 11
666.3803607577312
 21
78.12637491066415
 31
0.0
  0
LINE
  5
ED
330
1F
100
AcDbEntity
  8
3
  6
________________
 62
     7
370
     0
100
AcDbLine
 10
679.8805518057034
 20
78.12624244397776
 30
0.0
 11
676.3805518057127
 21
78.1262505044688
 31
0.0
  0
LINE
  5
EE
330
1F
100
AcDbEntity
  8
3
  6
________________
 62
     7
370
     0
100
AcDbLine
 10
689.880674842524
 20
78.1261220918434
 30
0.0
 11
686.3806748425332
 21
78.12613015230748
 31
0.0
  0
LINE
  5
EF
330
1F
100
AcDbEntity
  8
3
  6
________________
 62
     7
370
     0
100
AcDbLine
 10
699.8807348661783
 20
78.12602155928866
 30
0.0
 11
696.3807348661877
 21
78.12602961973025
 31
0.0
  0
LINE
  5
F0
330
1F
100
AcDbEntity
  8
3
  6
________________
 62
     7
370
     0
100
AcDbLine
 10
709.8807352953713
 20
78.1259524947689
 30
0.0
 11
706.3807352953805
 21
78.12596055519501
 31
0.0
  0
LINE
  5
F1
330
1F
100
AcDbEntity
  8
3
  6
________________
 62
     7
370
     0
100
AcDbLine
 10
719.8806734589385
 20
78.12592233845294
 30
0.0
 11
716.3806734589479
 21
78.1259303988723
 31
0.0
  0
LINE
  5
F2
330
1F
100
AcDbEntity
  8
3
  6
________________
 62
     7
370
     0
100
AcDbLine
 10
729.8805742835181
 20
78.12593422501787
 30
0.0
 11
726.3805742835274
 21
78.12594228543989
 31
0.0
  0
LINE
  5
F3
330
1F
100
AcDbEntity
  8
3
  6
________________
 62
     7
370
     0
100
AcDbLine
 10
739.8804666509585
 20
78.12598695902047
 30
0.0
 11
736.3804666509678
 21
78.12599501945431
 31
0.0
  0
LINE
  5
F4
330
1F
100
AcDbEntity
  8
3
  6
________________
 62
     7
370
     0
100
AcDbLine
 10
747.3805468762482
 20
78.12608084237286
 30
0.0
 11
746.3803764351263
 21
78.12608314575212
 31
0.0
  0
LINE
  5
F5
330
1F
100
AcDbEntity
  8
3
  6
________________
 62
     7
370
     0
100
AcDbLine
 10
741.380861365536
 20
6.127243272868774
 30
0.0
 11
744.8808613655267
 21
6.127251333311288
 31
0.0
  0
LINE
  5
F6
330
1F
100
AcDbEntity
  8
3
  6
________________
 62
     7
370
     0
100
AcDbLine
 10
731.380986790086
 20
6.127314911193247
 30
0.0
 11
734.8809867900767
 21
6.127322971619719
 31
0.0
  0
LINE
  5
F7
330
1F
100
AcDbEntity
  8
3
  6
________________
 62
     7
370
     0
100
AcDbLine
 10
721.3811024026011
 20
6.12734775831289
 30
0.0
 11
724.8811024025918
 21
6.127355818731986
 31
0.0
  0
LINE
  5
F8
330
1F
100
AcDbEntity
  8
3
  6
________________
 62
     7
370
     0
100
AcDbLine
 10
711.3811785053682
 20
6.127338336702821
 30
0.0
 11
714.8811785053589
 21
6.127346397124048
 31
0.0
  0
LINE
  5
F9
330
1F
100
AcDbEntity
  8
3
  6
________________
 62
     7
370
     0
100
AcDbLine
 10
701.3811857479011
 20
6.127287513729033
 30
0.0
 11
704.8811857478918
 21
6.127295574161626
 31
0.0
  0
LINE
  5
FA
330
1F
100
AcDbEntity
  8
3
  6
________________
 62
     7
370
     0
100
AcDbLine
 10
691.3811609773553
 20
6.127200874750008
 30
0.0
 11
694.8811609773462
 21
6.127208935202029
 31
0.0
  0
LINE
  5
FB
330
1F
100
AcDbEntity
  8
3
  6
________________
 62
     7
370
     0
100
AcDbLine
 10
681.3811853766197
 20
6.127088166137752
 30
0.0
 11
684.8811853766105
 21
6.127096226615003
 31
0.0
  0
LINE
  5
FC
330
1F
100
AcDbEntity
  8
3
  6
________________
 62
     7
370
     0
100
AcDbLine
 10
671.3812473582417
 20
6.126962856005696
 30
0.0
 11
674.8812473582324
 21
6.126970916510994
 31
0.0
  0
LINE
  5
FD
330
1F
100
AcDbEntity
  8
3
  6
________________
 62
     7
370
     0
100
AcDbLine
 10
661.3813335982677
 20
6.126842702709571
 30
0.0
 11
664.8813335982582
 21
6.126850763241764
 31
0.0
  0
LINE
  5
FE
330
1F
100
AcDbEntity
  8
3
  6
________________
 62
     7
370
     0
100
AcDbLine
 10
654.5979538919742
 20
6.126757012785324
 30
0.0
 11
654.8814301192999
 21
6.126757665635369
 31
0.0
  0
LINE
  5
FF
330
1F
100
AcDbEntity
  8
3
  6
________________
 62
     7
370
     0
100
AcDbLine
 10
621.3804711549253
 20
6.126820970849253
 30
0.0
 11
624.8804711549161
 21
6.126829031386296
 31
0.0
  0
LINE
  5
100
330
1F
100
AcDbEntity
  8
3
  6
________________
 62
     7
370
     0
100
AcDbLine
 10
611.3806044274514
 20
6.126939078290233
 30
0.0
 11
614.880604427442
 21
6.126947138800847
 31
0.0
  0
LINE
  5
101
330
1F
100
AcDbEntity
  8
3
  6
________________
 62
     7
370
     0
100
AcDbLine
 10
601.3807167580479
 20
6.127065683390303
 30
0.0
 11
604.8807167580386
 21
6.127073743872585
 31
0.0
  0
LINE
  5
102
330
1F
100
AcDbEntity
  8
3
  6
________________
 62
     7
370
     0
100
AcDbLine
 10
591.3807809237919
 20
6.127181992357191
 30
0.0
 11
594.8807809237828
 21
6.127190052813418
 31
0.0
  0
LINE
  5
103
330
1F
100
AcDbEntity
  8
3
  6
________________
 62
     7
370
     0
100
AcDbLine
 10
582.3805468639633
 20
6.127275823908707
 30
0.0
 11
584.8807698029624
 21
6.127281581876226
 31
0.0
  0
LINE
  5
104
330
1F
100
AcDbEntity
  8
3
  6
________________
 62
     7
370
     0
100
AcDbLine
 10
585.9902342878964
 20
77.04833655171988
 30
0.0
 11
585.7287539472318
 21
75.6116891548748
 31
0.0
  0
LINE
  5
105
330
1F
100
AcDbEntity
  8
3
  6
________________
 62
     7
370
     0
100
AcDbLine
 10
595.9895708397299
 20
77.04471205547136
 30
0.0
 11
595.7287462854342
 21
75.61168679205026
 31
0.0
  0
LINE
  5
106
330
1F
100
AcDbEntity
  8
3
  6
________________
 62
     7
370
     0
100
AcDbLine
 10
605.9895612091609
 20
77.04472052232848
 30
0.0
 11
605.7314496011838
 21
75.6265977705013
 31
0.0
  0
LINE
  5
107
330
1F
100
AcDbEntity
  8
3
  6
________________
 62
     7
370
     0
100
AcDbLine
 10
615.9894018476439
 20
77.04393804895528
 30
0.0
 11
615.7314325811149
 21
75.62660805039725
 31
0.0
  0
LINE
  5
108
330
1F
100
AcDbEntity
  8
3
  6
________________
 62
     7
370
     0
100
AcDbLine
 10
625.9893873221566
 20
77.04397425675555
 30
0.0
 11
625.731409583709
 21
75.62659736822589
 31
0.0
  0
LINE
  5
109
330
1F
100
AcDbEntity
  8
3
  6
________________
 62
     7
370
     0
100
AcDbLine
 10
655.9920934846187
 20
77.0591270973784
 30
0.0
 11
655.7313664755748
 21
75.62661046736714
 31
0.0
  0
LINE
  5
10A
330
1F
100
AcDbEntity
  8
3
  6
________________
 62
     7
370
     0
100
AcDbLine
 10
665.9897327310197
 20
77.04620191916212
 30
0.0
 11
665.7313672881697
 21
75.62660029299886
 31
0.0
  0
LINE
  5
10B
330
1F
100
AcDbEntity
  8
3
  6
________________
 62
     7
370
     0
100
AcDbLine
 10
675.9896029231503
 20
77.04543487826074
 30
0.0
 11
675.7311647849543
 21
75.62541453621701
 31
0.0
  0
LINE
  5
10C
330
1F
100
AcDbEntity
  8
3
  6
________________
 62
     7
370
     0
100
AcDbLine
 10
685.9895021667448
 20
77.04478280229331
 30
0.0
 11
685.7314006308861
 21
75.6265983003408
 31
0.0
  0
LINE
  5
10D
330
1F
100
AcDbEntity
  8
3
  6
________________
 62
     7
370
     0
100
AcDbLine
 10
695.9899123063362
 20
77.0469217930837
 30
0.0
 11
695.7314216107679
 21
75.6266001384802
 31
0.0
  0
LINE
  5
10E
330
1F
100
AcDbEntity
  8
3
  6
________________
 62
     7
370
     0
100
AcDbLine
 10
705.9899867583621
 20
77.04721127396938
 30
0.0
 11
705.7314415317009
 21
75.62660012672184
 31
0.0
  0
LINE
  5
10F
330
1F
100
AcDbEntity
  8
3
  6
________________
 62
     7
370
     0
100
AcDbLine
 10
715.9898489805328
 20
77.04634780738517
 30
0.0
 11
715.7314577310405
 21
75.6265994482464
 31
0.0
  0
LINE
  5
110
330
1F
100
AcDbEntity
  8
3
  6
________________
 62
     7
370
     0
100
AcDbLine
 10
725.9898262730038
 20
77.04614426645128
 30
0.0
 11
725.7314683437387
 21
75.62659934917474
 31
0.0
  0
LINE
  5
111
330
1F
100
AcDbEntity
  8
3
  6
________________
 62
     7
370
     0
100
AcDbLine
 10
735.9896620528974
 20
77.04519780896062
 30
0.0
 11
735.7287546324939
 21
75.6116864241271
 31
0.0
  0
LINE
  5
112
330
1F
100
AcDbEntity
  8
3
  6
________________
 62
     7
370
     0
100
AcDbLine
 10
745.9896150075507
 20
77.04493608147011
 30
0.0
 11
745.7287518507329
 21
75.61168721082707
 31
0.0
  0
LINE
  5
113
330
1F
100
AcDbEntity
  8
3
  6
________________
 62
     7
370
     0
100
AcDbLine
 10
740.5196560676309
 20
9.787795721498044
 30
0.0
 11
740.9908786397729
 21
7.201403808880388
 31
0.0
  0
LINE
  5
114
330
1F
100
AcDbEntity
  8
3
  6
________________
 62
     7
370
     0
100
AcDbLine
 10
730.51990130325
 20
9.786467480227468
 30
0.0
 11
730.9897518239012
 21
7.207568681794431
 31
0.0
  0
LINE
  5
115
330
1F
100
AcDbEntity
  8
3
  6
________________
 62
     7
370
     0
100
AcDbLine
 10
720.5204860797401
 20
9.783242040135754
 30
0.0
 11
720.9897663443235
 21
7.207427158202065
 31
0.0
  0
LINE
  5
116
330
1F
100
AcDbEntity
  8
3
  6
________________
 62
     7
370
     0
100
AcDbLine
 10
710.5205821853917
 20
9.782656274493526
 30
0.0
 11
710.989816876354
 21
7.207055783634182
 31
0.0
  0
LINE
  5
117
330
1F
100
AcDbEntity
  8
3
  6
________________
 62
     7
370
     0
100
AcDbLine
 10
700.5210164357233
 20
9.78019116632773
 30
0.0
 11
700.9897846793405
 21
7.207118406030985
 31
0.0
  0
LINE
  5
118
330
1F
100
AcDbEntity
  8
3
  6
________________
 62
     7
370
     0
100
AcDbLine
 10
690.5210712040225
 20
9.779784188071398
 30
0.0
 11
690.9898647960033
 21
7.206556083776031
 31
0.0
  0
LINE
  5
119
330
1F
100
AcDbEntity
  8
3
  6
________________
 62
     7
370
     0
100
AcDbLine
 10
680.5204730429633
 20
9.782947378513567
 30
0.0
 11
680.9899206187141
 21
7.206138602450979
 31
0.0
  0
LINE
  5
11A
330
1F
100
AcDbEntity
  8
3
  6
________________
 62
     7
370
     0
100
AcDbLine
 10
670.5207681370655
 20
9.781231190858676
 30
0.0
 11
670.9898084210679
 21
7.206677927348872
 31
0.0
  0
LINE
  5
11B
330
1F
100
AcDbEntity
  8
3
  6
________________
 62
     7
370
     0
100
AcDbLine
 10
660.5199598632491
 20
9.785587368188311
 30
0.0
 11
660.9894894285162
 21
7.208412027237168
 31
0.0
  0
LINE
  5
11C
330
1F
100
AcDbEntity
  8
3
  6
________________
 62
     7
370
     0
100
AcDbLine
 10
620.5200857442629
 20
9.785133517074149
 30
0.0
 11
620.9895050602156
 21
7.208715244131088
 31
0.0
  0
LINE
  5
11D
330
1F
100
AcDbEntity
  8
3
  6
________________
 62
     7
370
     0
100
AcDbLine
 10
610.5194296884056
 20
9.788838432485111
 30
0.0
 11
610.9894346067365
 21
7.209209344329059
 31
0.0
  0
LINE
  5
11E
330
1F
100
AcDbEntity
  8
3
  6
________________
 62
     7
370
     0
100
AcDbLine
 10
600.5188207004921
 20
9.792271488238836
 30
0.0
 11
600.9893563198924
 21
7.209718973990739
 31
0.0
  0
LINE
  5
11F
330
1F
100
AcDbEntity
  8
3
  6
________________
 62
     7
370
     0
100
AcDbLine
 10
590.5207323517313
 20
9.781874678876715
 30
0.0
 11
590.9896046472593
 21
7.208395430425327
 31
0.0
  0
LINE
  5
120
330
1F
100
AcDbEntity
  8
3
  6
________________
 62
     7
370
     0
100
AcDbLine
 10
590.7402281181294
 20
74.47316722892464
 30
0.0
 11
590.2713435283507
 21
77.04695711699382
 31
0.0
  0
LINE
  5
121
330
1F
100
AcDbEntity
  8
3
  6
________________
 62
     7
370
     0
100
AcDbLine
 10
600.7414323557177
 20
74.46668409544283
 30
0.0
 11
600.2715482877214
 21
77.04594644977283
 31
0.0
  0
LINE
  5
122
330
1F
100
AcDbEntity
  8
3
  6
________________
 62
     7
370
     0
100
AcDbLine
 10
610.7406674464032
 20
74.47098070811653
 30
0.0
 11
610.2716944567361
 21
77.04523272216827
 31
0.0
  0
LINE
  5
123
330
1F
100
AcDbEntity
  8
3
  6
________________
 62
     7
370
     0
100
AcDbLine
 10
620.7420622393948
 20
74.46342464384983
 30
0.0
 11
620.2716031255583
 21
77.04577701403733
 31
0.0
  0
LINE
  5
124
330
1F
100
AcDbEntity
  8
3
  6
________________
 62
     7
370
     0
100
AcDbLine
 10
660.7414881747058
 20
74.46638507084225
 30
0.0
 11
660.2718897310233
 21
77.04384716479042
 31
0.0
  0
LINE
  5
125
330
1F
100
AcDbEntity
  8
3
  6
________________
 62
     7
370
     0
100
AcDbLine
 10
670.7410025975073
 20
74.46892989480345
 30
0.0
 11
670.2718195508206
 21
77.0441202240875
 31
0.0
  0
LINE
  5
126
330
1F
100
AcDbEntity
  8
3
  6
________________
 62
     7
370
     0
100
AcDbLine
 10
680.7403668926048
 20
74.47230693441851
 30
0.0
 11
680.2717211632477
 21
77.04457277539947
 31
0.0
  0
LINE
  5
127
330
1F
100
AcDbEntity
  8
3
  6
________________
 62
     7
370
     0
100
AcDbLine
 10
690.7414593955019
 20
74.46624374321092
 30
0.0
 11
690.2716796509288
 21
77.04474657647239
 31
0.0
  0
LINE
  5
128
330
1F
100
AcDbEntity
  8
3
  6
________________
 62
     7
370
     0
100
AcDbLine
 10
700.7407196899135
 20
74.47024546695384
 30
0.0
 11
700.2715204268075
 21
77.04560739421291
 31
0.0
  0
LINE
  5
129
330
1F
100
AcDbEntity
  8
3
  6
________________
 62
     7
370
     0
100
AcDbLine
 10
710.7408527900621
 20
74.46950466477473
 30
0.0
 11
710.2715121420318
 21
77.04567886361092
 31
0.0
  0
LINE
  5
12A
330
1F
100
AcDbEntity
  8
3
  6
________________
 62
     7
370
     0
100
AcDbLine
 10
720.7414553310084
 20
74.46623044546874
 30
0.0
 11
720.2715433351444
 21
77.0455710624012
 31
0.0
  0
LINE
  5
12B
330
1F
100
AcDbEntity
  8
3
  6
________________
 62
     7
370
     0
100
AcDbLine
 10
730.7416928824927
 20
74.46499073769195
 30
0.0
 11
730.2714351316283
 21
77.04626143951565
 31
0.0
  0
LINE
  5
12C
330
1F
100
AcDbEntity
  8
3
  6
________________
 62
     7
370
     0
100
AcDbLine
 10
740.7412791709905
 20
74.4673457298341
 30
0.0
 11
740.2715125373807
 21
77.04595091222018
 31
0.0
  0
LINE
  5
12D
330
1F
100
AcDbEntity
  8
3
  6
________________
 62
     7
370
     0
100
AcDbLine
 10
745.2713419802235
 20
7.206326648251062
 30
0.0
 11
745.5298312506513
 21
8.626676781523894
 31
0.0
  0
LINE
  5
12E
330
1F
100
AcDbEntity
  8
3
  6
________________
 62
     7
370
     0
100
AcDbLine
 10
735.2702149338818
 20
7.200255800003316
 30
0.0
 11
735.529810965953
 21
8.6266734724295
 31
0.0
  0
LINE
  5
12F
330
1F
100
AcDbEntity
  8
3
  6
________________
 62
     7
370
     0
100
AcDbLine
 10
725.2714274352556
 20
7.207024095344183
 30
0.0
 11
725.5297946738247
 21
8.626677603974981
 31
0.0
  0
LINE
  5
130
330
1F
100
AcDbEntity
  8
3
  6
________________
 62
     7
370
     0
100
AcDbLine
 10
715.2715071523075
 20
7.20754321983192
 30
0.0
 11
715.529783665243
 21
8.626678158288506
 31
0.0
  0
LINE
  5
131
330
1F
100
AcDbEntity
  8
3
  6
________________
 62
     7
370
     0
100
AcDbLine
 10
705.2717696341615
 20
7.209032912499073
 30
0.0
 11
705.5297769338514
 21
8.626664328873302
 31
0.0
  0
LINE
  5
132
330
1F
100
AcDbEntity
  8
3
  6
________________
 62
     7
370
     0
100
AcDbLine
 10
695.2716508857915
 20
7.208384866695074
 30
0.0
 11
695.5297820987067
 21
8.62667921262264
 31
0.0
  0
LINE
  5
133
330
1F
100
AcDbEntity
  8
3
  6
________________
 62
     7
370
     0
100
AcDbLine
 10
685.2717482698561
 20
7.208885340320742
 30
0.0
 11
685.5297917703488
 21
8.62667978341189
 31
0.0
  0
LINE
  5
134
330
1F
100
AcDbEntity
  8
3
  6
________________
 62
     7
370
     0
100
AcDbLine
 10
675.2718185296368
 20
7.209199264973688
 30
0.0
 11
675.5298073624913
 21
8.626680101338609
 31
0.0
  0
LINE
  5
135
330
1F
100
AcDbEntity
  8
3
  6
________________
 62
     7
370
     0
100
AcDbLine
 10
665.2707365348052
 20
7.203154170688203
 30
0.0
 11
665.5298266762297
 21
8.62667530538977
 31
0.0
  0
LINE
  5
136
330
1F
100
AcDbEntity
  8
3
  6
________________
 62
     7
370
     0
100
AcDbLine
 10
655.2717371660739
 20
7.208529431141766
 30
0.0
 11
655.5298487086744
 21
8.626678986735158
 31
0.0
  0
LINE
  5
137
330
1F
100
AcDbEntity
  8
3
  6
________________
 62
     7
370
     0
100
AcDbLine
 10
625.2717713192824
 20
7.208430924562241
 30
0.0
 11
625.5298882069802
 21
8.626678635926476
 31
0.0
  0
LINE
  5
138
330
1F
100
AcDbEntity
  8
3
  6
________________
 62
     7
370
     0
100
AcDbLine
 10
615.2713856436246
 20
7.206316742531131
 30
0.0
 11
615.5298807932044
 21
8.626676825101896
 31
0.0
  0
LINE
  5
139
330
1F
100
AcDbEntity
  8
3
  6
________________
 62
     7
370
     0
100
AcDbLine
 10
605.2713638749398
 20
7.206266025491716
 30
0.0
 11
605.5298648539961
 21
8.62667628993543
 31
0.0
  0
LINE
  5
13A
330
1F
100
AcDbEntity
  8
3
  6
________________
 62
     7
370
     0
100
AcDbLine
 10
595.2713157075544
 20
7.206107060965139
 30
0.0
 11
595.5298445660966
 21
8.626675768718089
 31
0.0
  0
LINE
  5
13B
330
1F
100
AcDbEntity
  8
3
  6
________________
 62
     7
370
     0
100
AcDbLine
 10
585.2715160613942
 20
7.207330346281251
 30
0.0
 11
585.5298210190044
 21
8.626663021745397
 31
0.0
  0
LINE
  5
13C
330
1F
100
AcDbEntity
  8
3
  6
________________
 62
     7
370
     0
100
AcDbLine
 10
751.3805468510616
 20
77.12663852258261
 30
0.0
 11
750.3413163665202
 21
75.32663852258261
 31
0.0
  0
LINE
  5
13D
330
1F
100
AcDbEntity
  8
3
  6
________________
 62
     7
370
     0
100
AcDbLine
 10
750.3413163665202
 20
8.926638522582609
 30
0.0
 11
751.3805468510616
 21
7.126638522582606
 31
0.0
  0
LINE
  5
13E
330
1F
100
AcDbEntity
  8
3
  6
________________
 62
     7
370
     0
100
AcDbLine
 10
735.3213383063772
 20
8.626638522582608
 30
0.0
 11
740.7314718548707
 21
8.626638522582608
 31
0.0
  0
LINE
  5
13F
330
1F
100
AcDbEntity
  8
3
  6
________________
 62
     7
370
     0
100
AcDbLine
 10
605.9398678667478
 20
75.62663852258261
 30
0.0
 11
600.5298549181092
 21
75.62663852258261
 31
0.0
  0
LINE
  5
140
330
1F
100
AcDbEntity
  8
3
  6
________________
 62
     7
370
     0
100
AcDbLine
 10
615.9398486575861
 20
75.62663852258261
 30
0.0
 11
610.5299140126486
 21
75.62663852258261
 31
0.0
  0
LINE
  5
141
330
1F
100
AcDbEntity
  8
3
  6
________________
 62
     7
370
     0
100
AcDbLine
 10
625.9398333814478
 20
75.62663852258261
 30
0.0
 11
620.5298858705314
 21
75.62663852258261
 31
0.0
  0
LINE
  5
142
330
1F
100
AcDbEntity
  8
3
  6
________________
 62
     7
370
     0
100
AcDbLine
 10
655.9398308985267
 20
75.62663852258261
 30
0.0
 11
654.5979538919742
 21
75.62663852258261
 31
0.0
  0
LINE
  5
143
330
1F
100
AcDbEntity
  8
3
  6
________________
 62
     7
370
     0
100
AcDbLine
 10
665.9398493554918
 20
75.62663852258261
 30
0.0
 11
660.5298379007971
 21
75.62663852258261
 31
0.0
  0
LINE
  5
144
330
1F
100
AcDbEntity
  8
3
  6
________________
 62
     7
370
     0
100
AcDbLine
 10
675.939868286891
 20
75.62663852258261
 30
0.0
 11
670.5298572744235
 21
75.62663852258261
 31
0.0
  0
LINE
  5
145
330
1F
100
AcDbEntity
  8
3
  6
________________
 62
     7
370
     0
100
AcDbLine
 10
685.9398863935894
 20
75.62663852258261
 30
0.0
 11
680.5298292661344
 21
75.62663852258261
 31
0.0
  0
LINE
  5
146
330
1F
100
AcDbEntity
  8
3
  6
________________
 62
     7
370
     0
100
AcDbLine
 10
695.9399036804883
 20
75.62663852258261
 30
0.0
 11
690.5297861177079
 21
75.62663852258261
 31
0.0
  0
LINE
  5
147
330
1F
100
AcDbEntity
  8
3
  6
________________
 62
     7
370
     0
100
AcDbLine
 10
705.9399170437532
 20
75.62663852258261
 30
0.0
 11
700.5297798191128
 21
75.62663852258261
 31
0.0
  0
LINE
  5
148
330
1F
100
AcDbEntity
  8
3
  6
________________
 62
     7
370
     0
100
AcDbLine
 10
715.9399181972249
 20
75.62663852258261
 30
0.0
 11
710.5297806118002
 21
75.62663852258261
 31
0.0
  0
LINE
  5
149
330
1F
100
AcDbEntity
  8
3
  6
________________
 62
     7
370
     0
100
AcDbLine
 10
725.939921547626
 20
75.62663852258261
 30
0.0
 11
720.5297883487849
 21
75.62663852258261
 31
0.0
  0
LINE
  5
14A
330
1F
100
AcDbEntity
  8
3
  6
________________
 62
     7
370
     0
100
AcDbLine
 10
725.3213251418077
 20
8.626638522582608
 30
0.0
 11
730.731471193605
 21
8.626638522582608
 31
0.0
  0
LINE
  5
14B
330
1F
100
AcDbEntity
  8
3
  6
________________
 62
     7
370
     0
100
AcDbLine
 10
715.321326173652
 20
8.626638522582608
 30
0.0
 11
720.7314638456256
 21
8.626638522582608
 31
0.0
  0
LINE
  5
14C
330
1F
100
AcDbEntity
  8
3
  6
________________
 62
     7
370
     0
100
AcDbLine
 10
705.3213322715338
 20
8.626638522582608
 30
0.0
 11
710.7314097429145
 21
8.626638522582608
 31
0.0
  0
LINE
  5
14D
330
1F
100
AcDbEntity
  8
3
  6
________________
 62
     7
370
     0
100
AcDbLine
 10
695.3213467652345
 20
8.626638522582608
 30
0.0
 11
700.7314017749025
 21
8.626638522582608
 31
0.0
  0
LINE
  5
14E
330
1F
100
AcDbEntity
  8
3
  6
________________
 62
     7
370
     0
100
AcDbLine
 10
685.3213645235305
 20
8.626638522582608
 30
0.0
 11
690.7314109856679
 21
8.626638522582608
 31
0.0
  0
LINE
  5
14F
330
1F
100
AcDbEntity
  8
3
  6
________________
 62
     7
370
     0
100
AcDbLine
 10
675.3213833359388
 20
8.626638522582608
 30
0.0
 11
680.7313902739161
 21
8.626638522582608
 31
0.0
  0
LINE
  5
150
330
1F
100
AcDbEntity
  8
3
  6
________________
 62
     7
370
     0
100
AcDbLine
 10
665.3214040628911
 20
8.626638522582608
 30
0.0
 11
670.7313732600458
 21
8.626638522582608
 31
0.0
  0
LINE
  5
151
330
1F
100
AcDbEntity
  8
3
  6
________________
 62
     7
370
     0
100
AcDbLine
 10
655.3214156447339
 20
8.626638522582608
 30
0.0
 11
660.7313639063667
 21
8.626638522582608
 31
0.0
  0
LINE
  5
152
330
1F
100
AcDbEntity
  8
3
  6
________________
 62
     7
370
     0
100
AcDbLine
 10
625.3214103202009
 20
8.626638522582608
 30
0.0
 11
626.3805468510616
 21
8.626638522582608
 31
0.0
  0
LINE
  5
153
330
1F
100
AcDbEntity
  8
3
  6
________________
 62
     7
370
     0
100
AcDbLine
 10
615.3213916577256
 20
8.626638522582608
 30
0.0
 11
620.7314203915553
 21
8.626638522582608
 31
0.0
  0
LINE
  5
154
330
1F
100
AcDbEntity
  8
3
  6
________________
 62
     7
370
     0
100
AcDbLine
 10
605.3213721993877
 20
8.626638522582608
 30
0.0
 11
610.7314407345827
 21
8.626638522582608
 31
0.0
  0
LINE
  5
155
330
1F
100
AcDbEntity
  8
3
  6
________________
 62
     7
370
     0
100
AcDbLine
 10
595.321353391694
 20
8.626638522582608
 30
0.0
 11
600.7314573337262
 21
8.626638522582608
 31
0.0
  0
LINE
  5
156
330
1F
100
AcDbEntity
  8
3
  6
________________
 62
     7
370
     0
100
AcDbLine
 10
749.3805468510616
 20
75.62663852258261
 30
0.0
 11
747.3805468510616
 21
75.62663852258261
 31
0.0
  0
LINE
  5
157
330
1F
100
AcDbEntity
  8
3
  6
________________
 62
     7
370
     0
100
AcDbLine
 10
745.321355692304
 20
8.626638522582608
 30
0.0
 11
749.3805468510616
 21
8.626638522582608
 31
0.0
  0
LINE
  5
158
330
1F
100
AcDbEntity
  8
3
  6
________________
 62
     7
370
     0
100
AcDbLine
 10
585.3213409339618
 20
8.626638522582608
 30
0.0
 11
590.7314681412449
 21
8.626638522582608
 31
0.0
  0
LINE
  5
159
330
1F
100
AcDbEntity
  8
3
  6
________________
 62
     7
370
     0
100
AcDbLine
 10
580.3805468510617
 20
8.626638522582608
 30
0.0
 11
582.3805468510616
 21
8.626638522582608
 31
0.0
  0
LINE
  5
15A
330
1F
100
AcDbEntity
  8
3
  6
________________
 62
     7
370
     0
100
AcDbLine
 10
750.3413163665202
 20
75.32663852258261
 30
0.0
 11
749.3805468510616
 21
75.32663852258261
 31
0.0
  0
LINE
  5
15B
330
1F
100
AcDbEntity
  8
3
  6
________________
 62
     7
370
     0
100
AcDbLine
 10
749.3805468510616
 20
8.926638522582609
 30
0.0
 11
750.3413163665202
 21
8.926638522582609
 31
0.0
  0
LINE
  5
15C
330
1F
100
AcDbEntity
  8
3
  6
________________
 62
     7
370
     0
100
AcDbLine
 10
770.3805468510615
 20
77.93572943167354
 30
0.0
 11
770.6805468510615
 21
77.93572943167354
 31
0.0
  0
LINE
  5
15D
330
1F
100
AcDbEntity
  8
3
  6
________________
 62
     7
370
     0
100
AcDbLine
 10
770.3805468510615
 20
77.8993657953099
 30
0.0
 11
770.6805468510615
 21
77.8993657953099
 31
0.0
  0
LINE
  5
15E
330
1F
100
AcDbEntity
  8
3
  6
________________
 62
     7
370
     0
100
AcDbLine
 10
770.6805468510615
 20
77.93572943167354
 30
0.0
 11
770.7180468510616
 21
77.93572943167354
 31
0.0
  0
LINE
  5
15F
330
1F
100
AcDbEntity
  8
3
  6
________________
 62
     7
370
     0
100
AcDbLine
 10
770.7180468510616
 20
85.35391124985534
 30
0.0
 11
770.6805468510615
 21
85.35391124985534
 31
0.0
  0
LWPOLYLINE
  5
160
330
1F
100
AcDbEntity
  8
3
  6
________________
 62
     7
370
     0
100
AcDbPolyline
 90
        9
 70
     0
 43
0.0
 10
660.5206745469702
 20
9.781673363132604
 42
-0.0168409169487379
 10
658.1569209382305
 20
48.05102947830098
 42
0.0233170509615865
 10
656.300743880087
 20
74.76926723955823
 10
656.217983747154
 20
75.11666475392443
 10
656.1637832887562
 20
75.2957722018595
 10
656.1095631120091
 20
75.43643885906096
 10
656.0550799753333
 20
75.53886474741061
 10
655.9414117171815
 20
75.62661395812705
 10
655.9398308800356
 20
75.62663852258089
  0
LWPOLYLINE
  5
161
330
1F
100
AcDbEntity
  8
3
  6
________________
 62
     7
370
     0
100
AcDbPolyline
 90
        8
 70
     0
 43
0.0
 10
660.7406624190537
 20
74.47090681017082
 42
-0.0168852018584131
 10
663.0601514569291
 20
37.12036865579869
 42
0.022810997601206
 10
665.0087970705149
 20
9.270729317905673
 10
665.0920688950355
 20
8.973632122300353
 10
665.1341347764449
 20
8.85808190634272
 10
665.1762140476743
 20
8.765783499828858
 10
665.2606482328936
 20
8.651010133163869
 10
665.3214060988068
 20
8.62663852261994
  0
LINE
  5
162
330
1F
100
AcDbEntity
  8
3
  6
________________
 62
     7
370
     0
100
AcDbLine
 10
654.5979538919742
 20
89.62663852258261
 30
0.0
 11
654.5979538919742
 21
-5.37336147741739
 31
0.0
  0
LINE
  5
163
330
1F
100
AcDbEntity
  8
3
  6
________________
 62
     7
370
     0
100
AcDbLine
 10
650.3805468510616
 20
7.167381352514393
 30
0.0
 11
650.3805468510616
 21
-5.332026478994139
 31
0.0
  0
LINE
  5
164
330
1F
100
AcDbEntity
  8
3
  6
________________
 62
     7
370
     0
100
AcDbLine
 10
650.3805468510616
 20
40.14544790376004
 30
0.0
 11
650.3805468510616
 21
9.969207995299573
 31
0.0
  0
LINE
  5
165
330
1F
100
AcDbEntity
  8
3
  6
________________
 62
     7
370
     0
100
AcDbLine
 10
650.3805468510616
 20
74.2840690498656
 30
0.0
 11
650.3805468510616
 21
44.10782914140512
 31
0.0
  0
LINE
  5
166
330
1F
100
AcDbEntity
  8
3
  6
________________
 62
     7
370
     0
100
AcDbLine
 10
650.3805468510616
 20
89.58530352415936
 30
0.0
 11
650.3805468510616
 21
77.08589569265078
 31
0.0
  0
ELLIPSE
  5
167
330
1F
100
AcDbEntity
  8
3
  6
________________
 62
     7
370
     0
100
AcDbEllipse
 10
631.5190388335359
 20
44.08697450331228
 30
0.0
 11
-0.0156939388614841
 21
0.499753639589553
 31
0.0
210
0.0
220
0.0
230
0.9999999999999998
 40
0.5138120359403471
 41
0.0
 42
0.1615283423161224
  0
ELLIPSE
  5
168
330
1F
100
AcDbEntity
  8
3
  6
________________
 62
     7
370
     0
100
AcDbEllipse
 10
631.5190388335359
 20
44.08697450331228
 30
0.0
 11
-0.01569393886148355
 21
0.4997536395895532
 31
3.851859888774417E-34
210
2.418034143897128E-35
220
-7.699923994416322E-34
230
1.0
 40
0.5138120359403466
 41
-0.0610424320390639
 42
0.0
  0
ELLIPSE
  5
169
330
1F
100
AcDbEntity
  8
3
  6
________________
 62
     7
370
     0
100
AcDbEllipse
 10
631.5190388335359
 20
40.16630254185293
 30
0.0
 11
0.01569393886144399
 21
0.499753639589558
 31
3.851859888774445E-34
210
-2.418034143891016E-35
220
-7.699923994416342E-34
230
1.0
 40
0.5138120359402907
 41
3.141592653589572
 42
3.202635085628411
  0
ELLIPSE
  5
16A
330
1F
100
AcDbEntity
  8
3
  6
________________
 62
     7
370
     0
100
AcDbEllipse
 10
631.5190388335359
 20
40.16630254185293
 30
0.0
 11
0.0156939388614513
 21
0.4997536395895578
 31
0.0
210
0.0
220
0.0
230
1.0
 40
0.5138120359402929
 41
2.980063907385058
 42
3.141592653589569
  0
ELLIPSE
  5
16B
330
1F
100
AcDbEntity
  8
3
  6
________________
 62
     7
370
     0
100
AcDbEllipse
 10
626.8805468510616
 20
40.31196725166816
 30
0.0
 11
0.01569405407378729
 21
0.4997536359714954
 31
0.0
210
0.0
220
0.0
230
1.0
 40
0.5138148121101787
 41
2.979992307393921
 42
3.141592653589572
  0
LINE
  5
16C
330
1F
100
AcDbEntity
  8
3
  6
________________
 62
     7
370
     0
100
AcDbLine
 10
626.3805468510616
 20
40.31196725166816
 30
0.0
 11
626.3805468510616
 21
43.9413097934971
 31
0.0
  0
ELLIPSE
  5
16D
330
1F
100
AcDbEntity
  8
3
  6
________________
 62
     7
370
     0
100
AcDbEllipse
 10
626.8805468510616
 20
43.94130979349704
 30
0.0
 11
-0.01569405407378391
 21
0.4997536359714991
 31
3.851859888774505E-34
210
2.418051895162612E-35
220
-7.699923938671194E-34
230
1.0
 40
0.5138148121101707
 41
0.0
 42
0.1615998755056979
  0
LINE
  5
16E
330
1F
100
AcDbEntity
  8
3
  6
________________
 62
     7
370
     0
100
AcDbLine
 10
650.3805468510616
 20
69.8977930952506
 30
0.0
 11
639.7933911083139
 21
69.27800678508221
 31
0.0
  0
LINE
  5
16F
330
1F
100
AcDbEntity
  8
3
  6
________________
 62
     7
370
     0
100
AcDbLine
 10
650.3805468510616
 20
14.35548394991459
 30
0.0
 11
639.7933911083139
 21
14.97527026008301
 31
0.0
  0
LINE
  5
170
330
1F
100
AcDbEntity
  8
3
  6
________________
 62
     7
370
     0
100
AcDbLine
 10
638.9021101152432
 20
68.74962916515292
 30
0.0
 11
638.8805468510617
 21
68.59539294218797
 31
0.0
  0
ELLIPSE
  5
171
330
1F
100
AcDbEntity
  8
3
  6
________________
 62
     7
370
     0
100
AcDbEllipse
 10
639.8805468510616
 20
68.6114224226966
 30
0.0
 11
1.000000000000001
 21
-7.545346824399675E-16
 31
0.0
210
0.0
220
0.0
230
1.0
 40
0.6691306063588596
 41
1.658062789394604
 42
2.933548386005398
  0
LINE
  5
172
330
1F
100
AcDbEntity
  8
3
  6
________________
 62
     7
370
     0
100
AcDbLine
 10
638.8805468510617
 20
68.59539294218807
 30
0.0
 11
638.8805468510617
 21
44.58697450331226
 31
0.0
  0
ELLIPSE
  5
173
330
1F
100
AcDbEntity
  8
3
  6
________________
 62
     7
370
     0
100
AcDbEllipse
 10
639.8805468510616
 20
15.64185462246861
 30
0.0
 11
1.000000000000001
 21
-1.523742787184772E-15
 31
0.0
210
0.0
220
0.0
230
-1.0
 40
0.6691306063588507
 41
1.658062789394602
 42
2.933548386005385
  0
LINE
  5
174
330
1F
100
AcDbEntity
  8
3
  6
________________
 62
     7
370
     0
100
AcDbLine
 10
638.8805468510617
 20
15.65788410297721
 30
0.0
 11
638.9021101152432
 21
15.50364788001226
 31
0.0
  0
LINE
  5
175
330
1F
100
AcDbEntity
  8
3
  6
________________
 62
     7
370
     0
100
AcDbLine
 10
638.8805468510617
 20
39.66630254185291
 30
0.0
 11
638.8805468510617
 21
15.65788410297721
 31
0.0
  0
LINE
  5
176
330
1F
100
AcDbEntity
  8
3
  6
________________
 62
     7
370
     0
100
AcDbLine
 10
626.3805468510616
 20
39.20651724836555
 30
0.0
 11
626.3805468510616
 21
40.31248572973022
 31
0.0
  0
LINE
  5
177
330
1F
100
AcDbEntity
  8
3
  6
________________
 62
     7
370
     0
100
AcDbLine
 10
626.3805468510616
 20
40.31248572973022
 30
0.0
 11
626.3805468510612
 21
40.54314660969856
 31
0.0
  0
LINE
  5
178
330
1F
100
AcDbEntity
  8
3
  6
________________
 62
     7
370
     0
100
AcDbLine
 10
626.3805468510616
 20
43.71013043546664
 30
0.0
 11
626.3805468510616
 21
43.94079131543445
 31
0.0
  0
LINE
  5
179
330
1F
100
AcDbEntity
  8
3
  6
________________
 62
     7
370
     0
100
AcDbLine
 10
626.3805468510616
 20
43.94079131543445
 30
0.0
 11
626.3805468510616
 21
45.04675979679966
 31
0.0
  0
LINE
  5
17A
330
1F
100
AcDbEntity
  8
3
  6
________________
 62
     7
370
     0
100
AcDbLine
 10
626.3805468510616
 20
67.41973301439805
 30
0.0
 11
626.3805468510616
 21
45.04675979679967
 31
0.0
  0
LINE
  5
17B
330
1F
100
AcDbEntity
  8
3
  6
________________
 62
     7
370
     0
100
AcDbLine
 10
626.3805468510616
 20
39.20651724836556
 30
0.0
 11
626.3805468510616
 21
16.83354403076718
 31
0.0
  0
LINE
  5
17C
330
1F
100
AcDbEntity
  8
3
  6
________________
 62
     7
370
     0
100
AcDbLine
 10
626.3805468510616
 20
69.12750744462964
 30
0.0
 11
626.3805468510616
 21
72.0832035878026
 31
0.0
  0
LINE
  5
17D
330
1F
100
AcDbEntity
  8
3
  6
________________
 62
     7
370
     0
100
AcDbLine
 10
626.3805468510616
 20
12.17007345736262
 30
0.0
 11
626.3805468510616
 21
15.12576960053557
 31
0.0
  0
LINE
  5
17E
330
1F
100
AcDbEntity
  8
3
  6
________________
 62
     7
370
     0
100
AcDbLine
 10
626.3805468510616
 20
9.603740734786633
 30
0.0
 11
626.3805468510616
 21
12.17007345736279
 31
0.0
  0
LINE
  5
17F
330
1F
100
AcDbEntity
  8
3
  6
________________
 62
     7
370
     0
100
AcDbLine
 10
626.3805468510616
 20
72.0832035878026
 30
0.0
 11
626.3805468510616
 21
74.64953631037865
 31
0.0
  0
LINE
  5
180
330
1F
100
AcDbEntity
  8
3
  6
________________
 62
     7
370
     0
100
AcDbLine
 10
626.3805468510616
 20
15.19035758308377
 30
0.0
 11
626.3805468510616
 21
15.290314984242
 31
0.0
  0
LINE
  5
181
330
1F
100
AcDbEntity
  8
3
  6
________________
 62
     7
370
     0
100
AcDbLine
 10
626.3805468510616
 20
15.290314984242
 30
0.0
 11
626.3805468510616
 21
16.83354403076716
 31
0.0
  0
LINE
  5
182
330
1F
100
AcDbEntity
  8
3
  6
________________
 62
     7
370
     0
100
AcDbLine
 10
626.3805468510616
 20
15.12576960053557
 30
0.0
 11
626.3805468510616
 21
15.19035758308377
 31
0.0
  0
LINE
  5
183
330
1F
100
AcDbEntity
  8
3
  6
________________
 62
     7
370
     0
100
AcDbLine
 10
626.3805468510616
 20
69.06291946208184
 30
0.0
 11
626.3805468510612
 21
69.12750744462964
 31
0.0
  0
LINE
  5
184
330
1F
100
AcDbEntity
  8
3
  6
________________
 62
     7
370
     0
100
AcDbLine
 10
626.3805468510616
 20
67.41973301439805
 30
0.0
 11
626.3805468510616
 21
68.9629620609235
 31
0.0
  0
LINE
  5
185
330
1F
100
AcDbEntity
  8
3
  6
________________
 62
     7
370
     0
100
AcDbLine
 10
626.3805468510616
 20
68.9629620609235
 30
0.0
 11
626.3805468510616
 21
69.06291946208184
 31
0.0
  0
LINE
  5
186
330
1F
100
AcDbEntity
  8
3
  6
________________
 62
     7
370
     0
100
AcDbLine
 10
650.3805468510616
 20
83.57309891005951
 30
0.0
 11
639.7933911083139
 21
82.64811220538799
 31
0.0
  0
LINE
  5
187
330
1F
100
AcDbEntity
  8
3
  6
________________
 62
     7
370
     0
100
AcDbLine
 10
650.3805468510616
 20
0.6801781351057079
 30
0.0
 11
639.7933911083139
 21
1.605164839777226
 31
0.0
  0
LINE
  5
188
330
1F
100
AcDbEntity
  8
3
  6
________________
 62
     7
370
     0
100
AcDbLine
 10
638.9021101152432
 20
81.8595464280191
 30
0.0
 11
638.8805468510617
 21
81.65214829220682
 31
0.0
  0
ELLIPSE
  5
189
330
1F
100
AcDbEntity
  8
3
  6
________________
 62
     7
370
     0
100
AcDbEllipse
 10
639.8805468510616
 20
81.65328275750765
 30
0.0
 11
1.000000000000001
 21
-1.413671320612719E-14
 31
-2.465190328815664E-32
210
2.465190328815661E-32
220
-3.484968867698536E-46
230
1.0
 40
0.9986295347545746
 41
1.658062789394617
 42
2.933548386005397
  0
LINE
  5
18A
330
1F
100
AcDbEntity
  8
3
  6
________________
 62
     7
370
     0
100
AcDbLine
 10
638.8805468510617
 20
81.65214829220682
 30
0.0
 11
638.8805468510617
 21
77.21790351191326
 31
0.0
  0
ELLIPSE
  5
18B
330
1F
100
AcDbEntity
  8
3
  6
________________
 62
     7
370
     0
100
AcDbEllipse
 10
639.8805468510616
 20
2.599994287657559
 30
0.0
 11
1.000000000000001
 21
-9.579193336208475E-15
 31
0.0
210
0.0
220
0.0
230
-1.0
 40
0.9986295347545742
 41
1.658062789394595
 42
2.933548386005378
  0
LINE
  5
18C
330
1F
100
AcDbEntity
  8
3
  6
________________
 62
     7
370
     0
100
AcDbLine
 10
638.8805468510617
 20
2.601128752958405
 30
0.0
 11
638.9021101152432
 21
2.393730617146137
 31
0.0
  0
LINE
  5
18D
330
1F
100
AcDbEntity
  8
3
  6
________________
 62
     7
370
     0
100
AcDbLine
 10
638.8805468510617
 20
7.035373533251926
 30
0.0
 11
638.8805468510617
 21
2.601128752958405
 31
0.0
  0
LINE
  5
18E
330
1F
100
AcDbEntity
  8
3
  6
________________
 62
     7
370
     0
100
AcDbLine
 10
626.3805468510616
 20
80.81659706150928
 30
0.0
 11
626.3805468510616
 21
74.6495363103786
 31
0.0
  0
LINE
  5
18F
330
1F
100
AcDbEntity
  8
3
  6
________________
 62
     7
370
     0
100
AcDbLine
 10
626.3805468510616
 20
9.6037407347866
 30
0.0
 11
626.3805468510616
 21
3.436679983655925
 31
0.0
  0
LINE
  5
190
330
1F
100
AcDbEntity
  8
3
  6
________________
 62
     7
370
     0
100
AcDbLine
 10
626.3805468510616
 20
2.358151584281439
 30
0.0
 11
626.3805468510616
 21
3.436679983655933
 31
0.0
  0
LINE
  5
191
330
1F
100
AcDbEntity
  8
3
  6
________________
 62
     7
370
     0
100
AcDbLine
 10
626.3805468510616
 20
80.81659706150928
 30
0.0
 11
626.3805468510616
 21
81.89512546088379
 31
0.0
  0
LINE
  5
192
330
1F
100
AcDbEntity
  8
3
  6
________________
 62
     7
370
     0
100
AcDbLine
 10
626.3805468510616
 20
-2.053013345677992
 30
0.0
 11
626.3805468510616
 21
2.358151584281439
 31
0.0
  0
LINE
  5
193
330
1F
100
AcDbEntity
  8
3
  6
________________
 62
     7
370
     0
100
AcDbLine
 10
626.3805468510616
 20
81.89512546088378
 30
0.0
 11
626.3805468510616
 21
86.30629039084322
 31
0.0
  0
LINE
  5
194
330
1F
100
AcDbEntity
  8
3
  6
________________
 62
     7
370
     0
100
AcDbLine
 10
626.3805468510616
 20
-2.090266287932844
 30
0.0
 11
626.3805468510616
 21
-2.053013345677992
 31
0.0
  0
LINE
  5
195
330
1F
100
AcDbEntity
  8
3
  6
________________
 62
     7
370
     0
100
AcDbLine
 10
626.3805468510616
 20
86.3062903908432
 30
0.0
 11
626.3805468510616
 21
86.34354333309804
 31
0.0
  0
LINE
  5
196
330
1F
100
AcDbEntity
  8
3
  6
________________
 62
     7
370
     0
100
AcDbLine
 10
626.3805460333341
 20
74.35041170645692
 30
0.0
 11
626.3275519353388
 21
74.63743887124899
 31
0.0
  0
LWPOLYLINE
  5
197
330
1F
100
AcDbEntity
  8
3
  6
________________
 62
     7
370
     0
100
AcDbPolyline
 90
        4
 70
     0
 43
0.0
 10
626.3275519353388
 20
74.637438871249
 42
0.0629018059544693
 10
626.06103423887
 20
75.5296623128572
 10
625.9523274241162
 20
75.62560122714423
 10
625.939832103823
 20
75.62663852256718
  0
LWPOLYLINE
  5
198
330
1F
100
AcDbEntity
  8
3
  6
________________
 62
     7
370
     0
100
AcDbPolyline
 90
        8
 70
     0
 43
0.0
 10
730.5208806526309
 20
9.781104599283136
 42
-0.0170378907282005
 10
728.249546550996
 20
46.12426175187961
 42
0.0226508136427753
 10
726.2503592633554
 20
74.99106043459916
 10
726.1820365847867
 20
75.23942479899736
 10
726.1199116641538
 20
75.41245806743582
 10
726.0577082876305
 20
75.53488556578561
 10
725.9448671865968
 20
75.62647686501172
 10
725.9399233417789
 20
75.6266385225734
  0
LWPOLYLINE
  5
199
330
1F
100
AcDbEntity
  8
3
  6
________________
 62
     7
370
     0
100
AcDbPolyline
 90
        4
 70
     0
 43
0.0
 10
654.5979505251834
 20
12.0278587047738
 42
0.0599023417781902
 10
655.1836631464438
 20
8.75189211131918
 10
655.2458511090979
 20
8.664345078892286
 10
655.32141839996
 20
8.626638522601676
  0
LWPOLYLINE
  5
19A
330
1F
100
AcDbEntity
  8
3
  6
________________
 62
     7
370
     0
100
AcDbPolyline
 90
        8
 70
     0
 43
0.0
 10
620.7403477772891
 20
74.47281328300515
 42
-0.0161685818194273
 10
623.0299962562422
 20
37.74888588896003
 42
0.0229395663832995
 10
625.0213743672072
 20
9.219828293324433
 10
625.0809148301738
 20
9.00811519881258
 10
625.1430978699401
 20
8.83655259007702
 10
625.2053874854654
 20
8.71560432675135
 10
625.3182722248978
 20
8.626703738977053
 10
625.3214100599854
 20
8.62663852258725
  0
LWPOLYLINE
  5
19B
330
1F
100
AcDbEntity
  8
3
  6
________________
 62
     7
370
     0
100
AcDbPolyline
 90
        9
 70
     0
 43
0.0
 10
610.7402399423368
 20
74.47332175673412
 42
-0.0167211175820963
 10
613.0680547654003
 20
36.95509551054785
 42
0.0223615452511471
 10
614.9918783584799
 20
9.341779777487604
 10
615.048320252439
 20
9.118299454353524
 10
615.1047847257937
 20
8.936309539714076
 10
615.1615485257289
 20
8.795461322056678
 10
615.2183028175072
 20
8.696934171817674
 10
615.3115294942382
 20
8.627282615637132
 10
615.3213911327524
 20
8.626638522588854
  0
LINE
  5
19C
330
1F
100
AcDbEntity
  8
3
  6
________________
 62
     7
370
     0
100
AcDbLine
 10
654.5979538919742
 20
89.62663852258261
 30
0.0
 11
631.5190388335359
 21
89.62663852258261
 31
0.0
  0
LINE
  5
19D
330
1F
100
AcDbEntity
  8
3
  6
________________
 62
     7
370
     0
100
AcDbLine
 10
631.5190388335359
 20
-5.37336147741739
 30
0.0
 11
654.5979538919742
 21
-5.37336147741739
 31
0.0
  0
LINE
  5
19E
330
1F
100
AcDbEntity
  8
3
  6
________________
 62
     7
370
     0
100
AcDbLine
 10
650.3805468510616
 20
44.58697450331226
 30
0.0
 11
631.5190388335359
 21
44.58697450331226
 31
0.0
  0
LINE
  5
19F
330
1F
100
AcDbEntity
  8
3
  6
________________
 62
     7
370
     0
100
AcDbLine
 10
631.5190388335359
 20
39.66630254185291
 30
0.0
 11
650.3805468510616
 21
39.66630254185291
 31
0.0
  0
LINE
  5
1A0
330
1F
100
AcDbEntity
  8
3
  6
________________
 62
     7
370
     0
100
AcDbLine
 10
631.4622518818411
 20
44.57892570478479
 30
0.0
 11
626.8237416148102
 21
44.43325465504267
 31
0.0
  0
LINE
  5
1A1
330
1F
100
AcDbEntity
  8
3
  6
________________
 62
     7
370
     0
100
AcDbLine
 10
626.8237416148102
 20
39.82002239012252
 30
0.0
 11
631.4622518818411
 21
39.6743513403804
 31
0.0
  0
ARC
  5
1A2
330
1F
100
AcDbEntity
  8
3
  6
________________
 62
     7
370
     0
100
AcDbCircle
 10
626.8805468510616
 20
43.94130979349704
 30
0.0
 40
0.5000000000000043
100
AcDbArc
 50
91.79870155703566
 51
180.0000000000154
  0
ARC
  5
1A3
330
1F
100
AcDbEntity
  8
3
  6
________________
 62
     7
370
     0
100
AcDbCircle
 10
626.8805468510616
 20
40.31196725166816
 30
0.0
 40
0.500000000000056
100
AcDbArc
 50
180.0
 51
268.2012984429675
  0
ARC
  5
1A4
330
1F
100
AcDbEntity
  8
3
  6
________________
 62
     7
370
     0
100
AcDbCircle
 10
631.5190388335359
 20
76.71790351191325
 30
0.0
 40
0.5000000000000004
100
AcDbArc
 50
89.99999999999682
 51
114.0326719592958
  0
LINE
  5
1A5
330
1F
100
AcDbEntity
  8
3
  6
________________
 62
     7
370
     0
100
AcDbLine
 10
650.3805468510616
 20
77.21790351191326
 30
0.0
 11
631.5190388335359
 21
77.21790351191326
 31
0.0
  0
LINE
  5
1A6
330
1F
100
AcDbEntity
  8
3
  6
________________
 62
     7
370
     0
100
AcDbLine
 10
631.5190388335359
 20
7.035373533251926
 30
0.0
 11
650.3805468510616
 21
7.035373533251926
 31
0.0
  0
ARC
  5
1A7
330
1F
100
AcDbEntity
  8
3
  6
________________
 62
     7
370
     0
100
AcDbCircle
 10
631.5190388335359
 20
7.535373533251954
 30
0.0
 40
0.5000000000000115
100
AcDbArc
 50
245.9673280407043
 51
270.0
  0
LINE
  5
1A8
330
1F
100
AcDbEntity
  8
3
  6
________________
 62
     7
370
     0
100
AcDbLine
 10
631.3153338053792
 20
77.17452612371075
 30
0.0
 11
626.6768404305496
 21
75.10615830081198
 31
0.0
  0
LINE
  5
1A9
330
1F
100
AcDbEntity
  8
3
  6
________________
 62
     7
370
     0
100
AcDbLine
 10
626.6768404305496
 20
9.147118744353227
 30
0.0
 11
631.3153338053792
 21
7.078750921454469
 31
0.0
  0
ARC
  5
1AA
330
1F
100
AcDbEntity
  8
3
  6
________________
 62
     7
370
     0
100
AcDbCircle
 10
626.8805468510616
 20
74.64953631037861
 30
0.0
 40
0.5000000000000415
100
AcDbArc
 50
114.0328285644241
 51
180.0
  0
ARC
  5
1AB
330
1F
100
AcDbEntity
  8
3
  6
________________
 62
     7
370
     0
100
AcDbCircle
 10
626.8805468510616
 20
9.6037407347866
 30
0.0
 40
0.500000000000056
100
AcDbArc
 50
180.0
 51
245.9671714355762
  0
LINE
  5
1AC
330
1F
100
AcDbEntity
  8
3
  6
________________
 62
     7
370
     0
100
AcDbLine
 10
626.3805647165797
 20
15.19040064173061
 30
0.0
 11
626.3835157634079
 21
15.16505354375051
 31
0.0
  0
LINE
  5
1AD
330
1F
100
AcDbEntity
  8
3
  6
________________
 62
     7
370
     0
100
AcDbLine
 10
626.3835157634079
 20
69.0882235014147
 30
0.0
 11
626.3805647165797
 21
69.06287640343484
 31
0.0
  0
LINE
  5
1AE
330
1F
100
AcDbEntity
  8
3
  6
________________
 62
     7
370
     0
100
AcDbLine
 10
626.3806250519949
 20
71.32375604774211
 30
0.0
 11
626.3408704846065
 21
71.2194739963387
 31
0.0
  0
LINE
  5
1AF
330
1F
100
AcDbEntity
  8
3
  6
________________
 62
     7
370
     0
100
AcDbLine
 10
626.3512260542533
 20
13.02495954966594
 30
0.0
 11
626.3806551581174
 21
12.94156492751302
 31
0.0
  0
ARC
  5
1B0
330
1F
100
AcDbEntity
  8
3
  6
________________
 62
     7
370
     0
100
AcDbCircle
 10
631.5190388335359
 20
89.12663852258261
 30
0.0
 40
0.5000000000000004
100
AcDbArc
 50
90.0
 51
120.9637565320749
  0
ARC
  5
1B1
330
1F
100
AcDbEntity
  8
3
  6
________________
 62
     7
370
     0
100
AcDbCircle
 10
631.5190388335359
 20
-4.87336147741739
 30
0.0
 40
0.5000000000000472
100
AcDbArc
 50
239.036243467925
 51
269.9999999999999
  0
LINE
  5
1B2
330
1F
100
AcDbEntity
  8
3
  6
________________
 62
     7
370
     0
100
AcDbLine
 10
631.261790955822
 20
89.55538498543888
 30
0.0
 11
626.6232989733478
 21
86.77228979595434
 31
0.0
  0
LINE
  5
1B3
330
1F
100
AcDbEntity
  8
3
  6
________________
 62
     7
370
     0
100
AcDbLine
 10
626.6232989733478
 20
-2.519012750789119
 30
0.0
 11
631.261790955822
 21
-5.302107940273665
 31
0.0
  0
ARC
  5
1B4
330
1F
100
AcDbEntity
  8
3
  6
________________
 62
     7
370
     0
100
AcDbCircle
 10
626.8805468510616
 20
-2.090266287932844
 30
0.0
 40
0.500000000000056
100
AcDbArc
 50
180.0
 51
239.036243467925
  0
ARC
  5
1B5
330
1F
100
AcDbEntity
  8
3
  6
________________
 62
     7
370
     0
100
AcDbCircle
 10
626.8805468510616
 20
86.34354333309807
 30
0.0
 40
0.5000000000000412
100
AcDbArc
 50
120.9637565320749
 51
180.0
  0
LINE
  5
1B6
330
1F
100
AcDbEntity
  8
3
  6
________________
 62
     7
370
     0
100
AcDbLine
 10
851.772088010315
 20
89.61611104018382
 30
0.0
 11
851.772088010315
 21
91.52952774854283
 31
0.0
  0
LINE
  5
1B7
330
1F
100
AcDbEntity
  8
3
  6
________________
 62
     7
370
     0
100
AcDbLine
 10
853.772088010315
 20
89.61611104018382
 30
0.0
 11
853.772088010315
 21
91.52952774854283
 31
0.0
  0
ARC
  5
1B8
330
1F
100
AcDbEntity
  8
3
  6
________________
 62
     7
370
     0
100
AcDbCircle
 10
-852.772088010315
 20
42.12663852258261
 30
0.0
 40
49.41300905503021
210
0.0
220
0.0
230
-1.0
100
AcDbArc
 50
88.84039259420683
 51
91.15960740579317
  0
CIRCLE
  5
1B9
330
1F
100
AcDbEntity
  8
3
  6
________________
 62
     7
370
     0
100
AcDbCircle
 10
852.7750964136086
 20
42.48183935841517
 30
0.0
 40
49.85228691097269
  0
LINE
  5
1BA
330
1F
100
AcDbEntity
  8
3
  6
________________
 62
     7
370
     0
100
AcDbLine
 10
853.772088010315
 20
90.51730698274778
 30
0.0
 11
851.772088010315
 21
90.51730698274778
 31
0.0
  0
ARC
  5
1BB
330
1F
100
AcDbEntity
  8
3
  6
________________
 62
     7
370
     0
100
AcDbCircle
 10
852.772088010315
 20
42.12663852258261
 30
0.0
 40
47.49999999999999
100
AcDbArc
 50
0.0
 51
88.79368394247047
  0
LINE
  5
1BC
330
1F
100
AcDbEntity
  8
3
  6
________________
 62
     7
370
     0
100
AcDbLine
 10
853.772088010315
 20
88.62663852258262
 30
0.0
 11
852.772088010315
 21
88.62663852258262
 31
0.0
  0
LINE
  5
1BD
330
1F
100
AcDbEntity
  8
3
  6
________________
 62
     7
370
     0
100
AcDbLine
 10
853.772088010315
 20
89.61611104018381
 30
0.0
 11
853.772088010315
 21
88.62663852258262
 31
0.0
  0
ARC
  5
1BE
330
1F
100
AcDbEntity
  8
3
  6
________________
 62
     7
370
     0
100
AcDbCircle
 10
852.772088010315
 20
42.12663852258261
 30
0.0
 40
47.5
100
AcDbArc
 50
91.20631605752953
 51
0.0
  0
LINE
  5
1BF
330
1F
100
AcDbEntity
  8
3
  6
________________
 62
     7
370
     0
100
AcDbLine
 10
851.772088010315
 20
88.62663852258262
 30
0.0
 11
851.772088010315
 21
89.61611104018381
 31
0.0
  0
LINE
  5
1C0
330
1F
100
AcDbEntity
  8
3
  6
________________
 62
     7
370
     0
100
AcDbLine
 10
852.772088010315
 20
88.62663852258262
 30
0.0
 11
851.772088010315
 21
88.62663852258262
 31
0.0
  0
CIRCLE
  5
1C1
330
1F
100
AcDbEntity
  8
3
  6
________________
 62
     7
370
     0
100
AcDbCircle
 10
852.772088010315
 20
42.12663852258261
 30
0.0
 40
29.6
  0
ARC
  5
1C2
330
1F
100
AcDbEntity
  8
3
  6
________________
 62
     7
370
     0
100
AcDbCircle
 10
852.772088010315
 20
42.12663852258261
 30
0.0
 40
25.49999999999997
100
AcDbArc
 50
180.0
 51
0.0
  0
ARC
  5
1C3
330
1F
100
AcDbEntity
  8
3
  6
________________
 62
     7
370
     0
100
AcDbCircle
 10
852.772088010315
 20
42.12663852258261
 30
0.0
 40
25.49999999999997
100
AcDbArc
 50
0.0
 51
180.0
  0
MTEXT
  5
1C4
330
1F
100
AcDbEntity
  8
3
 62
     7
100
AcDbMText
 10
739.8122698766259
 20
-22.04824316282279
 30
0.0
 40
6.0
 41
0.0
 46
0.0
 71
     1
 72
     1
  1
{\FＭＳ ゴシック;BMHM-50P}
 73
     1
 44
1.0
  0
ENDSEC
  0
SECTION
  2
OBJECTS
  0
DICTIONARY
  5
C
330
0
100
AcDbDictionary
281
     1
  3
ACAD_GROUP
350
D
  3
ACAD_LAYOUT
350
1A
  3
ACAD_MLEADERSTYLE
350
1C6
  3
ACAD_MLINESTYLE
350
17
  3
ACAD_PLOTSETTINGS
350
19
  3
ACAD_PLOTSTYLENAME
350
E
  3
ACAD_TABLESTYLE
350
1C5
  3
ACAD_VISUALSTYLE
350
2A
  0
DICTIONARY
  5
D
102
{ACAD_REACTORS
330
C
102
}
330
C
100
AcDbDictionary
281
     1
  0
DICTIONARY
  5
1A
102
{ACAD_REACTORS
330
C
102
}
330
C
100
AcDbDictionary
281
     1
  3
Layout1
350
1E
  3
Layout2
350
26
  3
Model
350
22
  0
DICTIONARY
  5
1C6
102
{ACAD_REACTORS
330
C
102
}
330
C
100
AcDbDictionary
281
     1
  0
DICTIONARY
  5
17
102
{ACAD_REACTORS
330
C
102
}
330
C
100
AcDbDictionary
281
     1
  3
Standard
350
18
  0
DICTIONARY
  5
19
102
{ACAD_REACTORS
330
C
102
}
330
C
100
AcDbDictionary
281
     1
  0
ACDBDICTIONARYWDFLT
  5
E
102
{ACAD_REACTORS
330
C
102
}
330
C
100
AcDbDictionary
281
     1
  3
Normal
350
F
100
AcDbDictionaryWithDefault
340
F
  0
DICTIONARY
  5
1C5
102
{ACAD_REACTORS
330
C
102
}
330
C
100
AcDbDictionary
281
     1
  0
DICTIONARY
  5
2A
102
{ACAD_REACTORS
330
C
102
}
330
C
100
AcDbDictionary
281
     1
  3
2dWireframe
350
2F
  3
3D Hidden
350
31
  3
3dWireframe
350
30
  3
Basic
350
32
  3
Brighten
350
36
  3
ColorChange
350
3A
  3
Conceptual
350
34
  3
Dim
350
35
  3
Facepattern
350
39
  3
Flat
350
2B
  3
FlatWithEdges
350
2C
  3
Gouraud
350
2D
  3
GouraudWithEdges
350
2E
  3
Linepattern
350
38
  3
Realistic
350
33
  3
Thicken
350
37
  0
LAYOUT
  5
1E
102
{ACAD_REACTORS
330
1A
102
}
330
1A
100
AcDbPlotSettings
  1

  2
none_device
  4

  6

 40
0.0
 41
0.0
 42
0.0
 43
0.0
 44
0.0
 45
0.0
 46
0.0
 47
0.0
 48
0.0
 49
0.0
140
0.0
141
0.0
142
1.0
143
1.0
 70
   688
 72
     0
 73
     0
 74
     5
  7

 75
    16
 76
     0
 77
     2
 78
   300
147
1.0
148
0.0
149
0.0
100
AcDbLayout
  1
Layout1
 70
     1
 71
     1
 10
0.0
 20
0.0
 11
12.0
 21
9.0
 12
0.0
 22
0.0
 32
0.0
 14
1.000000000000000E+20
 24
1.000000000000000E+20
 34
1.000000000000000E+20
 15
-1.000000000000000E+20
 25
-1.000000000000000E+20
 35
-1.000000000000000E+20
146
0.0
 13
0.0
 23
0.0
 33
0.0
 16
1.0
 26
0.0
 36
0.0
 17
0.0
 27
1.0
 37
0.0
 76
     0
330
1B
  0
LAYOUT
  5
26
102
{ACAD_REACTORS
330
1A
102
}
330
1A
100
AcDbPlotSettings
  1

  2
none_device
  4

  6

 40
0.0
 41
0.0
 42
0.0
 43
0.0
 44
0.0
 45
0.0
 46
0.0
 47
0.0
 48
0.0
 49
0.0
140
0.0
141
0.0
142
1.0
143
1.0
 70
   688
 72
     0
 73
     0
 74
     5
  7

 75
    16
 76
     0
 77
     2
 78
   300
147
1.0
148
0.0
149
0.0
100
AcDbLayout
  1
Layout2
 70
     1
 71
     2
 10
0.0
 20
0.0
 11
0.0
 21
0.0
 12
0.0
 22
0.0
 32
0.0
 14
0.0
 24
0.0
 34
0.0
 15
0.0
 25
0.0
 35
0.0
146
0.0
 13
0.0
 23
0.0
 33
0.0
 16
1.0
 26
0.0
 36
0.0
 17
0.0
 27
1.0
 37
0.0
 76
     0
330
23
  0
LAYOUT
  5
22
102
{ACAD_REACTORS
330
1A
102
}
330
1A
100
AcDbPlotSettings
  1

  2
none_device
  4

  6

 40
0.0
 41
0.0
 42
0.0
 43
0.0
 44
0.0
 45
0.0
 46
0.0
 47
0.0
 48
0.0
 49
0.0
140
0.0
141
0.0
142
1.0
143
1.0
 70
  1712
 72
     0
 73
     0
 74
     0
  7

 75
     0
 76
     0
 77
     2
 78
   300
147
1.0
148
0.0
149
0.0
100
AcDbLayout
  1
Model
 70
     1
 71
     0
 10
0.0
 20
0.0
 11
12.0
 21
9.0
 12
0.0
 22
0.0
 32
0.0
 14
0.0
 24
-27.36642498100461
 34
0.0
 15
902.6273833245813
 25
92.33745746851915
 35
10.0
146
0.0
 13
0.0
 23
0.0
 33
0.0
 16
1.0
 26
0.0
 36
0.0
 17
0.0
 27
1.0
 37
0.0
 76
     0
330
1F
331
29
  0
MLINESTYLE
  5
18
102
{ACAD_REACTORS
330
17
102
}
330
17
100
AcDbMlineStyle
  2
Standard
 70
     0
  3

 62
   256
 51
90.0
 52
90.0
 71
     2
 49
0.5
 62
   256
  6
BYLAYER
 49
-0.5
 62
   256
  6
BYLAYER
  0
ACDBPLACEHOLDER
  5
F
102
{ACAD_REACTORS
330
E
102
}
330
E
  0
VISUALSTYLE
  5
2F
102
{ACAD_REACTORS
330
2A
102
}
330
2A
100
AcDbVisualStyle
  2
2dWireframe
 70
     4
 71
     0
 72
     2
 73
     0
 90
        0
 40
-0.6
 41
-30.0
 62
     5
 63
     7
421
 16777215
 74
     1
 91
        4
 64
     7
 65
   257
 75
     1
175
     1
 42
1.0
 92
        0
 66
   257
 43
1.0
 76
     1
 77
     6
 78
     2
 67
     7
 79
     5
170
     0
171
     0
290
     0
174
     0
 93
        1
 44
0.0
173
     0
291
     0
 45
0.0
  0
VISUALSTYLE
  5
31
102
{ACAD_REACTORS
330
2A
102
}
330
2A
100
AcDbVisualStyle
  2
3D Hidden
 70
     6
 71
     1
 72
     2
 73
     2
 90
        0
 40
-0.6
 41
-30.0
 62
     5
 63
     7
421
 16777215
 74
     2
 91
        2
 64
     7
 65
   257
 75
     2
175
     1
 42
40.0
 92
        0
 66
   257
 43
1.0
 76
     1
 77
     6
 78
     2
 67
     7
 79
     3
170
     0
171
     0
290
     0
174
     0
 93
        1
 44
0.0
173
     0
291
     0
 45
0.0
  0
VISUALSTYLE
  5
30
102
{ACAD_REACTORS
330
2A
102
}
330
2A
100
AcDbVisualStyle
  2
3dWireframe
 70
     5
 71
     0
 72
     2
 73
     0
 90
        0
 40
-0.6
 41
-30.0
 62
     5
 63
     7
421
 16777215
 74
     1
 91
        4
 64
     7
 65
   257
 75
     1
175
     1
 42
1.0
 92
        0
 66
   257
 43
1.0
 76
     1
 77
     6
 78
     2
 67
     7
 79
     5
170
     0
171
     0
290
     0
174
     0
 93
        1
 44
0.0
173
     0
291
     0
 45
0.0
  0
VISUALSTYLE
  5
32
102
{ACAD_REACTORS
330
2A
102
}
330
2A
100
AcDbVisualStyle
  2
Basic
 70
     7
 71
     1
 72
     0
 73
     1
 90
        0
 40
-0.6
 41
-30.0
 62
     5
 63
     7
421
 16777215
 74
     0
 91
        4
 64
     7
 65
   257
 75
     1
175
     1
 42
1.0
 92
        8
 66
     7
 43
1.0
 76
     1
 77
     6
 78
     2
 67
     7
 79
     5
170
     0
171
     0
290
     0
174
     0
 93
        1
 44
0.0
173
     0
291
     1
 45
0.0
  0
VISUALSTYLE
  5
36
102
{ACAD_REACTORS
330
2A
102
}
330
2A
100
AcDbVisualStyle
  2
Brighten
 70
    12
 71
     2
 72
     2
 73
     0
 90
        0
 40
-0.6
 41
-30.0
 62
     5
 63
     7
421
 16777215
 74
     1
 91
        4
 64
     7
 65
   257
 75
     1
175
     1
 42
1.0
 92
        8
 66
     7
 43
1.0
 76
     1
 77
     6
 78
     2
 67
     7
 79
     5
170
     0
171
     0
290
     0
174
     0
 93
        1
 44
50.0
173
     0
291
     1
 45
0.0
  0
VISUALSTYLE
  5
3A
102
{ACAD_REACTORS
330
2A
102
}
330
2A
100
AcDbVisualStyle
  2
ColorChange
 70
    16
 71
     2
 72
     2
 73
     3
 90
        0
 40
-0.6
 41
-30.0
 62
     5
 63
     8
421
  8421504
 74
     1
 91
        4
 64
     7
 65
   257
 75
     1
175
     1
 42
1.0
 92
        8
 66
     8
424
  8421504
 43
1.0
 76
     1
 77
     6
 78
     2
 67
     7
 79
     5
170
     0
171
     0
290
     0
174
     0
 93
        1
 44
0.0
173
     0
291
     1
 45
0.0
  0
VISUALSTYLE
  5
34
102
{ACAD_REACTORS
330
2A
102
}
330
2A
100
AcDbVisualStyle
  2
Conceptual
 70
     9
 71
     3
 72
     2
 73
     0
 90
        0
 40
-0.6
 41
-30.0
 62
     5
 63
     7
421
 16777215
 74
     2
 91
        2
 64
     7
 65
   257
 75
     1
175
     1
 42
40.0
 92
        8
 66
     7
 43
1.0
 76
     1
 77
     6
 78
     2
 67
     7
 79
     3
170
     0
171
     0
290
     0
174
     0
 93
        1
 44
0.0
173
     0
291
     0
 45
0.0
  0
VISUALSTYLE
  5
35
102
{ACAD_REACTORS
330
2A
102
}
330
2A
100
AcDbVisualStyle
  2
Dim
 70
    11
 71
     2
 72
     2
 73
     0
 90
        0
 40
-0.6
 41
-30.0
 62
     5
 63
     7
421
 16777215
 74
     1
 91
        4
 64
     7
 65
   257
 75
     1
175
     1
 42
1.0
 92
        8
 66
     7
 43
1.0
 76
     1
 77
     6
 78
     2
 67
     7
 79
     5
170
     0
171
     0
290
     0
174
     0
 93
        1
 44
-50.0
173
     0
291
     1
 45
0.0
  0
VISUALSTYLE
  5
39
102
{ACAD_REACTORS
330
2A
102
}
330
2A
100
AcDbVisualStyle
  2
Facepattern
 70
    15
 71
     2
 72
     2
 73
     0
 90
        0
 40
-0.6
 41
-30.0
 62
     5
 63
     7
421
 16777215
 74
     1
 91
        4
 64
     7
 65
   257
 75
     1
175
     1
 42
1.0
 92
        8
 66
     7
 43
1.0
 76
     1
 77
     6
 78
     2
 67
     7
 79
     5
170
     0
171
     0
290
     0
174
     0
 93
        1
 44
0.0
173
     0
291
     1
 45
0.0
  0
VISUALSTYLE
  5
2B
102
{ACAD_REACTORS
330
2A
102
}
330
2A
100
AcDbVisualStyle
  2
Flat
 70
     0
 71
     2
 72
     1
 73
     1
 90
        2
 40
-0.6
 41
30.0
 62
     5
 63
     7
421
 16777215
 74
     0
 91
        4
 64
     7
 65
   257
 75
     1
175
     1
 42
1.0
 92
        8
 66
     7
 43
1.0
 76
     1
 77
     6
 78
     2
 67
     7
 79
     5
170
     0
171
     0
290
     0
174
     0
 93
       13
 44
0.0
173
     0
291
     1
 45
0.0
  0
VISUALSTYLE
  5
2C
102
{ACAD_REACTORS
330
2A
102
}
330
2A
100
AcDbVisualStyle
  2
FlatWithEdges
 70
     1
 71
     2
 72
     1
 73
     1
 90
        2
 40
-0.6
 41
30.0
 62
     5
 63
     7
421
 16777215
 74
     1
 91
        4
 64
     7
 65
   257
 75
     1
175
     1
 42
1.0
 92
        0
 66
   257
 43
1.0
 76
     1
 77
     6
 78
     2
 67
     7
 79
     5
170
     0
171
     0
290
     0
174
     0
 93
       13
 44
0.0
173
     0
291
     1
 45
0.0
  0
VISUALSTYLE
  5
2D
102
{ACAD_REACTORS
330
2A
102
}
330
2A
100
AcDbVisualStyle
  2
Gouraud
 70
     2
 71
     2
 72
     2
 73
     1
 90
        2
 40
-0.6
 41
30.0
 62
     5
 63
     7
421
 16777215
 74
     0
 91
        4
 64
     7
 65
   257
 75
     1
175
     1
 42
1.0
 92
        0
 66
     7
 43
1.0
 76
     1
 77
     6
 78
     2
 67
     7
 79
     5
170
     0
171
     0
290
     0
174
     0
 93
       13
 44
0.0
173
     0
291
     1
 45
0.0
  0
VISUALSTYLE
  5
2E
102
{ACAD_REACTORS
330
2A
102
}
330
2A
100
AcDbVisualStyle
  2
GouraudWithEdges
 70
     3
 71
     2
 72
     2
 73
     1
 90
        2
 40
-0.6
 41
30.0
 62
     5
 63
     7
421
 16777215
 74
     1
 91
        4
 64
     7
 65
   257
 75
     1
175
     1
 42
1.0
 92
        0
 66
   257
 43
1.0
 76
     1
 77
     6
 78
     2
 67
     7
 79
     5
170
     0
171
     0
290
     0
174
     0
 93
       13
 44
0.0
173
     0
291
     1
 45
0.0
  0
VISUALSTYLE
  5
38
102
{ACAD_REACTORS
330
2A
102
}
330
2A
100
AcDbVisualStyle
  2
Linepattern
 70
    14
 71
     2
 72
     2
 73
     0
 90
        0
 40
-0.6
 41
-30.0
 62
     5
 63
     7
421
 16777215
 74
     1
 91
        4
 64
     7
 65
   257
 75
     7
175
     7
 42
1.0
 92
        8
 66
     7
 43
1.0
 76
     1
 77
     6
 78
     2
 67
     7
 79
     5
170
     0
171
     0
290
     0
174
     0
 93
        1
 44
0.0
173
     0
291
     1
 45
0.0
  0
VISUALSTYLE
  5
33
102
{ACAD_REACTORS
330
2A
102
}
330
2A
100
AcDbVisualStyle
  2
Realistic
 70
     8
 71
     2
 72
     2
 73
     0
 90
        0
 40
-0.6
 41
-30.0
 62
     5
 63
     7
421
 16777215
 74
     1
 91
        0
 64
     7
 65
   257
 75
     1
175
     1
 42
1.0
 92
        8
 66
     8
424
  7895160
 43
1.0
 76
     1
 77
     6
 78
     2
 67
     7
 79
     5
170
     0
171
     0
290
     0
174
     0
 93
       13
 44
0.0
173
     0
291
     0
 45
0.0
  0
VISUALSTYLE
  5
37
102
{ACAD_REACTORS
330
2A
102
}
330
2A
100
AcDbVisualStyle
  2
Thicken
 70
    13
 71
     2
 72
     2
 73
     0
 90
        0
 40
-0.6
 41
-30.0
 62
     5
 63
     7
421
 16777215
 74
     1
 91
        4
 64
     7
 65
   257
 75
     1
175
     1
 42
1.0
 92
       12
 66
     7
 43
1.0
 76
     1
 77
     6
 78
     2
 67
     7
 79
     5
170
     0
171
     0
290
     0
174
     0
 93
        1
 44
0.0
173
     0
291
     1
 45
0.0
  0
ENDSEC
  0
EOF
