  0
SECTION
  2
HEADER
  9
$ACADVER
  1
AC1021
  9
$ACADMAINTVER
 70
    25
  9
$DWGCODEPAGE
  3
ANSI_932
  9
$INSBASE
 10
0.0
 20
0.0
 30
0.0
  9
$EXTMIN
 10
0.0
 20
-246.0169108977204
 30
0.0
  9
$EXTMAX
 10
1480.0
 20
10.0
 30
10.0
  9
$LIMMIN
 10
0.0
 20
0.0
  9
$LIMMAX
 10
12.0
 20
9.0
  9
$ORTHOMODE
 70
     0
  9
$REGENMODE
 70
     1
  9
$FILLMODE
 70
     1
  9
$QTEXTMODE
 70
     0
  9
$MIRRTEXT
 70
     1
  9
$LTSCALE
 40
1.0
  9
$ATTMODE
 70
     1
  9
$TEXTSIZE
 40
0.2
  9
$TRACEWID
 40
0.05
  9
$TEXTSTYLE
  7
Standard
  9
$CLAYER
  8
0
  9
$CELTYPE
  6
ByLayer
  9
$CECOLOR
 62
   256
  9
$CELTSCALE
 40
1.0
  9
$DISPSILH
 70
     0
  9
$DIMSCALE
 40
1.0
  9
$DIMASZ
 40
3.0
  9
$DIMEXO
 40
0.0625
  9
$DIMDLI
 40
0.38
  9
$DIMRND
 40
0.0
  9
$DIMDLE
 40
0.0
  9
$DIMEXE
 40
0.18
  9
$DIMTP
 40
0.0
  9
$DIMTM
 40
0.0
  9
$DIMTXT
 40
3.0
  9
$DIMCEN
 40
0.09
  9
$DIMTSZ
 40
0.0
  9
$DIMTOL
 70
     0
  9
$DIMLIM
 70
     0
  9
$DIMTIH
 70
     1
  9
$DIMTOH
 70
     1
  9
$DIMSE1
 70
     0
  9
$DIMSE2
 70
     0
  9
$DIMTAD
 70
     1
  9
$DIMZIN
 70
     0
  9
$DIMBLK
  1

  9
$DIMASO
 70
     1
  9
$DIMSHO
 70
     1
  9
$DIMPOST
  1

  9
$DIMAPOST
  1

  9
$DIMALT
 70
     0
  9
$DIMALTD
 70
     2
  9
$DIMALTF
 40
25.4
  9
$DIMLFAC
 40
1.0
  9
$DIMTOFL
 70
     0
  9
$DIMTVP
 40
0.0
  9
$DIMTIX
 70
     0
  9
$DIMSOXD
 70
     0
  9
$DIMSAH
 70
     0
  9
$DIMBLK1
  1

  9
$DIMBLK2
  1

  9
$DIMSTYLE
  2
Standard
  9
$DIMCLRD
 70
     0
  9
$DIMCLRE
 70
     0
  9
$DIMCLRT
 70
     0
  9
$DIMTFAC
 40
1.0
  9
$DIMGAP
 40
0.09
  9
$DIMJUST
 70
     0
  9
$DIMSD1
 70
     0
  9
$DIMSD2
 70
     0
  9
$DIMTOLJ
 70
     1
  9
$DIMTZIN
 70
     0
  9
$DIMALTZ
 70
     0
  9
$DIMALTTZ
 70
     0
  9
$DIMUPT
 70
     0
  9
$DIMDEC
 70
     2
  9
$DIMTDEC
 70
     4
  9
$DIMALTU
 70
     2
  9
$DIMALTTD
 70
     2
  9
$DIMTXSTY
  7
Standard
  9
$DIMAUNIT
 70
     0
  9
$DIMADEC
 70
     2
  9
$DIMALTRND
 40
0.0
  9
$DIMAZIN
 70
     0
  9
$DIMDSEP
 70
    46
  9
$DIMATFIT
 70
     3
  9
$DIMFRAC
 70
     0
  9
$DIMLDRBLK
  1

  9
$DIMLUNIT
 70
     2
  9
$DIMLWD
 70
    -2
  9
$DIMLWE
 70
    -2
  9
$DIMTMOVE
 70
     0
  9
$DIMFXL
 40
1.0
  9
$DIMFXLON
 70
     0
  9
$DIMJOGANG
 40
0.7853981633974483
  9
$DIMTFILL
 70
     0
  9
$DIMTFILLCLR
 70
     0
  9
$DIMARCSYM
 70
     0
  9
$DIMLTYPE
  6

  9
$DIMLTEX1
  6

  9
$DIMLTEX2
  6

  9
$LUNITS
 70
     2
  9
$LUPREC
 70
     4
  9
$SKETCHINC
 40
0.1
  9
$FILLETRAD
 40
0.5
  9
$AUNITS
 70
     0
  9
$AUPREC
 70
     0
  9
$MENU
  1
.
  9
$ELEVATION
 40
0.0
  9
$PELEVATION
 40
0.0
  9
$THICKNESS
 40
0.0
  9
$LIMCHECK
 70
     0
  9
$CHAMFERA
 40
0.5
  9
$CHAMFERB
 40
0.5
  9
$CHAMFERC
 40
1.0
  9
$CHAMFERD
 40
0.0
  9
$SKPOLY
 70
     0
  9
$TDCREATE
 40
2459298.584102095
  9
$TDUCREATE
 40
2459298.209102095
  9
$TDUPDATE
 40
2459298.584102106
  9
$TDUUPDATE
 40
2459298.209102106
  9
$TDINDWG
 40
0.0000000116
  9
$TDUSRTIMER
 40
0.0000000116
  9
$USRTIMER
 70
     1
  9
$ANGBASE
 50
0.0
  9
$ANGDIR
 70
     0
  9
$PDMODE
 70
     0
  9
$PDSIZE
 40
0.0
  9
$PLINEWID
 40
0.0
  9
$SPLFRAME
 70
     0
  9
$SPLINETYPE
 70
     6
  9
$SPLINESEGS
 70
     8
  9
$HANDSEED
  5
1BB
  9
$SURFTAB1
 70
     6
  9
$SURFTAB2
 70
     6
  9
$SURFTYPE
 70
     6
  9
$SURFU
 70
     6
  9
$SURFV
 70
     6
  9
$UCSBASE
  2

  9
$UCSNAME
  2

  9
$UCSORG
 10
0.0
 20
0.0
 30
0.0
  9
$UCSXDIR
 10
1.0
 20
0.0
 30
0.0
  9
$UCSYDIR
 10
0.0
 20
1.0
 30
0.0
  9
$UCSORTHOREF
  2

  9
$UCSORTHOVIEW
 70
     0
  9
$UCSORGTOP
 10
0.0
 20
0.0
 30
0.0
  9
$UCSORGBOTTOM
 10
0.0
 20
0.0
 30
0.0
  9
$UCSORGLEFT
 10
0.0
 20
0.0
 30
0.0
  9
$UCSORGRIGHT
 10
0.0
 20
0.0
 30
0.0
  9
$UCSORGFRONT
 10
0.0
 20
0.0
 30
0.0
  9
$UCSORGBACK
 10
0.0
 20
0.0
 30
0.0
  9
$PUCSBASE
  2

  9
$PUCSNAME
  2

  9
$PUCSORG
 10
0.0
 20
0.0
 30
0.0
  9
$PUCSXDIR
 10
1.0
 20
0.0
 30
0.0
  9
$PUCSYDIR
 10
0.0
 20
1.0
 30
0.0
  9
$PUCSORTHOREF
  2

  9
$PUCSORTHOVIEW
 70
     0
  9
$PUCSORGTOP
 10
0.0
 20
0.0
 30
0.0
  9
$PUCSORGBOTTOM
 10
0.0
 20
0.0
 30
0.0
  9
$PUCSORGLEFT
 10
0.0
 20
0.0
 30
0.0
  9
$PUCSORGRIGHT
 10
0.0
 20
0.0
 30
0.0
  9
$PUCSORGFRONT
 10
0.0
 20
0.0
 30
0.0
  9
$PUCSORGBACK
 10
0.0
 20
0.0
 30
0.0
  9
$USERI1
 70
     0
  9
$USERI2
 70
     0
  9
$USERI3
 70
     0
  9
$USERI4
 70
     0
  9
$USERI5
 70
     0
  9
$USERR1
 40
0.0
  9
$USERR2
 40
0.0
  9
$USERR3
 40
0.0
  9
$USERR4
 40
0.0
  9
$USERR5
 40
0.0
  9
$WORLDVIEW
 70
     1
  9
$SHADEDGE
 70
     3
  9
$SHADEDIF
 70
    70
  9
$TILEMODE
 70
     1
  9
$MAXACTVP
 70
    64
  9
$PINSBASE
 10
0.0
 20
0.0
 30
0.0
  9
$PLIMCHECK
 70
     0
  9
$PEXTMIN
 10
1.000000000000000E+20
 20
1.000000000000000E+20
 30
1.000000000000000E+20
  9
$PEXTMAX
 10
-1.000000000000000E+20
 20
-1.000000000000000E+20
 30
-1.000000000000000E+20
  9
$PLIMMIN
 10
0.0
 20
0.0
  9
$PLIMMAX
 10
12.0
 20
9.0
  9
$UNITMODE
 70
     0
  9
$VISRETAIN
 70
     1
  9
$PLINEGEN
 70
     0
  9
$PSLTSCALE
 70
     1
  9
$TREEDEPTH
 70
  3020
  9
$CMLSTYLE
  2
Standard
  9
$CMLJUST
 70
     0
  9
$CMLSCALE
 40
1.0
  9
$PROXYGRAPHICS
 70
     1
  9
$MEASUREMENT
 70
     1
  9
$CELWEIGHT
370
    -1
  9
$ENDCAPS
280
     0
  9
$JOINSTYLE
280
     0
  9
$LWDISPLAY
290
     1
  9
$INSUNITS
 70
     4
  9
$HYPERLINKBASE
  1

  9
$STYLESHEET
  1

  9
$XEDIT
290
     1
  9
$CEPSNTYPE
380
     0
  9
$PSTYLEMODE
290
     1
  9
$FINGERPRINTGUID
  2
{6D12784E-9741-45C9-97DE-B7FF5333A3CF}
  9
$VERSIONGUID
  2
{FAEB1C32-E019-11D5-929B-00C0DF256EC4}
  9
$EXTNAMES
290
     1
  9
$PSVPSCALE
 40
0.0
  9
$OLESTARTUP
290
     0
  9
$SORTENTS
280
   127
  9
$INDEXCTL
280
     0
  9
$HIDETEXT
280
     1
  9
$XCLIPFRAME
290
     0
  9
$HALOGAP
280
     0
  9
$OBSCOLOR
 70
   257
  9
$OBSLTYPE
280
     0
  9
$INTERSECTIONDISPLAY
280
     0
  9
$INTERSECTIONCOLOR
 70
   257
  9
$DIMASSOC
280
     2
  9
$PROJECTNAME
  1

  9
$CAMERADISPLAY
290
     0
  9
$LENSLENGTH
 40
50.0
  9
$CAMERAHEIGHT
 40
0.0
  9
$STEPSPERSEC
 40
2.0
  9
$STEPSIZE
 40
6.0
  9
$3DDWFPREC
 40
2.0
  9
$PSOLWIDTH
 40
0.25
  9
$PSOLHEIGHT
 40
4.0
  9
$LOFTANG1
 40
1.570796326794897
  9
$LOFTANG2
 40
1.570796326794897
  9
$LOFTMAG1
 40
0.0
  9
$LOFTMAG2
 40
0.0
  9
$LOFTPARAM
 70
     7
  9
$LOFTNORMALS
280
     1
  9
$LATITUDE
 40
37.795
  9
$LONGITUDE
 40
-122.394
  9
$NORTHDIRECTION
 40
0.0
  9
$TIMEZONE
 70
 -8000
  9
$LIGHTGLYPHDISPLAY
280
     1
  9
$TILEMODELIGHTSYNCH
280
     1
  9
$SOLIDHIST
280
     1
  9
$SHOWHIST
280
     1
  9
$DWFFRAME
280
     2
  9
$DGNFRAME
280
     2
  9
$REALWORLDSCALE
290
     1
  9
$INTERFERECOLOR
 62
   256
  9
$CSHADOW
280
     0
  9
$SHADOWPLANELOCATION
 40
0.0
  0
ENDSEC
  0
SECTION
  2
CLASSES
  0
CLASS
  1
ACDBDICTIONARYWDFLT
  2
AcDbDictionaryWithDefault
  3
ObjectDBX Classes
 90
        0
 91
        4
280
     0
281
     0
  0
CLASS
  1
VISUALSTYLE
  2
AcDbVisualStyle
  3
ObjectDBX Classes
 90
     4095
 91
        4
280
     0
281
     0
  0
ENDSEC
  0
SECTION
  2
TABLES
  0
TABLE
  2
VPORT
  5
8
330
0
100
AcDbSymbolTable
 70
     1
  0
VPORT
  5
29
330
8
100
AcDbSymbolTableRecord
100
AcDbViewportTableRecord
  2
*Active
 70
     0
 10
0.0
 20
0.0
 11
1.0
 21
1.0
 12
740.0000000000001
 22
-118.0084554488602
 13
0.0
 23
0.0
 14
0.5
 24
0.5
 15
0.5
 25
0.5
 16
0.0
 26
0.0
 36
1.0
 17
0.0
 27
0.0
 37
0.0
 40
256.0169108977204
 41
1.6
 42
50.0
 43
0.0
 44
0.0
 50
0.0
 51
0.0
 71
     0
 72
   100
 73
     1
 74
     3
 75
     0
 76
     0
 77
     0
 78
     0
281
     0
 65
     1
110
0.0
120
0.0
130
0.0
111
1.0
121
0.0
131
0.0
112
0.0
122
1.0
132
0.0
 79
     0
146
0.0
 60
     3
 61
     5
292
     1
282
     1
141
0.0
142
0.0
 63
   250
  0
ENDTAB
  0
TABLE
  2
LTYPE
  5
5
330
0
100
AcDbSymbolTable
 70
     2
  0
LTYPE
  5
14
330
5
100
AcDbSymbolTableRecord
100
AcDbLinetypeTableRecord
  2
ByBlock
 70
     0
  3

 72
    65
 73
     0
 40
0.0
  0
LTYPE
  5
15
330
5
100
AcDbSymbolTableRecord
100
AcDbLinetypeTableRecord
  2
ByLayer
 70
     0
  3

 72
    65
 73
     0
 40
0.0
  0
LTYPE
  5
16
330
5
100
AcDbSymbolTableRecord
100
AcDbLinetypeTableRecord
  2
Continuous
 70
     0
  3
Solid line
 72
    65
 73
     0
 40
0.0
  0
LTYPE
  5
3D
330
5
100
AcDbSymbolTableRecord
100
AcDbLinetypeTableRecord
  2
________________
 70
     0
  3

 72
    65
 73
     0
 40
0.0
  0
ENDTAB
  0
TABLE
  2
LAYER
  5
2
330
0
100
AcDbSymbolTable
 70
     2
  0
LAYER
  5
10
330
2
100
AcDbSymbolTableRecord
100
AcDbLayerTableRecord
  2
0
 70
     0
 62
     7
  6
Continuous
370
    -3
390
F
347
0
  0
LAYER
  5
3B
330
2
100
AcDbSymbolTableRecord
100
AcDbLayerTableRecord
  2
JIS B 0405-m 普通公差｢m｣中級
 70
     0
 62
     7
  6
Continuous
370
    -3
390
F
347
0
  0
ENDTAB
  0
TABLE
  2
STYLE
  5
3
330
0
100
AcDbSymbolTable
 70
     1
  0
STYLE
  5
11
330
3
100
AcDbSymbolTableRecord
100
AcDbTextStyleTableRecord
  2
Standard
 70
     0
 40
0.0
 41
1.0
 50
0.0
 71
     0
 42
0.2
  3
txt
  4

  0
ENDTAB
  0
TABLE
  2
VIEW
  5
6
330
0
100
AcDbSymbolTable
 70
     0
  0
ENDTAB
  0
TABLE
  2
UCS
  5
7
330
0
100
AcDbSymbolTable
 70
     0
  0
ENDTAB
  0
TABLE
  2
APPID
  5
9
330
0
100
AcDbSymbolTable
 70
     1
  0
APPID
  5
12
330
9
100
AcDbSymbolTableRecord
100
AcDbRegAppTableRecord
  2
ACAD
 70
     0
  0
ENDTAB
  0
TABLE
  2
DIMSTYLE
  5
A
330
0
100
AcDbSymbolTable
 70
     1
100
AcDbDimStyleTable
  0
DIMSTYLE
105
27
330
A
100
AcDbSymbolTableRecord
100
AcDbDimStyleTableRecord
  2
Standard
 70
     0
340
11
  0
ENDTAB
  0
TABLE
  2
BLOCK_RECORD
  5
1
330
0
100
AcDbSymbolTable
 70
     1
  0
BLOCK_RECORD
  5
1F
330
1
100
AcDbSymbolTableRecord
100
AcDbBlockTableRecord
  2
*Model_Space
340
22
 70
     0
280
     1
281
     0
  0
BLOCK_RECORD
  5
1B
330
1
100
AcDbSymbolTableRecord
100
AcDbBlockTableRecord
  2
*Paper_Space
340
1E
 70
     0
280
     1
281
     0
  0
BLOCK_RECORD
  5
23
330
1
100
AcDbSymbolTableRecord
100
AcDbBlockTableRecord
  2
*Paper_Space0
340
26
 70
     0
280
     1
281
     0
  0
ENDTAB
  0
ENDSEC
  0
SECTION
  2
BLOCKS
  0
BLOCK
  5
20
330
1F
100
AcDbEntity
  8
0
100
AcDbBlockBegin
  2
*Model_Space
 70
     0
 10
0.0
 20
0.0
 30
0.0
  3
*Model_Space
  1

  0
ENDBLK
  5
21
330
1F
100
AcDbEntity
  8
0
100
AcDbBlockEnd
  0
BLOCK
  5
1C
330
1B
100
AcDbEntity
 67
     1
  8
0
100
AcDbBlockBegin
  2
*Paper_Space
 70
     0
 10
0.0
 20
0.0
 30
0.0
  3
*Paper_Space
  1

  0
ENDBLK
  5
1D
330
1B
100
AcDbEntity
 67
     1
  8
0
100
AcDbBlockEnd
  0
BLOCK
  5
24
330
23
100
AcDbEntity
  8
0
100
AcDbBlockBegin
  2
*Paper_Space0
 70
     0
 10
0.0
 20
0.0
 30
0.0
  3
*Paper_Space0
  1

  0
ENDBLK
  5
25
330
23
100
AcDbEntity
  8
0
100
AcDbBlockEnd
  0
ENDSEC
  0
SECTION
  2
ENTITIES
  0
LINE
  5
3C
330
1F
100
AcDbEntity
  8
JIS B 0405-m 普通公差｢m｣中級
  6
________________
 62
     7
370
     0
100
AcDbLine
 10
1316.879647543128
 20
-110.0325437039227
 30
0.0
 11
1316.879647543128
 21
-225.0238473941331
 31
0.0
  0
LINE
  5
3E
330
1F
100
AcDbEntity
  8
JIS B 0405-m 普通公差｢m｣中級
  6
________________
 62
     7
370
     0
100
AcDbLine
 10
1321.879647543127
 20
-110.0325437039227
 30
0.0
 11
1316.879647543128
 21
-110.0325437039227
 31
0.0
  0
LINE
  5
3F
330
1F
100
AcDbEntity
  8
JIS B 0405-m 普通公差｢m｣中級
  6
________________
 62
     7
370
     0
100
AcDbLine
 10
1322.879647543128
 20
-111.0238473941331
 30
0.0
 11
1322.879647543128
 21
-224.0238473941331
 31
0.0
  0
LWPOLYLINE
  5
40
330
1F
100
AcDbEntity
  8
JIS B 0405-m 普通公差｢m｣中級
  6
________________
 62
     7
370
     0
100
AcDbPolyline
 90
       39
 70
     0
 43
0.0
 10
1322.879608391159
 20
-111.0238473941331
 10
1322.878659168067
 20
-110.9882410156992
 10
1322.876439256364
 20
-110.9526458800961
 10
1322.872936036433
 20
-110.9170163905941
 10
1322.868153123577
 20
-110.8814896403635
 10
1322.861043471528
 20
-110.8406747095352
 10
1322.852250550253
 20
-110.8001890299593
 10
1322.841709511828
 20
-110.7598254679188
 10
1322.82949533368
 20
-110.7199363157318
 10
1322.81530783962
 20
-110.6797418856171
 10
1322.799421527875
 20
-110.6401880960473
 10
1322.781728363218
 20
-110.6010643920407
 10
1322.762373104656
 20
-110.5627357314735
 10
1322.742154582776
 20
-110.5265747321496
 10
1322.720456501452
 20
-110.4912816771285
 10
1322.697149062148
 20
-110.4566825425476
 10
1322.672419656909
 20
-110.423085022991
 10
1322.64572678693
 20
-110.3898525894036
 10
1322.617642727195
 20
-110.3577871953452
 10
1322.58799577244
 20
-110.3267258770408
 10
1322.557043402794
 20
-110.2969651950959
 10
1322.525997138185
 20
-110.2695387628179
 10
1322.493842104243
 20
-110.2434210774418
 10
1322.460398206596
 20
-110.2184908960922
 10
1322.425944135906
 20
-110.1949765343342
 10
1322.389758189685
 20
-110.1724566070079
 10
1322.352645876527
 20
-110.1514984103841
 10
1322.314391222184
 20
-110.1320050074773
 10
1322.275335373836
 20
-110.1141709947118
 10
1322.236965803218
 20
-110.0985714077496
 10
1322.197983352041
 20
-110.0845735672485
 10
1322.158177988297
 20
-110.0721226877428
 10
1322.117888209937
 20
-110.0613419121272
 10
1322.076293698129
 20
-110.0520725564191
 10
1322.034342134582
 20
-110.0445831861106
 10
1321.991797699671
 20
-110.0388538146619
 10
1321.949046622662
 20
-110.0349550912718
 10
1321.914388964064
 20
-110.0331474606062
 10
1321.879647543127
 20
-110.0325437039227
  0
LINE
  5
41
330
1F
100
AcDbEntity
  8
JIS B 0405-m 普通公差｢m｣中級
  6
________________
 62
     7
370
     0
100
AcDbLine
 10
1323.079647543128
 20
-160.0238473941331
 30
0.0
 11
1323.079647543128
 21
-162.274029144175
 31
0.0
  0
LINE
  5
42
330
1F
100
AcDbEntity
  8
JIS B 0405-m 普通公差｢m｣中級
  6
________________
 62
     7
370
     0
100
AcDbLine
 10
1322.879647543128
 20
-162.274029144175
 30
0.0
 11
1323.079647543128
 21
-162.274029144175
 31
0.0
  0
LINE
  5
43
330
1F
100
AcDbEntity
  8
JIS B 0405-m 普通公差｢m｣中級
  6
________________
 62
     7
370
     0
100
AcDbLine
 10
1322.879647543128
 20
-160.0238473941331
 30
0.0
 11
1323.079647543128
 21
-160.0238473941331
 31
0.0
  0
LINE
  5
44
330
1F
100
AcDbEntity
  8
JIS B 0405-m 普通公差｢m｣中級
  6
________________
 62
     7
370
     0
100
AcDbLine
 10
1323.079647543128
 20
-162.2740291441737
 30
0.0
 11
1323.079647543128
 21
-162.6230321996949
 31
0.0
  0
LINE
  5
45
330
1F
100
AcDbEntity
  8
JIS B 0405-m 普通公差｢m｣中級
  6
________________
 62
     7
370
     0
100
AcDbLine
 10
1322.879647543128
 20
-162.6230321996949
 30
0.0
 11
1323.079647543128
 21
-162.6230321996949
 31
0.0
  0
LINE
  5
46
330
1F
100
AcDbEntity
  8
JIS B 0405-m 普通公差｢m｣中級
  6
________________
 62
     7
370
     0
100
AcDbLine
 10
1322.879647543128
 20
-171.2738473941331
 30
0.0
 11
1323.079647543128
 21
-171.2738473941331
 31
0.0
  0
LINE
  5
47
330
1F
100
AcDbEntity
  8
JIS B 0405-m 普通公差｢m｣中級
  6
________________
 62
     7
370
     0
100
AcDbLine
 10
1323.079647543128
 20
-163.831582421052
 30
0.0
 11
1323.079647543128
 21
-171.2738473941331
 31
0.0
  0
LINE
  5
48
330
1F
100
AcDbEntity
  8
JIS B 0405-m 普通公差｢m｣中級
  6
________________
 62
     7
370
     0
100
AcDbLine
 10
1322.879647543128
 20
-163.2497474099093
 30
0.0
 11
1323.079647543128
 21
-163.2497474099088
 31
0.0
  0
LINE
  5
49
330
1F
100
AcDbEntity
  8
JIS B 0405-m 普通公差｢m｣中級
  6
________________
 62
     7
370
     0
100
AcDbLine
 10
1323.079647543128
 20
-162.6230321996949
 30
0.0
 11
1323.079647543128
 21
-163.2497474099088
 31
0.0
  0
LINE
  5
4A
330
1F
100
AcDbEntity
  8
JIS B 0405-m 普通公差｢m｣中級
  6
________________
 62
     7
370
     0
100
AcDbLine
 10
1322.879647543128
 20
-163.4576558706181
 30
0.0
 11
1323.079647543128
 21
-163.4576558706181
 31
0.0
  0
LINE
  5
4B
330
1F
100
AcDbEntity
  8
JIS B 0405-m 普通公差｢m｣中級
  6
________________
 62
     7
370
     0
100
AcDbLine
 10
1323.079647543128
 20
-163.2497474099093
 30
0.0
 11
1323.079647543128
 21
-163.457655870618
 31
0.0
  0
LINE
  5
4C
330
1F
100
AcDbEntity
  8
JIS B 0405-m 普通公差｢m｣中級
  6
________________
 62
     7
370
     0
100
AcDbLine
 10
1323.079647543128
 20
-163.576922002446
 30
0.0
 11
1323.079647543128
 21
-163.692595416322
 31
0.0
  0
LINE
  5
4D
330
1F
100
AcDbEntity
  8
JIS B 0405-m 普通公差｢m｣中級
  6
________________
 62
     7
370
     0
100
AcDbLine
 10
1322.879647543128
 20
-163.692595416322
 30
0.0
 11
1323.079647543128
 21
-163.692595416322
 31
0.0
  0
LINE
  5
4E
330
1F
100
AcDbEntity
  8
JIS B 0405-m 普通公差｢m｣中級
  6
________________
 62
     7
370
     0
100
AcDbLine
 10
1322.879647543128
 20
-163.576922002446
 30
0.0
 11
1323.079647543128
 21
-163.576922002446
 31
0.0
  0
LINE
  5
4F
330
1F
100
AcDbEntity
  8
JIS B 0405-m 普通公差｢m｣中級
  6
________________
 62
     7
370
     0
100
AcDbLine
 10
1323.079647543128
 20
-163.4576558706181
 30
0.0
 11
1323.079647543128
 21
-163.576922002446
 31
0.0
  0
LINE
  5
50
330
1F
100
AcDbEntity
  8
JIS B 0405-m 普通公差｢m｣中級
  6
________________
 62
     7
370
     0
100
AcDbLine
 10
1322.879647543128
 20
-163.7738473941331
 30
0.0
 11
1323.079647543128
 21
-163.7738473941331
 31
0.0
  0
LINE
  5
51
330
1F
100
AcDbEntity
  8
JIS B 0405-m 普通公差｢m｣中級
  6
________________
 62
     7
370
     0
100
AcDbLine
 10
1322.879647543128
 20
-163.7480922977608
 30
0.0
 11
1323.079647543128
 21
-163.7480922977608
 31
0.0
  0
LINE
  5
52
330
1F
100
AcDbEntity
  8
JIS B 0405-m 普通公差｢m｣中級
  6
________________
 62
     7
370
     0
100
AcDbLine
 10
1323.079647543128
 20
-163.7480922977606
 30
0.0
 11
1323.079647543128
 21
-163.7738473941331
 31
0.0
  0
LINE
  5
53
330
1F
100
AcDbEntity
  8
JIS B 0405-m 普通公差｢m｣中級
  6
________________
 62
     7
370
     0
100
AcDbLine
 10
1323.079647543128
 20
-163.692595416322
 30
0.0
 11
1323.079647543128
 21
-163.7480922977608
 31
0.0
  0
LINE
  5
54
330
1F
100
AcDbEntity
  8
JIS B 0405-m 普通公差｢m｣中級
  6
________________
 62
     7
370
     0
100
AcDbLine
 10
1323.079647543128
 20
-171.6488473941331
 30
0.0
 11
1323.079647543128
 21
-171.2738473941331
 31
0.0
  0
LINE
  5
55
330
1F
100
AcDbEntity
  8
JIS B 0405-m 普通公差｢m｣中級
  6
________________
 62
     7
370
     0
100
AcDbLine
 10
1322.879647543128
 20
-175.0238473941331
 30
0.0
 11
1323.079647543128
 21
-175.0238473941331
 31
0.0
  0
LINE
  5
56
330
1F
100
AcDbEntity
  8
JIS B 0405-m 普通公差｢m｣中級
  6
________________
 62
     7
370
     0
100
AcDbLine
 10
1323.079647543128
 20
-171.6488473941331
 30
0.0
 11
1323.079647543128
 21
-175.0238473941331
 31
0.0
  0
LINE
  5
57
330
1F
100
AcDbEntity
  8
JIS B 0405-m 普通公差｢m｣中級
  6
________________
 62
     7
370
     0
100
AcDbLine
 10
1323.079647543128
 20
-163.8104499345116
 30
0.0
 11
1323.079647543128
 21
-163.831582421052
 31
0.0
  0
SPLINE
  5
58
330
1F
100
AcDbEntity
  8
JIS B 0405-m 普通公差｢m｣中級
  6
________________
 62
     7
370
     0
100
AcDbSpline
210
0.0
220
0.0
230
1.0
 70
     8
 71
     3
 72
    14
 73
    10
 74
     0
 42
0.000000001
 43
0.0001
 40
2.884656765561408
 40
2.884656765561408
 40
2.884656765561408
 40
2.884656765561408
 40
2.887479386181314
 40
2.89494057322571
 40
2.902401760270106
 40
2.909862947314502
 40
2.917324134358899
 40
2.924785321403295
 40
2.925577865728327
 40
2.925577865728327
 40
2.925577865728327
 40
2.925577865728327
 10
1137.379888909857
 20
-211.5230776816411
 30
0.0
 10
1137.322402406907
 20
-211.5233981764884
 30
0.0
 10
1137.112958695106
 20
-211.2117408657398
 30
0.0
 10
1136.751557774455
 20
-208.6998357899378
 30
0.0
 10
1136.295686147905
 20
-202.1761214665466
 30
0.0
 10
1135.839814521355
 20
-192.8287932387919
 30
0.0
 10
1135.383942894805
 20
-181.4195109589944
 30
0.0
 10
1135.063887235396
 20
-172.6144067616683
 30
0.0
 10
1134.895788784837
 20
-167.9673185099923
 30
0.0
 10
1134.879647543127
 20
-167.5210916890359
 30
0.0
  0
SPLINE
  5
59
330
1F
100
AcDbEntity
  8
JIS B 0405-m 普通公差｢m｣中級
  6
________________
 62
     7
370
     0
100
AcDbSpline
210
0.0
220
0.0
230
1.0
 70
     8
 71
     3
 72
    18
 73
    14
 74
     0
 42
0.000000001
 43
0.0001
 40
2.720987985396845
 40
2.720987985396845
 40
2.720987985396845
 40
2.720987985396845
 40
2.723333271204599
 40
2.730794458248995
 40
2.738255645293391
 40
2.745716832337787
 40
2.753178019382183
 40
2.760639206426579
 40
2.768100393470975
 40
2.775561580515372
 40
2.783022767559768
 40
2.790483954604164
 40
2.797555086335122
 40
2.797555086335122
 40
2.797555086335122
 40
2.797555086335122
 10
1147.379899978485
 20
-211.5231895509166
 30
0.0
 10
1147.332135047358
 20
-211.5235246949444
 30
0.0
 10
1147.132412907381
 20
-211.2768653205343
 30
0.0
 10
1146.780733558554
 20
-209.0073332203823
 30
0.0
 10
1146.324861932005
 20
-202.6851553744035
 30
0.0
 10
1145.868990305455
 20
-193.4978853875395
 30
0.0
 10
1145.413118678904
 20
-182.1941408894395
 30
0.0
 10
1144.957247052355
 20
-169.6949988076802
 30
0.0
 10
1144.501375425805
 20
-157.0189421226561
 30
0.0
 10
1144.045503799254
 20
-145.1988695651544
 30
0.0
 10
1143.589632172705
 20
-135.1979306576055
 30
0.0
 10
1143.141704552433
 20
-127.9594193740628
 30
0.0
 10
1142.845734141012
 20
-125.2215122108367
 30
0.0
 10
1142.701720938441
 20
-124.4212431857125
 30
0.0
  0
SPLINE
  5
5A
330
1F
100
AcDbEntity
  8
JIS B 0405-m 普通公差｢m｣中級
  6
________________
 62
     7
370
     0
100
AcDbSpline
210
0.0
220
0.0
230
1.0
 70
     8
 71
     3
 72
    19
 73
    15
 74
     0
 42
0.000000001
 43
0.0001
 40
2.557320437163419
 40
2.557320437163419
 40
2.557320437163419
 40
2.557320437163419
 40
2.559187156227883
 40
2.566648343272279
 40
2.574109530316675
 40
2.581570717361072
 40
2.589031904405468
 40
2.596493091449864
 40
2.60395427849426
 40
2.611415465538656
 40
2.618876652583052
 40
2.626337839627448
 40
2.633799026671845
 40
2.63389199455774
 40
2.63389199455774
 40
2.63389199455774
 40
2.63389199455774
 10
1157.379835777261
 20
-211.5233317065546
 30
0.0
 10
1157.341817507908
 20
-211.523584497147
 30
0.0
 10
1157.151842029705
 20
-211.3368229326463
 30
0.0
 10
1156.809909342653
 20
-209.3008904865929
 30
0.0
 10
1156.354037716103
 20
-203.182373630848
 30
0.0
 10
1155.898166089554
 20
-194.1582491869635
 30
0.0
 10
1155.442294463003
 20
-182.9638409954827
 30
0.0
 10
1154.986422836453
 20
-170.5113167991198
 30
0.0
 10
1154.530551209904
 20
-157.8153609557275
 30
0.0
 10
1154.074679583353
 20
-145.9104936637102
 30
0.0
 10
1153.618807956803
 20
-135.7667738792299
 30
0.0
 10
1153.162936330254
 20
-128.2107548081636
 30
0.0
 10
1152.857128495277
 20
-125.2909286579327
 30
0.0
 10
1152.70327786915
 20
-124.4298578329653
 30
0.0
 10
1152.701384451874
 20
-124.4193528493475
 30
0.0
  0
SPLINE
  5
5B
330
1F
100
AcDbEntity
  8
JIS B 0405-m 普通公差｢m｣中級
  6
________________
 62
     7
370
     0
100
AcDbSpline
210
0.0
220
0.0
230
1.0
 70
     8
 71
     3
 72
    19
 73
    15
 74
     0
 42
0.000000001
 43
0.0001
 40
2.39365367696221
 40
2.39365367696221
 40
2.39365367696221
 40
2.39365367696221
 40
2.395041041251168
 40
2.402502228295564
 40
2.40996341533996
 40
2.417424602384356
 40
2.424885789428752
 40
2.432346976473148
 40
2.439808163517545
 40
2.447269350561941
 40
2.454730537606337
 40
2.462191724650733
 40
2.469652911695129
 40
2.470214388299393
 40
2.470214388299393
 40
2.470214388299393
 40
2.470214388299393
 10
1167.379723427996
 20
-211.5234864460504
 30
0.0
 10
1167.351467869765
 20
-211.5236211426696
 30
0.0
 10
1167.171255102684
 20
-211.3917210625318
 30
0.0
 10
1166.839085126752
 20
-209.5804089412065
 30
0.0
 10
1166.383213500203
 20
-203.6676091500129
 30
0.0
 10
1165.927341873652
 20
-194.8096627275593
 30
0.0
 10
1165.471470247103
 20
-183.7283526261054
 30
0.0
 10
1165.015598620553
 20
-171.3266308774766
 30
0.0
 10
1164.559726994002
 20
-158.615042241139
 30
0.0
 10
1164.103855367453
 20
-146.629380741609
 30
0.0
 10
1163.647983740903
 20
-136.346288788915
 30
0.0
 10
1163.192112114353
 20
-128.6036762228793
 30
0.0
 10
1162.876762462941
 20
-125.4415216957596
 30
0.0
 10
1162.713370020379
 20
-124.4859954753298
 30
0.0
 10
1162.701934786668
 20
-124.4224724930682
 30
0.0
  0
SPLINE
  5
5C
330
1F
100
AcDbEntity
  8
JIS B 0405-m 普通公差｢m｣中級
  6
________________
 62
     7
370
     0
100
AcDbSpline
210
0.0
220
0.0
230
1.0
 70
     8
 71
     3
 72
    19
 73
    15
 74
     0
 42
0.000000001
 43
0.0001
 40
2.229987259423269
 40
2.229987259423269
 40
2.229987259423269
 40
2.229987259423269
 40
2.230894926274452
 40
2.238356113318849
 40
2.245817300363244
 40
2.253278487407641
 40
2.260739674452037
 40
2.268200861496433
 40
2.275662048540829
 40
2.283123235585225
 40
2.290584422629621
 40
2.298045609674018
 40
2.305506796718414
 40
2.30654207537509
 40
2.30654207537509
 40
2.30654207537509
 40
2.30654207537509
 10
1177.379590142384
 20
-211.5236307992737
 30
0.0
 10
1177.361104274057
 20
-211.5236616320715
 30
0.0
 10
1177.190661196879
 20
-211.4416477140236
 30
0.0
 10
1176.868260910851
 20
-209.8457946544798
 30
0.0
 10
1176.412389284302
 20
-204.1406988727276
 30
0.0
 10
1175.956517657751
 20
-195.4519071074771
 30
0.0
 10
1175.500646031201
 20
-184.4874188738304
 30
0.0
 10
1175.044774404652
 20
-172.1406670635527
 30
0.0
 10
1174.588902778101
 20
-159.4177172529572
 30
0.0
 10
1174.133031151552
 20
-147.3552892231078
 30
0.0
 10
1173.677159525001
 20
-136.9362806457199
 30
0.0
 10
1173.221287898451
 20
-129.0096764222566
 30
0.0
 10
1172.896288624667
 20
-125.5960044945267
 30
0.0
 10
1172.723246559733
 20
-124.5410330662272
 30
0.0
 10
1172.702161703648
 20
-124.4238547288369
 30
0.0
  0
ARC
  5
5D
330
1F
100
AcDbEntity
  8
JIS B 0405-m 普通公差｢m｣中級
  6
________________
 62
     7
370
     0
100
AcDbCircle
 10
-1208.295275308722
 20
-210.6965577791239
 30
0.0
 40
1.234138927630629
210
0.0
220
0.0
230
-1.0
100
AcDbArc
 50
317.9149357841234
 51
2.182840180486664
  0
SPLINE
  5
5E
330
1F
100
AcDbEntity
  8
JIS B 0405-m 普通公差｢m｣中級
  6
________________
 62
     7
370
     0
100
AcDbSpline
210
0.0
220
0.0
230
1.0
 70
     8
 71
     3
 72
    18
 73
    14
 74
     0
 42
0.000000001
 43
0.0001
 40
1.575298747902795
 40
1.575298747902795
 40
1.575298747902795
 40
1.575298747902795
 40
1.581771653411982
 40
1.589232840456378
 40
1.596694027500774
 40
1.604155214545171
 40
1.611616401589567
 40
1.619077588633963
 40
1.626538775678359
 40
1.633999962722755
 40
1.641461149767151
 40
1.648922336811548
 40
1.65187100855805
 40
1.65187100855805
 40
1.65187100855805
 40
1.65187100855805
 10
1217.380452586192
 20
-211.5236042388674
 30
0.0
 10
1217.24862307321
 20
-211.5246060884967
 30
0.0
 10
1216.964836351379
 20
-210.5499038095721
 30
0.0
 10
1216.529092420698
 20
-205.9084825799183
 30
0.0
 10
1216.073220794148
 20
-197.9249243415648
 30
0.0
 10
1215.617349167598
 20
-187.4641577273053
 30
0.0
 10
1215.161477541048
 20
-175.3785702601225
 30
0.0
 10
1214.705605914498
 20
-162.6529467406745
 30
0.0
 10
1214.249734287948
 20
-150.3242248151343
 30
0.0
 10
1213.793862661398
 20
-139.3970009085231
 30
0.0
 10
1213.337991034848
 20
-130.7616714575738
 30
0.0
 10
1212.974022911786
 20
-126.2588589943967
 30
0.0
 10
1212.762011997574
 20
-124.7569165869127
 30
0.0
 10
1212.701958292213
 20
-124.4232497460928
 30
0.0
  0
SPLINE
  5
5F
330
1F
100
AcDbEntity
  8
JIS B 0405-m 普通公差｢m｣中級
  6
________________
 62
     7
370
     0
100
AcDbSpline
210
0.0
220
0.0
230
1.0
 70
     8
 71
     3
 72
    18
 73
    14
 74
     0
 42
0.000000001
 43
0.0001
 40
1.411631560589401
 40
1.411631560589401
 40
1.411631560589401
 40
1.411631560589401
 40
1.417625538435266
 40
1.425086725479662
 40
1.432547912524058
 40
1.440009099568455
 40
1.447470286612851
 40
1.454931473657247
 40
1.462392660701643
 40
1.469853847746039
 40
1.477315034790435
 40
1.484776221834832
 40
1.488205102778826
 40
1.488205102778826
 40
1.488205102778826
 40
1.488205102778826
 10
1227.380366333087
 20
-211.5234573846163
 30
0.0
 10
1227.258290832507
 20
-211.5241255348546
 30
0.0
 10
1226.984258123077
 20
-210.6536835706504
 30
0.0
 10
1226.558268204797
 20
-206.3185421254375
 30
0.0
 10
1226.102396578247
 20
-198.5181497488907
 30
0.0
 10
1225.646524951697
 20
-188.1922104803259
 30
0.0
 10
1225.190653325147
 20
-176.1821255401482
 30
0.0
 10
1224.734781698597
 20
-163.4665274636654
 30
0.0
 10
1224.278910072047
 20
-151.0815369815409
 30
0.0
 10
1223.823038445497
 20
-140.0363355188565
 30
0.0
 10
1223.367166818947
 20
-131.2309328227749
 30
0.0
 10
1222.9934185833
 20
-126.4363418680143
 30
0.0
 10
1222.771627556503
 20
-124.8103119630951
 30
0.0
 10
1222.701793738556
 20
-124.4223867779265
 30
0.0
  0
SPLINE
  5
60
330
1F
100
AcDbEntity
  8
JIS B 0405-m 普通公差｢m｣中級
  6
________________
 62
     7
370
     0
100
AcDbSpline
210
0.0
220
0.0
230
1.0
 70
     8
 71
     3
 72
    18
 73
    14
 74
     0
 42
0.000000001
 43
0.0001
 40
1.247963976020122
 40
1.247963976020122
 40
1.247963976020122
 40
1.247963976020122
 40
1.25347942345855
 40
1.260940610502946
 40
1.268401797547343
 40
1.275862984591739
 40
1.283324171636135
 40
1.290785358680531
 40
1.298246545724927
 40
1.305707732769323
 40
1.31316891981372
 40
1.320630106858116
 40
1.324536415027553
 40
1.324536415027553
 40
1.324536415027553
 40
1.324536415027553
 10
1237.38030435195
 20
-211.523304227639
 30
0.0
 10
1237.267974773115
 20
-211.5238198787995
 30
0.0
 10
1237.00368798543
 20
-210.7523497795703
 30
0.0
 10
1236.587443988897
 20
-206.7155650515599
 30
0.0
 10
1236.131572362346
 20
-199.1009597907634
 30
0.0
 10
1235.675700735796
 20
-188.9133178098814
 30
0.0
 10
1235.219829109246
 20
-176.9827712811866
 30
0.0
 10
1234.763957482696
 20
-164.281471613694
 30
0.0
 10
1234.308085856146
 20
-151.8443744432057
 30
0.0
 10
1233.852214229597
 20
-140.6849070682343
 30
0.0
 10
1233.396342603047
 20
-131.7123901059319
 30
0.0
 10
1233.012870913453
 20
-126.6194884369483
 30
0.0
 10
1232.78135643271
 20
-124.8645007803921
 30
0.0
 10
1232.701799160817
 20
-124.4224182399218
 30
0.0
  0
SPLINE
  5
61
330
1F
100
AcDbEntity
  8
JIS B 0405-m 普通公差｢m｣中級
  6
________________
 62
     7
370
     0
100
AcDbSpline
210
0.0
220
0.0
230
1.0
 70
     8
 71
     3
 72
    18
 73
    14
 74
     0
 42
0.000000001
 43
0.0001
 40
1.084295776320271
 40
1.084295776320271
 40
1.084295776320271
 40
1.084295776320271
 40
1.089333308481834
 40
1.096794495526231
 40
1.104255682570626
 40
1.111716869615023
 40
1.119178056659419
 40
1.126639243703815
 40
1.134100430748211
 40
1.141561617792608
 40
1.149022804837004
 40
1.1564839918814
 40
1.16086666899942
 40
1.16086666899942
 40
1.16086666899942
 40
1.16086666899942
 10
1247.380279954721
 20
-211.5231664726971
 30
0.0
 10
1247.277683769663
 20
-211.523680327676
 30
0.0
 10
1247.023130375754
 20
-210.8459636536843
 30
0.0
 10
1246.616619772996
 20
-207.0994179421884
 30
0.0
 10
1246.160748146446
 20
-199.6731586189423
 30
0.0
 10
1245.704876519895
 20
-189.6272373941322
 30
0.0
 10
1245.249004893346
 20
-177.7802384332073
 30
0.0
 10
1244.793133266796
 20
-165.0975053358734
 30
0.0
 10
1244.337261640246
 20
-152.6124808552418
 30
0.0
 10
1243.881390013696
 20
-141.3424976098344
 30
0.0
 10
1243.425518387146
 20
-132.2058815175162
 30
0.0
 10
1243.032344796853
 20
-126.8079174282303
 30
0.0
 10
1242.79112841541
 20
-124.9190053514415
 30
0.0
 10
1242.701869242817
 20
-124.4227594941376
 30
0.0
  0
SPLINE
  5
62
330
1F
100
AcDbEntity
  8
JIS B 0405-m 普通公差｢m｣中級
  6
________________
 62
     7
370
     0
100
AcDbSpline
210
0.0
220
0.0
230
1.0
 70
     8
 71
     3
 72
    18
 73
    14
 74
     0
 42
0.000000001
 43
0.0001
 40
0.9206267719948273
 40
0.9206267719948273
 40
0.9206267719948273
 40
0.9206267719948273
 40
0.9251871935051184
 40
0.9326483805495145
 40
0.9401095675939107
 40
0.9475707546383068
 40
0.9550319416827029
 40
0.9624931287270991
 40
0.9699543157714954
 40
0.9774155028158915
 40
0.9848766898602878
 40
0.992337876904684
 40
0.9972006563441606
 40
0.9972006563441606
 40
0.9972006563441606
 40
0.9972006563441606
 10
1257.380304719372
 20
-211.5230605808783
 30
0.0
 10
1257.287425540796
 20
-211.5236878144458
 30
0.0
 10
1257.042589153371
 20
-210.9345711937402
 30
0.0
 10
1256.645795557095
 20
-207.4699718069002
 30
0.0
 10
1256.189923930544
 20
-200.2345539509942
 30
0.0
 10
1255.734052303995
 20
-190.3337293266174
 30
0.0
 10
1255.278180677445
 20
-178.574259014317
 30
0.0
 10
1254.822309050895
 20
-165.9143544091765
 30
0.0
 10
1254.366437424345
 20
-153.3855981021769
 30
0.0
 10
1253.910565797795
 20
-142.0088861660802
 30
0.0
 10
1253.454694171245
 20
-132.7112412240361
 30
0.0
 10
1253.051742645042
 20
-127.0002994582076
 30
0.0
 10
1252.80074832769
 20
-124.9722669148328
 30
0.0
 10
1252.701711219187
 20
-124.4217881124004
 30
0.0
  0
SPLINE
  5
63
330
1F
100
AcDbEntity
  8
JIS B 0405-m 普通公差｢m｣中級
  6
________________
 62
     7
370
     0
100
AcDbSpline
210
0.0
220
0.0
230
1.0
 70
     8
 71
     3
 72
    18
 73
    14
 74
     0
 42
0.000000001
 43
0.0001
 40
0.7569582925916656
 40
0.7569582925916656
 40
0.7569582925916656
 40
0.7569582925916656
 40
0.7610410785284046
 40
0.7685022655728008
 40
0.7759634526171969
 40
0.7834246396615928
 40
0.790885826705989
 40
0.798347013750385
 40
0.8058082007947811
 40
0.8132693878391772
 40
0.8207305748835733
 40
0.8281917619279694
 40
0.8335327631236925
 40
0.8335327631236925
 40
0.8335327631236925
 40
0.8335327631236925
 10
1267.380297411757
 20
-211.5229984646537
 30
0.0
 10
1267.297145930419
 20
-211.523683954076
 30
0.0
 10
1267.062037240232
 20
-211.0179541720694
 30
0.0
 10
1266.674971341194
 20
-207.8271021242949
 30
0.0
 10
1266.219099714644
 20
-200.7849571349021
 30
0.0
 10
1265.763228088094
 20
-191.0325561968717
 30
0.0
 10
1265.307356461544
 20
-179.3645662008095
 30
0.0
 10
1264.851484834994
 20
-166.7317443385812
 30
0.0
 10
1264.395613208444
 20
-154.1634663846883
 30
0.0
 10
1263.939741581894
 20
-142.6838488028976
 30
0.0
 10
1263.483869955344
 20
-133.2282994037605
 30
0.0
 10
1263.071178793497
 20
-127.1982310123272
 30
0.0
 10
1262.810444840499
 20
-125.0260608876704
 30
0.0
 10
1262.701668096351
 20
-124.421420797121
 30
0.0
  0
SPLINE
  5
64
330
1F
100
AcDbEntity
  8
JIS B 0405-m 普通公差｢m｣中級
  6
________________
 62
     7
370
     0
100
AcDbSpline
210
0.0
220
0.0
230
1.0
 70
     8
 71
     3
 72
    18
 73
    14
 74
     0
 42
0.000000001
 43
0.0001
 40
0.5932909399115586
 40
0.5932909399115586
 40
0.5932909399115586
 40
0.5932909399115586
 40
0.596894963551691
 40
0.6043561505960872
 40
0.6118173376404833
 40
0.6192785246848793
 40
0.6267397117292753
 40
0.6342008987736714
 40
0.6416620858180675
 40
0.6491232728624636
 40
0.6565844599068597
 40
0.6640456469512558
 40
0.6698871133931288
 40
0.6698871133931288
 40
0.6698871133931288
 40
0.6698871133931288
 10
1277.380221262405
 20
-211.5229869498446
 30
0.0
 10
1277.306820425551
 20
-211.523623408235
 30
0.0
 10
1277.081462379847
 20
-211.0960606758147
 30
0.0
 10
1276.704147125293
 20
-208.1706888838391
 30
0.0
 10
1276.248275498743
 20
-201.3241832124709
 30
0.0
 10
1275.792403872193
 20
-191.7234831702121
 30
0.0
 10
1275.336532245643
 20
-180.1508944168382
 30
0.0
 10
1274.880660619093
 20
-167.5494004473202
 30
0.0
 10
1274.424788992543
 20
-154.9458243069142
 30
0.0
 10
1273.968917365994
 20
-143.3671587049697
 30
0.0
 10
1273.513045739443
 20
-133.7568823037902
 30
0.0
 10
1273.090161923065
 20
-127.3943980733808
 30
0.0
 10
1272.819235315537
 20
-125.0719991817296
 30
0.0
 10
1272.700265916859
 20
-124.4134955628777
 30
0.0
  0
SPLINE
  5
65
330
1F
100
AcDbEntity
  8
JIS B 0405-m 普通公差｢m｣中級
  6
________________
 62
     7
370
     0
100
AcDbSpline
210
0.0
220
0.0
230
1.0
 70
     8
 71
     3
 72
    18
 73
    14
 74
     0
 42
0.000000001
 43
0.0001
 40
0.4296242333858587
 40
0.4296242333858587
 40
0.4296242333858587
 40
0.4296242333858587
 40
0.4327488485749772
 40
0.4402100356193734
 40
0.4476712226637695
 40
0.4551324097081656
 40
0.4625935967525617
 40
0.4700547837969578
 40
0.4775159708413539
 40
0.48497715788575
 40
0.492438344930146
 40
0.4998995319745422
 40
0.5061983256800358
 40
0.5061983256800358
 40
0.5061983256800358
 40
0.5061983256800358
 10
1287.380105633618
 20
-211.5230270963886
 30
0.0
 10
1287.316468601059
 20
-211.5235596239722
 30
0.0
 10
1287.100874359651
 20
-211.1690216975104
 30
0.0
 10
1286.733322909392
 20
-208.5006166261947
 30
0.0
 10
1286.277451282842
 20
-201.8520509814725
 30
0.0
 10
1285.821579656292
 20
-192.4062780666455
 30
0.0
 10
1285.365708029743
 20
-180.9329794236529
 30
0.0
 10
1284.909836403192
 20
-168.3670479691783
 30
0.0
 10
1284.453964776642
 20
-155.7324089642875
 30
0.0
 10
1283.998093150092
 20
-144.0585862519545
 30
0.0
 10
1283.542221523543
 20
-134.296812298445
 30
0.0
 10
1283.110023616243
 20
-127.608851993607
 30
0.0
 10
1282.829782917794
 20
-125.1328927868488
 30
0.0
 10
1282.701499428195
 20
-124.4201886011889
 30
0.0
  0
SPLINE
  5
66
330
1F
100
AcDbEntity
  8
JIS B 0405-m 普通公差｢m｣中級
  6
________________
 62
     7
370
     0
100
AcDbSpline
210
0.0
220
0.0
230
1.0
 70
     8
 71
     3
 72
    18
 73
    14
 74
     0
 42
0.000000001
 43
0.0001
 40
0.2659576871336474
 40
0.2659576871336474
 40
0.2659576871336474
 40
0.2659576871336474
 40
0.2686027335982615
 40
0.2760639206426576
 40
0.2835251076870538
 40
0.29098629473145
 40
0.2984474817758461
 40
0.3059086688202423
 40
0.3133698558646385
 40
0.3208310429090346
 40
0.3282922299534308
 40
0.335753416997827
 40
0.3425269398790367
 40
0.3425269398790367
 40
0.3425269398790367
 40
0.3425269398790367
 10
1297.379980212268
 20
-211.5231146541395
 30
0.0
 10
1297.326110248192
 20
-211.5235280286999
 30
0.0
 10
1297.120283075267
 20
-211.236948383134
 30
0.0
 10
1296.762498693492
 20
-208.8167744820166
 30
0.0
 10
1296.306627066941
 20
-202.3683830565398
 30
0.0
 10
1295.850755440392
 20
-193.0807114388927
 30
0.0
 10
1295.394883813842
 20
-181.7105584083982
 30
0.0
 10
1294.939012187291
 20
-169.1844121408263
 30
0.0
 10
1294.483140560742
 20
-156.5229560318841
 30
0.0
 10
1294.027268934192
 20
-144.7578990956462
 30
0.0
 10
1293.571397307642
 20
-134.8479079489518
 30
0.0
 10
1293.129530895844
 20
-127.8231445889338
 30
0.0
 10
1292.839621692897
 20
-125.1876580582383
 30
0.0
 10
1292.701669698799
 20
-124.4210111627095
 30
0.0
  0
LINE
  5
67
330
1F
100
AcDbEntity
  8
JIS B 0405-m 普通公差｢m｣中級
  6
________________
 62
     7
370
     0
100
AcDbLine
 10
1299.879647543128
 20
-123.5245140334548
 30
0.0
 11
1299.879647543128
 21
-131.9261451482613
 31
0.0
  0
ARC
  5
68
330
1F
100
AcDbEntity
  8
JIS B 0405-m 普通公差｢m｣中級
  6
________________
 62
     7
370
     0
100
AcDbCircle
 10
1139.779945369464
 20
-124.3501000529412
 30
0.0
 40
1.221333745495657
100
AcDbArc
 50
137.4731828294365
 51
182.7775239715802
  0
ARC
  5
69
330
1F
100
AcDbEntity
  8
JIS B 0405-m 普通公差｢m｣中級
  6
________________
 62
     7
370
     0
100
AcDbCircle
 10
-1144.680661541673
 20
-210.7293121662215
 30
0.0
 40
1.127596187851418
210
0.0
220
0.0
230
-1.0
100
AcDbArc
 50
315.2470574730846
 51
5.258042068115743
  0
SPLINE
  5
6A
330
1F
100
AcDbEntity
  8
JIS B 0405-m 普通公差｢m｣中級
  6
________________
 62
     7
370
     0
100
AcDbSpline
210
0.0
220
0.0
230
1.0
 70
     8
 71
     3
 72
     9
 73
     5
 74
     0
 42
0.000000001
 43
0.0001
 40
2.639154884000981
 40
2.639154884000981
 40
2.639154884000981
 40
2.639154884000981
 40
2.641260213716241
 40
2.644426763196865
 40
2.644426763196865
 40
2.644426763196865
 40
2.644426763196865
 10
1148.87982677526
 20
-123.5244285834999
 30
0.0
 10
1148.836948875894
 20
-123.5241630017849
 30
0.0
 10
1148.729579895164
 20
-123.6432736478497
 30
0.0
 10
1148.622210914433
 20
-124.0638303001941
 30
0.0
 10
1148.557719833068
 20
-124.4222566283884
 30
0.0
  0
SPLINE
  5
6B
330
1F
100
AcDbEntity
  8
JIS B 0405-m 普通公差｢m｣中級
  6
________________
 62
     7
370
     0
100
AcDbSpline
210
0.0
220
0.0
230
1.0
 70
     8
 71
     3
 72
     9
 73
     5
 74
     0
 42
0.000000001
 43
0.0001
 40
2.557320437163418
 40
2.557320437163418
 40
2.557320437163418
 40
2.557320437163418
 40
2.559187156227883
 40
2.562572095631067
 40
2.562572095631067
 40
2.562572095631067
 40
2.562572095631067
 10
1153.87983577727
 20
-211.5233397670369
 30
0.0
 10
1153.841817507918
 20
-211.5235925576756
 30
0.0
 10
1153.734860349783
 20
-211.4184448299998
 30
0.0
 10
1153.627903191649
 20
-211.0139497188651
 30
0.0
 10
1153.558964302867
 20
-210.6323147238023
 30
0.0
  0
SPLINE
  5
6C
330
1F
100
AcDbEntity
  8
JIS B 0405-m 普通公差｢m｣中級
  6
________________
 62
     7
370
     0
100
AcDbSpline
210
0.0
220
0.0
230
1.0
 70
     8
 71
     3
 72
     9
 73
     5
 74
     0
 42
0.000000001
 43
0.0001
 40
2.475487964440386
 40
2.475487964440386
 40
2.475487964440386
 40
2.475487964440386
 40
2.477114098739525
 40
2.480758765038723
 40
2.480758765038723
 40
2.480758765038723
 40
2.480758765038723
 10
1158.879724162708
 20
-123.5242775873531
 30
0.0
 10
1158.846605728892
 20
-123.5241172577556
 30
0.0
 10
1158.739258715265
 20
-123.6162150455979
 30
0.0
 10
1158.631911701639
 20
-124.010031998889
 30
0.0
 10
1158.557683121827
 20
-124.42249990268
 30
0.0
  0
SPLINE
  5
6D
330
1F
100
AcDbEntity
  8
JIS B 0405-m 普通公差｢m｣中級
  6
________________
 62
     7
370
     0
100
AcDbSpline
210
0.0
220
0.0
230
1.0
 70
     8
 71
     3
 72
     9
 73
     5
 74
     0
 42
0.000000001
 43
0.0001
 40
2.39365367696221
 40
2.39365367696221
 40
2.39365367696221
 40
2.39365367696221
 40
2.395041041251168
 40
2.398924706309497
 40
2.398924706309497
 40
2.398924706309497
 40
2.398924706309497
 10
1163.879723428005
 20
-211.523494506561
 30
0.0
 10
1163.851467869774
 20
-211.5236292032049
 30
0.0
 10
1163.744116197364
 20
-211.4450570963719
 30
0.0
 10
1163.636764524954
 20
-211.064579387641
 30
0.0
 10
1163.557668410775
 20
-210.625112249126
 30
0.0
  0
SPLINE
  5
6E
330
1F
100
AcDbEntity
  8
JIS B 0405-m 普通公差｢m｣中級
  6
________________
 62
     7
370
     0
100
AcDbSpline
210
0.0
220
0.0
230
1.0
 70
     8
 71
     3
 72
     9
 73
     5
 74
     0
 42
0.000000001
 43
0.0001
 40
2.311821524229944
 40
2.311821524229944
 40
2.311821524229944
 40
2.311821524229944
 40
2.31296798376281
 40
2.317091164161788
 40
2.317091164161788
 40
2.317091164161788
 40
2.317091164161788
 10
1168.879592262304
 20
-123.5241249940667
 30
0.0
 10
1168.856243056656
 20
-123.5240733346988
 30
0.0
 10
1168.748919681579
 20
-123.5892276778478
 30
0.0
 10
1168.641596306501
 20
-123.9562632947059
 30
0.0
 10
1168.557622137072
 20
-124.4228278628945
 30
0.0
  0
SPLINE
  5
6F
330
1F
100
AcDbEntity
  8
JIS B 0405-m 普通公差｢m｣中級
  6
________________
 62
     7
370
     0
100
AcDbSpline
210
0.0
220
0.0
230
1.0
 70
     8
 71
     3
 72
     9
 73
     5
 74
     0
 42
0.000000001
 43
0.0001
 40
2.229987259423269
 40
2.229987259423269
 40
2.229987259423269
 40
2.229987259423269
 40
2.230894926274452
 40
2.235256780554761
 40
2.235256780554761
 40
2.235256780554761
 40
2.235256780554761
 10
1173.879590142394
 20
-211.5236388598108
 30
0.0
 10
1173.861104274066
 20
-211.5236696926142
 30
0.0
 10
1173.753783318519
 20
-211.4720289113561
 30
0.0
 10
1173.646462362972
 20
-211.1184110219792
 30
0.0
 10
1173.557627275754
 20
-210.6249196465317
 30
0.0
  0
LINE
  5
70
330
1F
100
AcDbEntity
  8
JIS B 0405-m 普通公差｢m｣中級
  6
________________
 62
     7
370
     0
100
AcDbLine
 10
1178.669647543128
 20
-123.9074177938244
 30
0.0
 11
1178.557513487155
 21
-124.4233713120926
 31
0.0
  0
ARC
  5
71
330
1F
100
AcDbEntity
  8
JIS B 0405-m 普通公差｢m｣中級
  6
________________
 62
     7
370
     0
100
AcDbCircle
 10
1209.835150124681
 20
-124.3733869717992
 30
0.0
 40
1.278670095399365
100
AcDbArc
 50
138.3746118886644
 51
182.2374131795659
  0
ARC
  5
72
330
1F
100
AcDbEntity
  8
JIS B 0405-m 普通公差｢m｣中級
  6
________________
 62
     7
370
     0
100
AcDbCircle
 10
-1214.819724975608
 20
-210.6787763135142
 30
0.0
 40
1.263321204028889
210
0.0
220
0.0
230
-1.0
100
AcDbArc
 50
318.029951869566
 51
2.440207298187602
  0
ARC
  5
73
330
1F
100
AcDbEntity
  8
JIS B 0405-m 普通公差｢m｣中級
  6
________________
 62
     7
370
     0
100
AcDbCircle
 10
1219.83333681872
 20
-124.3731998958386
 30
0.0
 40
1.276996453059594
100
AcDbArc
 50
138.327158363615
 51
182.2702048205028
  0
ARC
  5
74
330
1F
100
AcDbEntity
  8
JIS B 0405-m 普通公差｢m｣中級
  6
________________
 62
     7
370
     0
100
AcDbCircle
 10
-1224.800479838883
 20
-210.6894806463605
 30
0.0
 40
1.241829089364346
210
0.0
220
0.0
230
-1.0
100
AcDbArc
 50
317.811045795878
 51
2.40859839906193
  0
ARC
  5
75
330
1F
100
AcDbEntity
  8
JIS B 0405-m 普通公差｢m｣中級
  6
________________
 62
     7
370
     0
100
AcDbCircle
 10
1229.828099316213
 20
-124.3714125186648
 30
0.0
 40
1.271653938757219
100
AcDbArc
 50
138.2298079834755
 51
182.3190979306504
  0
ARC
  5
76
330
1F
100
AcDbEntity
  8
JIS B 0405-m 普通公差｢m｣中級
  6
________________
 62
     7
370
     0
100
AcDbCircle
 10
-1234.818367387517
 20
-210.6792026521512
 30
0.0
 40
1.2619363355239
210
0.0
220
0.0
230
-1.0
100
AcDbArc
 50
318.0177513352202
 51
2.444696961818181
  0
ARC
  5
77
330
1F
100
AcDbEntity
  8
JIS B 0405-m 普通公差｢m｣中級
  6
________________
 62
     7
370
     0
100
AcDbCircle
 10
1239.814842372582
 20
-124.3649611622799
 30
0.0
 40
1.257285678076576
100
AcDbArc
 50
138.0479015390348
 51
182.3518878515008
  0
ARC
  5
78
330
1F
100
AcDbEntity
  8
JIS B 0405-m 普通公差｢m｣中級
  6
________________
 62
     7
370
     0
100
AcDbCircle
 10
-1246.210152736012
 20
-210.1788337509159
 30
0.0
 40
2.689899499188759
210
0.0
220
0.0
230
-1.0
100
AcDbArc
 50
330.0149767368242
 51
350.4483101495476
  0
ARC
  5
79
330
1F
100
AcDbEntity
  8
JIS B 0405-m 普通公差｢m｣中級
  6
________________
 62
     7
370
     0
100
AcDbCircle
 10
1251.049821694406
 20
-124.8101545471804
 30
0.0
 40
2.522195283964023
100
AcDbArc
 50
149.3557692428738
 51
171.1170790778331
  0
ARC
  5
7A
330
1F
100
AcDbEntity
  8
JIS B 0405-m 普通公差｢m｣中級
  6
________________
 62
     7
370
     0
100
AcDbCircle
 10
-1255.887539134566
 20
-210.2947028135781
 30
0.0
 40
2.353268484191013
210
0.0
220
0.0
230
-1.0
100
AcDbArc
 50
328.5346475499368
 51
351.905064277978
  0
ARC
  5
7B
330
1F
100
AcDbEntity
  8
JIS B 0405-m 普通公差｢m｣中級
  6
________________
 62
     7
370
     0
100
AcDbCircle
 10
1260.740535109607
 20
-124.6991783223648
 30
0.0
 40
2.200368688355649
100
AcDbArc
 50
147.7386662508674
 51
172.7465001006158
  0
ARC
  5
7C
330
1F
100
AcDbEntity
  8
JIS B 0405-m 普通公差｢m｣中級
  6
________________
 62
     7
370
     0
100
AcDbCircle
 10
-1265.586552939816
 20
-210.4031010987894
 30
0.0
 40
2.04095469132825
210
0.0
220
0.0
230
-1.0
100
AcDbArc
 50
326.7209989847564
 51
353.6980550357208
  0
ARC
  5
7D
330
1F
100
AcDbEntity
  8
JIS B 0405-m 普通公差｢m｣中級
  6
________________
 62
     7
370
     0
100
AcDbCircle
 10
1270.452465309739
 20
-124.5956896542894
 30
0.0
 40
1.902714354358799
100
AcDbArc
 50
145.745110276401
 51
174.7592040793319
  0
ARC
  5
7E
330
1F
100
AcDbEntity
  8
JIS B 0405-m 普通公差｢m｣中級
  6
________________
 62
     7
370
     0
100
AcDbCircle
 10
-1275.307707268351
 20
-210.5038236882708
 30
0.0
 40
1.753974462694595
210
0.0
220
0.0
230
-1.0
100
AcDbArc
 50
324.4745902517083
 51
355.9342375905194
  0
ARC
  5
7F
330
1F
100
AcDbEntity
  8
JIS B 0405-m 普通公差｢m｣中級
  6
________________
 62
     7
370
     0
100
AcDbCircle
 10
1280.183630241206
 20
-124.4987502745807
 30
0.0
 40
1.627592312573707
100
AcDbArc
 50
143.2395489449656
 51
177.2610068098006
  0
ARC
  5
80
330
1F
100
AcDbEntity
  8
JIS B 0405-m 普通公差｢m｣中級
  6
________________
 62
     7
370
     0
100
AcDbCircle
 10
-1285.053090110022
 20
-210.5953071737724
 30
0.0
 40
1.495517223470357
210
0.0
220
0.0
230
-1.0
100
AcDbArc
 50
321.6590898936951
 51
358.7981748573262
  0
ARC
  5
81
330
1F
100
AcDbEntity
  8
JIS B 0405-m 普通公差｢m｣中級
  6
________________
 62
     7
370
     0
100
AcDbCircle
 10
1289.937022220753
 20
-124.4100550366849
 30
0.0
 40
1.379191120124666
100
AcDbArc
 50
140.059159846695
 51
180.4641887285318
  0
ARC
  5
82
330
1F
100
AcDbEntity
  8
JIS B 0405-m 普通公差｢m｣中級
  6
________________
 62
     7
370
     0
100
AcDbCircle
 10
-1294.807007077485
 20
-210.6876443996868
 30
0.0
 40
1.247959463876737
210
0.0
220
0.0
230
-1.0
100
AcDbArc
 50
317.973401677446
 51
2.266110108086991
  0
ARC
  5
83
330
1F
100
AcDbEntity
  8
JIS B 0405-m 普通公差｢m｣中級
  6
________________
 62
     7
370
     0
100
AcDbCircle
 10
1299.710892862027
 20
-124.3288658537083
 30
0.0
 40
1.156809003135689
100
AcDbArc
 50
135.9471611629024
 51
184.6022660069198
  0
LINE
  5
84
330
1F
100
AcDbEntity
  8
JIS B 0405-m 普通公差｢m｣中級
  6
________________
 62
     7
370
     0
100
AcDbLine
 10
1134.879647543128
 20
-211.5230834490582
 30
0.0
 11
1134.879647543127
 21
-167.5210916890359
 31
0.0
  0
SPLINE
  5
85
330
1F
100
AcDbEntity
  8
JIS B 0405-m 普通公差｢m｣中級
  6
________________
 62
     7
370
     0
100
AcDbSpline
210
0.0
220
0.0
230
1.0
 70
     8
 71
     3
 72
    10
 73
     6
 74
     0
 42
0.000000001
 43
0.0001
 40
0.1677619724794857
 40
0.1677619724794857
 40
0.1677619724794857
 40
0.1677619724794857
 40
0.1716073020211114
 40
0.1790684890655075
 40
0.1841313202626655
 40
0.1841313202626655
 40
0.1841313202626655
 40
0.1841313202626655
 10
1299.879647543127
 20
-131.9261451482591
 30
0.0
 10
1299.801332183818
 20
-130.6536477587128
 30
0.0
 10
1299.571059615659
 20
-127.2909384120454
 30
0.0
 10
1299.237675613218
 20
-124.2082836387035
 30
0.0
 10
1298.982606970085
 20
-123.5244987325957
 30
0.0
 10
1298.879495535803
 20
-123.5245117304
 30
0.0
  0
LWPOLYLINE
  5
86
330
1F
100
AcDbEntity
  8
JIS B 0405-m 普通公差｢m｣中級
  6
________________
 62
     7
370
     0
100
AcDbPolyline
 90
        6
 70
     0
 43
0.0
 10
1293.099974311048
 20
-208.085555965366
 42
-0.0178695378603034
 10
1291.127428910344
 20
-172.4250382553498
 42
0.0136667931454933
 10
1288.854840805531
 20
-127.4321490302659
 42
0.0446598290997255
 10
1288.604495923847
 20
-126.2479863351808
 10
1288.540974167301
 20
-126.1089265642971
 10
1288.477421695979
 20
-126.0358973363151
  0
LWPOLYLINE
  5
87
330
1F
100
AcDbEntity
  8
JIS B 0405-m 普通公差｢m｣中級
  6
________________
 62
     7
370
     0
100
AcDbPolyline
 90
        6
 70
     0
 43
0.0
 10
1153.098912634802
 20
-208.0796165039916
 42
-0.017393498525648
 10
1151.094816119568
 20
-171.5813838062736
 42
0.0128962366774668
 10
1148.877642278458
 20
-127.5899742493909
 42
0.0443617887797508
 10
1148.609606806459
 20
-126.2619387404852
 10
1148.543584323007
 20
-126.113300102898
 10
1148.477405849174
 20
-126.0358973363151
  0
LWPOLYLINE
  5
88
330
1F
100
AcDbEntity
  8
JIS B 0405-m 普通公差｢m｣中級
  6
________________
 62
     7
370
     0
100
AcDbPolyline
 90
        6
 70
     0
 43
0.0
 10
1163.098048110316
 20
-208.0748459491039
 42
-0.0173655557872755
 10
1161.091858091003
 20
-171.5050801580128
 42
0.0127735802992133
 10
1158.882378117707
 20
-127.6239343198059
 42
0.0624638162245675
 10
1158.545867115456
 20
-126.1172512324868
 10
1158.479399891797
 20
-126.0372108665285
 10
1158.43899872075
 20
-126.0238473941513
  0
LWPOLYLINE
  5
89
330
1F
100
AcDbEntity
  8
JIS B 0405-m 普通公差｢m｣中級
  6
________________
 62
     7
370
     0
100
AcDbPolyline
 90
        6
 70
     0
 43
0.0
 10
1173.097976509321
 20
-208.0745119327886
 42
-0.0175084410706559
 10
1171.102873148749
 20
-171.7908214914943
 42
0.0126776457531033
 10
1168.887117413825
 20
-127.658222641576
 42
0.0609375580183744
 10
1168.548713284327
 20
-126.1223256689024
 10
1168.482693703861
 20
-126.0394763931823
 10
1168.438972511461
 20
-126.0238473941675
  0
LWPOLYLINE
  5
8A
330
1F
100
AcDbEntity
  8
JIS B 0405-m 普通公差｢m｣中級
  6
________________
 62
     7
370
     0
100
AcDbPolyline
 90
        5
 70
     0
 43
0.0
 10
1178.669653718474
 20
-126.4586819541504
 10
1178.625710813738
 20
-126.3089041814166
 10
1178.5592582212
 20
-126.1421657073623
 10
1178.491324145969
 20
-126.0462953998014
 10
1178.438949434506
 20
-126.0238473942045
  0
LWPOLYLINE
  5
8B
330
1F
100
AcDbEntity
  8
JIS B 0405-m 普通公差｢m｣中級
  6
________________
 62
     7
370
     0
100
AcDbPolyline
 90
        6
 70
     0
 43
0.0
 10
1213.097853183492
 20
-208.0743390428424
 42
-0.0171220404350355
 10
1210.998323721923
 20
-169.0686318219257
 42
0.0143534596259619
 10
1208.848898488229
 20
-127.3927038540651
 42
0.0532384315612814
 10
1208.582183639657
 20
-126.1917029123055
 10
1208.514252665871
 20
-126.0702958820298
 10
1208.438955160025
 20
-126.0238473941765
  0
LWPOLYLINE
  5
8C
330
1F
100
AcDbEntity
  8
JIS B 0405-m 普通公差｢m｣中級
  6
________________
 62
     7
370
     0
100
AcDbPolyline
 90
        6
 70
     0
 43
0.0
 10
1223.099557192305
 20
-208.0838610764498
 42
-0.0173020665717873
 10
1221.008878699935
 20
-169.3436075639912
 42
0.0140578036381471
 10
1218.859470518309
 20
-127.463674223285
 42
0.0516919339226017
 10
1218.586923832976
 20
-126.2030236338193
 10
1218.52091464926
 20
-126.0788941883177
 10
1218.438977478274
 20
-126.0238473941948
  0
LWPOLYLINE
  5
8D
330
1F
100
AcDbEntity
  8
JIS B 0405-m 普通公差｢m｣中級
  6
________________
 62
     7
370
     0
100
AcDbPolyline
 90
        6
 70
     0
 43
0.0
 10
1233.098059389896
 20
-208.0756168905138
 42
-0.0173407303753833
 10
1231.01413245289
 20
-169.480622540078
 42
0.0139126188633891
 10
1228.864748513418
 20
-127.4997174236216
 42
0.0479319429255449
 10
1228.597921135467
 20
-126.2306828703754
 10
1228.531463991441
 20
-126.0939579793115
 10
1228.439001958907
 20
-126.0238473941643
  0
LWPOLYLINE
  5
8E
330
1F
100
AcDbEntity
  8
JIS B 0405-m 普通公差｢m｣中級
  6
________________
 62
     7
370
     0
100
AcDbPolyline
 90
        6
 70
     0
 43
0.0
 10
1243.097924184005
 20
-208.0748199208536
 42
-0.0173252094449211
 10
1241.089179882589
 20
-171.4322902625481
 42
0.0130070080710343
 10
1238.873831377242
 20
-127.5628390152014
 42
0.0453143785426447
 10
1238.605110949635
 20
-126.2498203999079
 10
1238.536733785256
 20
-126.1021688668801
 10
1238.43902547377
 20
-126.0238473941378
  0
LWPOLYLINE
  5
8F
330
1F
100
AcDbEntity
  8
JIS B 0405-m 普通公差｢m｣中級
  6
________________
 62
     7
370
     0
100
AcDbPolyline
 90
        6
 70
     0
 43
0.0
 10
1253.098007918763
 20
-208.0751793212332
 42
-0.0174402379664759
 10
1251.099735522778
 20
-171.7061834074121
 42
0.0127712689563374
 10
1248.882493711975
 20
-127.6243058927166
 42
0.0625783919115137
 10
1248.545812286449
 20
-126.1173418131636
 10
1248.479433173471
 20
-126.037244986784
 10
1248.439044152791
 20
-126.0238473941516
  0
LWPOLYLINE
  5
90
330
1F
100
AcDbEntity
  8
JIS B 0405-m 普通公差｢m｣中級
  6
________________
 62
     7
370
     0
100
AcDbPolyline
 90
        6
 70
     0
 43
0.0
 10
1263.098290951424
 20
-208.0766142152416
 42
-0.0175100682538438
 10
1261.104990045975
 20
-171.8426176327604
 42
0.0126483595329301
 10
1258.887264472224
 20
-127.6586004823726
 42
0.058386501032367
 10
1258.554477791278
 20
-126.1331024380168
 10
1258.486656324121
 20
-126.0424247925028
 10
1258.439057806044
 20
-126.0238473941896
  0
LWPOLYLINE
  5
91
330
1F
100
AcDbEntity
  8
JIS B 0405-m 普通公差｢m｣中級
  6
________________
 62
     7
370
     0
100
AcDbPolyline
 90
        6
 70
     0
 43
0.0
 10
1273.098410883317
 20
-208.0771382189461
 42
-0.0176696927926137
 10
1271.114049843651
 20
-172.077680608668
 42
0.0123991702685211
 10
1268.898279629929
 20
-127.7393678867985
 42
0.0563316902320082
 10
1268.559258868566
 20
-126.1422681712516
 10
1268.49333356125
 20
-126.0480015470084
 10
1268.439064792952
 20
-126.0238473941916
  0
LWPOLYLINE
  5
92
330
1F
100
AcDbEntity
  8
JIS B 0405-m 普通公差｢m｣中級
  6
________________
 62
     7
370
     0
100
AcDbPolyline
 90
        6
 70
     0
 43
0.0
 10
1283.098249202038
 20
-208.0761145891813
 42
-0.017763176171571
 10
1281.12268714956
 20
-172.3018026911511
 42
0.0140085650350884
 10
1278.837077866437
 20
-127.3149818374975
 42
0.0583305616276007
 10
1278.570286911986
 20
-126.1649531642588
 10
1278.503898788749
 20
-126.0582837664381
 10
1278.439064796623
 20
-126.0238473941452
  0
LWPOLYLINE
  5
93
330
1F
100
AcDbEntity
  8
JIS B 0405-m 普通公差｢m｣中級
  6
________________
 62
     7
370
     0
100
AcDbPolyline
 90
        6
 70
     0
 43
0.0
 10
1143.098240229228
 20
-208.0759244931201
 42
-0.0172833303393717
 10
1141.086182644617
 20
-171.356870497734
 42
0.0130904899926904
 10
1138.870454843437
 20
-127.5392766081093
 42
0.0468744225899125
 10
1138.599881120567
 20
-126.2356407827641
 10
1138.531540355101
 20
-126.0938817048888
 10
1138.477418128811
 20
-126.0358973363151
  0
SPLINE
  5
94
330
1F
100
AcDbEntity
  8
JIS B 0405-m 普通公差｢m｣中級
  6
________________
 62
     7
370
     0
100
AcDbSpline
210
0.0
220
0.0
230
1.0
 70
     8
 71
     3
 72
    18
 73
    14
 74
     0
 42
0.000000001
 43
0.0001
 40
2.726259583766541
 40
2.726259583766541
 40
2.726259583766541
 40
2.726259583766541
 40
2.730794458248995
 40
2.738255645293391
 40
2.745716832337787
 40
2.753178019382183
 40
2.760639206426579
 40
2.768100393470975
 40
2.775561580515372
 40
2.783022767559768
 40
2.790483954604164
 40
2.79794514164856
 40
2.802822775994341
 40
2.802822775994341
 40
2.802822775994341
 40
2.802822775994341
 10
1143.557810194522
 20
-210.625977684765
 30
0.0
 10
1143.465451315869
 20
-210.1127401211507
 30
0.0
 10
1143.221135228366
 20
-208.1808113982578
 30
0.0
 10
1142.824861932014
 20
-202.6851618157767
 30
0.0
 10
1142.368990305464
 20
-193.4978901458515
 30
0.0
 10
1141.913118678913
 20
-182.1941435769628
 30
0.0
 10
1141.457247052364
 20
-169.6949992054242
 30
0.0
 10
1141.001375425814
 20
-157.0189401982107
 30
0.0
 10
1140.545503799264
 20
-145.1988654753318
 30
0.0
 10
1140.089632172714
 20
-135.1979247356616
 30
0.0
 10
1139.633760546164
 20
-127.8310369444088
 30
0.0
 10
1139.230506479616
 20
-124.1754739369114
 30
0.0
 10
1138.979209621919
 20
-123.5251460378183
 30
0.0
 10
1138.879869973072
 20
-123.5245575654246
 30
0.0
  0
SPLINE
  5
95
330
1F
100
AcDbEntity
  8
JIS B 0405-m 普通公差｢m｣中級
  6
________________
 62
     7
370
     0
100
AcDbSpline
210
0.0
220
0.0
230
1.0
 70
     8
 71
     3
 72
    18
 73
    14
 74
     0
 42
0.000000001
 43
0.0001
 40
2.562572095631067
 40
2.562572095631067
 40
2.562572095631067
 40
2.562572095631067
 40
2.566648343272279
 40
2.574109530316675
 40
2.581570717361072
 40
2.589031904405468
 40
2.596493091449864
 40
2.60395427849426
 40
2.611415465538656
 40
2.618876652583052
 40
2.626337839627448
 40
2.633799026671845
 40
2.639154884000981
 40
2.639154884000981
 40
2.639154884000981
 40
2.639154884000981
 10
1153.558964302867
 20
-210.6323147238023
 30
0.0
 10
1153.475945982799
 20
-210.1727381810242
 30
0.0
 10
1153.240970453881
 20
-208.3756292577883
 30
0.0
 10
1152.854037716113
 20
-203.1823801633091
 30
0.0
 10
1152.398166089563
 20
-194.1582540662508
 30
0.0
 10
1151.942294463013
 20
-182.9638438240111
 30
0.0
 10
1151.486422836462
 20
-170.5113173464091
 30
0.0
 10
1151.030551209913
 20
-157.815359177182
 30
0.0
 10
1150.574679583363
 20
-145.9104897042534
 30
0.0
 10
1150.118807956813
 20
-135.7667680614952
 30
0.0
 10
1149.662936330263
 20
-128.2107476062044
 30
0.0
 10
1149.249942603079
 20
-124.2675193186913
 30
0.0
 10
1148.988906084745
 20
-123.525104210583
 30
0.0
 10
1148.87982677526
 20
-123.5244285834999
 30
0.0
  0
SPLINE
  5
96
330
1F
100
AcDbEntity
  8
JIS B 0405-m 普通公差｢m｣中級
  6
________________
 62
     7
370
     0
100
AcDbSpline
210
0.0
220
0.0
230
1.0
 70
     8
 71
     3
 72
    18
 73
    14
 74
     0
 42
0.000000001
 43
0.0001
 40
2.398924706309497
 40
2.398924706309497
 40
2.398924706309497
 40
2.398924706309497
 40
2.402502228295564
 40
2.40996341533996
 40
2.417424602384356
 40
2.424885789428752
 40
2.432346976473148
 40
2.439808163517545
 40
2.447269350561941
 40
2.454730537606337
 40
2.462191724650733
 40
2.469652911695129
 40
2.475487964440386
 40
2.475487964440386
 40
2.475487964440386
 40
2.475487964440386
 10
1163.557668410775
 20
-210.625112249126
 30
0.0
 10
1163.484807316104
 20
-210.2202875985502
 30
0.0
 10
1163.259989012583
 20
-208.554514734255
 30
0.0
 10
1162.883213500212
 20
-203.6676157713667
 30
0.0
 10
1162.427341873661
 20
-194.8096677261823
 30
0.0
 10
1161.971470247112
 20
-183.7283555946886
 30
0.0
 10
1161.515598620562
 20
-171.3266315741272
 30
0.0
 10
1161.059726994011
 20
-158.6150406090911
 30
0.0
 10
1160.603855367462
 20
-146.6293769138487
 30
0.0
 10
1160.147983740912
 20
-136.3462830773444
 30
0.0
 10
1159.692112114362
 20
-128.6036690929014
 30
0.0
 10
1159.269358921627
 20
-124.3645295816518
 30
0.0
 10
1158.998562937742
 20
-123.5248528975585
 30
0.0
 10
1158.879724162708
 20
-123.5242775873531
 30
0.0
  0
SPLINE
  5
97
330
1F
100
AcDbEntity
  8
JIS B 0405-m 普通公差｢m｣中級
  6
________________
 62
     7
370
     0
100
AcDbSpline
210
0.0
220
0.0
230
1.0
 70
     8
 71
     3
 72
    18
 73
    14
 74
     0
 42
0.000000001
 43
0.0001
 40
2.235256780554761
 40
2.235256780554761
 40
2.235256780554761
 40
2.235256780554761
 40
2.238356113318849
 40
2.245817300363244
 40
2.253278487407641
 40
2.260739674452037
 40
2.268200861496433
 40
2.275662048540829
 40
2.283123235585225
 40
2.290584422629621
 40
2.298045609674018
 40
2.305506796718414
 40
2.311821524229944
 40
2.311821524229944
 40
2.311821524229944
 40
2.311821524229944
 10
1173.557627275754
 20
-210.6249196465317
 30
0.0
 10
1173.494505154123
 20
-210.2742674031445
 30
0.0
 10
1173.279425823642
 20
-208.7340579061383
 30
0.0
 10
1172.912389284311
 20
-204.140705580749
 30
0.0
 10
1172.456517657761
 20
-195.4519122237559
 30
0.0
 10
1172.000646031211
 20
-184.4874219814706
 30
0.0
 10
1171.544774404661
 20
-172.1406679093306
 30
0.0
 10
1171.08890277811
 20
-159.4177157679553
 30
0.0
 10
1170.633031151561
 20
-147.3552855283302
 30
0.0
 10
1170.17715952501
 20
-136.9362750422329
 30
0.0
 10
1169.721287898461
 20
-129.0096693666559
 30
0.0
 10
1169.288765477559
 20
-124.4666133172035
 30
0.0
 10
1169.008200265506
 20
-123.5244095351447
 30
0.0
 10
1168.879592262304
 20
-123.5241249940667
 30
0.0
  0
SPLINE
  5
98
330
1F
100
AcDbEntity
  8
JIS B 0405-m 普通公差｢m｣中級
  6
________________
 62
     7
370
     0
100
AcDbSpline
210
0.0
220
0.0
230
1.0
 70
     8
 71
     3
 72
    19
 73
    15
 74
     0
 42
0.000000001
 43
0.0001
 40
1.580583659866533
 40
1.580583659866533
 40
1.580583659866533
 40
1.580583659866533
 40
1.581771653411982
 40
1.589232840456378
 40
1.596694027500774
 40
1.604155214545171
 40
1.611616401589567
 40
1.619077588633963
 40
1.626538775678359
 40
1.633999962722755
 40
1.641461149767151
 40
1.648922336811548
 40
1.656383523855944
 40
1.657151267840487
 40
1.657151267840487
 40
1.657151267840487
 40
1.657151267840487
 10
1213.557549353948
 20
-210.624988167644
 30
0.0
 10
1213.533354251718
 20
-210.4906185271191
 30
0.0
 10
1213.357201940637
 20
-209.4034201506053
 30
0.0
 10
1213.029092420707
 20
-205.9084896117887
 30
0.0
 10
1212.573220794158
 20
-197.9249299108879
 30
0.0
 10
1212.117349167607
 20
-187.4641613802689
 30
0.0
 10
1211.661477541057
 20
-175.3785716990679
 30
0.0
 10
1211.205605914507
 20
-162.6529458483503
 30
0.0
 10
1210.749734287957
 20
-150.3242216642507
 30
0.0
 10
1210.293862661407
 20
-139.3969957558275
 30
0.0
 10
1209.837991034857
 20
-130.7616647229297
 30
0.0
 10
1209.382119408307
 20
-125.1218718739974
 30
0.0
 10
1209.062568841519
 20
-123.5904708466784
 30
0.0
 10
1208.894975483581
 20
-123.523846822693
 30
0.0
 10
1208.879339334492
 20
-123.5240207691356
 30
0.0
  0
SPLINE
  5
99
330
1F
100
AcDbEntity
  8
JIS B 0405-m 普通公差｢m｣中級
  6
________________
 62
     7
370
     0
100
AcDbSpline
210
0.0
220
0.0
230
1.0
 70
     8
 71
     3
 72
    19
 73
    15
 74
     0
 42
0.000000001
 43
0.0001
 40
1.416879078177395
 40
1.416879078177395
 40
1.416879078177395
 40
1.416879078177395
 40
1.417625538435266
 40
1.425086725479662
 40
1.432547912524058
 40
1.440009099568455
 40
1.447470286612851
 40
1.454931473657247
 40
1.462392660701643
 40
1.469853847746039
 40
1.477315034790435
 40
1.484776221834832
 40
1.492237408879228
 40
1.493480367376894
 40
1.493480367376894
 40
1.493480367376894
 40
1.493480367376894
 10
1223.55974786261
 20
-210.6372920437246
 30
0.0
 10
1223.544545185526
 20
-210.5534163962706
 30
0.0
 10
1223.377385299591
 20
-209.5660861753148
 30
0.0
 10
1223.058268204807
 20
-206.3185492324287
 30
0.0
 10
1222.602396578256
 20
-198.5181554268896
 30
0.0
 10
1222.146524951706
 20
-188.1922142666652
 30
0.0
 10
1221.690653325156
 20
-176.1821271263008
 30
0.0
 10
1221.234781698606
 20
-163.4665267203849
 30
0.0
 10
1220.778910072057
 20
-151.0815339693931
 30
0.0
 10
1220.323038445507
 20
-140.0363304832838
 30
0.0
 10
1219.867166818957
 20
-131.230926174097
 30
0.0
 10
1219.411295192407
 20
-125.382822640401
 30
0.0
 10
1219.082066236565
 20
-123.6392416861796
 30
0.0
 10
1218.904794489572
 20
-123.5239085134557
 30
0.0
 10
1218.87947995143
 20
-123.5241551279668
 30
0.0
  0
SPLINE
  5
9A
330
1F
100
AcDbEntity
  8
JIS B 0405-m 普通公差｢m｣中級
  6
________________
 62
     7
370
     0
100
AcDbSpline
210
0.0
220
0.0
230
1.0
 70
     8
 71
     3
 72
    19
 73
    15
 74
     0
 42
0.000000001
 43
0.0001
 40
1.253245966942711
 40
1.253245966942711
 40
1.253245966942711
 40
1.253245966942711
 40
1.25347942345855
 40
1.260940610502946
 40
1.268401797547343
 40
1.275862984591739
 40
1.283324171636135
 40
1.290785358680531
 40
1.298246545724927
 40
1.305707732769323
 40
1.31316891981372
 40
1.320630106858116
 40
1.328091293902512
 40
1.329808641632829
 40
1.329808641632829
 40
1.329808641632829
 40
1.329808641632829
 10
1233.557579592618
 20
-210.625374674763
 30
0.0
 10
1233.552824933564
 20
-210.5989560380777
 30
0.0
 10
1233.396113065659
 20
-209.7090828973604
 30
0.0
 10
1233.087443988906
 20
-206.7155722312837
 30
0.0
 10
1232.631572362355
 20
-199.1009655755301
 30
0.0
 10
1232.175700735806
 20
-188.9133217283238
 30
0.0
 10
1231.719829109256
 20
-176.9827730140134
 30
0.0
 10
1231.263957482706
 20
-164.2814710197072
 30
0.0
 10
1230.808085856156
 20
-151.8443715708058
 30
0.0
 10
1230.352214229606
 20
-140.6849021514766
 30
0.0
 10
1229.896342603056
 20
-131.7123835454547
 30
0.0
 10
1229.440470976506
 20
-125.6579345312698
 30
0.0
 10
1229.101580439568
 20
-123.6931262876129
 30
0.0
 10
1228.91464711148
 20
-123.5240765043825
 30
0.0
 10
1228.879670992241
 20
-123.5243071803244
 30
0.0
  0
SPLINE
  5
9B
330
1F
100
AcDbEntity
  8
JIS B 0405-m 普通公差｢m｣中級
  6
________________
 62
     7
370
     0
100
AcDbSpline
210
0.0
220
0.0
230
1.0
 70
     8
 71
     3
 72
    18
 73
    14
 74
     0
 42
0.000000001
 43
0.0001
 40
1.089577930944295
 40
1.089577930944295
 40
1.089577930944295
 40
1.089577930944295
 40
1.096794495526231
 40
1.104255682570626
 40
1.111716869615023
 40
1.119178056659419
 40
1.126639243703815
 40
1.134100430748211
 40
1.141561617792608
 40
1.149022804837004
 40
1.1564839918814
 40
1.163945178925796
 40
1.166138029326179
 40
1.166138029326179
 40
1.166138029326179
 40
1.166138029326179
 10
1243.557545193383
 20
-210.6251884759082
 30
0.0
 10
1243.410570053257
 20
-209.8079978640944
 30
0.0
 10
1243.111637704281
 20
-207.0182660699407
 30
0.0
 10
1242.660748146455
 20
-199.673164508533
 30
0.0
 10
1242.204876519905
 20
-189.6272414433611
 30
0.0
 10
1241.749004893355
 20
-177.7802403121261
 30
0.0
 10
1241.293133266805
 20
-165.0975048913798
 30
0.0
 10
1240.837261640255
 20
-152.612478123555
 30
0.0
 10
1240.381390013705
 20
-141.3424928135439
 30
0.0
 10
1239.925518387155
 20
-132.2058750474441
 30
0.0
 10
1239.469646760606
 20
-125.9471150976494
 30
0.0
 10
1239.121071965905
 20
-123.7519192023286
 30
0.0
 10
1238.924454380056
 20
-123.5242796905273
 30
0.0
 10
1238.879794003056
 20
-123.5244542777494
 30
0.0
  0
SPLINE
  5
9C
330
1F
100
AcDbEntity
  8
JIS B 0405-m 普通公差｢m｣中級
  6
________________
 62
     7
370
     0
100
AcDbSpline
210
0.0
220
0.0
230
1.0
 70
     8
 71
     3
 72
    18
 73
    14
 74
     0
 42
0.000000001
 43
0.0001
 40
0.9259064976841529
 40
0.9259064976841529
 40
0.9259064976841529
 40
0.9259064976841529
 40
0.9326483805495145
 40
0.9401095675939107
 40
0.9475707546383068
 40
0.9550319416827029
 40
0.9624931287270991
 40
0.9699543157714954
 40
0.9774155028158915
 40
0.9848766898602878
 40
0.992337876904684
 40
0.99979906394908
 40
1.002468448412814
 40
1.002468448412814
 40
1.002468448412814
 40
1.002468448412814
 10
1253.557718363697
 20
-210.6260753144198
 30
0.0
 10
1253.4204107615
 20
-209.8627374819164
 30
0.0
 10
1253.131145950452
 20
-207.2374662005759
 30
0.0
 10
1252.689923930554
 20
-200.2345599434296
 30
0.0
 10
1252.234052304005
 20
-190.3337335052721
 30
0.0
 10
1251.778180677454
 20
-178.5742610386963
 30
0.0
 10
1251.322309050904
 20
-165.9143541143256
 30
0.0
 10
1250.866437424355
 20
-153.3855955121214
 30
0.0
 10
1250.410565797804
 20
-142.0088814918687
 30
0.0
 10
1249.954694171254
 20
-132.7112348465433
 30
0.0
 10
1249.498822544705
 20
-126.2502671629271
 30
0.0
 10
1249.140542486519
 20
-123.8156173882869
 30
0.0
 10
1248.934219637182
 20
-123.5244813647453
 30
0.0
 10
1248.879853996696
 20
-123.5245771510877
 30
0.0
  0
SPLINE
  5
9D
330
1F
100
AcDbEntity
  8
JIS B 0405-m 普通公差｢m｣中級
  6
________________
 62
     7
370
     0
100
AcDbSpline
210
0.0
220
0.0
230
1.0
 70
     8
 71
     3
 72
    18
 73
    14
 74
     0
 42
0.000000001
 43
0.0001
 40
0.7622344140935884
 40
0.7622344140935884
 40
0.7622344140935884
 40
0.7622344140935884
 40
0.7685022655728008
 40
0.7759634526171969
 40
0.7834246396615928
 40
0.790885826705989
 40
0.798347013750385
 40
0.8058082007947811
 40
0.8132693878391772
 40
0.8207305748835733
 40
0.8281917619279694
 40
0.8356529489723653
 40
0.8387998430013857
 40
0.8387998430013857
 40
0.8387998430013857
 40
0.8387998430013857
 10
1263.557931268598
 20
-210.6271327195926
 30
0.0
 10
1263.430277959467
 20
-209.9177776027888
 30
0.0
 10
1263.150667441485
 20
-207.4516713206431
 30
0.0
 10
1262.719099714654
 20
-200.7849632281686
 30
0.0
 10
1262.263228088103
 20
-191.0325605035478
 30
0.0
 10
1261.807356461554
 20
-179.3645683699691
 30
0.0
 10
1261.351484835003
 20
-166.731744193472
 30
0.0
 10
1260.895613208454
 20
-154.1634639371342
 30
0.0
 10
1260.439741581904
 20
-142.6838442523359
 30
0.0
 10
1259.983869955354
 20
-133.2282931209901
 30
0.0
 10
1259.527998328804
 20
-126.5672888554903
 30
0.0
 10
1259.159993139709
 20
-123.8842190773657
 30
0.0
 10
1258.943945159464
 20
-123.5246447364166
 30
0.0
 10
1258.879854388069
 20
-123.5246615633566
 30
0.0
  0
SPLINE
  5
9E
330
1F
100
AcDbEntity
  8
JIS B 0405-m 普通公差｢m｣中級
  6
________________
 62
     7
370
     0
100
AcDbSpline
210
0.0
220
0.0
230
1.0
 70
     8
 71
     3
 72
    18
 73
    14
 74
     0
 42
0.000000001
 43
0.0001
 40
0.5985622845247124
 40
0.5985622845247124
 40
0.5985622845247124
 40
0.5985622845247124
 40
0.6043561505960872
 40
0.6118173376404833
 40
0.6192785246848793
 40
0.6267397117292753
 40
0.6342008987736714
 40
0.6416620858180675
 40
0.6491232728624636
 40
0.6565844599068597
 40
0.6640456469512558
 40
0.6715068339956518
 40
0.6751322565246489
 40
0.6751322565246489
 40
0.6751322565246489
 40
0.6751322565246489
 10
1273.558146982732
 20
-210.628182937104
 30
0.0
 10
1273.440147030256
 20
-209.9728672154834
 30
0.0
 10
1273.170189868929
 20
-207.6607093570567
 30
0.0
 10
1272.748275498753
 20
-201.324189404521
 30
0.0
 10
1272.292403872203
 20
-191.7234876034626
 30
0.0
 10
1271.836532245653
 20
-180.1508967300491
 30
0.0
 10
1271.380660619102
 20
-167.5494004520014
 30
0.0
 10
1270.924788992553
 20
-154.9458220026842
 30
0.0
 10
1270.468917366003
 20
-143.367154279587
 30
0.0
 10
1270.013045739453
 20
-133.7568761178536
 30
0.0
 10
1269.557174112903
 20
-126.8980736429596
 30
0.0
 10
1269.17942304091
 20
-123.9577108380725
 30
0.0
 10
1268.953629177768
 20
-123.5247258458514
 30
0.0
 10
1268.879792523476
 20
-123.5246984210711
 30
0.0
  0
SPLINE
  5
9F
330
1F
100
AcDbEntity
  8
JIS B 0405-m 普通公差｢m｣中級
  6
________________
 62
     7
370
     0
100
AcDbSpline
210
0.0
220
0.0
230
1.0
 70
     8
 71
     3
 72
    18
 73
    14
 74
     0
 42
0.000000001
 43
0.0001
 40
0.4348976971360146
 40
0.4348976971360146
 40
0.4348976971360146
 40
0.4348976971360146
 40
0.4402100356193734
 40
0.4476712226637695
 40
0.4551324097081656
 40
0.4625935967525617
 40
0.4700547837969578
 40
0.4775159708413539
 40
0.48497715788575
 40
0.492438344930146
 40
0.4998995319745422
 40
0.5073607190189382
 40
0.5114652807025756
 40
0.5114652807025756
 40
0.5114652807025756
 40
0.5114652807025756
 10
1283.557901876633
 20
-210.6266745522708
 30
0.0
 10
1283.449708887556
 20
-210.025416810194
 30
0.0
 10
1283.189558689629
 20
-207.8623537857384
 30
0.0
 10
1282.777451282852
 20
-201.8520572702252
 30
0.0
 10
1282.321579656302
 20
-192.4062826249805
 30
0.0
 10
1281.865708029752
 20
-180.9329818801378
 30
0.0
 10
1281.409836403202
 20
-168.3670481236483
 30
0.0
 10
1280.953964776652
 20
-155.7324068041558
 30
0.0
 10
1280.498093150102
 20
-144.0585819532377
 30
0.0
 10
1280.042221523552
 20
-134.2968062114208
 30
0.0
 10
1279.586349897002
 20
-127.2425103679877
 30
0.0
 10
1279.1988405053
 20
-124.0361554563358
 30
0.0
 10
1278.963288322449
 20
-123.5247171557851
 30
0.0
 10
1278.879693348447
 20
-123.524683893038
 30
0.0
  0
SPLINE
  5
A0
330
1F
100
AcDbEntity
  8
JIS B 0405-m 普通公差｢m｣中級
  6
________________
 62
     7
370
     0
100
AcDbSpline
210
0.0
220
0.0
230
1.0
 70
     8
 71
     3
 72
    18
 73
    14
 74
     0
 42
0.000000001
 43
0.0001
 40
0.2711943726644277
 40
0.2711943726644277
 40
0.2711943726644277
 40
0.2711943726644277
 40
0.2760639206426576
 40
0.2835251076870538
 40
0.29098629473145
 40
0.2984474817758461
 40
0.3059086688202423
 40
0.3133698558646385
 40
0.3208310429090346
 40
0.3282922299534308
 40
0.335753416997827
 40
0.3432146040422232
 40
0.347798443216622
 40
0.347798443216622
 40
0.347798443216622
 40
0.347798443216622
 10
1293.560023570466
 20
-210.6382991192386
 30
0.0
 10
1293.460848611478
 20
-210.0908279695225
 30
0.0
 10
1293.209716443639
 20
-208.0701668814484
 30
0.0
 10
1292.806627066951
 20
-202.3683894398819
 30
0.0
 10
1292.350755440401
 20
-193.0807161207805
 30
0.0
 10
1291.894883813851
 20
-181.7105610073317
 30
0.0
 10
1291.439012187301
 20
-169.1844124450334
 30
0.0
 10
1290.983140560751
 20
-156.5229540165767
 30
0.0
 10
1290.527268934201
 20
-144.75789492504
 30
0.0
 10
1290.071397307651
 20
-134.8479019628855
 30
0.0
 10
1289.615525681101
 20
-127.600483285613
 30
0.0
 10
1289.218255152287
 20
-124.1196452184529
 30
0.0
 10
1288.972941832323
 20
-123.5246326033351
 30
0.0
 10
1288.879585721209
 20
-123.5246194403465
 30
0.0
  0
LINE
  5
A1
330
1F
100
AcDbEntity
  8
JIS B 0405-m 普通公差｢m｣中級
  6
________________
 62
     7
370
     0
100
AcDbLine
 10
1299.879647543128
 20
-131.9261451482613
 30
0.0
 11
1299.879647543128
 21
-141.894561119373
 31
0.0
  0
LWPOLYLINE
  5
A2
330
1F
100
AcDbEntity
  8
JIS B 0405-m 普通公差｢m｣中級
  6
________________
 62
     7
370
     0
100
AcDbPolyline
 90
        3
 70
     0
 43
0.0
 10
1299.879647543127
 20
-141.894561119373
 42
0.0370227719098507
 10
1298.559942576295
 20
-126.1435371478691
 10
1298.477414434046
 20
-126.0358973363151
  0
ARC
  5
A3
330
1F
100
AcDbEntity
  8
JIS B 0405-m 普通公差｢m｣中級
  6
________________
 62
     7
370
     0
100
AcDbCircle
 10
-1135.305228543421
 20
-210.2723847576925
 30
0.0
 40
2.422488065207927
210
0.0
220
0.0
230
-1.0
100
AcDbArc
 50
188.4130461405584
 51
211.083348271247
  0
ARC
  5
A4
330
1F
100
AcDbEntity
  8
JIS B 0405-m 普通公差｢m｣中級
  6
________________
 62
     7
370
     0
100
AcDbCircle
 10
1140.144840628055
 20
-124.8329018385425
 30
0.0
 40
2.589806897837304
100
AcDbArc
 50
9.146153966089752
 51
30.34375215304951
  0
ARC
  5
A5
330
1F
100
AcDbEntity
  8
JIS B 0405-m 普通公差｢m｣中級
  6
________________
 62
     7
370
     0
100
AcDbCircle
 10
-1144.976409529922
 20
-210.1544687118213
 30
0.0
 40
2.765892816381445
210
0.0
220
0.0
230
-1.0
100
AcDbArc
 50
189.7971451016014
 51
209.6603073164332
  0
ARC
  5
A6
330
1F
100
AcDbEntity
  8
JIS B 0405-m 普通公差｢m｣中級
  6
________________
 62
     7
370
     0
100
AcDbCircle
 10
1151.438365135379
 20
-124.3679473436652
 30
0.0
 40
1.264064998270454
100
AcDbArc
 50
357.6693200497135
 51
41.85902566331532
  0
ARC
  5
A7
330
1F
100
AcDbEntity
  8
JIS B 0405-m 普通公差｢m｣中級
  6
________________
 62
     7
370
     0
100
AcDbCircle
 10
-1156.431090539578
 20
-210.6759824797231
 30
0.0
 40
1.272052765508142
210
0.0
220
0.0
230
-1.0
100
AcDbArc
 50
177.6745832339062
 51
221.7688762151005
  0
ARC
  5
A8
330
1F
100
AcDbEntity
  8
JIS B 0405-m 普通公差｢m｣中級
  6
________________
 62
     7
370
     0
100
AcDbCircle
 10
1161.433053069333
 20
-124.3707767040208
 30
0.0
 40
1.269934355465292
100
AcDbArc
 50
357.6669902908748
 51
41.80233453784604
  0
ARC
  5
A9
330
1F
100
AcDbEntity
  8
JIS B 0405-m 普通公差｢m｣中級
  6
________________
 62
     7
370
     0
100
AcDbCircle
 10
-1166.432599912693
 20
-210.6768871776527
 30
0.0
 40
1.270343762330318
210
0.0
220
0.0
230
-1.0
100
AcDbArc
 50
177.6757109931276
 51
221.7923713341756
  0
ARC
  5
AA
330
1F
100
AcDbEntity
  8
JIS B 0405-m 普通公差｢m｣中級
  6
________________
 62
     7
370
     0
100
AcDbCircle
 10
1171.431293496273
 20
-124.3718032761999
 30
0.0
 40
1.27193370670009
100
AcDbArc
 50
357.6546249360655
 51
41.79305778622654
  0
ARC
  5
AB
330
1F
100
AcDbEntity
  8
JIS B 0405-m 普通公差｢m｣中級
  6
________________
 62
     7
370
     0
100
AcDbCircle
 10
-1176.432558533638
 20
-210.6767508959427
 30
0.0
 40
1.27046229327372
210
0.0
220
0.0
230
-1.0
100
AcDbArc
 50
177.6600493226552
 51
221.8045695908439
  0
SPLINE
  5
AC
330
1F
100
AcDbEntity
  8
JIS B 0405-m 普通公差｢m｣中級
  6
________________
 62
     7
370
     0
100
AcDbSpline
210
0.0
220
0.0
230
1.0
 70
     8
 71
     3
 72
     9
 73
     5
 74
     0
 42
0.000000001
 43
0.0001
 40
1.733704154560352
 40
1.733704154560352
 40
1.733704154560352
 40
1.733704154560352
 40
1.738456581344302
 40
1.738985255533949
 40
1.738985255533949
 40
1.738985255533949
 40
1.738985255533949
 10
1207.702028770034
 20
-210.6240964248978
 30
0.0
 10
1207.605239143255
 20
-211.1619187533028
 30
0.0
 10
1207.497682348495
 20
-211.4945868371297
 30
0.0
 10
1207.390125553735
 20
-211.5238249312852
 30
0.0
 10
1207.379358385753
 20
-211.5237186358579
 30
0.0
  0
SPLINE
  5
AD
330
1F
100
AcDbEntity
  8
JIS B 0405-m 普通公差｢m｣中級
  6
________________
 62
     7
370
     0
100
AcDbSpline
210
0.0
220
0.0
230
1.0
 70
     8
 71
     3
 72
     9
 73
     5
 74
     0
 42
0.000000001
 43
0.0001
 40
1.65187100855805
 40
1.65187100855805
 40
1.65187100855805
 40
1.65187100855805
 40
1.656383523855944
 40
1.657151267840587
 40
1.657151267840587
 40
1.657151267840587
 40
1.657151267840587
 10
1212.701958292213
 20
-124.4232497460928
 30
0.0
 10
1212.610054788724
 20
-123.9126209433494
 30
0.0
 10
1212.502515136146
 20
-123.5666055218804
 30
0.0
 10
1212.394975483567
 20
-123.5238548832668
 30
0.0
 10
1212.379339334477
 20
-123.5240288296792
 30
0.0
  0
SPLINE
  5
AE
330
1F
100
AcDbEntity
  8
JIS B 0405-m 普通公差｢m｣中級
  6
________________
 62
     7
370
     0
100
AcDbSpline
210
0.0
220
0.0
230
1.0
 70
     8
 71
     3
 72
     9
 73
     5
 74
     0
 42
0.000000001
 43
0.0001
 40
1.570037052832255
 40
1.570037052832255
 40
1.570037052832255
 40
1.570037052832255
 40
1.574310466367586
 40
1.575298747902795
 40
1.575298747902795
 40
1.575298747902795
 40
1.575298747902795
 10
1217.701937287747
 20
-210.6245300592352
 30
0.0
 10
1217.614903416431
 20
-211.1081403338305
 30
0.0
 10
1217.507741849245
 20
-211.4663172034006
 30
0.0
 10
1217.40058028206
 20
-211.5234512767257
 30
0.0
 10
1217.380452586192
 20
-211.5236042388674
 30
0.0
  0
SPLINE
  5
AF
330
1F
100
AcDbEntity
  8
JIS B 0405-m 普通公差｢m｣中級
  6
________________
 62
     7
370
     0
100
AcDbSpline
210
0.0
220
0.0
230
1.0
 70
     8
 71
     3
 72
     9
 73
     5
 74
     0
 42
0.000000001
 43
0.0001
 40
1.488205102778826
 40
1.488205102778826
 40
1.488205102778826
 40
1.488205102778826
 40
1.492237408879228
 40
1.49348036719189
 40
1.49348036719189
 40
1.49348036719189
 40
1.49348036719189
 10
1222.701793738556
 20
-124.4223867779265
 30
0.0
 10
1222.619670347653
 20
-123.9661933095022
 30
0.0
 10
1222.512232422376
 20
-123.5938157964449
 30
0.0
 10
1222.404794497099
 20
-123.5239165789225
 30
0.0
 10
1222.379479962724
 20
-123.5241631883756
 30
0.0
  0
SPLINE
  5
B0
330
1F
100
AcDbEntity
  8
JIS B 0405-m 普通公差｢m｣中級
  6
________________
 62
     7
370
     0
100
AcDbSpline
210
0.0
220
0.0
230
1.0
 70
     8
 71
     3
 72
     9
 73
     5
 74
     0
 42
0.000000001
 43
0.0001
 40
1.406369608500735
 40
1.406369608500735
 40
1.406369608500735
 40
1.406369608500735
 40
1.41016435139087
 40
1.411631560589401
 40
1.411631560589401
 40
1.411631560589401
 40
1.411631560589401
 10
1227.701866738212
 20
-210.6248953928898
 30
0.0
 10
1227.624581644774
 20
-211.0543741671427
 30
0.0
 10
1227.517414843065
 20
-211.4392388469019
 30
0.0
 10
1227.410248041357
 20
-211.5232938344329
 30
0.0
 10
1227.380366333087
 20
-211.5234573846163
 30
0.0
  0
SPLINE
  5
B1
330
1F
100
AcDbEntity
  8
JIS B 0405-m 普通公差｢m｣中級
  6
________________
 62
     7
370
     0
100
AcDbSpline
210
0.0
220
0.0
230
1.0
 70
     8
 71
     3
 72
     9
 73
     5
 74
     0
 42
0.000000001
 43
0.0001
 40
1.324536415027553
 40
1.324536415027553
 40
1.324536415027553
 40
1.324536415027553
 40
1.328091293902512
 40
1.329808641447835
 40
1.329808641447835
 40
1.329808641447835
 40
1.329808641447835
 10
1232.701799160817
 20
-124.4224182399218
 30
0.0
 10
1232.629399223861
 20
-124.0201074605515
 30
0.0
 10
1232.522023171433
 20
-123.6211881606247
 30
0.0
 10
1232.414647119005
 20
-123.5240845717302
 30
0.0
 10
1232.379671003535
 20
-123.5243152407409
 30
0.0
  0
SPLINE
  5
B2
330
1F
100
AcDbEntity
  8
JIS B 0405-m 普通公差｢m｣中級
  6
________________
 62
     7
370
     0
100
AcDbSpline
210
0.0
220
0.0
230
1.0
 70
     8
 71
     3
 72
     9
 73
     5
 74
     0
 42
0.000000001
 43
0.0001
 40
1.242703174932882
 40
1.242703174932882
 40
1.242703174932882
 40
1.242703174932882
 40
1.246018236414154
 40
1.247963976020122
 40
1.247963976020122
 40
1.247963976020122
 40
1.247963976020122
 10
1237.701734431953
 20
-210.6256544097419
 30
0.0
 10
1237.634218701967
 20
-211.0008071503798
 30
0.0
 10
1237.527075341967
 20
-211.4121220672561
 30
0.0
 10
1237.419931981965
 20
-211.5231223162171
 30
0.0
 10
1237.38030435195
 20
-211.5233042276389
 30
0.0
  0
SPLINE
  5
B3
330
1F
100
AcDbEntity
  8
JIS B 0405-m 普通公差｢m｣中級
  6
________________
 62
     7
370
     0
100
AcDbSpline
210
0.0
220
0.0
230
1.0
 70
     8
 71
     3
 72
     9
 73
     5
 74
     0
 42
0.000000001
 43
0.0001
 40
1.16086666899942
 40
1.16086666899942
 40
1.16086666899942
 40
1.16086666899942
 40
1.163945178925796
 40
1.1661380291412
 40
1.1661380291412
 40
1.1661380291412
 40
1.1661380291412
 10
1242.701869242817
 20
-124.4227594941376
 30
0.0
 10
1242.63917120656
 20
-124.0741830974528
 30
0.0
 10
1242.53181279707
 20
-123.6485849502552
 30
0.0
 10
1242.424454387581
 20
-123.5242877597469
 30
0.0
 10
1242.379794014349
 20
-123.5244623381693
 30
0.0
  0
ARC
  5
B4
330
1F
100
AcDbEntity
  8
JIS B 0405-m 普通公差｢m｣中級
  6
________________
 62
     7
370
     0
100
AcDbCircle
 10
-1246.532853769972
 20
-210.7134964511285
 30
0.0
 40
1.172048071721421
210
0.0
220
0.0
230
-1.0
100
AcDbArc
 50
175.7290883746113
 51
223.6947682540295
  0
ARC
  5
B5
330
1F
100
AcDbEntity
  8
JIS B 0405-m 普通公差｢m｣中級
  6
________________
 62
     7
370
     0
100
AcDbCircle
 10
1251.424468697762
 20
-124.3736464623283
 30
0.0
 40
1.278149473655948
100
AcDbArc
 50
357.8414371505037
 51
41.62783939712062
  0
ARC
  5
B6
330
1F
100
AcDbEntity
  8
JIS B 0405-m 普通公差｢m｣中級
  6
________________
 62
     7
370
     0
100
AcDbCircle
 10
-1256.304451296598
 20
-210.6317865521127
 30
0.0
 40
1.397079089259355
210
0.0
220
0.0
230
-1.0
100
AcDbArc
 50
179.8044010423613
 51
219.639520820012
  0
ARC
  5
B7
330
1F
100
AcDbEntity
  8
JIS B 0405-m 普通公差｢m｣中級
  6
________________
 62
     7
370
     0
100
AcDbCircle
 10
1261.185894897186
 20
-124.4592609659454
 30
0.0
 40
1.516245451661143
100
AcDbArc
 50
1.430050185426932
 51
38.05264461456838
  0
ARC
  5
B8
330
1F
100
AcDbEntity
  8
JIS B 0405-m 普通公差｢m｣中級
  6
________________
 62
     7
370
     0
100
AcDbCircle
 10
-1266.054502573174
 20
-210.5419858679228
 30
0.0
 40
1.649277923504064
210
0.0
220
0.0
230
-1.0
100
AcDbArc
 50
182.9445414167672
 51
216.49933041197
  0
ARC
  5
B9
330
1F
100
AcDbEntity
  8
JIS B 0405-m 普通公差｢m｣中級
  6
________________
 62
     7
370
     0
100
AcDbCircle
 10
1270.937102809621
 20
-124.547073056609
 30
0.0
 40
1.768215792700748
100
AcDbArc
 50
4.332460384395963
 51
35.32341222233271
  0
ARC
  5
BA
330
1F
100
AcDbEntity
  8
JIS B 0405-m 普通公差｢m｣中級
  6
________________
 62
     7
370
     0
100
AcDbCircle
 10
-1275.783547764793
 20
-210.4444844949376
 30
0.0
 40
1.926793658703354
210
0.0
220
0.0
230
-1.0
100
AcDbArc
 50
185.4003497100995
 51
214.0377820425041
  0
ARC
  5
BB
330
1F
100
AcDbEntity
  8
JIS B 0405-m 普通公差｢m｣中級
  6
________________
 62
     7
370
     0
100
AcDbCircle
 10
1280.649378914252
 20
-124.6520690210975
 30
0.0
 40
2.065179685374061
100
AcDbArc
 50
6.446821425406124
 51
33.0860382025694
  0
ARC
  5
BC
330
1F
100
AcDbEntity
  8
JIS B 0405-m 普通公差｢m｣中級
  6
________________
 62
     7
370
     0
100
AcDbCircle
 10
-1285.51600615288
 20
-210.3500697639722
 30
0.0
 40
2.202429517091054
210
0.0
220
0.0
230
-1.0
100
AcDbArc
 50
187.5567040045787
 51
212.1795546849013
  0
ARC
  5
BD
330
1F
100
AcDbEntity
  8
JIS B 0405-m 普通公差｢m｣中級
  6
________________
 62
     7
370
     0
100
AcDbCircle
 10
1290.348287612586
 20
-124.7605596999147
 30
0.0
 40
2.377751133492779
100
AcDbArc
 50
8.210040914828976
 51
31.31819261003459
  0
ARC
  5
BE
330
1F
100
AcDbEntity
  8
JIS B 0405-m 普通公差｢m｣中級
  6
________________
 62
     7
370
     0
100
AcDbCircle
 10
-1295.184285798854
 20
-210.2292220385509
 30
0.0
 40
2.548574514855494
210
0.0
220
0.0
230
-1.0
100
AcDbArc
 50
188.9732532837794
 51
210.5102619041409
  0
LWPOLYLINE
  5
BF
330
1F
100
AcDbEntity
  8
JIS B 0405-m 普通公差｢m｣中級
  6
________________
 62
     7
370
     0
100
AcDbPolyline
 90
        6
 70
     0
 43
0.0
 10
1273.160373553355
 20
-126.9666720385286
 42
-0.0173638192599483
 10
1275.168701896096
 20
-163.5731943061088
 42
0.0129410092284852
 10
1277.382512565483
 20
-207.462853064232
 42
0.0634163379997299
 10
1277.715768499592
 20
-208.9340686800093
 10
1277.783601662347
 20
-209.0127205993292
 10
1277.820417853874
 20
-209.0238473941295
  0
LWPOLYLINE
  5
C0
330
1F
100
AcDbEntity
  8
JIS B 0405-m 普通公差｢m｣中級
  6
________________
 62
     7
370
     0
100
AcDbPolyline
 90
        6
 70
     0
 43
0.0
 10
1263.161231195795
 20
-126.9715504259422
 42
-0.0174399940864856
 10
1265.160067963249
 20
-163.3487313585185
 42
0.0127778072721367
 10
1267.377257528832
 20
-207.4254003721691
 42
0.0621991891631907
 10
1267.712435390852
 20
-208.9282843565745
 10
1267.778833600316
 20
-209.0096815294548
 10
1267.820419764154
 20
-209.0238473941106
  0
LWPOLYLINE
  5
C1
330
1F
100
AcDbEntity
  8
JIS B 0405-m 普通公差｢m｣中級
  6
________________
 62
     7
370
     0
100
AcDbPolyline
 90
        6
 70
     0
 43
0.0
 10
1253.161240115257
 20
-126.9717004997545
 42
-0.0175358387749936
 10
1255.155326651635
 20
-163.2252427097887
 42
0.0126331890620021
 10
1257.370603937617
 20
-207.3772762410067
 42
0.0582682136608188
 10
1257.70521422177
 20
-208.9151347509421
 10
1257.773571944013
 20
-209.0058540723045
 10
1257.820429968824
 20
-209.0238473940807
  0
LWPOLYLINE
  5
C2
330
1F
100
AcDbEntity
  8
JIS B 0405-m 普通公差｢m｣中級
  6
________________
 62
     7
370
     0
100
AcDbPolyline
 90
        6
 70
     0
 43
0.0
 10
1243.161466083158
 20
-126.9730148804271
 42
-0.0176764374103388
 10
1245.14433167578
 20
-162.939751724234
 42
0.0123745624455756
 10
1247.360060281559
 20
-207.2996692733711
 42
0.0559368562494968
 10
1247.698540010177
 20
-208.9021894040781
 10
1247.76450633727
 20
-208.9982410915014
 10
1247.820446908961
 20
-209.0238473940759
  0
LWPOLYLINE
  5
C3
330
1F
100
AcDbEntity
  8
JIS B 0405-m 普通公差｢m｣中級
  6
________________
 62
     7
370
     0
100
AcDbPolyline
 90
        6
 70
     0
 43
0.0
 10
1233.161425975901
 20
-126.972808115123
 42
-0.0177240953238766
 10
1235.141039613946
 20
-162.8538914589244
 42
0.014056839926486
 10
1237.423257331637
 20
-207.7377550224779
 42
0.0611563278271437
 10
1237.695675535396
 20
-208.8964421737025
 10
1237.761660868552
 20
-208.9955442233774
 10
1237.820468956497
 20
-209.023847394095
  0
LWPOLYLINE
  5
C4
330
1F
100
AcDbEntity
  8
JIS B 0405-m 普通公差｢m｣中級
  6
________________
 62
     7
370
     0
100
AcDbPolyline
 90
        6
 70
     0
 43
0.0
 10
1223.161522186466
 20
-126.9733097368359
 42
-0.0178203077568749
 10
1225.132404518627
 20
-162.6298592325419
 42
0.0138937509766824
 10
1227.418013090177
 20
-207.7036425529816
 42
0.0564663597353243
 10
1227.684662580426
 20
-208.872953818964
 10
1227.751116199849
 20
-208.9844889223854
 10
1227.820491741331
 20
-209.0238473941299
  0
LWPOLYLINE
  5
C5
330
1F
100
AcDbEntity
  8
JIS B 0405-m 普通公差｢m｣中級
  6
________________
 62
     7
370
     0
100
AcDbPolyline
 90
        6
 70
     0
 43
0.0
 10
1213.161607316645
 20
-126.9737054376766
 42
-0.017886415233648
 10
1215.127659074198
 20
-162.5066450156598
 42
0.0137572735741432
 10
1217.412767546369
 20
-207.669132086711
 42
0.0554775400867359
 10
1217.681351313836
 20
-208.8655195117551
 10
1217.747821814583
 20
-208.9806214293536
 10
1217.82051531986
 20
-209.0238473940971
  0
LWPOLYLINE
  5
C6
330
1F
100
AcDbEntity
  8
JIS B 0405-m 普通公差｢m｣中級
  6
________________
 62
     7
370
     0
100
AcDbPolyline
 90
        4
 70
     0
 43
0.0
 10
1207.062033020034
 20
-204.4002211602928
 42
0.0463278411934735
 10
1207.672709044709
 20
-208.8452076322098
 10
1207.740634336646
 20
-208.9716417685921
 10
1207.820534572432
 20
-209.0238473940624
  0
LWPOLYLINE
  5
C7
330
1F
100
AcDbEntity
  8
JIS B 0405-m 普通公差｢m｣中級
  6
________________
 62
     7
370
     0
100
AcDbPolyline
 90
        6
 70
     0
 43
0.0
 10
1173.161809068915
 20
-126.9743050690834
 42
-0.0172798719072298
 10
1175.173508373
 20
-163.6976774633673
 42
0.013092730800142
 10
1177.388883504007
 20
-207.5070660551971
 42
0.0462974435675925
 10
1177.657481964563
 20
-208.8064031408516
 10
1177.725915628347
 20
-208.9505169852391
 10
1177.820524002065
 20
-209.0238473941171
  0
LWPOLYLINE
  5
C8
330
1F
100
AcDbEntity
  8
JIS B 0405-m 普通公差｢m｣中級
  6
________________
 62
     7
370
     0
100
AcDbPolyline
 90
        7
 70
     0
 43
0.0
 10
1163.161660084172
 20
-126.9733961518184
 42
-0.017395733472148
 10
1165.162939785263
 20
-163.4237146414614
 42
0.0128550857918842
 10
1167.380216140961
 20
-207.4460344962007
 42
0.0447008717571036
 10
1167.650838384527
 20
-208.7882599509817
 10
1167.716859359237
 20
-208.9358136897905
 10
1167.783280353294
 20
-209.0124655020782
 10
1167.820502853608
 20
-209.0238473941269
  0
LWPOLYLINE
  5
C9
330
1F
100
AcDbEntity
  8
JIS B 0405-m 普通公差｢m｣中級
  6
________________
 62
     7
370
     0
100
AcDbPolyline
 90
        6
 70
     0
 43
0.0
 10
1153.161229122702
 20
-126.9709986667958
 42
-0.0174683073289295
 10
1155.157668606295
 20
-163.2872687874582
 42
0.012730333173582
 10
1157.375435100202
 20
-207.4119808249106
 42
0.0597933129050287
 10
1157.708207928744
 20
-208.9205022267136
 10
1157.776060569669
 20
-209.0076600624111
 10
1157.820478654597
 20
-209.0238473940951
  0
LWPOLYLINE
  5
CA
330
1F
100
AcDbEntity
  8
JIS B 0405-m 普通公差｢m｣中級
  6
________________
 62
     7
370
     0
100
AcDbPolyline
 90
        6
 70
     0
 43
0.0
 10
1143.161261905087
 20
-126.9712483172748
 42
-0.0167479180781464
 10
1145.289216792154
 20
-166.7088097734548
 42
0.0151670956053332
 10
1147.438505648636
 20
-207.8347451101901
 42
0.0649700148548814
 10
1147.703449391106
 20
-208.911582520709
 10
1147.771281587027
 20
-209.0039917087288
 10
1147.820455440976
 20
-209.02384739407
  0
LWPOLYLINE
  5
CB
330
1F
100
AcDbEntity
  8
JIS B 0405-m 普通公差｢m｣中級
  6
________________
 62
     7
370
     0
100
AcDbPolyline
 90
        6
 70
     0
 43
0.0
 10
1283.161164127388
 20
-126.9709088689959
 42
-0.0173018353010512
 10
1285.172002015546
 20
-163.6592140129376
 42
0.0130546752145266
 10
1287.38777253482
 20
-207.4999132254046
 42
0.0473933048623499
 10
1287.660412596088
 20
-208.8139797088494
 10
1287.726340498913
 20
-208.9512361984918
 10
1287.820423670399
 20
-209.0238473941238
  0
LWPOLYLINE
  5
CC
330
1F
100
AcDbEntity
  8
JIS B 0405-m 普通公差｢m｣中級
  6
________________
 62
     7
370
     0
100
AcDbPolyline
 90
        6
 70
     0
 43
0.0
 10
1293.16135554711
 20
-126.9718366537661
 42
-0.0173694874140275
 10
1295.243220620921
 20
-165.5107575515439
 42
0.01385321624858
 10
1297.392538994962
 20
-207.5330320413061
 42
0.0485362787486412
 10
1297.663217125033
 20
-208.8212428203535
 10
1297.729216323246
 20
-208.9555850499936
 10
1297.820438260224
 20
-209.0238473941096
  0
LWPOLYLINE
  5
CD
330
1F
100
AcDbEntity
  8
JIS B 0405-m 普通公差｢m｣中級
  6
________________
 62
     7
370
     0
100
AcDbPolyline
 90
        5
 70
     0
 43
0.0
 10
1134.879647543127
 20
-156.1740387411491
 42
0.0109923285796309
 10
1137.323477410093
 20
-207.0169190887315
 42
0.043826137245421
 10
1137.660562949852
 20
-208.8143541410365
 10
1137.728906547428
 20
-208.9551344229964
 10
1137.820431942242
 20
-209.0238473941148
  0
LINE
  5
CE
330
1F
100
AcDbEntity
  8
JIS B 0405-m 普通公差｢m｣中級
  6
________________
 62
     7
370
     0
100
AcDbLine
 10
1134.879647543128
 20
-167.5210916890359
 30
0.0
 11
1134.879647543128
 21
-156.174038741151
 31
0.0
  0
LINE
  5
CF
330
1F
100
AcDbEntity
  8
JIS B 0405-m 普通公差｢m｣中級
  6
________________
 62
     7
370
     0
100
AcDbLine
 10
1305.879647543127
 20
-124.5238473941331
 30
0.0
 11
1305.879647543127
 21
-210.5238473941331
 31
0.0
  0
LINE
  5
D0
330
1F
100
AcDbEntity
  8
JIS B 0405-m 普通公差｢m｣中級
  6
________________
 62
     7
370
     0
100
AcDbLine
 10
1303.879647543128
 20
-124.5238473941331
 30
0.0
 11
1303.879647543128
 21
-210.5238473941331
 31
0.0
  0
LINE
  5
D1
330
1F
100
AcDbEntity
  8
JIS B 0405-m 普通公差｢m｣中級
  6
________________
 62
     7
370
     0
100
AcDbLine
 10
1288.477421695979
 20
-126.0358973363151
 30
0.0
 11
1282.992552260109
 21
-126.0358973363151
 31
0.0
  0
LINE
  5
D2
330
1F
100
AcDbEntity
  8
JIS B 0405-m 普通公差｢m｣中級
  6
________________
 62
     7
370
     0
100
AcDbLine
 10
1301.879647543127
 20
-126.0358973363151
 30
0.0
 11
1299.879647543127
 21
-126.0358973363151
 31
0.0
  0
LINE
  5
D3
330
1F
100
AcDbEntity
  8
JIS B 0405-m 普通公差｢m｣中級
  6
________________
 62
     7
370
     0
100
AcDbLine
 10
1298.477414434046
 20
-126.0358973363151
 30
0.0
 11
1292.992575669053
 21
-126.0358973363151
 31
0.0
  0
LINE
  5
D4
330
1F
100
AcDbEntity
  8
JIS B 0405-m 普通公差｢m｣中級
  6
________________
 62
     7
370
     0
100
AcDbLine
 10
1301.879647543127
 20
-126.0358973363151
 30
0.0
 11
1301.879647543127
 21
-209.0238473941332
 31
0.0
  0
LINE
  5
D5
330
1F
100
AcDbEntity
  8
JIS B 0405-m 普通公差｢m｣中級
  6
________________
 62
     7
370
     0
100
AcDbLine
 10
1148.477405849174
 20
-126.0358973363151
 30
0.0
 11
1142.992587315538
 21
-126.0358973363151
 31
0.0
  0
LINE
  5
D6
330
1F
100
AcDbEntity
  8
JIS B 0405-m 普通公差｢m｣中級
  6
________________
 62
     7
370
     0
100
AcDbLine
 10
1132.879647543127
 20
-126.707184130216
 30
0.0
 11
1131.879647543128
 21
-126.707184130216
 31
0.0
  0
LINE
  5
D7
330
1F
100
AcDbEntity
  8
JIS B 0405-m 普通公差｢m｣中級
  6
________________
 62
     7
370
     0
100
AcDbLine
 10
1132.879647543127
 20
-126.0358973363151
 30
0.0
 11
1132.879647543127
 21
-126.707184130216
 31
0.0
  0
LINE
  5
D8
330
1F
100
AcDbEntity
  8
JIS B 0405-m 普通公差｢m｣中級
  6
________________
 62
     7
370
     0
100
AcDbLine
 10
1138.477418128811
 20
-126.0358973363151
 30
0.0
 11
1132.879647543127
 21
-126.0358973363151
 31
0.0
  0
LINE
  5
D9
330
1F
100
AcDbEntity
  8
JIS B 0405-m 普通公差｢m｣中級
  6
________________
 62
     7
370
     0
100
AcDbLine
 10
1132.879647543127
 20
-208.3405106580502
 30
0.0
 11
1132.879647543127
 21
-209.0238473941331
 31
0.0
  0
LINE
  5
DA
330
1F
100
AcDbEntity
  8
JIS B 0405-m 普通公差｢m｣中級
  6
________________
 62
     7
370
     0
100
AcDbLine
 10
1132.879647543127
 20
-208.3405106580502
 30
0.0
 11
1131.879647543128
 21
-208.3405106580502
 31
0.0
  0
LINE
  5
DB
330
1F
100
AcDbEntity
  8
JIS B 0405-m 普通公差｢m｣中級
  6
________________
 62
     7
370
     0
100
AcDbLine
 10
1131.879647543128
 20
-175.0238473941331
 30
0.0
 11
1131.879647543128
 21
-208.3405106580502
 31
0.0
  0
LINE
  5
DC
330
1F
100
AcDbEntity
  8
JIS B 0405-m 普通公差｢m｣中級
  6
________________
 62
     7
370
     0
100
AcDbLine
 10
1132.879647543128
 20
-175.0238473941331
 30
0.0
 11
1131.879647543128
 21
-175.0238473941331
 31
0.0
  0
LINE
  5
DD
330
1F
100
AcDbEntity
  8
JIS B 0405-m 普通公差｢m｣中級
  6
________________
 62
     7
370
     0
100
AcDbLine
 10
1132.879647543128
 20
-160.0238473941331
 30
0.0
 11
1132.879647543128
 21
-175.0238473941331
 31
0.0
  0
LINE
  5
DE
330
1F
100
AcDbEntity
  8
JIS B 0405-m 普通公差｢m｣中級
  6
________________
 62
     7
370
     0
100
AcDbLine
 10
1131.879647543128
 20
-160.0238473941331
 30
0.0
 11
1132.879647543128
 21
-160.0238473941331
 31
0.0
  0
LINE
  5
DF
330
1F
100
AcDbEntity
  8
JIS B 0405-m 普通公差｢m｣中級
  6
________________
 62
     7
370
     0
100
AcDbLine
 10
1131.879647543128
 20
-126.707184130216
 30
0.0
 11
1131.879647543128
 21
-160.0238473941331
 31
0.0
  0
LINE
  5
E0
330
1F
100
AcDbEntity
  8
JIS B 0405-m 普通公差｢m｣中級
  6
________________
 62
     7
370
     0
100
AcDbLine
 10
1323.179647543128
 20
-122.7147564850422
 30
0.0
 11
1323.179647543128
 21
-115.2965746668604
 31
0.0
  0
LINE
  5
E1
330
1F
100
AcDbEntity
  8
JIS B 0405-m 普通公差｢m｣中級
  6
________________
 62
     7
370
     0
100
AcDbLine
 10
1322.879647543128
 20
-115.2965746668604
 30
0.0
 11
1323.179647543128
 21
-115.2965746668604
 31
0.0
  0
LINE
  5
E2
330
1F
100
AcDbEntity
  8
JIS B 0405-m 普通公差｢m｣中級
  6
________________
 62
     7
370
     0
100
AcDbLine
 10
1207.062031911092
 20
-110.0238473941331
 30
0.0
 11
1207.062031911092
 21
-225.0238473941331
 31
0.0
  0
LINE
  5
E3
330
1F
100
AcDbEntity
  8
JIS B 0405-m 普通公差｢m｣中級
  6
________________
 62
     7
370
     0
100
AcDbLine
 10
1202.669647543128
 20
-209.9155307417063
 30
0.0
 11
1202.669647543128
 21
-224.9692339344363
 31
0.0
  0
LINE
  5
E4
330
1F
100
AcDbEntity
  8
JIS B 0405-m 普通公差｢m｣中級
  6
________________
 62
     7
370
     0
100
AcDbLine
 10
1202.669647543128
 20
-170.0293543757936
 30
0.0
 11
1202.669647543128
 21
-206.3722087876215
 31
0.0
  0
LINE
  5
E5
330
1F
100
AcDbEntity
  8
JIS B 0405-m 普通公差｢m｣中級
  6
________________
 62
     7
370
     0
100
AcDbLine
 10
1202.669647543128
 20
-128.6754860006447
 30
0.0
 11
1202.669647543128
 21
-165.0183404124725
 31
0.0
  0
LINE
  5
E6
330
1F
100
AcDbEntity
  8
JIS B 0405-m 普通公差｢m｣中級
  6
________________
 62
     7
370
     0
100
AcDbLine
 10
1202.669647543128
 20
-110.0784608538299
 30
0.0
 11
1202.669647543128
 21
-125.1321640465599
 31
0.0
  0
ELLIPSE
  5
E7
330
1F
100
AcDbEntity
  8
JIS B 0405-m 普通公差｢m｣中級
  6
________________
 62
     7
370
     0
100
AcDbEllipse
 10
1183.808139525602
 20
-165.0401274297044
 30
0.0
 11
-0.01569365484788143
 21
0.4997536485084608
 31
0.0
210
0.0
220
0.0
230
1.0
 40
0.5138051922435226
 41
0.0
 42
0.1613289384432972
  0
ELLIPSE
  5
E8
330
1F
100
AcDbEntity
  8
JIS B 0405-m 普通公差｢m｣中級
  6
________________
 62
     7
370
     0
100
AcDbEllipse
 10
1183.808139525602
 20
-165.0401274297044
 30
0.0
 11
-0.01569365484788143
 21
0.4997536485084608
 31
0.0
210
0.0
220
0.0
230
1.0
 40
0.5138051922435226
 41
-0.0610421400379136
 42
0.0
  0
ELLIPSE
  5
E9
330
1F
100
AcDbEntity
  8
JIS B 0405-m 普通公差｢m｣中級
  6
________________
 62
     7
370
     0
100
AcDbEllipse
 10
1183.808139525602
 20
-170.0075673585618
 30
0.0
 11
0.01569365484788143
 21
0.4997536485084608
 31
-3.851859888774471E-34
210
2.417990384660258E-35
220
7.699924131833703E-34
230
1.0
 40
0.513805192243521
 41
3.141592653589793
 42
3.202634793627681
  0
ELLIPSE
  5
EA
330
1F
100
AcDbEntity
  8
JIS B 0405-m 普通公差｢m｣中級
  6
________________
 62
     7
370
     0
100
AcDbEllipse
 10
1183.808139525602
 20
-170.0075673585618
 30
0.0
 11
0.01569365484788143
 21
0.4997536485084608
 31
0.0
210
0.0
220
0.0
230
1.0
 40
0.513805192243521
 41
2.980263468656684
 42
3.141592653589781
  0
ELLIPSE
  5
EB
330
1F
100
AcDbEntity
  8
JIS B 0405-m 普通公差｢m｣中級
  6
________________
 62
     7
370
     0
100
AcDbEllipse
 10
1179.169647543128
 20
-169.8619055186096
 30
0.0
 11
0.01569371836951383
 21
0.4997536465136952
 31
0.0
210
0.0
220
0.0
230
1.0
 40
0.5138067228933767
 41
2.980215323112614
 42
3.141592653589781
  0
LINE
  5
EC
330
1F
100
AcDbEntity
  8
JIS B 0405-m 普通公差｢m｣中級
  6
________________
 62
     7
370
     0
100
AcDbLine
 10
1178.669647543128
 20
-169.8619055186096
 30
0.0
 11
1178.669647543128
 21
-165.1857892696567
 31
0.0
  0
ELLIPSE
  5
ED
330
1F
100
AcDbEntity
  8
JIS B 0405-m 普通公差｢m｣中級
  6
________________
 62
     7
370
     0
100
AcDbEllipse
 10
1179.169647543128
 20
-165.1857892696567
 30
0.0
 11
-0.01569371836951383
 21
0.4997536465136952
 31
0.0
210
0.0
220
0.0
230
1.0
 40
0.5138067228933767
 41
0.0
 42
0.1613770497988776
  0
LINE
  5
EE
330
1F
100
AcDbEntity
  8
JIS B 0405-m 普通公差｢m｣中級
  6
________________
 62
     7
370
     0
100
AcDbLine
 10
1202.669647543128
 20
-134.3996479705942
 30
0.0
 11
1192.08249180038
 21
-135.0194342807627
 31
0.0
  0
LINE
  5
EF
330
1F
100
AcDbEntity
  8
JIS B 0405-m 普通公差｢m｣中級
  6
________________
 62
     7
370
     0
100
AcDbLine
 10
1202.669647543128
 20
-200.648046817672
 30
0.0
 11
1192.08249180038
 21
-200.0282605075036
 31
0.0
  0
LINE
  5
F0
330
1F
100
AcDbEntity
  8
JIS B 0405-m 普通公差｢m｣中級
  6
________________
 62
     7
370
     0
100
AcDbLine
 10
1191.191657195406
 20
-135.5464044503109
 30
0.0
 11
1191.169647543127
 21
-135.7023792161007
 31
0.0
  0
ELLIPSE
  5
F1
330
1F
100
AcDbEntity
  8
JIS B 0405-m 普通公差｢m｣中級
  6
________________
 62
     7
370
     0
100
AcDbEllipse
 10
1192.169647543128
 20
-135.6860186431483
 30
0.0
 11
0.9999999999998899
 21
0.0
 31
0.0
210
0.0
220
0.0
230
1.0
 40
0.6691306063589157
 41
1.658062789394609
 42
2.931398138958866
  0
LINE
  5
F2
330
1F
100
AcDbEntity
  8
JIS B 0405-m 普通公差｢m｣中級
  6
________________
 62
     7
370
     0
100
AcDbLine
 10
1191.169647543128
 20
-135.7023792161006
 30
0.0
 11
1191.169647543128
 21
-164.5401274297044
 31
0.0
  0
ELLIPSE
  5
F3
330
1F
100
AcDbEntity
  8
JIS B 0405-m 普通公差｢m｣中級
  6
________________
 62
     7
370
     0
100
AcDbEllipse
 10
1192.169647543128
 20
-199.361676145118
 30
0.0
 11
0.9999999999998899
 21
0.0
 31
0.0
210
0.0
220
0.0
230
-1.0
 40
0.6691306063589435
 41
1.658062789394616
 42
2.931398138958879
  0
LINE
  5
F4
330
1F
100
AcDbEntity
  8
JIS B 0405-m 普通公差｢m｣中級
  6
________________
 62
     7
370
     0
100
AcDbLine
 10
1191.169647543128
 20
-199.3453155721655
 30
0.0
 11
1191.191657195406
 21
-199.5012903379553
 31
0.0
  0
LINE
  5
F5
330
1F
100
AcDbEntity
  8
JIS B 0405-m 普通公差｢m｣中級
  6
________________
 62
     7
370
     0
100
AcDbLine
 10
1191.169647543128
 20
-170.5075673585618
 30
0.0
 11
1191.169647543128
 21
-199.3453155721655
 31
0.0
  0
LINE
  5
F6
330
1F
100
AcDbEntity
  8
JIS B 0405-m 普通公差｢m｣中級
  6
________________
 62
     7
370
     0
100
AcDbLine
 10
1178.669647543128
 20
-165.5216403186519
 30
0.0
 11
1178.669647543128
 21
-165.186435067132
 31
0.0
  0
LINE
  5
F7
330
1F
100
AcDbEntity
  8
JIS B 0405-m 普通公差｢m｣中級
  6
________________
 62
     7
370
     0
100
AcDbLine
 10
1178.669647543128
 20
-165.186435067132
 30
0.0
 11
1178.669647543128
 21
-164.1811115907947
 31
0.0
  0
LINE
  5
F8
330
1F
100
AcDbEntity
  8
JIS B 0405-m 普通公差｢m｣中級
  6
________________
 62
     7
370
     0
100
AcDbLine
 10
1178.669647543128
 20
-170.8665831974715
 30
0.0
 11
1178.669647543128
 21
-169.8612597211344
 31
0.0
  0
LINE
  5
F9
330
1F
100
AcDbEntity
  8
JIS B 0405-m 普通公差｢m｣中級
  6
________________
 62
     7
370
     0
100
AcDbLine
 10
1178.669647543128
 20
-169.8612597211344
 30
0.0
 11
1178.669647543128
 21
-169.5260544696144
 31
0.0
  0
LINE
  5
FA
330
1F
100
AcDbEntity
  8
JIS B 0405-m 普通公差｢m｣中級
  6
________________
 62
     7
370
     0
100
AcDbLine
 10
1178.669647543128
 20
-136.8794428899299
 30
0.0
 11
1178.669647543128
 21
-164.1811115907947
 31
0.0
  0
LINE
  5
FB
330
1F
100
AcDbEntity
  8
JIS B 0405-m 普通公差｢m｣中級
  6
________________
 62
     7
370
     0
100
AcDbLine
 10
1178.669647543128
 20
-170.8665831974715
 30
0.0
 11
1178.669647543128
 21
-198.1682518983362
 31
0.0
  0
LINE
  5
FC
330
1F
100
AcDbEntity
  8
JIS B 0405-m 普通公差｢m｣中級
  6
________________
 62
     7
370
     0
100
AcDbLine
 10
1178.669647543128
 20
-135.1695818638398
 30
0.0
 11
1178.669647543128
 21
-130.8756273401612
 31
0.0
  0
LINE
  5
FD
330
1F
100
AcDbEntity
  8
JIS B 0405-m 普通公差｢m｣中級
  6
________________
 62
     7
370
     0
100
AcDbLine
 10
1178.669647543128
 20
-204.172067448105
 30
0.0
 11
1178.669647543128
 21
-199.8781129244264
 31
0.0
  0
LINE
  5
FE
330
1F
100
AcDbEntity
  8
JIS B 0405-m 普通公差｢m｣中級
  6
________________
 62
     7
370
     0
100
AcDbLine
 10
1178.669647543128
 20
-130.8756273401612
 30
0.0
 11
1178.669647543128
 21
-127.56911383091
 31
0.0
  0
LINE
  5
FF
330
1F
100
AcDbEntity
  8
JIS B 0405-m 普通公差｢m｣中級
  6
________________
 62
     7
370
     0
100
AcDbLine
 10
1178.669647543128
 20
-207.4785809573562
 30
0.0
 11
1178.669647543128
 21
-204.1720674481051
 31
0.0
  0
LINE
  5
100
330
1F
100
AcDbEntity
  8
JIS B 0405-m 普通公差｢m｣中級
  6
________________
 62
     7
370
     0
100
AcDbLine
 10
1178.669647543128
 20
-199.8135472435475
 30
0.0
 11
1178.669647543128
 21
-199.7135994575257
 31
0.0
  0
LINE
  5
101
330
1F
100
AcDbEntity
  8
JIS B 0405-m 普通公差｢m｣中級
  6
________________
 62
     7
370
     0
100
AcDbLine
 10
1178.669647543128
 20
-199.7135994575257
 30
0.0
 11
1178.669647543128
 21
-198.1682518983363
 31
0.0
  0
LINE
  5
102
330
1F
100
AcDbEntity
  8
JIS B 0405-m 普通公差｢m｣中級
  6
________________
 62
     7
370
     0
100
AcDbLine
 10
1178.669647543128
 20
-199.8781129244264
 30
0.0
 11
1178.669647543128
 21
-199.8135472435475
 31
0.0
  0
LINE
  5
103
330
1F
100
AcDbEntity
  8
JIS B 0405-m 普通公差｢m｣中級
  6
________________
 62
     7
370
     0
100
AcDbLine
 10
1178.669647543128
 20
-135.2341475447189
 30
0.0
 11
1178.669647543127
 21
-135.1695818638398
 31
0.0
  0
LINE
  5
104
330
1F
100
AcDbEntity
  8
JIS B 0405-m 普通公差｢m｣中級
  6
________________
 62
     7
370
     0
100
AcDbLine
 10
1178.669647543128
 20
-136.87944288993
 30
0.0
 11
1178.669647543128
 21
-135.3340953307407
 31
0.0
  0
LINE
  5
105
330
1F
100
AcDbEntity
  8
JIS B 0405-m 普通公差｢m｣中級
  6
________________
 62
     7
370
     0
100
AcDbLine
 10
1178.669647543128
 20
-135.3340953307407
 30
0.0
 11
1178.669647543128
 21
-135.234147544719
 31
0.0
  0
LINE
  5
106
330
1F
100
AcDbEntity
  8
JIS B 0405-m 普通公差｢m｣中級
  6
________________
 62
     7
370
     0
100
AcDbLine
 10
1202.669647543128
 20
-118.0883507286197
 30
0.0
 11
1192.08249180038
 21
-119.0133374332911
 31
0.0
  0
LINE
  5
107
330
1F
100
AcDbEntity
  8
JIS B 0405-m 普通公差｢m｣中級
  6
________________
 62
     7
370
     0
100
AcDbLine
 10
1202.669647543128
 20
-216.9593440596466
 30
0.0
 11
1192.08249180038
 21
-216.0343573549751
 31
0.0
  0
LINE
  5
108
330
1F
100
AcDbEntity
  8
JIS B 0405-m 普通公差｢m｣中級
  6
________________
 62
     7
370
     0
100
AcDbLine
 10
1191.191657195406
 20
-119.7998026917093
 30
0.0
 11
1191.169647543127
 21
-120.0093239182808
 31
0.0
  0
ELLIPSE
  5
109
330
1F
100
AcDbEntity
  8
JIS B 0405-m 普通公差｢m｣中級
  6
________________
 62
     7
370
     0
100
AcDbEllipse
 10
1192.169647543128
 20
-120.0081668811715
 30
0.0
 11
0.9999999999998899
 21
2.775557561562891E-14
 31
0.0
210
0.0
220
0.0
230
1.0
 40
0.998629534754671
 41
1.658062789394588
 42
2.931398138958851
  0
LINE
  5
10A
330
1F
100
AcDbEntity
  8
JIS B 0405-m 普通公差｢m｣中級
  6
________________
 62
     7
370
     0
100
AcDbLine
 10
1191.169647543128
 20
-120.0093239182808
 30
0.0
 11
1191.169647543128
 21
-125.000787380017
 31
0.0
  0
ELLIPSE
  5
10B
330
1F
100
AcDbEntity
  8
JIS B 0405-m 普通公差｢m｣中級
  6
________________
 62
     7
370
     0
100
AcDbEllipse
 10
1192.169647543128
 20
-215.0395279070947
 30
0.0
 11
0.9999999999998899
 21
2.775557561562891E-14
 31
0.0
210
0.0
220
0.0
230
-1.0
 40
0.9986295347546849
 41
1.658062789394651
 42
2.931398138958914
  0
LINE
  5
10C
330
1F
100
AcDbEntity
  8
JIS B 0405-m 普通公差｢m｣中級
  6
________________
 62
     7
370
     0
100
AcDbLine
 10
1191.169647543128
 20
-215.0383708699854
 30
0.0
 11
1191.191657195406
 21
-215.2478920965569
 31
0.0
  0
LINE
  5
10D
330
1F
100
AcDbEntity
  8
JIS B 0405-m 普通公差｢m｣中級
  6
________________
 62
     7
370
     0
100
AcDbLine
 10
1191.169647543128
 20
-210.0469074082492
 30
0.0
 11
1191.169647543128
 21
-215.0383708699854
 31
0.0
  0
LINE
  5
10E
330
1F
100
AcDbEntity
  8
JIS B 0405-m 普通公差｢m｣中級
  6
________________
 62
     7
370
     0
100
AcDbLine
 10
1178.669647543128
 20
-120.8433791301035
 30
0.0
 11
1178.669647543128
 21
-127.56911383091
 31
0.0
  0
LINE
  5
10F
330
1F
100
AcDbEntity
  8
JIS B 0405-m 普通公差｢m｣中級
  6
________________
 62
     7
370
     0
100
AcDbLine
 10
1178.669647543128
 20
-207.4785809573562
 30
0.0
 11
1178.669647543128
 21
-214.2043156581628
 31
0.0
  0
LINE
  5
110
330
1F
100
AcDbEntity
  8
JIS B 0405-m 普通公差｢m｣中級
  6
________________
 62
     7
370
     0
100
AcDbLine
 10
1178.669647543128
 20
-215.2818955831755
 30
0.0
 11
1178.669647543128
 21
-214.2043156581628
 31
0.0
  0
LINE
  5
111
330
1F
100
AcDbEntity
  8
JIS B 0405-m 普通公差｢m｣中級
  6
________________
 62
     7
370
     0
100
AcDbLine
 10
1178.669647543128
 20
-120.8433791301035
 30
0.0
 11
1178.669647543128
 21
-119.7657992050907
 31
0.0
  0
LINE
  5
112
330
1F
100
AcDbEntity
  8
JIS B 0405-m 普通公差｢m｣中級
  6
________________
 62
     7
370
     0
100
AcDbLine
 10
1178.669647543128
 20
-119.7657992050907
 30
0.0
 11
1178.669647543128
 21
-113.357379432496
 31
0.0
  0
LINE
  5
113
330
1F
100
AcDbEntity
  8
JIS B 0405-m 普通公差｢m｣中級
  6
________________
 62
     7
370
     0
100
AcDbLine
 10
1178.669647543128
 20
-221.6903153557703
 30
0.0
 11
1178.669647543128
 21
-215.2818955831754
 31
0.0
  0
LINE
  5
114
330
1F
100
AcDbEntity
  8
JIS B 0405-m 普通公差｢m｣中級
  6
________________
 62
     7
370
     0
100
AcDbLine
 10
1178.669647543128
 20
-113.357379432496
 30
0.0
 11
1178.669647543128
 21
-113.3069425836177
 31
0.0
  0
LINE
  5
115
330
1F
100
AcDbEntity
  8
JIS B 0405-m 普通公差｢m｣中級
  6
________________
 62
     7
370
     0
100
AcDbLine
 10
1178.669647543128
 20
-221.7407522046485
 30
0.0
 11
1178.669647543128
 21
-221.6903153557702
 31
0.0
  0
LINE
  5
116
330
1F
100
AcDbEntity
  8
JIS B 0405-m 普通公差｢m｣中級
  6
________________
 62
     7
370
     0
100
AcDbLine
 10
1316.879647543128
 20
-225.0238473941331
 30
0.0
 11
1321.879647543127
 21
-225.0238473941331
 31
0.0
  0
ARC
  5
117
330
1F
100
AcDbEntity
  8
JIS B 0405-m 普通公差｢m｣中級
  6
________________
 62
     7
370
     0
100
AcDbCircle
 10
1321.879647543127
 20
-224.0238473941331
 30
0.0
 40
1.000000000000001
100
AcDbArc
 50
270.0
 51
359.9999999999996
  0
LINE
  5
118
330
1F
100
AcDbEntity
  8
JIS B 0405-m 普通公差｢m｣中級
  6
________________
 62
     7
370
     0
100
AcDbLine
 10
1323.079647543128
 20
-163.8104499345116
 30
0.0
 11
1322.879647543128
 21
-163.8104499345116
 31
0.0
  0
LINE
  5
119
330
1F
100
AcDbEntity
  8
JIS B 0405-m 普通公差｢m｣中級
  6
________________
 62
     7
370
     0
100
AcDbLine
 10
1142.379869950458
 20
-123.5245656257358
 30
0.0
 11
1138.879869950466
 21
-123.5245575652906
 31
0.0
  0
LINE
  5
11A
330
1F
100
AcDbEntity
  8
JIS B 0405-m 普通公差｢m｣中級
  6
________________
 62
     7
370
     0
100
AcDbLine
 10
1152.379826775251
 20
-123.5244366439687
 30
0.0
 11
1148.879826775261
 21
-123.5244285834999
 31
0.0
  0
LINE
  5
11B
330
1F
100
AcDbEntity
  8
JIS B 0405-m 普通公差｢m｣中級
  6
________________
 62
     7
370
     0
100
AcDbLine
 10
1162.379724162698
 20
-123.5242856478495
 30
0.0
 11
1158.879724162708
 21
-123.5242775873531
 31
0.0
  0
LINE
  5
11C
330
1F
100
AcDbEntity
  8
JIS B 0405-m 普通公差｢m｣中級
  6
________________
 62
     7
370
     0
100
AcDbLine
 10
1172.379592262294
 20
-123.5241330545911
 30
0.0
 11
1168.879592262304
 21
-123.5241249940666
 31
0.0
  0
LINE
  5
11D
330
1F
100
AcDbEntity
  8
JIS B 0405-m 普通公差｢m｣中級
  6
________________
 62
     7
370
     0
100
AcDbLine
 10
1212.379339334477
 20
-123.5240288296792
 30
0.0
 11
1208.879339334486
 21
-123.5240207691357
 31
0.0
  0
LINE
  5
11E
330
1F
100
AcDbEntity
  8
JIS B 0405-m 普通公差｢m｣中級
  6
________________
 62
     7
370
     0
100
AcDbLine
 10
1222.379479962724
 20
-123.5241631883756
 30
0.0
 11
1218.879479962734
 21
-123.5241551278567
 31
0.0
  0
LINE
  5
11F
330
1F
100
AcDbEntity
  8
JIS B 0405-m 普通公差｢m｣中級
  6
________________
 62
     7
370
     0
100
AcDbLine
 10
1232.379671003535
 20
-123.524315240741
 30
0.0
 11
1228.879671003544
 21
-123.5243071802499
 31
0.0
  0
LINE
  5
120
330
1F
100
AcDbEntity
  8
JIS B 0405-m 普通公差｢m｣中級
  6
________________
 62
     7
370
     0
100
AcDbLine
 10
1242.379794014349
 20
-123.5244623381693
 30
0.0
 11
1238.879794014358
 21
-123.5244542777052
 31
0.0
  0
LINE
  5
121
330
1F
100
AcDbEntity
  8
JIS B 0405-m 普通公差｢m｣中級
  6
________________
 62
     7
370
     0
100
AcDbLine
 10
1252.379854007988
 20
-123.5245852115094
 30
0.0
 11
1248.879854007997
 21
-123.5245771510678
 31
0.0
  0
LINE
  5
122
330
1F
100
AcDbEntity
  8
JIS B 0405-m 普通公差｢m｣中級
  6
________________
 62
     7
370
     0
100
AcDbLine
 10
1262.379854399361
 20
-123.5246696237798
 30
0.0
 11
1258.87985439937
 21
-123.5246615633536
 31
0.0
  0
LINE
  5
123
330
1F
100
AcDbEntity
  8
JIS B 0405-m 普通公差｢m｣中級
  6
________________
 62
     7
370
     0
100
AcDbLine
 10
1272.379792534768
 20
-123.5247064814947
 30
0.0
 11
1268.879792534777
 21
-123.5246984210753
 31
0.0
  0
LINE
  5
124
330
1F
100
AcDbEntity
  8
JIS B 0405-m 普通公差｢m｣中級
  6
________________
 62
     7
370
     0
100
AcDbLine
 10
1282.379693348437
 20
-123.5246919534601
 30
0.0
 11
1278.879693348446
 21
-123.524683893038
 31
0.0
  0
LINE
  5
125
330
1F
100
AcDbEntity
  8
JIS B 0405-m 普通公差｢m｣中級
  6
________________
 62
     7
370
     0
100
AcDbLine
 10
1292.379585721201
 20
-123.5246275007804
 30
0.0
 11
1288.87958572121
 21
-123.5246194403465
 31
0.0
  0
LINE
  5
126
330
1F
100
AcDbEntity
  8
JIS B 0405-m 普通公差｢m｣中級
  6
________________
 62
     7
370
     0
100
AcDbLine
 10
1299.879647556711
 20
-123.5245140337383
 30
0.0
 11
1298.8794955245
 21
-123.5245117304014
 31
0.0
  0
LINE
  5
127
330
1F
100
AcDbEntity
  8
JIS B 0405-m 普通公差｢m｣中級
  6
________________
 62
     7
370
     0
100
AcDbLine
 10
1293.879980200975
 20
-211.5231227146687
 30
0.0
 11
1297.379980200965
 21
-211.5231146542262
 31
0.0
  0
LINE
  5
128
330
1F
100
AcDbEntity
  8
JIS B 0405-m 普通公差｢m｣中級
  6
________________
 62
     7
370
     0
100
AcDbLine
 10
1283.880105633627
 20
-211.5230351568151
 30
0.0
 11
1287.380105633618
 21
-211.5230270963886
 31
0.0
  0
LINE
  5
129
330
1F
100
AcDbEntity
  8
JIS B 0405-m 普通公差｢m｣中級
  6
________________
 62
     7
370
     0
100
AcDbLine
 10
1273.880221273717
 20
-211.5229950101657
 30
0.0
 11
1277.380221273707
 21
-211.5229869497466
 31
0.0
  0
LINE
  5
12A
330
1F
100
AcDbEntity
  8
JIS B 0405-m 普通公差｢m｣中級
  6
________________
 62
     7
370
     0
100
AcDbLine
 10
1263.880297423067
 20
-211.5230065249818
 30
0.0
 11
1267.380297423058
 21
-211.5229984645606
 31
0.0
  0
LINE
  5
12B
330
1F
100
AcDbEntity
  8
JIS B 0405-m 普通公差｢m｣中級
  6
________________
 62
     7
370
     0
100
AcDbLine
 10
1253.880304730682
 20
-211.5230686412345
 30
0.0
 11
1257.380304730673
 21
-211.5230605808019
 31
0.0
  0
LINE
  5
12C
330
1F
100
AcDbEntity
  8
JIS B 0405-m 普通公差｢m｣中級
  6
________________
 62
     7
370
     0
100
AcDbLine
 10
1243.880279966032
 20
-211.5231745330925
 30
0.0
 11
1247.380279966023
 21
-211.5231664726405
 31
0.0
  0
LINE
  5
12D
330
1F
100
AcDbEntity
  8
JIS B 0405-m 普通公差｢m｣中級
  6
________________
 62
     7
370
     0
100
AcDbLine
 10
1233.880304363262
 20
-211.5233122880643
 30
0.0
 11
1237.380304363252
 21
-211.5233042275871
 31
0.0
  0
LINE
  5
12E
330
1F
100
AcDbEntity
  8
JIS B 0405-m 普通公差｢m｣中級
  6
________________
 62
     7
370
     0
100
AcDbLine
 10
1223.8803663444
 20
-211.5234654450597
 30
0.0
 11
1227.380366344391
 21
-211.5234573845544
 31
0.0
  0
LINE
  5
12F
330
1F
100
AcDbEntity
  8
JIS B 0405-m 普通公差｢m｣中級
  6
________________
 62
     7
370
     0
100
AcDbLine
 10
1213.880452586201
 20
-211.5236122993996
 30
0.0
 11
1217.380452586191
 21
-211.5236042388674
 31
0.0
  0
LINE
  5
130
330
1F
100
AcDbEntity
  8
JIS B 0405-m 普通公差｢m｣中級
  6
________________
 62
     7
370
     0
100
AcDbLine
 10
1207.062031911092
 20
-211.5237193667772
 30
0.0
 11
1207.379358397056
 21
-211.5237186359695
 31
0.0
  0
LINE
  5
131
330
1F
100
AcDbEntity
  8
JIS B 0405-m 普通公差｢m｣中級
  6
________________
 62
     7
370
     0
100
AcDbLine
 10
1173.879590142394
 20
-211.5236388598108
 30
0.0
 11
1177.379590142384
 21
-211.5236307992737
 31
0.0
  0
LINE
  5
132
330
1F
100
AcDbEntity
  8
JIS B 0405-m 普通公差｢m｣中級
  6
________________
 62
     7
370
     0
100
AcDbLine
 10
1163.879723416702
 20
-211.5234945066149
 30
0.0
 11
1167.379723416693
 21
-211.5234864461042
 31
0.0
  0
LINE
  5
133
330
1F
100
AcDbEntity
  8
JIS B 0405-m 普通公差｢m｣中級
  6
________________
 62
     7
370
     0
100
AcDbLine
 10
1153.879835765967
 20
-211.5233397671121
 30
0.0
 11
1157.379835765958
 21
-211.5233317066298
 31
0.0
  0
LINE
  5
134
330
1F
100
AcDbEntity
  8
JIS B 0405-m 普通公差｢m｣中級
  6
________________
 62
     7
370
     0
100
AcDbLine
 10
1143.879899967193
 20
-211.5231976114521
 30
0.0
 11
1147.379899967184
 21
-211.5231895509959
 31
0.0
  0
LINE
  5
135
330
1F
100
AcDbEntity
  8
JIS B 0405-m 普通公差｢m｣中級
  6
________________
 62
     7
370
     0
100
AcDbLine
 10
1134.879647563056
 20
-211.523083439714
 30
0.0
 11
1137.379888898556
 21
-211.5230776817041
 31
0.0
  0
LINE
  5
136
330
1F
100
AcDbEntity
  8
JIS B 0405-m 普通公差｢m｣中級
  6
________________
 62
     7
370
     0
100
AcDbLine
 10
1138.560049818972
 20
-124.4092646168036
 30
0.0
 11
1138.267012797363
 21
-126.0360167444805
 31
0.0
  0
LINE
  5
137
330
1F
100
AcDbEntity
  8
JIS B 0405-m 普通公差｢m｣中級
  6
________________
 62
     7
370
     0
100
AcDbLine
 10
1148.557779664684
 20
-124.4219241286371
 30
0.0
 11
1148.267022277716
 21
-126.0360115660287
 31
0.0
  0
LINE
  5
138
330
1F
100
AcDbEntity
  8
JIS B 0405-m 普通公差｢m｣中級
  6
________________
 62
     7
370
     0
100
AcDbLine
 10
1158.557758423874
 20
-124.4220815178905
 30
0.0
 11
1158.269199252954
 21
-126.0239546641561
 31
0.0
  0
LINE
  5
139
330
1F
100
AcDbEntity
  8
JIS B 0405-m 普通公差｢m｣中級
  6
________________
 62
     7
370
     0
100
AcDbLine
 10
1168.557700624681
 20
-124.4223918341561
 30
0.0
 11
1168.269194003873
 21
-126.0239543869308
 31
0.0
  0
LINE
  5
13A
330
1F
100
AcDbEntity
  8
JIS B 0405-m 普通公差｢m｣中級
  6
________________
 62
     7
370
     0
100
AcDbLine
 10
1178.557586307655
 20
-124.4229667444174
 30
0.0
 11
1178.269180466817
 21
-126.023954092076
 31
0.0
  0
LINE
  5
13B
330
1F
100
AcDbEntity
  8
JIS B 0405-m 普通公差｢m｣中級
  6
________________
 62
     7
370
     0
100
AcDbLine
 10
1208.557491166543
 20
-124.423104858738
 30
0.0
 11
1208.269108615771
 21
-126.0239537872488
 31
0.0
  0
LINE
  5
13C
330
1F
100
AcDbEntity
  8
JIS B 0405-m 普通公差｢m｣中級
  6
________________
 62
     7
370
     0
100
AcDbLine
 10
1218.557428277806
 20
-124.4233086524478
 30
0.0
 11
1218.269085139988
 21
-126.0239535133981
 31
0.0
  0
LINE
  5
13D
330
1F
100
AcDbEntity
  8
JIS B 0405-m 普通公差｢m｣中級
  6
________________
 62
     7
370
     0
100
AcDbLine
 10
1228.55757871
 20
-124.4223597584384
 30
0.0
 11
1228.26906911029
 21
-126.02395376842
 31
0.0
  0
LINE
  5
13E
330
1F
100
AcDbEntity
  8
JIS B 0405-m 普通公差｢m｣中級
  6
________________
 62
     7
370
     0
100
AcDbLine
 10
1238.558697525026
 20
-124.4161031424233
 30
0.0
 11
1238.269065943626
 21
-126.0239561904637
 31
0.0
  0
LINE
  5
13F
330
1F
100
AcDbEntity
  8
JIS B 0405-m 普通公差｢m｣中級
  6
________________
 62
     7
370
     0
100
AcDbLine
 10
1248.557916832631
 20
-124.4204705593522
 30
0.0
 11
1248.269078040927
 21
-126.0239550567334
 31
0.0
  0
LINE
  5
140
330
1F
100
AcDbEntity
  8
JIS B 0405-m 普通公差｢m｣中級
  6
________________
 62
     7
370
     0
100
AcDbLine
 10
1258.557781454738
 20
-124.4213273255554
 30
0.0
 11
1258.269114448422
 21
-126.0238708137029
 31
0.0
  0
LINE
  5
141
330
1F
100
AcDbEntity
  8
JIS B 0405-m 普通公差｢m｣中級
  6
________________
 62
     7
370
     0
100
AcDbLine
 10
1268.557736836355
 20
-124.4217157552948
 30
0.0
 11
1268.269125068886
 21
-126.0239548442925
 31
0.0
  0
LINE
  5
142
330
1F
100
AcDbEntity
  8
JIS B 0405-m 普通公差｢m｣中級
  6
________________
 62
     7
370
     0
100
AcDbLine
 10
1278.557967168507
 20
-124.4205855704059
 30
0.0
 11
1278.269150394986
 21
-126.0239553583353
 31
0.0
  0
LINE
  5
143
330
1F
100
AcDbEntity
  8
JIS B 0405-m 普通公差｢m｣中級
  6
________________
 62
     7
370
     0
100
AcDbLine
 10
1288.557967830303
 20
-124.4207203610952
 30
0.0
 11
1288.266999241206
 21
-126.0360120674771
 31
0.0
  0
LINE
  5
144
330
1F
100
AcDbEntity
  8
JIS B 0405-m 普通公差｢m｣中級
  6
________________
 62
     7
370
     0
100
AcDbLine
 10
1298.557899476382
 20
-124.4212099739325
 30
0.0
 11
1298.267015698875
 21
-126.036011889075
 31
0.0
  0
LINE
  5
145
330
1F
100
AcDbEntity
  8
JIS B 0405-m 普通公差｢m｣中級
  6
________________
 62
     7
370
     0
100
AcDbLine
 10
1293.098371029948
 20
-208.0766708179787
 30
0.0
 11
1293.560064564879
 21
-210.6385254046213
 31
0.0
  0
LINE
  5
146
330
1F
100
AcDbEntity
  8
JIS B 0405-m 普通公差｢m｣中級
  6
________________
 62
     7
370
     0
100
AcDbLine
 10
1283.096595817814
 20
-208.0669520312414
 30
0.0
 11
1283.557915063797
 21
-210.6267478354304
 31
0.0
  0
LINE
  5
147
330
1F
100
AcDbEntity
  8
JIS B 0405-m 普通公差｢m｣中級
  6
________________
 62
     7
370
     0
100
AcDbLine
 10
1273.096770644082
 20
-208.0680483872456
 30
0.0
 11
1273.558218876441
 21
-210.6285821566698
 31
0.0
  0
LINE
  5
148
330
1F
100
AcDbEntity
  8
JIS B 0405-m 普通公差｢m｣中級
  6
________________
 62
     7
370
     0
100
AcDbLine
 10
1263.096915427969
 20
-208.0689913346189
 30
0.0
 11
1263.55802264639
 21
-210.6276404245865
 31
0.0
  0
LINE
  5
149
330
1F
100
AcDbEntity
  8
JIS B 0405-m 普通公差｢m｣中級
  6
________________
 62
     7
370
     0
100
AcDbLine
 10
1253.096843440124
 20
-208.0687259597677
 30
0.0
 11
1253.557810266357
 21
-210.6265861592412
 31
0.0
  0
LINE
  5
14A
330
1F
100
AcDbEntity
  8
JIS B 0405-m 普通公差｢m｣中級
  6
________________
 62
     7
370
     0
100
AcDbLine
 10
1243.097230341299
 20
-208.0709746307039
 30
0.0
 11
1243.557600720457
 21
-210.6254971834002
 31
0.0
  0
LINE
  5
14B
330
1F
100
AcDbEntity
  8
JIS B 0405-m 普通公差｢m｣中級
  6
________________
 62
     7
370
     0
100
AcDbLine
 10
1233.097776553598
 20
-208.0740495080594
 30
0.0
 11
1233.557584694452
 21
-210.6254030222094
 31
0.0
  0
LINE
  5
14C
330
1F
100
AcDbEntity
  8
JIS B 0405-m 普通公差｢m｣中級
  6
________________
 62
     7
370
     0
100
AcDbLine
 10
1223.098757918259
 20
-208.0794326060202
 30
0.0
 11
1223.55976397201
 21
-210.6373809196936
 31
0.0
  0
LINE
  5
14D
330
1F
100
AcDbEntity
  8
JIS B 0405-m 普通公差｢m｣中級
  6
________________
 62
     7
370
     0
100
AcDbLine
 10
1213.096689359945
 20
-208.0678897980967
 30
0.0
 11
1213.557609098247
 21
-210.6253199324874
 31
0.0
  0
LINE
  5
14E
330
1F
100
AcDbEntity
  8
JIS B 0405-m 普通公差｢m｣中級
  6
________________
 62
     7
370
     0
100
AcDbLine
 10
1173.09660068261
 20
-208.0668879095686
 30
0.0
 11
1173.557641083213
 21
-210.6249963472899
 31
0.0
  0
LINE
  5
14F
330
1F
100
AcDbEntity
  8
JIS B 0405-m 普通公差｢m｣中級
  6
________________
 62
     7
370
     0
100
AcDbLine
 10
1163.097141468881
 20
-208.0698217764487
 30
0.0
 11
1163.557718982799
 21
-210.6253932114401
 31
0.0
  0
LINE
  5
150
330
1F
100
AcDbEntity
  8
JIS B 0405-m 普通公差｢m｣中級
  6
________________
 62
     7
370
     0
100
AcDbLine
 10
1153.098122269383
 20
-208.0752369518026
 30
0.0
 11
1153.559032174791
 21
-210.632690413177
 31
0.0
  0
LINE
  5
151
330
1F
100
AcDbEntity
  8
JIS B 0405-m 普通公差｢m｣中級
  6
________________
 62
     7
370
     0
100
AcDbLine
 10
1143.097807353935
 20
-208.0735255729574
 30
0.0
 11
1143.557889927005
 21
-210.6264207036183
 31
0.0
  0
LINE
  5
152
330
1F
100
AcDbEntity
  8
JIS B 0405-m 普通公差｢m｣中級
  6
________________
 62
     7
370
     0
100
AcDbLine
 10
1143.162058671302
 20
-126.9756639682215
 30
0.0
 11
1142.701634922014
 21
-124.4207652630542
 31
0.0
  0
LINE
  5
153
330
1F
100
AcDbEntity
  8
JIS B 0405-m 普通公差｢m｣中級
  6
________________
 62
     7
370
     0
100
AcDbLine
 10
1153.162488880325
 20
-126.9779800137003
 30
0.0
 11
1152.701345406833
 21
-124.4191362342332
 31
0.0
  0
LINE
  5
154
330
1F
100
AcDbEntity
  8
JIS B 0405-m 普通公差｢m｣中級
  6
________________
 62
     7
370
     0
100
AcDbLine
 10
1163.162651716613
 20
-126.9788915231157
 30
0.0
 11
1162.701909019646
 21
-124.4223293623496
 31
0.0
  0
LINE
  5
155
330
1F
100
AcDbEntity
  8
JIS B 0405-m 普通公差｢m｣中級
  6
________________
 62
     7
370
     0
100
AcDbLine
 10
1173.162286555867
 20
-126.9769512653442
 30
0.0
 11
1172.702109765304
 21
-124.4235661063279
 31
0.0
  0
LINE
  5
156
330
1F
100
AcDbEntity
  8
JIS B 0405-m 普通公差｢m｣中級
  6
________________
 62
     7
370
     0
100
AcDbLine
 10
1213.163023869186
 20
-126.9815553132478
 30
0.0
 11
1212.701898798845
 21
-124.4229192225887
 31
0.0
  0
LINE
  5
157
330
1F
100
AcDbEntity
  8
JIS B 0405-m 普通公差｢m｣中級
  6
________________
 62
     7
370
     0
100
AcDbLine
 10
1223.16309864445
 20
-126.9820457974636
 30
0.0
 11
1222.701779579775
 21
-124.4223081279412
 31
0.0
  0
LINE
  5
158
330
1F
100
AcDbEntity
  8
JIS B 0405-m 普通公差｢m｣中級
  6
________________
 62
     7
370
     0
100
AcDbLine
 10
1233.163058626839
 20
-126.9818556757498
 30
0.0
 11
1232.701729476644
 21
-124.4220310612258
 31
0.0
  0
LINE
  5
159
330
1F
100
AcDbEntity
  8
JIS B 0405-m 普通公差｢m｣中級
  6
________________
 62
     7
370
     0
100
AcDbLine
 10
1243.163107438868
 20
-126.9821107683184
 30
0.0
 11
1242.701786375799
 21
-124.4222988443862
 31
0.0
  0
LINE
  5
15A
330
1F
100
AcDbEntity
  8
JIS B 0405-m 普通公差｢m｣中級
  6
________________
 62
     7
370
     0
100
AcDbLine
 10
1253.162648097129
 20
-126.9795031477333
 30
0.0
 11
1252.701631878066
 21
-124.4213471634024
 31
0.0
  0
LINE
  5
15B
330
1F
100
AcDbEntity
  8
JIS B 0405-m 普通公差｢m｣中級
  6
________________
 62
     7
370
     0
100
AcDbLine
 10
1263.162345859827
 20
-126.977727793557
 30
0.0
 11
1262.701612240051
 21
-124.4211103440417
 31
0.0
  0
LINE
  5
15C
330
1F
100
AcDbEntity
  8
JIS B 0405-m 普通公差｢m｣中級
  6
________________
 62
     7
370
     0
100
AcDbLine
 10
1273.161085544734
 20
-126.970617510999
 30
0.0
 11
1272.700219897634
 21
-124.4132408613976
 31
0.0
  0
LINE
  5
15D
330
1F
100
AcDbEntity
  8
JIS B 0405-m 普通公差｢m｣中級
  6
________________
 62
     7
370
     0
100
AcDbLine
 10
1283.161908174887
 20
-126.9750324066141
 30
0.0
 11
1282.701483218452
 21
-124.4200985470114
 31
0.0
  0
LINE
  5
15E
330
1F
100
AcDbEntity
  8
JIS B 0405-m 普通公差｢m｣中級
  6
________________
 62
     7
370
     0
100
AcDbLine
 10
1293.161763966155
 20
-126.9741002818801
 30
0.0
 11
1292.701610697336
 21
-124.4206833009173
 31
0.0
  0
LINE
  5
15F
330
1F
100
AcDbEntity
  8
JIS B 0405-m 普通公差｢m｣中級
  6
________________
 62
     7
370
     0
100
AcDbLine
 10
1297.701631322462
 20
-210.6269409899397
 30
0.0
 11
1297.990411853473
 21
-209.0237398250296
 31
0.0
  0
LINE
  5
160
330
1F
100
AcDbEntity
  8
JIS B 0405-m 普通公差｢m｣中級
  6
________________
 62
     7
370
     0
100
AcDbLine
 10
1287.699225920803
 20
-210.6401582637134
 30
0.0
 11
1287.990388097102
 21
-209.0237341841868
 31
0.0
  0
LINE
  5
161
330
1F
100
AcDbEntity
  8
JIS B 0405-m 普通公差｢m｣中級
  6
________________
 62
     7
370
     0
100
AcDbLine
 10
1277.701699084693
 20
-210.6263242153783
 30
0.0
 11
1277.990365505044
 21
-209.0237398087648
 31
0.0
  0
LINE
  5
162
330
1F
100
AcDbEntity
  8
JIS B 0405-m 普通公差｢m｣中級
  6
________________
 62
     7
370
     0
100
AcDbLine
 10
1267.701520447902
 20
-210.627166878711
 30
0.0
 11
1267.990340036294
 21
-209.0237393743128
 31
0.0
  0
LINE
  5
163
330
1F
100
AcDbEntity
  8
JIS B 0405-m 普通公差｢m｣中級
  6
________________
 62
     7
370
     0
100
AcDbLine
 10
1257.70148330503
 20
-210.6272334716672
 30
0.0
 11
1257.99031737888
 21
-209.0237393855313
 31
0.0
  0
LINE
  5
164
330
1F
100
AcDbEntity
  8
JIS B 0405-m 普通公差｢m｣中級
  6
________________
 62
     7
370
     0
100
AcDbLine
 10
1247.701607007237
 20
-210.6264341767558
 30
0.0
 11
1247.990300444311
 21
-209.0237396437932
 31
0.0
  0
LINE
  5
165
330
1F
100
AcDbEntity
  8
JIS B 0405-m 普通公差｢m｣中級
  6
________________
 62
     7
370
     0
100
AcDbLine
 10
1237.701674656768
 20
-210.6259865216599
 30
0.0
 11
1237.990291160044
 21
-209.0237398242182
 31
0.0
  0
LINE
  5
166
330
1F
100
AcDbEntity
  8
JIS B 0405-m 普通公差｢m｣中級
  6
________________
 62
     7
370
     0
100
AcDbLine
 10
1227.701797615636
 20
-210.6252794714658
 30
0.0
 11
1227.990275293255
 21
-209.0238238705853
 31
0.0
  0
LINE
  5
167
330
1F
100
AcDbEntity
  8
JIS B 0405-m 普通公差｢m｣中級
  6
________________
 62
     7
370
     0
100
AcDbLine
 10
1217.701857367203
 20
-210.624974089607
 30
0.0
 11
1217.990298305757
 21
-209.0237404535025
 31
0.0
  0
LINE
  5
168
330
1F
100
AcDbEntity
  8
JIS B 0405-m 普通公差｢m｣中級
  6
________________
 62
     7
370
     0
100
AcDbLine
 10
1207.701958484228
 20
-210.6244869338822
 30
0.0
 11
1207.990314142162
 21
-209.0237407757316
 31
0.0
  0
LINE
  5
169
330
1F
100
AcDbEntity
  8
JIS B 0405-m 普通公差｢m｣中級
  6
________________
 62
     7
370
     0
100
AcDbLine
 10
1177.701886203404
 20
-210.6252978341906
 30
0.0
 11
1177.990388238854
 21
-209.023740764636
 31
0.0
  0
LINE
  5
16A
330
1F
100
AcDbEntity
  8
JIS B 0405-m 普通公差｢m｣中級
  6
________________
 62
     7
370
     0
100
AcDbLine
 10
1167.701812924512
 20
-210.6258434000931
 30
0.0
 11
1167.990410145027
 21
-209.023740544841
 31
0.0
  0
LINE
  5
16B
330
1F
100
AcDbEntity
  8
JIS B 0405-m 普通公差｢m｣中級
  6
________________
 62
     7
370
     0
100
AcDbLine
 10
1157.702014269246
 20
-210.6248218453629
 30
0.0
 11
1157.990422232237
 21
-209.0237411183795
 31
0.0
  0
LINE
  5
16C
330
1F
100
AcDbEntity
  8
JIS B 0405-m 普通公差｢m｣中級
  6
________________
 62
     7
370
     0
100
AcDbLine
 10
1147.701905959883
 20
-210.6254457555242
 30
0.0
 11
1147.990419801018
 21
-209.0237407154246
 31
0.0
  0
LINE
  5
16D
330
1F
100
AcDbEntity
  8
JIS B 0405-m 普通公差｢m｣中級
  6
________________
 62
     7
370
     0
100
AcDbLine
 10
1137.70162389486
 20
-210.6269505526879
 30
0.0
 11
1137.99040478916
 21
-209.0237398556085
 31
0.0
  0
ARC
  5
16E
330
1F
100
AcDbEntity
  8
JIS B 0405-m 普通公差｢m｣中級
  6
________________
 62
     7
370
     0
100
AcDbCircle
 10
-1313.879647543127
 20
-123.0238473941331
 30
0.0
 40
3.000000000000114
210
0.0
220
0.0
230
-1.0
100
AcDbArc
 50
180.0
 51
270.0
  0
ARC
  5
16F
330
1F
100
AcDbEntity
  8
JIS B 0405-m 普通公差｢m｣中級
  6
________________
 62
     7
370
     0
100
AcDbCircle
 10
-1313.879647543127
 20
-212.0238473941331
 30
0.0
 40
3.000000000000003
210
0.0
220
0.0
230
-1.0
100
AcDbArc
 50
90.0
 51
180.0
  0
LINE
  5
170
330
1F
100
AcDbEntity
  8
JIS B 0405-m 普通公差｢m｣中級
  6
________________
 62
     7
370
     0
100
AcDbLine
 10
1305.879647543127
 20
-124.5238473941331
 30
0.0
 11
1303.879647543127
 21
-124.5238473941331
 31
0.0
  0
LINE
  5
171
330
1F
100
AcDbEntity
  8
JIS B 0405-m 普通公差｢m｣中級
  6
________________
 62
     7
370
     0
100
AcDbLine
 10
1303.879647543128
 20
-210.5238473941331
 30
0.0
 11
1305.879647543128
 21
-210.5238473941331
 31
0.0
  0
LINE
  5
172
330
1F
100
AcDbEntity
  8
JIS B 0405-m 普通公差｢m｣中級
  6
________________
 62
     7
370
     0
100
AcDbLine
 10
1313.879647543127
 20
-126.0238473941331
 30
0.0
 11
1305.879647543127
 21
-126.0238473941331
 31
0.0
  0
LINE
  5
173
330
1F
100
AcDbEntity
  8
JIS B 0405-m 普通公差｢m｣中級
  6
________________
 62
     7
370
     0
100
AcDbLine
 10
1305.879647543127
 20
-209.0238473941331
 30
0.0
 11
1313.879647543127
 21
-209.0238473941331
 31
0.0
  0
LINE
  5
174
330
1F
100
AcDbEntity
  8
JIS B 0405-m 普通公差｢m｣中級
  6
________________
 62
     7
370
     0
100
AcDbLine
 10
1287.820429718176
 20
-209.0238473941331
 30
0.0
 11
1293.269184304506
 21
-209.0238473941331
 31
0.0
  0
LINE
  5
175
330
1F
100
AcDbEntity
  8
JIS B 0405-m 普通公差｢m｣中級
  6
________________
 62
     7
370
     0
100
AcDbLine
 10
1297.820443274667
 20
-209.0238473941331
 30
0.0
 11
1301.879647543128
 21
-209.0238473941331
 31
0.0
  0
LINE
  5
176
330
1F
100
AcDbEntity
  8
JIS B 0405-m 普通公差｢m｣中級
  6
________________
 62
     7
370
     0
100
AcDbLine
 10
1158.43899855016
 20
-126.0238473941331
 30
0.0
 11
1152.990423573631
 21
-126.0238473941331
 31
0.0
  0
LINE
  5
177
330
1F
100
AcDbEntity
  8
JIS B 0405-m 普通公差｢m｣中級
  6
________________
 62
     7
370
     0
100
AcDbLine
 10
1168.438975471739
 20
-126.0238473941331
 30
0.0
 11
1162.990417664165
 21
-126.0238473941331
 31
0.0
  0
LINE
  5
178
330
1F
100
AcDbEntity
  8
JIS B 0405-m 普通公差｢m｣中級
  6
________________
 62
     7
370
     0
100
AcDbLine
 10
1178.438954181882
 20
-126.0238473941331
 30
0.0
 11
1172.990399656845
 21
-126.0238473941331
 31
0.0
  0
LINE
  5
179
330
1F
100
AcDbEntity
  8
JIS B 0405-m 普通公差｢m｣中級
  6
________________
 62
     7
370
     0
100
AcDbLine
 10
1208.43895649116
 20
-126.0238473941331
 30
0.0
 11
1207.062031911092
 21
-126.0238473941331
 31
0.0
  0
LINE
  5
17A
330
1F
100
AcDbEntity
  8
JIS B 0405-m 普通公差｢m｣中級
  6
________________
 62
     7
370
     0
100
AcDbLine
 10
1218.438976274836
 20
-126.0238473941331
 30
0.0
 11
1212.990305303624
 21
-126.0238473941331
 31
0.0
  0
LINE
  5
17B
330
1F
100
AcDbEntity
  8
JIS B 0405-m 普通公差｢m｣中級
  6
________________
 62
     7
370
     0
100
AcDbLine
 10
1228.438999278474
 20
-126.0238473941331
 30
0.0
 11
1222.990293264686
 21
-126.0238473941331
 31
0.0
  0
LINE
  5
17C
330
1F
100
AcDbEntity
  8
JIS B 0405-m 普通公差｢m｣中級
  6
________________
 62
     7
370
     0
100
AcDbLine
 10
1238.439022055644
 20
-126.0238473941331
 30
0.0
 11
1232.990289608501
 21
-126.0238473941331
 31
0.0
  0
LINE
  5
17D
330
1F
100
AcDbEntity
  8
JIS B 0405-m 普通公差｢m｣中級
  6
________________
 62
     7
370
     0
100
AcDbLine
 10
1248.439041229111
 20
-126.0238473941331
 30
0.0
 11
1242.990294509347
 21
-126.0238473941331
 31
0.0
  0
LINE
  5
17E
330
1F
100
AcDbEntity
  8
JIS B 0405-m 普通公差｢m｣中級
  6
________________
 62
     7
370
     0
100
AcDbLine
 10
1258.439054558532
 20
-126.0238473941331
 30
0.0
 11
1252.990290638484
 21
-126.0238473941331
 31
0.0
  0
LINE
  5
17F
330
1F
100
AcDbEntity
  8
JIS B 0405-m 普通公差｢m｣中級
  6
________________
 62
     7
370
     0
100
AcDbLine
 10
1268.439063362164
 20
-126.0238473941331
 30
0.0
 11
1262.990328066707
 21
-126.0238473941331
 31
0.0
  0
LINE
  5
180
330
1F
100
AcDbEntity
  8
JIS B 0405-m 普通公差｢m｣中級
  6
________________
 62
     7
370
     0
100
AcDbLine
 10
1278.439063601433
 20
-126.0238473941331
 30
0.0
 11
1272.990352892727
 21
-126.0238473941331
 31
0.0
  0
LINE
  5
181
330
1F
100
AcDbEntity
  8
JIS B 0405-m 普通公差｢m｣中級
  6
________________
 62
     7
370
     0
100
AcDbLine
 10
1277.820423521706
 20
-209.0238473941331
 30
0.0
 11
1283.269162184954
 21
-209.0238473941331
 31
0.0
  0
LINE
  5
182
330
1F
100
AcDbEntity
  8
JIS B 0405-m 普通公差｢m｣中級
  6
________________
 62
     7
370
     0
100
AcDbLine
 10
1267.8204247499
 20
-209.0238473941331
 30
0.0
 11
1273.269137494982
 21
-209.0238473941331
 31
0.0
  0
LINE
  5
183
330
1F
100
AcDbEntity
  8
JIS B 0405-m 普通公差｢m｣中級
  6
________________
 62
     7
370
     0
100
AcDbLine
 10
1257.820433250052
 20
-209.0238473941331
 30
0.0
 11
1263.269111631802
 21
-209.0238473941331
 31
0.0
  0
LINE
  5
184
330
1F
100
AcDbEntity
  8
JIS B 0405-m 普通公差｢m｣中級
  6
________________
 62
     7
370
     0
100
AcDbLine
 10
1247.820448303753
 20
-209.0238473941331
 30
0.0
 11
1253.269088122308
 21
-209.0238473941331
 31
0.0
  0
LINE
  5
185
330
1F
100
AcDbEntity
  8
JIS B 0405-m 普通公差｢m｣中級
  6
________________
 62
     7
370
     0
100
AcDbLine
 10
1237.820468784169
 20
-209.0238473941331
 30
0.0
 11
1243.269071126608
 21
-209.0238473941331
 31
0.0
  0
LINE
  5
186
330
1F
100
AcDbEntity
  8
JIS B 0405-m 普通公差｢m｣中級
  6
________________
 62
     7
370
     0
100
AcDbLine
 10
1227.820492993233
 20
-209.0238473941331
 30
0.0
 11
1233.269082820436
 21
-209.0238473941331
 31
0.0
  0
LINE
  5
187
330
1F
100
AcDbEntity
  8
JIS B 0405-m 普通公差｢m｣中級
  6
________________
 62
     7
370
     0
100
AcDbLine
 10
1217.820514328507
 20
-209.0238473941331
 30
0.0
 11
1223.26907839249
 21
-209.0238473941331
 31
0.0
  0
LINE
  5
188
330
1F
100
AcDbEntity
  8
JIS B 0405-m 普通公差｢m｣中級
  6
________________
 62
     7
370
     0
100
AcDbLine
 10
1207.820530764287
 20
-209.0238473941331
 30
0.0
 11
1213.269096102205
 21
-209.0238473941331
 31
0.0
  0
LINE
  5
189
330
1F
100
AcDbEntity
  8
JIS B 0405-m 普通公差｢m｣中級
  6
________________
 62
     7
370
     0
100
AcDbLine
 10
1177.82052169148
 20
-209.0238473941331
 30
0.0
 11
1178.669647543128
 21
-209.0238473941331
 31
0.0
  0
LINE
  5
18A
330
1F
100
AcDbEntity
  8
JIS B 0405-m 普通公差｢m｣中級
  6
________________
 62
     7
370
     0
100
AcDbLine
 10
1167.82050049638
 20
-209.0238473941331
 30
0.0
 11
1173.269188143046
 21
-209.0238473941331
 31
0.0
  0
LINE
  5
18B
330
1F
100
AcDbEntity
  8
JIS B 0405-m 普通公差｢m｣中級
  6
________________
 62
     7
370
     0
100
AcDbLine
 10
1157.820478393608
 20
-209.0238473941331
 30
0.0
 11
1163.26919769465
 21
-209.0238473941331
 31
0.0
  0
LINE
  5
18C
330
1F
100
AcDbEntity
  8
JIS B 0405-m 普通公差｢m｣中級
  6
________________
 62
     7
370
     0
100
AcDbLine
 10
1147.820455805653
 20
-209.0238473941331
 30
0.0
 11
1153.269198481765
 21
-209.0238473941331
 31
0.0
  0
LINE
  5
18D
330
1F
100
AcDbEntity
  8
JIS B 0405-m 普通公差｢m｣中級
  6
________________
 62
     7
370
     0
100
AcDbLine
 10
1137.820437723029
 20
-209.0238473941331
 30
0.0
 11
1143.269190794984
 21
-209.0238473941331
 31
0.0
  0
LINE
  5
18E
330
1F
100
AcDbEntity
  8
JIS B 0405-m 普通公差｢m｣中級
  6
________________
 62
     7
370
     0
100
AcDbLine
 10
1132.879647543128
 20
-209.0238473941331
 30
0.0
 11
1134.879647543128
 21
-209.0238473941331
 31
0.0
  0
LINE
  5
18F
330
1F
100
AcDbEntity
  8
JIS B 0405-m 普通公差｢m｣中級
  6
________________
 62
     7
370
     0
100
AcDbLine
 10
1303.879647543128
 20
-126.3238473941331
 30
0.0
 11
1301.879647543128
 21
-126.3238473941331
 31
0.0
  0
LINE
  5
190
330
1F
100
AcDbEntity
  8
JIS B 0405-m 普通公差｢m｣中級
  6
________________
 62
     7
370
     0
100
AcDbLine
 10
1301.879647543127
 20
-208.7238473941331
 30
0.0
 11
1303.879647543127
 21
-208.7238473941331
 31
0.0
  0
LINE
  5
191
330
1F
100
AcDbEntity
  8
JIS B 0405-m 普通公差｢m｣中級
  6
________________
 62
     7
370
     0
100
AcDbLine
 10
1322.879647543128
 20
-122.7147564850422
 30
0.0
 11
1323.217147543128
 21
-122.7147564850422
 31
0.0
  0
LINE
  5
192
330
1F
100
AcDbEntity
  8
JIS B 0405-m 普通公差｢m｣中級
  6
________________
 62
     7
370
     0
100
AcDbLine
 10
1322.879647543128
 20
-122.7511201214058
 30
0.0
 11
1323.179647543128
 21
-122.7511201214058
 31
0.0
  0
LINE
  5
193
330
1F
100
AcDbEntity
  8
JIS B 0405-m 普通公差｢m｣中級
  6
________________
 62
     7
370
     0
100
AcDbLine
 10
1323.217147543128
 20
-115.2965746668604
 30
0.0
 11
1323.179647543128
 21
-115.2965746668604
 31
0.0
  0
LINE
  5
194
330
1F
100
AcDbEntity
  8
JIS B 0405-m 普通公差｢m｣中級
  6
________________
 62
     7
370
     0
100
AcDbLine
 10
1207.062031911092
 20
-110.0238473941331
 30
0.0
 11
1183.808139525602
 21
-110.0238473941331
 31
0.0
  0
LINE
  5
195
330
1F
100
AcDbEntity
  8
JIS B 0405-m 普通公差｢m｣中級
  6
________________
 62
     7
370
     0
100
AcDbLine
 10
1183.808139525602
 20
-225.0238473941331
 30
0.0
 11
1207.062031911092
 21
-225.0238473941331
 31
0.0
  0
LINE
  5
196
330
1F
100
AcDbEntity
  8
JIS B 0405-m 普通公差｢m｣中級
  6
________________
 62
     7
370
     0
100
AcDbLine
 10
1183.808139525602
 20
-170.5075673585618
 30
0.0
 11
1202.669647543128
 21
-170.5075673585618
 31
0.0
  0
LINE
  5
197
330
1F
100
AcDbEntity
  8
JIS B 0405-m 普通公差｢m｣中級
  6
________________
 62
     7
370
     0
100
AcDbLine
 10
1202.669647543128
 20
-164.5401274297044
 30
0.0
 11
1183.808139525602
 21
-164.5401274297044
 31
0.0
  0
LINE
  5
198
330
1F
100
AcDbEntity
  8
JIS B 0405-m 普通公差｢m｣中級
  6
________________
 62
     7
370
     0
100
AcDbLine
 10
1179.112899195931
 20
-170.3538701166506
 30
0.0
 11
1183.751403435596
 21
-170.4995362132256
 31
0.0
  0
LINE
  5
199
330
1F
100
AcDbEntity
  8
JIS B 0405-m 普通公差｢m｣中級
  6
________________
 62
     7
370
     0
100
AcDbLine
 10
1183.751403435596
 20
-164.5481585750406
 30
0.0
 11
1179.112899195931
 21
-164.6938246716156
 31
0.0
  0
ARC
  5
19A
330
1F
100
AcDbEntity
  8
JIS B 0405-m 普通公差｢m｣中級
  6
________________
 62
     7
370
     0
100
AcDbCircle
 10
1179.169647543128
 20
-165.1857892696567
 30
0.0
 40
0.4999999999999972
100
AcDbArc
 50
91.79866306919635
 51
180.0000000000154
  0
ARC
  5
19B
330
1F
100
AcDbEntity
  8
JIS B 0405-m 普通公差｢m｣中級
  6
________________
 62
     7
370
     0
100
AcDbCircle
 10
1179.169647543128
 20
-169.8619055186096
 30
0.0
 40
0.4999999999999449
100
AcDbArc
 50
180.0
 51
268.2013369308037
  0
ARC
  5
19C
330
1F
100
AcDbEntity
  8
JIS B 0405-m 普通公差｢m｣中級
  6
________________
 62
     7
370
     0
100
AcDbCircle
 10
1183.808139525602
 20
-209.5469074082492
 30
0.0
 40
0.4999999999999991
100
AcDbArc
 50
245.9677140947705
 51
269.9999999999964
  0
LINE
  5
19D
330
1F
100
AcDbEntity
  8
JIS B 0405-m 普通公差｢m｣中級
  6
________________
 62
     7
370
     0
100
AcDbLine
 10
1183.808139525602
 20
-210.0469074082492
 30
0.0
 11
1202.669647543128
 21
-210.0469074082492
 31
0.0
  0
LINE
  5
19E
330
1F
100
AcDbEntity
  8
JIS B 0405-m 普通公差｢m｣中級
  6
________________
 62
     7
370
     0
100
AcDbLine
 10
1202.669647543128
 20
-125.000787380017
 30
0.0
 11
1183.808139525602
 21
-125.000787380017
 31
0.0
  0
ARC
  5
19F
330
1F
100
AcDbEntity
  8
JIS B 0405-m 普通公差｢m｣中級
  6
________________
 62
     7
370
     0
100
AcDbCircle
 10
1183.808139525602
 20
-125.500787380017
 30
0.0
 40
0.5000000000000004
100
AcDbArc
 50
90.0
 51
114.0322859052291
  0
LINE
  5
1A0
330
1F
100
AcDbEntity
  8
JIS B 0405-m 普通公差｢m｣中級
  6
________________
 62
     7
370
     0
100
AcDbLine
 10
1183.604437986545
 20
-125.0441632110935
 30
0.0
 11
1178.965945215061
 21
-127.1124900141165
 31
0.0
  0
LINE
  5
1A1
330
1F
100
AcDbEntity
  8
JIS B 0405-m 普通公差｢m｣中級
  6
________________
 62
     7
370
     0
100
AcDbLine
 10
1178.965945215061
 20
-207.9352047741498
 30
0.0
 11
1183.604437986545
 21
-210.0035315771727
 31
0.0
  0
ARC
  5
1A2
330
1F
100
AcDbEntity
  8
JIS B 0405-m 普通公差｢m｣中級
  6
________________
 62
     7
370
     0
100
AcDbCircle
 10
1179.169647543128
 20
-127.56911383091
 30
0.0
 40
0.5000000000000512
100
AcDbArc
 50
114.0323722491643
 51
180.0000000000121
  0
ARC
  5
1A3
330
1F
100
AcDbEntity
  8
JIS B 0405-m 普通公差｢m｣中級
  6
________________
 62
     7
370
     0
100
AcDbCircle
 10
1179.169647543128
 20
-207.4785809573562
 30
0.0
 40
0.4999999999999449
100
AcDbArc
 50
180.0
 51
245.967627750847
  0
LINE
  5
1A4
330
1F
100
AcDbEntity
  8
JIS B 0405-m 普通公差｢m｣中級
  6
________________
 62
     7
370
     0
100
AcDbLine
 10
1178.669671344059
 20
-199.8134900380041
 30
0.0
 11
1178.672615495547
 21
-199.8386431945873
 31
0.0
  0
LINE
  5
1A5
330
1F
100
AcDbEntity
  8
JIS B 0405-m 普通公差｢m｣中級
  6
________________
 62
     7
370
     0
100
AcDbLine
 10
1178.672615495547
 20
-135.209051593679
 30
0.0
 11
1178.669671344059
 21
-135.2342047502622
 31
0.0
  0
LINE
  5
1A6
330
1F
100
AcDbEntity
  8
JIS B 0405-m 普通公差｢m｣中級
  6
________________
 62
     7
370
     0
100
AcDbLine
 10
1178.669724327867
 20
-132.3814992537196
 30
0.0
 11
1178.630473098788
 21
-132.4851534685601
 31
0.0
  0
LINE
  5
1A7
330
1F
100
AcDbEntity
  8
JIS B 0405-m 普通公差｢m｣中級
  6
________________
 62
     7
370
     0
100
AcDbLine
 10
1178.641047874817
 20
-202.5716120297311
 30
0.0
 11
1178.669757562214
 21
-202.6539395459859
 31
0.0
  0
ARC
  5
1A8
330
1F
100
AcDbEntity
  8
JIS B 0405-m 普通公差｢m｣中級
  6
________________
 62
     7
370
     0
100
AcDbCircle
 10
1183.808139525602
 20
-224.5238473941331
 30
0.0
 40
0.4999999999999269
100
AcDbArc
 50
239.0362434679379
 51
270.0000000000101
  0
ARC
  5
1A9
330
1F
100
AcDbEntity
  8
JIS B 0405-m 普通公差｢m｣中級
  6
________________
 62
     7
370
     0
100
AcDbCircle
 10
1183.808139525602
 20
-110.5238473941331
 30
0.0
 40
0.5000000000000004
100
AcDbArc
 50
90.0
 51
120.9637565320721
  0
LINE
  5
1AA
330
1F
100
AcDbEntity
  8
JIS B 0405-m 普通公差｢m｣中級
  6
________________
 62
     7
370
     0
100
AcDbLine
 10
1183.550891647888
 20
-110.0951009312768
 30
0.0
 11
1178.912399665414
 21
-112.8781961207614
 31
0.0
  0
LINE
  5
1AB
330
1F
100
AcDbEntity
  8
JIS B 0405-m 普通公差｢m｣中級
  6
________________
 62
     7
370
     0
100
AcDbLine
 10
1178.912399665414
 20
-222.1694986675048
 30
0.0
 11
1183.550891647888
 21
-224.9525938569894
 31
0.0
  0
ARC
  5
1AC
330
1F
100
AcDbEntity
  8
JIS B 0405-m 普通公差｢m｣中級
  6
________________
 62
     7
370
     0
100
AcDbCircle
 10
1179.169647543128
 20
-113.3069425836176
 30
0.0
 40
0.4999999999999388
100
AcDbArc
 50
120.9637565320612
 51
179.9999999999891
  0
ARC
  5
1AD
330
1F
100
AcDbEntity
  8
JIS B 0405-m 普通公差｢m｣中級
  6
________________
 62
     7
370
     0
100
AcDbCircle
 10
1179.169647543128
 20
-221.7407522046485
 30
0.0
 40
0.4999999999999449
100
AcDbArc
 50
180.0
 51
239.0362434679278
  0
ARC
  5
1AE
330
1F
100
AcDbEntity
  8
JIS B 0405-m 普通公差｢m｣中級
  6
________________
 62
     7
370
     0
100
AcDbCircle
 10
1422.5
 20
-167.5238473941331
 30
0.0
 40
57.50000000000011
100
AcDbArc
 50
0.0
 51
89.00350142326404
  0
LINE
  5
1AF
330
1F
100
AcDbEntity
  8
JIS B 0405-m 普通公差｢m｣中級
  6
________________
 62
     7
370
     0
100
AcDbLine
 10
1423.5
 20
-111.0238473941331
 30
0.0
 11
1422.5
 21
-111.0238473941331
 31
0.0
  0
LINE
  5
1B0
330
1F
100
AcDbEntity
  8
JIS B 0405-m 普通公差｢m｣中級
  6
________________
 62
     7
370
     0
100
AcDbLine
 10
1423.5
 20
-110.0325437039227
 30
0.0
 11
1423.5
 21
-111.0238473941331
 31
0.0
  0
ARC
  5
1B1
330
1F
100
AcDbEntity
  8
JIS B 0405-m 普通公差｢m｣中級
  6
________________
 62
     7
370
     0
100
AcDbCircle
 10
1422.5
 20
-167.5238473941331
 30
0.0
 40
57.50000000000001
100
AcDbArc
 50
90.99649857673597
 51
0.0
  0
LINE
  5
1B2
330
1F
100
AcDbEntity
  8
JIS B 0405-m 普通公差｢m｣中級
  6
________________
 62
     7
370
     0
100
AcDbLine
 10
1421.5
 20
-111.0238473941331
 30
0.0
 11
1421.5
 21
-110.0325437039227
 31
0.0
  0
LINE
  5
1B3
330
1F
100
AcDbEntity
  8
JIS B 0405-m 普通公差｢m｣中級
  6
________________
 62
     7
370
     0
100
AcDbLine
 10
1422.5
 20
-111.0238473941331
 30
0.0
 11
1421.5
 21
-111.0238473941331
 31
0.0
  0
CIRCLE
  5
1B4
330
1F
100
AcDbEntity
  8
JIS B 0405-m 普通公差｢m｣中級
  6
________________
 62
     7
370
     0
100
AcDbCircle
 10
1422.5
 20
-167.5238473941331
 30
0.0
 40
37.59999999999999
  0
ARC
  5
1B5
330
1F
100
AcDbEntity
  8
JIS B 0405-m 普通公差｢m｣中級
  6
________________
 62
     7
370
     0
100
AcDbCircle
 10
1422.5
 20
-167.5238473941331
 30
0.0
 40
33.50000000000009
100
AcDbArc
 50
180.0
 51
0.0
  0
ARC
  5
1B6
330
1F
100
AcDbEntity
  8
JIS B 0405-m 普通公差｢m｣中級
  6
________________
 62
     7
370
     0
100
AcDbCircle
 10
1422.5
 20
-167.5238473941331
 30
0.0
 40
33.50000000000009
100
AcDbArc
 50
0.0
 51
180.0
  0
ARC
  5
1B7
330
1F
100
AcDbEntity
  8
JIS B 0405-m 普通公差｢m｣中級
  6
________________
 62
     7
370
     0
100
AcDbCircle
 10
1422.5
 20
-167.5238473941331
 30
0.0
 40
57.50000000000001
100
AcDbArc
 50
89.00350142326405
 51
90.99649857673597
  0
MTEXT
  5
1B8
330
1F
100
AcDbEntity
  8
JIS B 0405-m 普通公差｢m｣中級
 62
     7
100
AcDbMText
 10
1293.311370568692
 20
-240.6987290795385
 30
0.0
 40
6.0
 41
0.0
 46
0.0
 71
     1
 72
     1
  1
{\FＭＳ ゴシック;BMHM-65}
 73
     1
 44
1.0
  0
ENDSEC
  0
SECTION
  2
OBJECTS
  0
DICTIONARY
  5
C
330
0
100
AcDbDictionary
281
     1
  3
ACAD_GROUP
350
D
  3
ACAD_LAYOUT
350
1A
  3
ACAD_MLEADERSTYLE
350
1BA
  3
ACAD_MLINESTYLE
350
17
  3
ACAD_PLOTSETTINGS
350
19
  3
ACAD_PLOTSTYLENAME
350
E
  3
ACAD_TABLESTYLE
350
1B9
  3
ACAD_VISUALSTYLE
350
2A
  0
DICTIONARY
  5
D
102
{ACAD_REACTORS
330
C
102
}
330
C
100
AcDbDictionary
281
     1
  0
DICTIONARY
  5
1A
102
{ACAD_REACTORS
330
C
102
}
330
C
100
AcDbDictionary
281
     1
  3
Layout1
350
1E
  3
Layout2
350
26
  3
Model
350
22
  0
DICTIONARY
  5
1BA
102
{ACAD_REACTORS
330
C
102
}
330
C
100
AcDbDictionary
281
     1
  0
DICTIONARY
  5
17
102
{ACAD_REACTORS
330
C
102
}
330
C
100
AcDbDictionary
281
     1
  3
Standard
350
18
  0
DICTIONARY
  5
19
102
{ACAD_REACTORS
330
C
102
}
330
C
100
AcDbDictionary
281
     1
  0
ACDBDICTIONARYWDFLT
  5
E
102
{ACAD_REACTORS
330
C
102
}
330
C
100
AcDbDictionary
281
     1
  3
Normal
350
F
100
AcDbDictionaryWithDefault
340
F
  0
DICTIONARY
  5
1B9
102
{ACAD_REACTORS
330
C
102
}
330
C
100
AcDbDictionary
281
     1
  0
DICTIONARY
  5
2A
102
{ACAD_REACTORS
330
C
102
}
330
C
100
AcDbDictionary
281
     1
  3
2dWireframe
350
2F
  3
3D Hidden
350
31
  3
3dWireframe
350
30
  3
Basic
350
32
  3
Brighten
350
36
  3
ColorChange
350
3A
  3
Conceptual
350
34
  3
Dim
350
35
  3
Facepattern
350
39
  3
Flat
350
2B
  3
FlatWithEdges
350
2C
  3
Gouraud
350
2D
  3
GouraudWithEdges
350
2E
  3
Linepattern
350
38
  3
Realistic
350
33
  3
Thicken
350
37
  0
LAYOUT
  5
1E
102
{ACAD_REACTORS
330
1A
102
}
330
1A
100
AcDbPlotSettings
  1

  2
none_device
  4

  6

 40
0.0
 41
0.0
 42
0.0
 43
0.0
 44
0.0
 45
0.0
 46
0.0
 47
0.0
 48
0.0
 49
0.0
140
0.0
141
0.0
142
1.0
143
1.0
 70
   688
 72
     0
 73
     0
 74
     5
  7

 75
    16
 76
     0
 77
     2
 78
   300
147
1.0
148
0.0
149
0.0
100
AcDbLayout
  1
Layout1
 70
     1
 71
     1
 10
0.0
 20
0.0
 11
12.0
 21
9.0
 12
0.0
 22
0.0
 32
0.0
 14
1.000000000000000E+20
 24
1.000000000000000E+20
 34
1.000000000000000E+20
 15
-1.000000000000000E+20
 25
-1.000000000000000E+20
 35
-1.000000000000000E+20
146
0.0
 13
0.0
 23
0.0
 33
0.0
 16
1.0
 26
0.0
 36
0.0
 17
0.0
 27
1.0
 37
0.0
 76
     0
330
1B
  0
LAYOUT
  5
26
102
{ACAD_REACTORS
330
1A
102
}
330
1A
100
AcDbPlotSettings
  1

  2
none_device
  4

  6

 40
0.0
 41
0.0
 42
0.0
 43
0.0
 44
0.0
 45
0.0
 46
0.0
 47
0.0
 48
0.0
 49
0.0
140
0.0
141
0.0
142
1.0
143
1.0
 70
   688
 72
     0
 73
     0
 74
     5
  7

 75
    16
 76
     0
 77
     2
 78
   300
147
1.0
148
0.0
149
0.0
100
AcDbLayout
  1
Layout2
 70
     1
 71
     2
 10
0.0
 20
0.0
 11
0.0
 21
0.0
 12
0.0
 22
0.0
 32
0.0
 14
0.0
 24
0.0
 34
0.0
 15
0.0
 25
0.0
 35
0.0
146
0.0
 13
0.0
 23
0.0
 33
0.0
 16
1.0
 26
0.0
 36
0.0
 17
0.0
 27
1.0
 37
0.0
 76
     0
330
23
  0
LAYOUT
  5
22
102
{ACAD_REACTORS
330
1A
102
}
330
1A
100
AcDbPlotSettings
  1

  2
none_device
  4

  6

 40
0.0
 41
0.0
 42
0.0
 43
0.0
 44
0.0
 45
0.0
 46
0.0
 47
0.0
 48
0.0
 49
0.0
140
0.0
141
0.0
142
1.0
143
1.0
 70
  1712
 72
     0
 73
     0
 74
     0
  7

 75
     0
 76
     0
 77
     2
 78
   300
147
1.0
148
0.0
149
0.0
100
AcDbLayout
  1
Model
 70
     1
 71
     0
 10
0.0
 20
0.0
 11
12.0
 21
9.0
 12
0.0
 22
0.0
 32
0.0
 14
0.0
 24
-246.0169108977204
 34
0.0
 15
1480.0
 25
10.0
 35
10.0
146
0.0
 13
0.0
 23
0.0
 33
0.0
 16
1.0
 26
0.0
 36
0.0
 17
0.0
 27
1.0
 37
0.0
 76
     0
330
1F
331
29
  0
MLINESTYLE
  5
18
102
{ACAD_REACTORS
330
17
102
}
330
17
100
AcDbMlineStyle
  2
Standard
 70
     0
  3

 62
   256
 51
90.0
 52
90.0
 71
     2
 49
0.5
 62
   256
  6
BYLAYER
 49
-0.5
 62
   256
  6
BYLAYER
  0
ACDBPLACEHOLDER
  5
F
102
{ACAD_REACTORS
330
E
102
}
330
E
  0
VISUALSTYLE
  5
2F
102
{ACAD_REACTORS
330
2A
102
}
330
2A
100
AcDbVisualStyle
  2
2dWireframe
 70
     4
 71
     0
 72
     2
 73
     0
 90
        0
 40
-0.6
 41
-30.0
 62
     5
 63
     7
421
 16777215
 74
     1
 91
        4
 64
     7
 65
   257
 75
     1
175
     1
 42
1.0
 92
        0
 66
   257
 43
1.0
 76
     1
 77
     6
 78
     2
 67
     7
 79
     5
170
     0
171
     0
290
     0
174
     0
 93
        1
 44
0.0
173
     0
291
     0
 45
0.0
  0
VISUALSTYLE
  5
31
102
{ACAD_REACTORS
330
2A
102
}
330
2A
100
AcDbVisualStyle
  2
3D Hidden
 70
     6
 71
     1
 72
     2
 73
     2
 90
        0
 40
-0.6
 41
-30.0
 62
     5
 63
     7
421
 16777215
 74
     2
 91
        2
 64
     7
 65
   257
 75
     2
175
     1
 42
40.0
 92
        0
 66
   257
 43
1.0
 76
     1
 77
     6
 78
     2
 67
     7
 79
     3
170
     0
171
     0
290
     0
174
     0
 93
        1
 44
0.0
173
     0
291
     0
 45
0.0
  0
VISUALSTYLE
  5
30
102
{ACAD_REACTORS
330
2A
102
}
330
2A
100
AcDbVisualStyle
  2
3dWireframe
 70
     5
 71
     0
 72
     2
 73
     0
 90
        0
 40
-0.6
 41
-30.0
 62
     5
 63
     7
421
 16777215
 74
     1
 91
        4
 64
     7
 65
   257
 75
     1
175
     1
 42
1.0
 92
        0
 66
   257
 43
1.0
 76
     1
 77
     6
 78
     2
 67
     7
 79
     5
170
     0
171
     0
290
     0
174
     0
 93
        1
 44
0.0
173
     0
291
     0
 45
0.0
  0
VISUALSTYLE
  5
32
102
{ACAD_REACTORS
330
2A
102
}
330
2A
100
AcDbVisualStyle
  2
Basic
 70
     7
 71
     1
 72
     0
 73
     1
 90
        0
 40
-0.6
 41
-30.0
 62
     5
 63
     7
421
 16777215
 74
     0
 91
        4
 64
     7
 65
   257
 75
     1
175
     1
 42
1.0
 92
        8
 66
     7
 43
1.0
 76
     1
 77
     6
 78
     2
 67
     7
 79
     5
170
     0
171
     0
290
     0
174
     0
 93
        1
 44
0.0
173
     0
291
     1
 45
0.0
  0
VISUALSTYLE
  5
36
102
{ACAD_REACTORS
330
2A
102
}
330
2A
100
AcDbVisualStyle
  2
Brighten
 70
    12
 71
     2
 72
     2
 73
     0
 90
        0
 40
-0.6
 41
-30.0
 62
     5
 63
     7
421
 16777215
 74
     1
 91
        4
 64
     7
 65
   257
 75
     1
175
     1
 42
1.0
 92
        8
 66
     7
 43
1.0
 76
     1
 77
     6
 78
     2
 67
     7
 79
     5
170
     0
171
     0
290
     0
174
     0
 93
        1
 44
50.0
173
     0
291
     1
 45
0.0
  0
VISUALSTYLE
  5
3A
102
{ACAD_REACTORS
330
2A
102
}
330
2A
100
AcDbVisualStyle
  2
ColorChange
 70
    16
 71
     2
 72
     2
 73
     3
 90
        0
 40
-0.6
 41
-30.0
 62
     5
 63
     8
421
  8421504
 74
     1
 91
        4
 64
     7
 65
   257
 75
     1
175
     1
 42
1.0
 92
        8
 66
     8
424
  8421504
 43
1.0
 76
     1
 77
     6
 78
     2
 67
     7
 79
     5
170
     0
171
     0
290
     0
174
     0
 93
        1
 44
0.0
173
     0
291
     1
 45
0.0
  0
VISUALSTYLE
  5
34
102
{ACAD_REACTORS
330
2A
102
}
330
2A
100
AcDbVisualStyle
  2
Conceptual
 70
     9
 71
     3
 72
     2
 73
     0
 90
        0
 40
-0.6
 41
-30.0
 62
     5
 63
     7
421
 16777215
 74
     2
 91
        2
 64
     7
 65
   257
 75
     1
175
     1
 42
40.0
 92
        8
 66
     7
 43
1.0
 76
     1
 77
     6
 78
     2
 67
     7
 79
     3
170
     0
171
     0
290
     0
174
     0
 93
        1
 44
0.0
173
     0
291
     0
 45
0.0
  0
VISUALSTYLE
  5
35
102
{ACAD_REACTORS
330
2A
102
}
330
2A
100
AcDbVisualStyle
  2
Dim
 70
    11
 71
     2
 72
     2
 73
     0
 90
        0
 40
-0.6
 41
-30.0
 62
     5
 63
     7
421
 16777215
 74
     1
 91
        4
 64
     7
 65
   257
 75
     1
175
     1
 42
1.0
 92
        8
 66
     7
 43
1.0
 76
     1
 77
     6
 78
     2
 67
     7
 79
     5
170
     0
171
     0
290
     0
174
     0
 93
        1
 44
-50.0
173
     0
291
     1
 45
0.0
  0
VISUALSTYLE
  5
39
102
{ACAD_REACTORS
330
2A
102
}
330
2A
100
AcDbVisualStyle
  2
Facepattern
 70
    15
 71
     2
 72
     2
 73
     0
 90
        0
 40
-0.6
 41
-30.0
 62
     5
 63
     7
421
 16777215
 74
     1
 91
        4
 64
     7
 65
   257
 75
     1
175
     1
 42
1.0
 92
        8
 66
     7
 43
1.0
 76
     1
 77
     6
 78
     2
 67
     7
 79
     5
170
     0
171
     0
290
     0
174
     0
 93
        1
 44
0.0
173
     0
291
     1
 45
0.0
  0
VISUALSTYLE
  5
2B
102
{ACAD_REACTORS
330
2A
102
}
330
2A
100
AcDbVisualStyle
  2
Flat
 70
     0
 71
     2
 72
     1
 73
     1
 90
        2
 40
-0.6
 41
30.0
 62
     5
 63
     7
421
 16777215
 74
     0
 91
        4
 64
     7
 65
   257
 75
     1
175
     1
 42
1.0
 92
        8
 66
     7
 43
1.0
 76
     1
 77
     6
 78
     2
 67
     7
 79
     5
170
     0
171
     0
290
     0
174
     0
 93
       13
 44
0.0
173
     0
291
     1
 45
0.0
  0
VISUALSTYLE
  5
2C
102
{ACAD_REACTORS
330
2A
102
}
330
2A
100
AcDbVisualStyle
  2
FlatWithEdges
 70
     1
 71
     2
 72
     1
 73
     1
 90
        2
 40
-0.6
 41
30.0
 62
     5
 63
     7
421
 16777215
 74
     1
 91
        4
 64
     7
 65
   257
 75
     1
175
     1
 42
1.0
 92
        0
 66
   257
 43
1.0
 76
     1
 77
     6
 78
     2
 67
     7
 79
     5
170
     0
171
     0
290
     0
174
     0
 93
       13
 44
0.0
173
     0
291
     1
 45
0.0
  0
VISUALSTYLE
  5
2D
102
{ACAD_REACTORS
330
2A
102
}
330
2A
100
AcDbVisualStyle
  2
Gouraud
 70
     2
 71
     2
 72
     2
 73
     1
 90
        2
 40
-0.6
 41
30.0
 62
     5
 63
     7
421
 16777215
 74
     0
 91
        4
 64
     7
 65
   257
 75
     1
175
     1
 42
1.0
 92
        0
 66
     7
 43
1.0
 76
     1
 77
     6
 78
     2
 67
     7
 79
     5
170
     0
171
     0
290
     0
174
     0
 93
       13
 44
0.0
173
     0
291
     1
 45
0.0
  0
VISUALSTYLE
  5
2E
102
{ACAD_REACTORS
330
2A
102
}
330
2A
100
AcDbVisualStyle
  2
GouraudWithEdges
 70
     3
 71
     2
 72
     2
 73
     1
 90
        2
 40
-0.6
 41
30.0
 62
     5
 63
     7
421
 16777215
 74
     1
 91
        4
 64
     7
 65
   257
 75
     1
175
     1
 42
1.0
 92
        0
 66
   257
 43
1.0
 76
     1
 77
     6
 78
     2
 67
     7
 79
     5
170
     0
171
     0
290
     0
174
     0
 93
       13
 44
0.0
173
     0
291
     1
 45
0.0
  0
VISUALSTYLE
  5
38
102
{ACAD_REACTORS
330
2A
102
}
330
2A
100
AcDbVisualStyle
  2
Linepattern
 70
    14
 71
     2
 72
     2
 73
     0
 90
        0
 40
-0.6
 41
-30.0
 62
     5
 63
     7
421
 16777215
 74
     1
 91
        4
 64
     7
 65
   257
 75
     7
175
     7
 42
1.0
 92
        8
 66
     7
 43
1.0
 76
     1
 77
     6
 78
     2
 67
     7
 79
     5
170
     0
171
     0
290
     0
174
     0
 93
        1
 44
0.0
173
     0
291
     1
 45
0.0
  0
VISUALSTYLE
  5
33
102
{ACAD_REACTORS
330
2A
102
}
330
2A
100
AcDbVisualStyle
  2
Realistic
 70
     8
 71
     2
 72
     2
 73
     0
 90
        0
 40
-0.6
 41
-30.0
 62
     5
 63
     7
421
 16777215
 74
     1
 91
        0
 64
     7
 65
   257
 75
     1
175
     1
 42
1.0
 92
        8
 66
     8
424
  7895160
 43
1.0
 76
     1
 77
     6
 78
     2
 67
     7
 79
     5
170
     0
171
     0
290
     0
174
     0
 93
       13
 44
0.0
173
     0
291
     0
 45
0.0
  0
VISUALSTYLE
  5
37
102
{ACAD_REACTORS
330
2A
102
}
330
2A
100
AcDbVisualStyle
  2
Thicken
 70
    13
 71
     2
 72
     2
 73
     0
 90
        0
 40
-0.6
 41
-30.0
 62
     5
 63
     7
421
 16777215
 74
     1
 91
        4
 64
     7
 65
   257
 75
     1
175
     1
 42
1.0
 92
       12
 66
     7
 43
1.0
 76
     1
 77
     6
 78
     2
 67
     7
 79
     5
170
     0
171
     0
290
     0
174
     0
 93
        1
 44
0.0
173
     0
291
     1
 45
0.0
  0
ENDSEC
  0
EOF
