  0
SECTION
  2
HEADER
  9
$ACADVER
  1
AC1021
  9
$ACADMAINTVER
 70
    25
  9
$DWGCODEPAGE
  3
ANSI_932
  9
$INSBASE
 10
0.0
 20
0.0
 30
0.0
  9
$EXTMIN
 10
0.0
 20
-244.9348288959024
 30
0.0
  9
$EXTMAX
 10
922.6927690193467
 20
10.0
 30
10.0
  9
$LIMMIN
 10
0.0
 20
0.0
  9
$LIMMAX
 10
12.0
 20
9.0
  9
$ORTHOMODE
 70
     0
  9
$REGENMODE
 70
     1
  9
$FILLMODE
 70
     1
  9
$QTEXTMODE
 70
     0
  9
$MIRRTEXT
 70
     1
  9
$LTSCALE
 40
1.0
  9
$ATTMODE
 70
     1
  9
$TEXTSIZE
 40
0.2
  9
$TRACEWID
 40
0.05
  9
$TEXTSTYLE
  7
Standard
  9
$CLAYER
  8
0
  9
$CELTYPE
  6
ByLayer
  9
$CECOLOR
 62
   256
  9
$CELTSCALE
 40
1.0
  9
$DISPSILH
 70
     0
  9
$DIMSCALE
 40
1.0
  9
$DIMASZ
 40
3.0
  9
$DIMEXO
 40
0.0625
  9
$DIMDLI
 40
0.38
  9
$DIMRND
 40
0.0
  9
$DIMDLE
 40
0.0
  9
$DIMEXE
 40
0.18
  9
$DIMTP
 40
0.0
  9
$DIMTM
 40
0.0
  9
$DIMTXT
 40
3.0
  9
$DIMCEN
 40
0.09
  9
$DIMTSZ
 40
0.0
  9
$DIMTOL
 70
     0
  9
$DIMLIM
 70
     0
  9
$DIMTIH
 70
     1
  9
$DIMTOH
 70
     1
  9
$DIMSE1
 70
     0
  9
$DIMSE2
 70
     0
  9
$DIMTAD
 70
     1
  9
$DIMZIN
 70
     0
  9
$DIMBLK
  1

  9
$DIMASO
 70
     1
  9
$DIMSHO
 70
     1
  9
$DIMPOST
  1

  9
$DIMAPOST
  1

  9
$DIMALT
 70
     0
  9
$DIMALTD
 70
     2
  9
$DIMALTF
 40
25.4
  9
$DIMLFAC
 40
1.0
  9
$DIMTOFL
 70
     0
  9
$DIMTVP
 40
0.0
  9
$DIMTIX
 70
     0
  9
$DIMSOXD
 70
     0
  9
$DIMSAH
 70
     0
  9
$DIMBLK1
  1

  9
$DIMBLK2
  1

  9
$DIMSTYLE
  2
Standard
  9
$DIMCLRD
 70
     0
  9
$DIMCLRE
 70
     0
  9
$DIMCLRT
 70
     0
  9
$DIMTFAC
 40
1.0
  9
$DIMGAP
 40
0.09
  9
$DIMJUST
 70
     0
  9
$DIMSD1
 70
     0
  9
$DIMSD2
 70
     0
  9
$DIMTOLJ
 70
     1
  9
$DIMTZIN
 70
     0
  9
$DIMALTZ
 70
     0
  9
$DIMALTTZ
 70
     0
  9
$DIMUPT
 70
     0
  9
$DIMDEC
 70
     2
  9
$DIMTDEC
 70
     4
  9
$DIMALTU
 70
     2
  9
$DIMALTTD
 70
     2
  9
$DIMTXSTY
  7
Standard
  9
$DIMAUNIT
 70
     0
  9
$DIMADEC
 70
     2
  9
$DIMALTRND
 40
0.0
  9
$DIMAZIN
 70
     0
  9
$DIMDSEP
 70
    46
  9
$DIMATFIT
 70
     3
  9
$DIMFRAC
 70
     0
  9
$DIMLDRBLK
  1

  9
$DIMLUNIT
 70
     2
  9
$DIMLWD
 70
    -2
  9
$DIMLWE
 70
    -2
  9
$DIMTMOVE
 70
     0
  9
$DIMFXL
 40
1.0
  9
$DIMFXLON
 70
     0
  9
$DIMJOGANG
 40
0.7853981633974483
  9
$DIMTFILL
 70
     0
  9
$DIMTFILLCLR
 70
     0
  9
$DIMARCSYM
 70
     0
  9
$DIMLTYPE
  6

  9
$DIMLTEX1
  6

  9
$DIMLTEX2
  6

  9
$LUNITS
 70
     2
  9
$LUPREC
 70
     4
  9
$SKETCHINC
 40
0.1
  9
$FILLETRAD
 40
0.5
  9
$AUNITS
 70
     0
  9
$AUPREC
 70
     0
  9
$MENU
  1
.
  9
$ELEVATION
 40
0.0
  9
$PELEVATION
 40
0.0
  9
$THICKNESS
 40
0.0
  9
$LIMCHECK
 70
     0
  9
$CHAMFERA
 40
0.5
  9
$CHAMFERB
 40
0.5
  9
$CHAMFERC
 40
1.0
  9
$CHAMFERD
 40
0.0
  9
$SKPOLY
 70
     0
  9
$TDCREATE
 40
2459298.584358796
  9
$TDUCREATE
 40
2459298.209358796
  9
$TDUPDATE
 40
2459298.584358808
  9
$TDUUPDATE
 40
2459298.209358808
  9
$TDINDWG
 40
0.0000000116
  9
$TDUSRTIMER
 40
0.0000000116
  9
$USRTIMER
 70
     1
  9
$ANGBASE
 50
0.0
  9
$ANGDIR
 70
     0
  9
$PDMODE
 70
     0
  9
$PDSIZE
 40
0.0
  9
$PLINEWID
 40
0.0
  9
$SPLFRAME
 70
     0
  9
$SPLINETYPE
 70
     6
  9
$SPLINESEGS
 70
     8
  9
$HANDSEED
  5
1C1
  9
$SURFTAB1
 70
     6
  9
$SURFTAB2
 70
     6
  9
$SURFTYPE
 70
     6
  9
$SURFU
 70
     6
  9
$SURFV
 70
     6
  9
$UCSBASE
  2

  9
$UCSNAME
  2

  9
$UCSORG
 10
0.0
 20
0.0
 30
0.0
  9
$UCSXDIR
 10
1.0
 20
0.0
 30
0.0
  9
$UCSYDIR
 10
0.0
 20
1.0
 30
0.0
  9
$UCSORTHOREF
  2

  9
$UCSORTHOVIEW
 70
     0
  9
$UCSORGTOP
 10
0.0
 20
0.0
 30
0.0
  9
$UCSORGBOTTOM
 10
0.0
 20
0.0
 30
0.0
  9
$UCSORGLEFT
 10
0.0
 20
0.0
 30
0.0
  9
$UCSORGRIGHT
 10
0.0
 20
0.0
 30
0.0
  9
$UCSORGFRONT
 10
0.0
 20
0.0
 30
0.0
  9
$UCSORGBACK
 10
0.0
 20
0.0
 30
0.0
  9
$PUCSBASE
  2

  9
$PUCSNAME
  2

  9
$PUCSORG
 10
0.0
 20
0.0
 30
0.0
  9
$PUCSXDIR
 10
1.0
 20
0.0
 30
0.0
  9
$PUCSYDIR
 10
0.0
 20
1.0
 30
0.0
  9
$PUCSORTHOREF
  2

  9
$PUCSORTHOVIEW
 70
     0
  9
$PUCSORGTOP
 10
0.0
 20
0.0
 30
0.0
  9
$PUCSORGBOTTOM
 10
0.0
 20
0.0
 30
0.0
  9
$PUCSORGLEFT
 10
0.0
 20
0.0
 30
0.0
  9
$PUCSORGRIGHT
 10
0.0
 20
0.0
 30
0.0
  9
$PUCSORGFRONT
 10
0.0
 20
0.0
 30
0.0
  9
$PUCSORGBACK
 10
0.0
 20
0.0
 30
0.0
  9
$USERI1
 70
     0
  9
$USERI2
 70
     0
  9
$USERI3
 70
     0
  9
$USERI4
 70
     0
  9
$USERI5
 70
     0
  9
$USERR1
 40
0.0
  9
$USERR2
 40
0.0
  9
$USERR3
 40
0.0
  9
$USERR4
 40
0.0
  9
$USERR5
 40
0.0
  9
$WORLDVIEW
 70
     1
  9
$SHADEDGE
 70
     3
  9
$SHADEDIF
 70
    70
  9
$TILEMODE
 70
     1
  9
$MAXACTVP
 70
    64
  9
$PINSBASE
 10
0.0
 20
0.0
 30
0.0
  9
$PLIMCHECK
 70
     0
  9
$PEXTMIN
 10
1.000000000000000E+20
 20
1.000000000000000E+20
 30
1.000000000000000E+20
  9
$PEXTMAX
 10
-1.000000000000000E+20
 20
-1.000000000000000E+20
 30
-1.000000000000000E+20
  9
$PLIMMIN
 10
0.0
 20
0.0
  9
$PLIMMAX
 10
12.0
 20
9.0
  9
$UNITMODE
 70
     0
  9
$VISRETAIN
 70
     1
  9
$PLINEGEN
 70
     0
  9
$PSLTSCALE
 70
     1
  9
$TREEDEPTH
 70
  3020
  9
$CMLSTYLE
  2
Standard
  9
$CMLJUST
 70
     0
  9
$CMLSCALE
 40
1.0
  9
$PROXYGRAPHICS
 70
     1
  9
$MEASUREMENT
 70
     1
  9
$CELWEIGHT
370
    -1
  9
$ENDCAPS
280
     0
  9
$JOINSTYLE
280
     0
  9
$LWDISPLAY
290
     1
  9
$INSUNITS
 70
     4
  9
$HYPERLINKBASE
  1

  9
$STYLESHEET
  1

  9
$XEDIT
290
     1
  9
$CEPSNTYPE
380
     0
  9
$PSTYLEMODE
290
     1
  9
$FINGERPRINTGUID
  2
{80F586C7-352E-45D4-9045-10125407CE35}
  9
$VERSIONGUID
  2
{FAEB1C32-E019-11D5-929B-00C0DF256EC4}
  9
$EXTNAMES
290
     1
  9
$PSVPSCALE
 40
0.0
  9
$OLESTARTUP
290
     0
  9
$SORTENTS
280
   127
  9
$INDEXCTL
280
     0
  9
$HIDETEXT
280
     1
  9
$XCLIPFRAME
290
     0
  9
$HALOGAP
280
     0
  9
$OBSCOLOR
 70
   257
  9
$OBSLTYPE
280
     0
  9
$INTERSECTIONDISPLAY
280
     0
  9
$INTERSECTIONCOLOR
 70
   257
  9
$DIMASSOC
280
     2
  9
$PROJECTNAME
  1

  9
$CAMERADISPLAY
290
     0
  9
$LENSLENGTH
 40
50.0
  9
$CAMERAHEIGHT
 40
0.0
  9
$STEPSPERSEC
 40
2.0
  9
$STEPSIZE
 40
6.0
  9
$3DDWFPREC
 40
2.0
  9
$PSOLWIDTH
 40
0.25
  9
$PSOLHEIGHT
 40
4.0
  9
$LOFTANG1
 40
1.570796326794897
  9
$LOFTANG2
 40
1.570796326794897
  9
$LOFTMAG1
 40
0.0
  9
$LOFTMAG2
 40
0.0
  9
$LOFTPARAM
 70
     7
  9
$LOFTNORMALS
280
     1
  9
$LATITUDE
 40
37.795
  9
$LONGITUDE
 40
-122.394
  9
$NORTHDIRECTION
 40
0.0
  9
$TIMEZONE
 70
 -8000
  9
$LIGHTGLYPHDISPLAY
280
     1
  9
$TILEMODELIGHTSYNCH
280
     1
  9
$SOLIDHIST
280
     1
  9
$SHOWHIST
280
     1
  9
$DWFFRAME
280
     2
  9
$DGNFRAME
280
     2
  9
$REALWORLDSCALE
290
     1
  9
$INTERFERECOLOR
 62
   256
  9
$CSHADOW
280
     0
  9
$SHADOWPLANELOCATION
 40
0.0
  0
ENDSEC
  0
SECTION
  2
CLASSES
  0
CLASS
  1
ACDBDICTIONARYWDFLT
  2
AcDbDictionaryWithDefault
  3
ObjectDBX Classes
 90
        0
 91
        4
280
     0
281
     0
  0
CLASS
  1
VISUALSTYLE
  2
AcDbVisualStyle
  3
ObjectDBX Classes
 90
     4095
 91
        4
280
     0
281
     0
  0
ENDSEC
  0
SECTION
  2
TABLES
  0
TABLE
  2
VPORT
  5
8
330
0
100
AcDbSymbolTable
 70
     1
  0
VPORT
  5
29
330
8
100
AcDbSymbolTableRecord
100
AcDbViewportTableRecord
  2
*Active
 70
     0
 10
0.0
 20
0.0
 11
1.0
 21
1.0
 12
461.3463845096733
 22
-117.4674144479512
 13
0.0
 23
0.0
 14
0.5
 24
0.5
 15
0.5
 25
0.5
 16
0.0
 26
0.0
 36
1.0
 17
0.0
 27
0.0
 37
0.0
 40
254.9348288959024
 41
1.6
 42
50.0
 43
0.0
 44
0.0
 50
0.0
 51
0.0
 71
     0
 72
   100
 73
     1
 74
     3
 75
     0
 76
     0
 77
     0
 78
     0
281
     0
 65
     1
110
0.0
120
0.0
130
0.0
111
1.0
121
0.0
131
0.0
112
0.0
122
1.0
132
0.0
 79
     0
146
0.0
 60
     3
 61
     5
292
     1
282
     1
141
0.0
142
0.0
 63
   250
  0
ENDTAB
  0
TABLE
  2
LTYPE
  5
5
330
0
100
AcDbSymbolTable
 70
     2
  0
LTYPE
  5
14
330
5
100
AcDbSymbolTableRecord
100
AcDbLinetypeTableRecord
  2
ByBlock
 70
     0
  3

 72
    65
 73
     0
 40
0.0
  0
LTYPE
  5
15
330
5
100
AcDbSymbolTableRecord
100
AcDbLinetypeTableRecord
  2
ByLayer
 70
     0
  3

 72
    65
 73
     0
 40
0.0
  0
LTYPE
  5
16
330
5
100
AcDbSymbolTableRecord
100
AcDbLinetypeTableRecord
  2
Continuous
 70
     0
  3
Solid line
 72
    65
 73
     0
 40
0.0
  0
LTYPE
  5
3D
330
5
100
AcDbSymbolTableRecord
100
AcDbLinetypeTableRecord
  2
________________
 70
     0
  3

 72
    65
 73
     0
 40
0.0
  0
ENDTAB
  0
TABLE
  2
LAYER
  5
2
330
0
100
AcDbSymbolTable
 70
     2
  0
LAYER
  5
10
330
2
100
AcDbSymbolTableRecord
100
AcDbLayerTableRecord
  2
0
 70
     0
 62
     7
  6
Continuous
370
    -3
390
F
347
0
  0
LAYER
  5
3B
330
2
100
AcDbSymbolTableRecord
100
AcDbLayerTableRecord
  2
4
 70
     0
 62
     7
  6
Continuous
370
    -3
390
F
347
0
  0
ENDTAB
  0
TABLE
  2
STYLE
  5
3
330
0
100
AcDbSymbolTable
 70
     1
  0
STYLE
  5
11
330
3
100
AcDbSymbolTableRecord
100
AcDbTextStyleTableRecord
  2
Standard
 70
     0
 40
0.0
 41
1.0
 50
0.0
 71
     0
 42
0.2
  3
txt
  4

  0
ENDTAB
  0
TABLE
  2
VIEW
  5
6
330
0
100
AcDbSymbolTable
 70
     0
  0
ENDTAB
  0
TABLE
  2
UCS
  5
7
330
0
100
AcDbSymbolTable
 70
     0
  0
ENDTAB
  0
TABLE
  2
APPID
  5
9
330
0
100
AcDbSymbolTable
 70
     1
  0
APPID
  5
12
330
9
100
AcDbSymbolTableRecord
100
AcDbRegAppTableRecord
  2
ACAD
 70
     0
  0
ENDTAB
  0
TABLE
  2
DIMSTYLE
  5
A
330
0
100
AcDbSymbolTable
 70
     1
100
AcDbDimStyleTable
  0
DIMSTYLE
105
27
330
A
100
AcDbSymbolTableRecord
100
AcDbDimStyleTableRecord
  2
Standard
 70
     0
340
11
  0
ENDTAB
  0
TABLE
  2
BLOCK_RECORD
  5
1
330
0
100
AcDbSymbolTable
 70
     1
  0
BLOCK_RECORD
  5
1F
330
1
100
AcDbSymbolTableRecord
100
AcDbBlockTableRecord
  2
*Model_Space
340
22
 70
     0
280
     1
281
     0
  0
BLOCK_RECORD
  5
1B
330
1
100
AcDbSymbolTableRecord
100
AcDbBlockTableRecord
  2
*Paper_Space
340
1E
 70
     0
280
     1
281
     0
  0
BLOCK_RECORD
  5
23
330
1
100
AcDbSymbolTableRecord
100
AcDbBlockTableRecord
  2
*Paper_Space0
340
26
 70
     0
280
     1
281
     0
  0
ENDTAB
  0
ENDSEC
  0
SECTION
  2
BLOCKS
  0
BLOCK
  5
20
330
1F
100
AcDbEntity
  8
0
100
AcDbBlockBegin
  2
*Model_Space
 70
     0
 10
0.0
 20
0.0
 30
0.0
  3
*Model_Space
  1

  0
ENDBLK
  5
21
330
1F
100
AcDbEntity
  8
0
100
AcDbBlockEnd
  0
BLOCK
  5
1C
330
1B
100
AcDbEntity
 67
     1
  8
0
100
AcDbBlockBegin
  2
*Paper_Space
 70
     0
 10
0.0
 20
0.0
 30
0.0
  3
*Paper_Space
  1

  0
ENDBLK
  5
1D
330
1B
100
AcDbEntity
 67
     1
  8
0
100
AcDbBlockEnd
  0
BLOCK
  5
24
330
23
100
AcDbEntity
  8
0
100
AcDbBlockBegin
  2
*Paper_Space0
 70
     0
 10
0.0
 20
0.0
 30
0.0
  3
*Paper_Space0
  1

  0
ENDBLK
  5
25
330
23
100
AcDbEntity
  8
0
100
AcDbBlockEnd
  0
ENDSEC
  0
SECTION
  2
ENTITIES
  0
LINE
  5
3C
330
1F
100
AcDbEntity
  8
4
  6
________________
 62
     7
370
     0
100
AcDbLine
 10
751.2744279875857
 20
-105.1561649836598
 30
0.0
 11
754.8924282771978
 21
-213.8810163817415
 31
0.0
  0
LINE
  5
3E
330
1F
100
AcDbEntity
  8
4
  6
________________
 62
     7
370
     0
100
AcDbLine
 10
754.8924282771978
 20
-213.8810163817415
 30
0.0
 11
755.253374666699
 21
-224.8816145757901
 31
0.0
  0
LINE
  5
3F
330
1F
100
AcDbEntity
  8
4
  6
________________
 62
     7
370
     0
100
AcDbLine
 10
764.379647543128
 20
-107.9504617021047
 30
0.0
 11
755.379647543128
 21
-106.0371725987179
 31
0.0
  0
LINE
  5
40
330
1F
100
AcDbEntity
  8
4
  6
________________
 62
     7
370
     0
100
AcDbLine
 10
764.379647543128
 20
-107.9504617021047
 30
0.0
 11
764.379647543128
 21
-222.9417653923151
 31
0.0
  0
LINE
  5
41
330
1F
100
AcDbEntity
  8
4
  6
________________
 62
     7
370
     0
100
AcDbLine
 10
755.379647543128
 20
-106.0371725987179
 30
0.0
 11
755.379647543128
 21
-106.0287563372849
 31
0.0
  0
LINE
  5
42
330
1F
100
AcDbEntity
  8
4
  6
________________
 62
     7
370
     0
100
AcDbLine
 10
751.379647543128
 20
-121.4417653923151
 30
0.0
 11
751.379647543128
 21
-209.4417653923151
 31
0.0
  0
LINE
  5
43
330
1F
100
AcDbEntity
  8
4
  6
________________
 62
     7
370
     0
100
AcDbLine
 10
770.379647543128
 20
-108.9417653923151
 30
0.0
 11
770.379647543128
 21
-221.9417653923151
 31
0.0
  0
LWPOLYLINE
  5
44
330
1F
100
AcDbEntity
  8
4
  6
________________
 62
     7
370
     0
100
AcDbPolyline
 90
       39
 70
     0
 43
0.0
 10
770.3796083911593
 20
-108.9417653923151
 10
770.3786579605845
 20
-108.9061364102482
 10
770.3764392563643
 20
-108.8705638782781
 10
770.3729331737985
 20
-108.8349115817124
 10
770.3681531235769
 20
-108.7994076385455
 10
770.3610163723694
 20
-108.758469754636
 10
770.3521778138746
 20
-108.7178285013159
 10
770.3416624627569
 20
-108.6775884854526
 10
770.3294953336806
 20
-108.6378543139138
 10
770.3152562901325
 20
-108.5975327019106
 10
770.2992922360579
 20
-108.5578201969428
 10
770.2816491735387
 20
-108.518824604396
 10
770.262373104656
 20
-108.4806537296555
 10
770.2420882978073
 20
-108.4443856534909
 10
770.2202956334202
 20
-108.4089608708836
 10
770.1970533427144
 20
-108.3744698405416
 10
770.172419656909
 20
-108.341003021173
 10
770.1456360153309
 20
-108.3076676087216
 10
770.1174260174536
 20
-108.2754781452316
 10
770.0878687757753
 20
-108.2445211627385
 10
770.0570434027944
 20
-108.2148831932779
 10
770.0258991416666
 20
-108.1873776635534
 10
769.9936112472575
 20
-108.1611669879411
 10
769.9602646138949
 20
-108.1363172498068
 10
769.9259441359063
 20
-108.1128945325162
 10
769.8896384430088
 20
-108.0903074822877
 10
769.8523662165493
 20
-108.0692739037829
 10
769.8142307592507
 20
-108.0498492547391
 10
769.7753353738365
 20
-108.0320889928938
 10
769.7368471702842
 20
-108.0164472194806
 10
769.6977085963407
 20
-108.0024056250798
 10
769.6580216201702
 20
-107.9899984439398
 10
769.6178882099371
 20
-107.9792599103092
 10
769.5761585195226
 20
-107.9699668651583
 10
769.5340311526763
 20
-107.9624593070313
 10
769.4916219176419
 20
-107.9567553453294
 10
769.4490466226619
 20
-107.9528730894538
 10
769.4143889640638
 20
-107.9510654587882
 10
769.379647543128
 20
-107.9504617021047
  0
LINE
  5
45
330
1F
100
AcDbEntity
  8
4
  6
________________
 62
     7
370
     0
100
AcDbLine
 10
769.379647543128
 20
-107.9504617021047
 30
0.0
 11
764.379647543128
 21
-107.9504617021047
 31
0.0
  0
LINE
  5
46
330
1F
100
AcDbEntity
  8
4
  6
________________
 62
     7
370
     0
100
AcDbLine
 10
764.379647543128
 20
-107.9504617021047
 30
0.0
 11
764.379647543128
 21
-222.9417653923151
 31
0.0
  0
LINE
  5
47
330
1F
100
AcDbEntity
  8
4
  6
________________
 62
     7
370
     0
100
AcDbLine
 10
770.579647543128
 20
-160.1919471423557
 30
0.0
 11
770.579647543128
 21
-160.5409501978769
 31
0.0
  0
LINE
  5
48
330
1F
100
AcDbEntity
  8
4
  6
________________
 62
     7
370
     0
100
AcDbLine
 10
770.3796475431279
 20
-160.5409501978769
 30
0.0
 11
770.5796475431279
 21
-160.5409501978769
 31
0.0
  0
LINE
  5
49
330
1F
100
AcDbEntity
  8
4
  6
________________
 62
     7
370
     0
100
AcDbLine
 10
770.379647543128
 20
-160.191947142357
 30
0.0
 11
770.579647543128
 21
-160.191947142357
 31
0.0
  0
LINE
  5
4A
330
1F
100
AcDbEntity
  8
4
  6
________________
 62
     7
370
     0
100
AcDbLine
 10
770.579647543128
 20
-157.9417653923151
 30
0.0
 11
770.579647543128
 21
-160.191947142357
 31
0.0
  0
LINE
  5
4B
330
1F
100
AcDbEntity
  8
4
  6
________________
 62
     7
370
     0
100
AcDbLine
 10
770.379647543128
 20
-157.9417653923151
 30
0.0
 11
770.579647543128
 21
-157.9417653923151
 31
0.0
  0
LINE
  5
4C
330
1F
100
AcDbEntity
  8
4
  6
________________
 62
     7
370
     0
100
AcDbLine
 10
770.379647543128
 20
-169.1917653923151
 30
0.0
 11
770.579647543128
 21
-169.1917653923151
 31
0.0
  0
LINE
  5
4D
330
1F
100
AcDbEntity
  8
4
  6
________________
 62
     7
370
     0
100
AcDbLine
 10
770.579647543128
 20
-161.749500419234
 30
0.0
 11
770.579647543128
 21
-169.1917653923151
 31
0.0
  0
LINE
  5
4E
330
1F
100
AcDbEntity
  8
4
  6
________________
 62
     7
370
     0
100
AcDbLine
 10
770.3796475431279
 20
-161.1676654080913
 30
0.0
 11
770.5796475431279
 21
-161.1676654080908
 31
0.0
  0
LINE
  5
4F
330
1F
100
AcDbEntity
  8
4
  6
________________
 62
     7
370
     0
100
AcDbLine
 10
770.579647543128
 20
-160.5409501978769
 30
0.0
 11
770.579647543128
 21
-161.1676654080908
 31
0.0
  0
LINE
  5
50
330
1F
100
AcDbEntity
  8
4
  6
________________
 62
     7
370
     0
100
AcDbLine
 10
770.3796475431279
 20
-161.3755738688001
 30
0.0
 11
770.5796475431279
 21
-161.3755738688001
 31
0.0
  0
LINE
  5
51
330
1F
100
AcDbEntity
  8
4
  6
________________
 62
     7
370
     0
100
AcDbLine
 10
770.579647543128
 20
-161.1676654080913
 30
0.0
 11
770.579647543128
 21
-161.3755738688
 31
0.0
  0
LINE
  5
52
330
1F
100
AcDbEntity
  8
4
  6
________________
 62
     7
370
     0
100
AcDbLine
 10
770.579647543128
 20
-161.494840000628
 30
0.0
 11
770.579647543128
 21
-161.610513414504
 31
0.0
  0
LINE
  5
53
330
1F
100
AcDbEntity
  8
4
  6
________________
 62
     7
370
     0
100
AcDbLine
 10
770.379647543128
 20
-161.610513414504
 30
0.0
 11
770.579647543128
 21
-161.610513414504
 31
0.0
  0
LINE
  5
54
330
1F
100
AcDbEntity
  8
4
  6
________________
 62
     7
370
     0
100
AcDbLine
 10
770.379647543128
 20
-161.494840000628
 30
0.0
 11
770.579647543128
 21
-161.494840000628
 31
0.0
  0
LINE
  5
55
330
1F
100
AcDbEntity
  8
4
  6
________________
 62
     7
370
     0
100
AcDbLine
 10
770.579647543128
 20
-161.3755738688001
 30
0.0
 11
770.579647543128
 21
-161.494840000628
 31
0.0
  0
LINE
  5
56
330
1F
100
AcDbEntity
  8
4
  6
________________
 62
     7
370
     0
100
AcDbLine
 10
770.3796475431279
 20
-161.6917653923151
 30
0.0
 11
770.5796475431279
 21
-161.6917653923151
 31
0.0
  0
LINE
  5
57
330
1F
100
AcDbEntity
  8
4
  6
________________
 62
     7
370
     0
100
AcDbLine
 10
770.379647543128
 20
-161.6660102959428
 30
0.0
 11
770.579647543128
 21
-161.6660102959428
 31
0.0
  0
LINE
  5
58
330
1F
100
AcDbEntity
  8
4
  6
________________
 62
     7
370
     0
100
AcDbLine
 10
770.579647543128
 20
-161.6660102959426
 30
0.0
 11
770.579647543128
 21
-161.6917653923151
 31
0.0
  0
LINE
  5
59
330
1F
100
AcDbEntity
  8
4
  6
________________
 62
     7
370
     0
100
AcDbLine
 10
770.579647543128
 20
-161.610513414504
 30
0.0
 11
770.579647543128
 21
-161.6660102959428
 31
0.0
  0
LINE
  5
5A
330
1F
100
AcDbEntity
  8
4
  6
________________
 62
     7
370
     0
100
AcDbLine
 10
770.579647543128
 20
-169.5667653923151
 30
0.0
 11
770.579647543128
 21
-169.1917653923151
 31
0.0
  0
LINE
  5
5B
330
1F
100
AcDbEntity
  8
4
  6
________________
 62
     7
370
     0
100
AcDbLine
 10
770.3796475431279
 20
-172.9417653923151
 30
0.0
 11
770.5796475431279
 21
-172.9417653923151
 31
0.0
  0
LINE
  5
5C
330
1F
100
AcDbEntity
  8
4
  6
________________
 62
     7
370
     0
100
AcDbLine
 10
770.579647543128
 20
-169.5667653923151
 30
0.0
 11
770.579647543128
 21
-172.9417653923151
 31
0.0
  0
LINE
  5
5D
330
1F
100
AcDbEntity
  8
4
  6
________________
 62
     7
370
     0
100
AcDbLine
 10
770.579647543128
 20
-161.7283679326935
 30
0.0
 11
770.579647543128
 21
-161.749500419234
 31
0.0
  0
SPLINE
  5
5E
330
1F
100
AcDbEntity
  8
4
  6
________________
 62
     7
370
     0
100
AcDbSpline
210
0.0
220
0.0
230
1.0
 70
     8
 71
     3
 72
    14
 73
    10
 74
     0
 42
0.000000001
 43
0.0001
 40
2.884656765561408
 40
2.884656765561408
 40
2.884656765561408
 40
2.884656765561408
 40
2.887479386181314
 40
2.89494057322571
 40
2.902401760270106
 40
2.909862947314502
 40
2.917324134358899
 40
2.924785321403295
 40
2.925577865728327
 40
2.925577865728327
 40
2.925577865728327
 40
2.925577865728327
 10
584.8798889098578
 20
-209.4409956798231
 30
0.0
 10
584.822402406907
 20
-209.4413161746704
 30
0.0
 10
584.6129586951062
 20
-209.1296588639218
 30
0.0
 10
584.2515577744556
 20
-206.6177537881198
 30
0.0
 10
583.7956861479054
 20
-200.0940394647286
 30
0.0
 10
583.339814521356
 20
-190.7467112369739
 30
0.0
 10
582.8839428948056
 20
-179.3374289571764
 30
0.0
 10
582.5638872353964
 20
-170.5323247598504
 30
0.0
 10
582.3957887848372
 20
-165.8852365081743
 30
0.0
 10
582.3796475431279
 20
-165.4390096872179
 30
0.0
  0
SPLINE
  5
5F
330
1F
100
AcDbEntity
  8
4
  6
________________
 62
     7
370
     0
100
AcDbSpline
210
0.0
220
0.0
230
1.0
 70
     8
 71
     3
 72
    18
 73
    14
 74
     0
 42
0.000000001
 43
0.0001
 40
2.720987985396845
 40
2.720987985396845
 40
2.720987985396845
 40
2.720987985396845
 40
2.723333271204599
 40
2.730794458248995
 40
2.738255645293391
 40
2.745716832337787
 40
2.753178019382183
 40
2.760639206426579
 40
2.768100393470975
 40
2.775561580515372
 40
2.783022767559768
 40
2.790483954604164
 40
2.797555086335122
 40
2.797555086335122
 40
2.797555086335122
 40
2.797555086335122
 10
594.8798999784857
 20
-209.4411075490986
 30
0.0
 10
594.8321350473586
 20
-209.4414426931264
 30
0.0
 10
594.6324129073818
 20
-209.1947833187163
 30
0.0
 10
594.2807335585545
 20
-206.9252512185644
 30
0.0
 10
593.824861932005
 20
-200.6030733725855
 30
0.0
 10
593.3689903054549
 20
-191.4158033857215
 30
0.0
 10
592.9131186789042
 20
-180.1120588876215
 30
0.0
 10
592.457247052355
 20
-167.6129168058622
 30
0.0
 10
592.0013754258053
 20
-154.936860120838
 30
0.0
 10
591.5455037992546
 20
-143.1167875633364
 30
0.0
 10
591.0896321727054
 20
-133.1158486557875
 30
0.0
 10
590.6417045524332
 20
-125.8773373722448
 30
0.0
 10
590.3457341410121
 20
-123.1394302090186
 30
0.0
 10
590.2017209384409
 20
-122.3391611838944
 30
0.0
  0
SPLINE
  5
60
330
1F
100
AcDbEntity
  8
4
  6
________________
 62
     7
370
     0
100
AcDbSpline
210
0.0
220
0.0
230
1.0
 70
     8
 71
     3
 72
    19
 73
    15
 74
     0
 42
0.000000001
 43
0.0001
 40
2.557320437163419
 40
2.557320437163419
 40
2.557320437163419
 40
2.557320437163419
 40
2.559187156227883
 40
2.566648343272279
 40
2.574109530316675
 40
2.581570717361072
 40
2.589031904405468
 40
2.596493091449864
 40
2.60395427849426
 40
2.611415465538656
 40
2.618876652583052
 40
2.626337839627448
 40
2.633799026671845
 40
2.63389199455774
 40
2.63389199455774
 40
2.63389199455774
 40
2.63389199455774
 10
604.879835777261
 20
-209.4412497047366
 30
0.0
 10
604.8418175079086
 20
-209.441502495329
 30
0.0
 10
604.6518420297059
 20
-209.2547409308283
 30
0.0
 10
604.3099093426536
 20
-207.2188084847749
 30
0.0
 10
603.8540377161034
 20
-201.10029162903
 30
0.0
 10
603.3981660895538
 20
-192.0761671851455
 30
0.0
 10
602.9422944630036
 20
-180.8817589936646
 30
0.0
 10
602.4864228364537
 20
-168.4292347973019
 30
0.0
 10
602.0305512099043
 20
-155.7332789539095
 30
0.0
 10
601.5746795833536
 20
-143.8284116618922
 30
0.0
 10
601.1188079568037
 20
-133.6846918774119
 30
0.0
 10
600.6629363302543
 20
-126.1286728063455
 30
0.0
 10
600.3571284952774
 20
-123.2088466561147
 30
0.0
 10
600.2032778691507
 20
-122.3477758311473
 30
0.0
 10
600.2013844518742
 20
-122.3372708475295
 30
0.0
  0
SPLINE
  5
61
330
1F
100
AcDbEntity
  8
4
  6
________________
 62
     7
370
     0
100
AcDbSpline
210
0.0
220
0.0
230
1.0
 70
     8
 71
     3
 72
    19
 73
    15
 74
     0
 42
0.000000001
 43
0.0001
 40
2.39365367696221
 40
2.39365367696221
 40
2.39365367696221
 40
2.39365367696221
 40
2.395041041251168
 40
2.402502228295564
 40
2.40996341533996
 40
2.417424602384356
 40
2.424885789428752
 40
2.432346976473148
 40
2.439808163517545
 40
2.447269350561941
 40
2.454730537606337
 40
2.462191724650733
 40
2.469652911695129
 40
2.470214388299393
 40
2.470214388299393
 40
2.470214388299393
 40
2.470214388299393
 10
614.8797234279966
 20
-209.4414044442324
 30
0.0
 10
614.8514678697653
 20
-209.4415391408516
 30
0.0
 10
614.671255102684
 20
-209.3096390607138
 30
0.0
 10
614.3390851267526
 20
-207.4983269393885
 30
0.0
 10
613.883213500203
 20
-201.5855271481949
 30
0.0
 10
613.4273418736522
 20
-192.7275807257413
 30
0.0
 10
612.9714702471032
 20
-181.6462706242874
 30
0.0
 10
612.515598620553
 20
-169.2445488756586
 30
0.0
 10
612.0597269940021
 20
-156.5329602393209
 30
0.0
 10
611.6038553674532
 20
-144.547298739791
 30
0.0
 10
611.1479837409032
 20
-134.264206787097
 30
0.0
 10
610.6921121143531
 20
-126.5215942210613
 30
0.0
 10
610.3767624629412
 20
-123.3594396939416
 30
0.0
 10
610.2133700203797
 20
-122.4039134735118
 30
0.0
 10
610.2019347866681
 20
-122.3403904912502
 30
0.0
  0
SPLINE
  5
62
330
1F
100
AcDbEntity
  8
4
  6
________________
 62
     7
370
     0
100
AcDbSpline
210
0.0
220
0.0
230
1.0
 70
     8
 71
     3
 72
    19
 73
    15
 74
     0
 42
0.000000001
 43
0.0001
 40
2.229987259423269
 40
2.229987259423269
 40
2.229987259423269
 40
2.229987259423269
 40
2.230894926274452
 40
2.238356113318849
 40
2.245817300363244
 40
2.253278487407641
 40
2.260739674452037
 40
2.268200861496433
 40
2.275662048540829
 40
2.283123235585225
 40
2.290584422629621
 40
2.298045609674018
 40
2.305506796718414
 40
2.30654207537509
 40
2.30654207537509
 40
2.30654207537509
 40
2.30654207537509
 10
624.8795901423848
 20
-209.4415487974557
 30
0.0
 10
624.8611042740571
 20
-209.4415796302535
 30
0.0
 10
624.6906611968793
 20
-209.3595657122056
 30
0.0
 10
624.3682609108517
 20
-207.7637126526618
 30
0.0
 10
623.9123892843018
 20
-202.0586168709096
 30
0.0
 10
623.4565176577515
 20
-193.3698251056591
 30
0.0
 10
623.0006460312017
 20
-182.4053368720124
 30
0.0
 10
622.544774404652
 20
-170.0585850617347
 30
0.0
 10
622.0889027781013
 20
-157.3356352511392
 30
0.0
 10
621.6330311515525
 20
-145.2732072212898
 30
0.0
 10
621.1771595250015
 20
-134.8541986439019
 30
0.0
 10
620.7212878984517
 20
-126.9275944204386
 30
0.0
 10
620.3962886246677
 20
-123.5139224927086
 30
0.0
 10
620.2232465597333
 20
-122.4589510644092
 30
0.0
 10
620.2021617036488
 20
-122.3417727270189
 30
0.0
  0
ARC
  5
63
330
1F
100
AcDbEntity
  8
4
  6
________________
 62
     7
370
     0
100
AcDbCircle
 10
-655.7952753087219
 20
-208.6144757773059
 30
0.0
 40
1.234138927630414
210
0.0
220
0.0
230
-1.0
100
AcDbArc
 50
317.9149357841152
 51
2.182840180480639
  0
SPLINE
  5
64
330
1F
100
AcDbEntity
  8
4
  6
________________
 62
     7
370
     0
100
AcDbSpline
210
0.0
220
0.0
230
1.0
 70
     8
 71
     3
 72
    18
 73
    14
 74
     0
 42
0.000000001
 43
0.0001
 40
1.575298747902795
 40
1.575298747902795
 40
1.575298747902795
 40
1.575298747902795
 40
1.581771653411982
 40
1.589232840456378
 40
1.596694027500774
 40
1.604155214545171
 40
1.611616401589567
 40
1.619077588633963
 40
1.626538775678359
 40
1.633999962722755
 40
1.641461149767151
 40
1.648922336811548
 40
1.65187100855805
 40
1.65187100855805
 40
1.65187100855805
 40
1.65187100855805
 10
664.8804525861922
 20
-209.4415222370494
 30
0.0
 10
664.7486230732108
 20
-209.4425240866786
 30
0.0
 10
664.4648363513795
 20
-208.4678218077541
 30
0.0
 10
664.029092420698
 20
-203.8264005781003
 30
0.0
 10
663.5732207941484
 20
-195.8428423397468
 30
0.0
 10
663.1173491675984
 20
-185.3820757254873
 30
0.0
 10
662.661477541048
 20
-173.2964882583045
 30
0.0
 10
662.2056059144983
 20
-160.5708647388566
 30
0.0
 10
661.7497342879484
 20
-148.2421428133163
 30
0.0
 10
661.2938626613983
 20
-137.3149189067051
 30
0.0
 10
660.8379910348483
 20
-128.6795894557559
 30
0.0
 10
660.4740229117865
 20
-124.1767769925787
 30
0.0
 10
660.2620119975749
 20
-122.6748345850947
 30
0.0
 10
660.2019582922129
 20
-122.3411677442748
 30
0.0
  0
SPLINE
  5
65
330
1F
100
AcDbEntity
  8
4
  6
________________
 62
     7
370
     0
100
AcDbSpline
210
0.0
220
0.0
230
1.0
 70
     8
 71
     3
 72
    18
 73
    14
 74
     0
 42
0.000000001
 43
0.0001
 40
1.411631560589401
 40
1.411631560589401
 40
1.411631560589401
 40
1.411631560589401
 40
1.417625538435266
 40
1.425086725479662
 40
1.432547912524058
 40
1.440009099568455
 40
1.447470286612851
 40
1.454931473657247
 40
1.462392660701643
 40
1.469853847746039
 40
1.477315034790435
 40
1.484776221834832
 40
1.488205102778826
 40
1.488205102778826
 40
1.488205102778826
 40
1.488205102778826
 10
674.8803663330875
 20
-209.4413753827983
 30
0.0
 10
674.7582908325074
 20
-209.4420435330366
 30
0.0
 10
674.4842581230774
 20
-208.5716015688324
 30
0.0
 10
674.0582682047975
 20
-204.2364601236195
 30
0.0
 10
673.6023965782473
 20
-196.4360677470727
 30
0.0
 10
673.1465249516973
 20
-186.1101284785079
 30
0.0
 10
672.6906533251475
 20
-174.1000435383302
 30
0.0
 10
672.2347816985975
 20
-161.3844454618474
 30
0.0
 10
671.7789100720477
 20
-148.9994549797229
 30
0.0
 10
671.3230384454977
 20
-137.9542535170385
 30
0.0
 10
670.8671668189477
 20
-129.1488508209569
 30
0.0
 10
670.4934185833006
 20
-124.3542598661963
 30
0.0
 10
670.2716275565034
 20
-122.7282299612771
 30
0.0
 10
670.2017937385561
 20
-122.3403047761085
 30
0.0
  0
SPLINE
  5
66
330
1F
100
AcDbEntity
  8
4
  6
________________
 62
     7
370
     0
100
AcDbSpline
210
0.0
220
0.0
230
1.0
 70
     8
 71
     3
 72
    18
 73
    14
 74
     0
 42
0.000000001
 43
0.0001
 40
1.247963976020122
 40
1.247963976020122
 40
1.247963976020122
 40
1.247963976020122
 40
1.25347942345855
 40
1.260940610502946
 40
1.268401797547343
 40
1.275862984591739
 40
1.283324171636135
 40
1.290785358680531
 40
1.298246545724927
 40
1.305707732769323
 40
1.31316891981372
 40
1.320630106858116
 40
1.324536415027553
 40
1.324536415027553
 40
1.324536415027553
 40
1.324536415027553
 10
684.8803043519501
 20
-209.441222225821
 30
0.0
 10
684.7679747731156
 20
-209.4417378769814
 30
0.0
 10
684.5036879854308
 20
-208.6702677777523
 30
0.0
 10
684.087443988897
 20
-204.6334830497419
 30
0.0
 10
683.6315723623464
 20
-197.0188777889454
 30
0.0
 10
683.1757007357969
 20
-186.8312358080634
 30
0.0
 10
682.7198291092467
 20
-174.9006892793685
 30
0.0
 10
682.2639574826968
 20
-162.199389611876
 30
0.0
 10
681.8080858561467
 20
-149.7622924413877
 30
0.0
 10
681.3522142295969
 20
-138.6028250664163
 30
0.0
 10
680.8963426030471
 20
-129.630308104114
 30
0.0
 10
680.5128709134538
 20
-124.5374064351303
 30
0.0
 10
680.2813564327108
 20
-122.7824187785741
 30
0.0
 10
680.2017991608178
 20
-122.3403362381037
 30
0.0
  0
SPLINE
  5
67
330
1F
100
AcDbEntity
  8
4
  6
________________
 62
     7
370
     0
100
AcDbSpline
210
0.0
220
0.0
230
1.0
 70
     8
 71
     3
 72
    18
 73
    14
 74
     0
 42
0.000000001
 43
0.0001
 40
1.084295776320271
 40
1.084295776320271
 40
1.084295776320271
 40
1.084295776320271
 40
1.089333308481834
 40
1.096794495526231
 40
1.104255682570626
 40
1.111716869615023
 40
1.119178056659419
 40
1.126639243703815
 40
1.134100430748211
 40
1.141561617792608
 40
1.149022804837004
 40
1.1564839918814
 40
1.16086666899942
 40
1.16086666899942
 40
1.16086666899942
 40
1.16086666899942
 10
694.8802799547216
 20
-209.441084470879
 30
0.0
 10
694.7776837696631
 20
-209.441598325858
 30
0.0
 10
694.5231303757546
 20
-208.7638816518663
 30
0.0
 10
694.1166197729958
 20
-205.0173359403704
 30
0.0
 10
693.6607481464463
 20
-197.5910766171243
 30
0.0
 10
693.204876519896
 20
-187.5451553923142
 30
0.0
 10
692.7490048933461
 20
-175.6981564313893
 30
0.0
 10
692.293133266796
 20
-163.0154233340554
 30
0.0
 10
691.8372616402462
 20
-150.5303988534237
 30
0.0
 10
691.3813900136962
 20
-139.2604156080164
 30
0.0
 10
690.9255183871462
 20
-130.1237995156982
 30
0.0
 10
690.5323447968534
 20
-124.7258354264123
 30
0.0
 10
690.2911284154101
 20
-122.8369233496235
 30
0.0
 10
690.2018692428169
 20
-122.3406774923196
 30
0.0
  0
SPLINE
  5
68
330
1F
100
AcDbEntity
  8
4
  6
________________
 62
     7
370
     0
100
AcDbSpline
210
0.0
220
0.0
230
1.0
 70
     8
 71
     3
 72
    18
 73
    14
 74
     0
 42
0.000000001
 43
0.0001
 40
0.9206267719948273
 40
0.9206267719948273
 40
0.9206267719948273
 40
0.9206267719948273
 40
0.9251871935051184
 40
0.9326483805495145
 40
0.9401095675939107
 40
0.9475707546383068
 40
0.9550319416827029
 40
0.9624931287270991
 40
0.9699543157714954
 40
0.9774155028158915
 40
0.9848766898602878
 40
0.992337876904684
 40
0.9972006563441606
 40
0.9972006563441606
 40
0.9972006563441606
 40
0.9972006563441606
 10
704.8803047193721
 20
-209.4409785790602
 30
0.0
 10
704.7874255407964
 20
-209.4416058126278
 30
0.0
 10
704.542589153371
 20
-208.8524891919222
 30
0.0
 10
704.1457955570955
 20
-205.3878898050823
 30
0.0
 10
703.689923930545
 20
-198.1524719491762
 30
0.0
 10
703.2340523039956
 20
-188.2516473247994
 30
0.0
 10
702.7781806774452
 20
-176.492177012499
 30
0.0
 10
702.3223090508952
 20
-163.8322724073585
 30
0.0
 10
701.8664374243457
 20
-151.3035161003589
 30
0.0
 10
701.4105657977954
 20
-139.9268041642622
 30
0.0
 10
700.9546941712453
 20
-130.6291592222181
 30
0.0
 10
700.5517426450429
 20
-124.9182174563896
 30
0.0
 10
700.3007483276899
 20
-122.8901849130148
 30
0.0
 10
700.201711219187
 20
-122.3397061105825
 30
0.0
  0
SPLINE
  5
69
330
1F
100
AcDbEntity
  8
4
  6
________________
 62
     7
370
     0
100
AcDbSpline
210
0.0
220
0.0
230
1.0
 70
     8
 71
     3
 72
    18
 73
    14
 74
     0
 42
0.000000001
 43
0.0001
 40
0.7569582925916656
 40
0.7569582925916656
 40
0.7569582925916656
 40
0.7569582925916656
 40
0.7610410785284046
 40
0.7685022655728008
 40
0.7759634526171969
 40
0.7834246396615928
 40
0.790885826705989
 40
0.798347013750385
 40
0.8058082007947811
 40
0.8132693878391772
 40
0.8207305748835733
 40
0.8281917619279694
 40
0.8335327631236925
 40
0.8335327631236925
 40
0.8335327631236925
 40
0.8335327631236925
 10
714.8802974117574
 20
-209.4409164628357
 30
0.0
 10
714.7971459304197
 20
-209.441601952258
 30
0.0
 10
714.5620372402321
 20
-208.9358721702514
 30
0.0
 10
714.1749713411942
 20
-205.7450201224769
 30
0.0
 10
713.7190997146445
 20
-198.7028751330841
 30
0.0
 10
713.2632280880945
 20
-188.9504741950537
 30
0.0
 10
712.8073564615447
 20
-177.2824841989915
 30
0.0
 10
712.3514848349943
 20
-164.6496623367632
 30
0.0
 10
711.8956132084446
 20
-152.0813843828702
 30
0.0
 10
711.4397415818947
 20
-140.6017668010796
 30
0.0
 10
710.9838699553445
 20
-131.1462174019425
 30
0.0
 10
710.571178793497
 20
-125.1161490105092
 30
0.0
 10
710.3104448404993
 20
-122.9439788858524
 30
0.0
 10
710.2016680963516
 20
-122.339338795303
 30
0.0
  0
SPLINE
  5
6A
330
1F
100
AcDbEntity
  8
4
  6
________________
 62
     7
370
     0
100
AcDbSpline
210
0.0
220
0.0
230
1.0
 70
     8
 71
     3
 72
    18
 73
    14
 74
     0
 42
0.000000001
 43
0.0001
 40
0.5932909399115586
 40
0.5932909399115586
 40
0.5932909399115586
 40
0.5932909399115586
 40
0.596894963551691
 40
0.6043561505960872
 40
0.6118173376404833
 40
0.6192785246848793
 40
0.6267397117292753
 40
0.6342008987736714
 40
0.6416620858180675
 40
0.6491232728624636
 40
0.6565844599068597
 40
0.6640456469512558
 40
0.6698871133931288
 40
0.6698871133931288
 40
0.6698871133931288
 40
0.6698871133931288
 10
724.8802212624059
 20
-209.4409049480266
 30
0.0
 10
724.8068204255517
 20
-209.441541406417
 30
0.0
 10
724.5814623798474
 20
-209.0139786739967
 30
0.0
 10
724.2041471252935
 20
-206.0886068820211
 30
0.0
 10
723.7482754987435
 20
-199.2421012106529
 30
0.0
 10
723.2924038721935
 20
-189.6414011683941
 30
0.0
 10
722.8365322456438
 20
-178.0688124150201
 30
0.0
 10
722.3806606190934
 20
-165.4673184455022
 30
0.0
 10
721.9247889925437
 20
-152.8637423050962
 30
0.0
 10
721.4689173659938
 20
-141.2850767031518
 30
0.0
 10
721.0130457394438
 20
-131.6748003019722
 30
0.0
 10
720.5901619230655
 20
-125.3123160715628
 30
0.0
 10
720.3192353155372
 20
-122.9899171799116
 30
0.0
 10
720.200265916859
 20
-122.3314135610597
 30
0.0
  0
SPLINE
  5
6B
330
1F
100
AcDbEntity
  8
4
  6
________________
 62
     7
370
     0
100
AcDbSpline
210
0.0
220
0.0
230
1.0
 70
     8
 71
     3
 72
    18
 73
    14
 74
     0
 42
0.000000001
 43
0.0001
 40
0.4296242333858587
 40
0.4296242333858587
 40
0.4296242333858587
 40
0.4296242333858587
 40
0.4327488485749772
 40
0.4402100356193734
 40
0.4476712226637695
 40
0.4551324097081656
 40
0.4625935967525617
 40
0.4700547837969578
 40
0.4775159708413539
 40
0.48497715788575
 40
0.492438344930146
 40
0.4998995319745422
 40
0.5061983256800358
 40
0.5061983256800358
 40
0.5061983256800358
 40
0.5061983256800358
 10
734.880105633618
 20
-209.4409450945706
 30
0.0
 10
734.8164686010596
 20
-209.4414776221543
 30
0.0
 10
734.600874359651
 20
-209.0869396956924
 30
0.0
 10
734.2333229093927
 20
-206.4185346243767
 30
0.0
 10
733.7774512828425
 20
-199.7699689796545
 30
0.0
 10
733.3215796562928
 20
-190.3241960648274
 30
0.0
 10
732.8657080297429
 20
-178.8508974218349
 30
0.0
 10
732.4098364031928
 20
-166.2849659673603
 30
0.0
 10
731.9539647766427
 20
-153.6503269624695
 30
0.0
 10
731.4980931500929
 20
-141.9765042501365
 30
0.0
 10
731.0422215235429
 20
-132.214730296627
 30
0.0
 10
730.6100236162436
 20
-125.526769991789
 30
0.0
 10
730.3297829177941
 20
-123.0508107850308
 30
0.0
 10
730.2014994281949
 20
-122.3381065993709
 30
0.0
  0
SPLINE
  5
6C
330
1F
100
AcDbEntity
  8
4
  6
________________
 62
     7
370
     0
100
AcDbSpline
210
0.0
220
0.0
230
1.0
 70
     8
 71
     3
 72
    18
 73
    14
 74
     0
 42
0.000000001
 43
0.0001
 40
0.2659576871336474
 40
0.2659576871336474
 40
0.2659576871336474
 40
0.2659576871336474
 40
0.2686027335982615
 40
0.2760639206426576
 40
0.2835251076870538
 40
0.29098629473145
 40
0.2984474817758461
 40
0.3059086688202423
 40
0.3133698558646385
 40
0.3208310429090346
 40
0.3282922299534308
 40
0.335753416997827
 40
0.3425269398790367
 40
0.3425269398790367
 40
0.3425269398790367
 40
0.3425269398790367
 10
744.8799802122679
 20
-209.4410326523215
 30
0.0
 10
744.8261102481925
 20
-209.4414460268819
 30
0.0
 10
744.6202830752673
 20
-209.154866381316
 30
0.0
 10
744.2624986934919
 20
-206.7346924801986
 30
0.0
 10
743.8066270669419
 20
-200.2863010547217
 30
0.0
 10
743.3507554403919
 20
-190.9986294370747
 30
0.0
 10
742.8948838138421
 20
-179.6284764065802
 30
0.0
 10
742.4390121872918
 20
-167.1023301390083
 30
0.0
 10
741.9831405607422
 20
-154.4408740300661
 30
0.0
 10
741.5272689341922
 20
-142.6758170938282
 30
0.0
 10
741.071397307642
 20
-132.7658259471338
 30
0.0
 10
740.6295308958446
 20
-125.7410625871158
 30
0.0
 10
740.3396216928969
 20
-123.1055760564203
 30
0.0
 10
740.2016696987992
 20
-122.3389291608915
 30
0.0
  0
LINE
  5
6D
330
1F
100
AcDbEntity
  8
4
  6
________________
 62
     7
370
     0
100
AcDbLine
 10
747.379647543128
 20
-121.4424320316287
 30
0.0
 11
747.3796475431279
 21
-129.8440631464433
 31
0.0
  0
ARC
  5
6E
330
1F
100
AcDbEntity
  8
4
  6
________________
 62
     7
370
     0
100
AcDbCircle
 10
587.2799453694645
 20
-122.2680180511232
 30
0.0
 40
1.221333745495529
100
AcDbArc
 50
137.4731828294315
 51
182.7775239715773
  0
ARC
  5
6F
330
1F
100
AcDbEntity
  8
4
  6
________________
 62
     7
370
     0
100
AcDbCircle
 10
-592.1806615416733
 20
-208.6472301644035
 30
0.0
 40
1.127596187851384
210
0.0
220
0.0
230
-1.0
100
AcDbArc
 50
315.2470574730822
 51
5.258042068113412
  0
SPLINE
  5
70
330
1F
100
AcDbEntity
  8
4
  6
________________
 62
     7
370
     0
100
AcDbSpline
210
0.0
220
0.0
230
1.0
 70
     8
 71
     3
 72
     9
 73
     5
 74
     0
 42
0.000000001
 43
0.0001
 40
2.639154884000981
 40
2.639154884000981
 40
2.639154884000981
 40
2.639154884000981
 40
2.641260213716241
 40
2.644426763196865
 40
2.644426763196865
 40
2.644426763196865
 40
2.644426763196865
 10
596.3798267752609
 20
-121.4423465816819
 30
0.0
 10
596.3369488758949
 20
-121.4420809999669
 30
0.0
 10
596.229579895164
 20
-121.5611916460317
 30
0.0
 10
596.1222109144329
 20
-121.9817482983761
 30
0.0
 10
596.0577198330678
 20
-122.3401746265704
 30
0.0
  0
SPLINE
  5
71
330
1F
100
AcDbEntity
  8
4
  6
________________
 62
     7
370
     0
100
AcDbSpline
210
0.0
220
0.0
230
1.0
 70
     8
 71
     3
 72
     9
 73
     5
 74
     0
 42
0.000000001
 43
0.0001
 40
2.557320437163418
 40
2.557320437163418
 40
2.557320437163418
 40
2.557320437163418
 40
2.559187156227883
 40
2.562572095631067
 40
2.562572095631067
 40
2.562572095631067
 40
2.562572095631067
 10
601.3798357772704
 20
-209.4412577652189
 30
0.0
 10
601.3418175079179
 20
-209.4415105558576
 30
0.0
 10
601.2348603497835
 20
-209.3363628281818
 30
0.0
 10
601.1279031916491
 20
-208.9318677170471
 30
0.0
 10
601.0589643028673
 20
-208.5502327219843
 30
0.0
  0
SPLINE
  5
72
330
1F
100
AcDbEntity
  8
4
  6
________________
 62
     7
370
     0
100
AcDbSpline
210
0.0
220
0.0
230
1.0
 70
     8
 71
     3
 72
     9
 73
     5
 74
     0
 42
0.000000001
 43
0.0001
 40
2.475487964440386
 40
2.475487964440386
 40
2.475487964440386
 40
2.475487964440386
 40
2.477114098739525
 40
2.480758765038723
 40
2.480758765038723
 40
2.480758765038723
 40
2.480758765038723
 10
606.3797241627079
 20
-121.442195585535
 30
0.0
 10
606.3466057288928
 20
-121.4420352559376
 30
0.0
 10
606.2392587152658
 20
-121.5341330437799
 30
0.0
 10
606.1319117016391
 20
-121.927949997071
 30
0.0
 10
606.0576831218273
 20
-122.340417900862
 30
0.0
  0
SPLINE
  5
73
330
1F
100
AcDbEntity
  8
4
  6
________________
 62
     7
370
     0
100
AcDbSpline
210
0.0
220
0.0
230
1.0
 70
     8
 71
     3
 72
     9
 73
     5
 74
     0
 42
0.000000001
 43
0.0001
 40
2.39365367696221
 40
2.39365367696221
 40
2.39365367696221
 40
2.39365367696221
 40
2.395041041251168
 40
2.398924706309497
 40
2.398924706309497
 40
2.398924706309497
 40
2.398924706309497
 10
611.379723428006
 20
-209.441412504743
 30
0.0
 10
611.3514678697745
 20
-209.4415472013869
 30
0.0
 10
611.2441161973645
 20
-209.3629750945539
 30
0.0
 10
611.1367645249545
 20
-208.982497385823
 30
0.0
 10
611.0576684107759
 20
-208.543030247308
 30
0.0
  0
SPLINE
  5
74
330
1F
100
AcDbEntity
  8
4
  6
________________
 62
     7
370
     0
100
AcDbSpline
210
0.0
220
0.0
230
1.0
 70
     8
 71
     3
 72
     9
 73
     5
 74
     0
 42
0.000000001
 43
0.0001
 40
2.311821524229944
 40
2.311821524229944
 40
2.311821524229944
 40
2.311821524229944
 40
2.31296798376281
 40
2.317091164161788
 40
2.317091164161788
 40
2.317091164161788
 40
2.317091164161788
 10
616.3795922623038
 20
-121.4420429922487
 30
0.0
 10
616.3562430566564
 20
-121.4419913328808
 30
0.0
 10
616.2489196815791
 20
-121.5071456760298
 30
0.0
 10
616.1415963065018
 20
-121.8741812928879
 30
0.0
 10
616.057622137072
 20
-122.3407458610765
 30
0.0
  0
SPLINE
  5
75
330
1F
100
AcDbEntity
  8
4
  6
________________
 62
     7
370
     0
100
AcDbSpline
210
0.0
220
0.0
230
1.0
 70
     8
 71
     3
 72
     9
 73
     5
 74
     0
 42
0.000000001
 43
0.0001
 40
2.229987259423269
 40
2.229987259423269
 40
2.229987259423269
 40
2.229987259423269
 40
2.230894926274452
 40
2.235256780554761
 40
2.235256780554761
 40
2.235256780554761
 40
2.235256780554761
 10
621.3795901423941
 20
-209.4415568579928
 30
0.0
 10
621.3611042740663
 20
-209.4415876907962
 30
0.0
 10
621.2537833185196
 20
-209.3899469095382
 30
0.0
 10
621.146462362973
 20
-209.0363290201612
 30
0.0
 10
621.0576272757539
 20
-208.5428376447137
 30
0.0
  0
LINE
  5
76
330
1F
100
AcDbEntity
  8
4
  6
________________
 62
     7
370
     0
100
AcDbLine
 10
626.169647543128
 20
-121.8253357920064
 30
0.0
 11
626.0575134871553
 21
-122.3412893102747
 31
0.0
  0
ARC
  5
77
330
1F
100
AcDbEntity
  8
4
  6
________________
 62
     7
370
     0
100
AcDbCircle
 10
657.3351501246814
 20
-122.2913049699813
 30
0.0
 40
1.2786700953993
100
AcDbArc
 50
138.3746118886613
 51
182.2374131795629
  0
ARC
  5
78
330
1F
100
AcDbEntity
  8
4
  6
________________
 62
     7
370
     0
100
AcDbCircle
 10
-662.3197249756081
 20
-208.5966943116962
 30
0.0
 40
1.263321204028747
210
0.0
220
0.0
230
-1.0
100
AcDbArc
 50
318.0299518695623
 51
2.440207298187772
  0
ARC
  5
79
330
1F
100
AcDbEntity
  8
4
  6
________________
 62
     7
370
     0
100
AcDbCircle
 10
667.3333368187202
 20
-122.2911178940206
 30
0.0
 40
1.276996453059476
100
AcDbArc
 50
138.3271583636103
 51
182.270204820498
  0
ARC
  5
7A
330
1F
100
AcDbEntity
  8
4
  6
________________
 62
     7
370
     0
100
AcDbCircle
 10
-672.3004798388833
 20
-208.6073986445425
 30
0.0
 40
1.241829089364355
210
0.0
220
0.0
230
-1.0
100
AcDbArc
 50
317.8110457958805
 51
2.408598399066591
  0
ARC
  5
7B
330
1F
100
AcDbEntity
  8
4
  6
________________
 62
     7
370
     0
100
AcDbCircle
 10
677.3280993162133
 20
-122.2893305168468
 30
0.0
 40
1.271653938757144
100
AcDbArc
 50
138.2298079834738
 51
182.3190979306506
  0
ARC
  5
7C
330
1F
100
AcDbEntity
  8
4
  6
________________
 62
     7
370
     0
100
AcDbCircle
 10
-682.3183673875168
 20
-208.5971206503332
 30
0.0
 40
1.261936335523868
210
0.0
220
0.0
230
-1.0
100
AcDbArc
 50
318.0177513352207
 51
2.444696961820569
  0
ARC
  5
7D
330
1F
100
AcDbEntity
  8
4
  6
________________
 62
     7
370
     0
100
AcDbCircle
 10
687.3148423725826
 20
-122.2828791604619
 30
0.0
 40
1.25728567807661
100
AcDbArc
 50
138.0479015390353
 51
182.3518878515013
  0
ARC
  5
7E
330
1F
100
AcDbEntity
  8
4
  6
________________
 62
     7
370
     0
100
AcDbCircle
 10
-693.7101527360126
 20
-208.0967517490979
 30
0.0
 40
2.689899499188692
210
0.0
220
0.0
230
-1.0
100
AcDbArc
 50
330.0149767368235
 51
350.4483101495471
  0
ARC
  5
7F
330
1F
100
AcDbEntity
  8
4
  6
________________
 62
     7
370
     0
100
AcDbCircle
 10
698.5498216944062
 20
-122.7280725453624
 30
0.0
 40
2.522195283963961
100
AcDbArc
 50
149.3557692428728
 51
171.117079077832
  0
ARC
  5
80
330
1F
100
AcDbEntity
  8
4
  6
________________
 62
     7
370
     0
100
AcDbCircle
 10
-703.3875391345665
 20
-208.2126208117601
 30
0.0
 40
2.353268484191085
210
0.0
220
0.0
230
-1.0
100
AcDbArc
 50
328.5346475499375
 51
351.9050642779789
  0
ARC
  5
81
330
1F
100
AcDbEntity
  8
4
  6
________________
 62
     7
370
     0
100
AcDbCircle
 10
708.2405351096079
 20
-122.6170963205468
 30
0.0
 40
2.200368688355578
100
AcDbArc
 50
147.7386662508662
 51
172.7465001006146
  0
ARC
  5
82
330
1F
100
AcDbEntity
  8
4
  6
________________
 62
     7
370
     0
100
AcDbCircle
 10
-713.0865529398164
 20
-208.3210190969714
 30
0.0
 40
2.040954691328194
210
0.0
220
0.0
230
-1.0
100
AcDbArc
 50
326.7209989847548
 51
353.6980550357194
  0
ARC
  5
83
330
1F
100
AcDbEntity
  8
4
  6
________________
 62
     7
370
     0
100
AcDbCircle
 10
717.9524653097391
 20
-122.5136076524714
 30
0.0
 40
1.902714354358759
100
AcDbArc
 50
145.7451102764003
 51
174.7592040793311
  0
ARC
  5
84
330
1F
100
AcDbEntity
  8
4
  6
________________
 62
     7
370
     0
100
AcDbCircle
 10
-722.807707268351
 20
-208.4217416864528
 30
0.0
 40
1.753974462694603
210
0.0
220
0.0
230
-1.0
100
AcDbArc
 50
324.4745902517087
 51
355.934237590521
  0
ARC
  5
85
330
1F
100
AcDbEntity
  8
4
  6
________________
 62
     7
370
     0
100
AcDbCircle
 10
727.6836302412062
 20
-122.4166682727627
 30
0.0
 40
1.62759231257379
100
AcDbArc
 50
143.2395489449678
 51
177.2610068098029
  0
ARC
  5
86
330
1F
100
AcDbEntity
  8
4
  6
________________
 62
     7
370
     0
100
AcDbCircle
 10
-732.5530901100219
 20
-208.5132251719544
 30
0.0
 40
1.49551722347036
210
0.0
220
0.0
230
-1.0
100
AcDbArc
 50
321.6590898936961
 51
358.7981748573287
  0
ARC
  5
87
330
1F
100
AcDbEntity
  8
4
  6
________________
 62
     7
370
     0
100
AcDbCircle
 10
737.4370222207534
 20
-122.3279730348669
 30
0.0
 40
1.379191120124694
100
AcDbArc
 50
140.0591598466941
 51
180.4641887285294
  0
ARC
  5
88
330
1F
100
AcDbEntity
  8
4
  6
________________
 62
     7
370
     0
100
AcDbCircle
 10
-742.3070070774853
 20
-208.6055623978688
 30
0.0
 40
1.247959463876803
210
0.0
220
0.0
230
-1.0
100
AcDbArc
 50
317.9734016774483
 51
2.266110108089265
  0
ARC
  5
89
330
1F
100
AcDbEntity
  8
4
  6
________________
 62
     7
370
     0
100
AcDbCircle
 10
747.2108928620271
 20
-122.2467838518903
 30
0.0
 40
1.156809003135695
100
AcDbArc
 50
135.9471611629031
 51
184.6022660069205
  0
LINE
  5
8A
330
1F
100
AcDbEntity
  8
4
  6
________________
 62
     7
370
     0
100
AcDbLine
 10
582.3796475431279
 20
-209.4410014471613
 30
0.0
 11
582.3796475431278
 21
-165.4390096872179
 31
0.0
  0
SPLINE
  5
8B
330
1F
100
AcDbEntity
  8
4
  6
________________
 62
     7
370
     0
100
AcDbSpline
210
0.0
220
0.0
230
1.0
 70
     8
 71
     3
 72
    10
 73
     6
 74
     0
 42
0.000000001
 43
0.0001
 40
0.1677619724794857
 40
0.1677619724794857
 40
0.1677619724794857
 40
0.1677619724794857
 40
0.1716073020211114
 40
0.1790684890655075
 40
0.1841313202626655
 40
0.1841313202626655
 40
0.1841313202626655
 40
0.1841313202626655
 10
747.3796475431278
 20
-129.8440631464411
 30
0.0
 10
747.3013321838188
 20
-128.5715657568948
 30
0.0
 10
747.0710596156597
 20
-125.2088564102274
 30
0.0
 10
746.7376756132182
 20
-122.1262016368855
 30
0.0
 10
746.4826069700856
 20
-121.4424167307777
 30
0.0
 10
746.3794955358029
 20
-121.442429728582
 30
0.0
  0
LWPOLYLINE
  5
8C
330
1F
100
AcDbEntity
  8
4
  6
________________
 62
     7
370
     0
100
AcDbPolyline
 90
        6
 70
     0
 43
0.0
 10
740.5999728990722
 20
-206.0034661747842
 42
-0.017866039673352
 10
738.6274289103447
 20
-170.3429562535318
 42
0.0123135152102973
 10
736.3957091253726
 20
-125.6385336339354
 42
0.0493877185088341
 10
736.1040840150129
 20
-124.1650253578291
 10
736.0407429151712
 20
-124.0265714340238
 10
735.9774216959794
 20
-123.9538153344971
  0
LWPOLYLINE
  5
8D
330
1F
100
AcDbEntity
  8
4
  6
________________
 62
     7
370
     0
100
AcDbPolyline
 90
        6
 70
     0
 43
0.0
 10
600.5989127493683
 20
-205.9975351358282
 42
-0.0173868304354455
 10
598.5946176714659
 20
-169.4936181840011
 42
0.0129059091717101
 10
596.3771298880768
 20
-125.504617172993
 42
0.0443422235226991
 10
596.1096068064599
 20
-124.1798567386672
 10
596.0435264257087
 20
-124.0311360470044
 10
595.9774058491745
 20
-123.9538153344971
  0
LWPOLYLINE
  5
8E
330
1F
100
AcDbEntity
  8
4
  6
________________
 62
     7
370
     0
100
AcDbPolyline
 90
        6
 70
     0
 43
0.0
 10
610.598047752789
 20
-205.9927619655045
 42
-0.0173616265995975
 10
608.5918580910035
 20
-169.4229981561948
 42
0.0127767010671027
 10
606.3821750245786
 20
-125.5404198182886
 42
0.0627041121945629
 10
606.0453934329568
 20
-124.0346169898057
 10
605.9791343135071
 20
-123.9550825323339
 10
605.9389987206218
 20
-123.9417653923333
  0
LWPOLYLINE
  5
8F
330
1F
100
AcDbEntity
  8
4
  6
________________
 62
     7
370
     0
100
AcDbPolyline
 90
        6
 70
     0
 43
0.0
 10
620.5979751381317
 20
-205.9924223311478
 42
-0.0175091756867856
 10
618.6026231047204
 20
-169.7020374230787
 42
0.0126796177285918
 10
616.3871174138247
 20
-125.576140639758
 42
0.0610695196025922
 10
616.0485058799865
 20
-124.0400079310127
 10
615.9822222122665
 20
-123.9573158928912
 10
615.9389725047376
 20
-123.9417653923497
  0
LWPOLYLINE
  5
90
330
1F
100
AcDbEntity
  8
4
  6
________________
 62
     7
370
     0
100
AcDbPolyline
 90
        5
 70
     0
 43
0.0
 10
626.1696656117363
 20
-124.3766447493817
 10
626.1254458236116
 20
-124.226158853782
 10
626.0592582212008
 20
-124.0600837055442
 10
625.9911195134166
 20
-123.9641656137365
 10
625.938949368863
 20
-123.9417653923896
  0
LWPOLYLINE
  5
91
330
1F
100
AcDbEntity
  8
4
  6
________________
 62
     7
370
     0
100
AcDbPolyline
 90
        6
 70
     0
 43
0.0
 10
660.5978502982292
 20
-205.9922410517043
 42
-0.0171191858595149
 10
658.4981154247631
 20
-166.98132229393
 42
0.014360416235967
 10
656.3486909403971
 20
-125.3094109602664
 42
0.0533175478351861
 10
656.0819781750787
 20
-124.1092480671224
 10
656.0137851698112
 20
-123.9878774613058
 10
655.9389551758755
 20
-123.9417653923591
  0
LWPOLYLINE
  5
92
330
1F
100
AcDbEntity
  8
4
  6
________________
 62
     7
370
     0
100
AcDbPolyline
 90
        6
 70
     0
 43
0.0
 10
670.5995554288802
 20
-206.0017693480768
 42
-0.0173020283680867
 10
668.5088786999356
 20
-167.2615255621731
 42
0.0140578036381471
 10
666.3594705183096
 20
-125.381592221467
 42
0.0516514701186608
 10
666.0869238329763
 20
-124.1209416320013
 10
666.0207242821782
 20
-123.9966674460201
 10
665.938977562211
 20
-123.9417653923807
  0
LWPOLYLINE
  5
93
330
1F
100
AcDbEntity
  8
4
  6
________________
 62
     7
370
     0
100
AcDbPolyline
 90
        6
 70
     0
 43
0.0
 10
680.598059395894
 20
-205.9935349219416
 42
-0.0173355945059504
 10
678.5138431127497
 20
-167.391213250095
 42
0.0139202663427542
 10
676.3644716915502
 20
-125.4158326462654
 42
0.0479990192104545
 10
676.0976561911681
 20
-124.1480539333179
 10
676.0314639914416
 20
-124.0118759774935
 10
675.9390020942279
 20
-123.9417653923507
  0
LWPOLYLINE
  5
94
330
1F
100
AcDbEntity
  8
4
  6
________________
 62
     7
370
     0
100
AcDbPolyline
 90
        6
 70
     0
 43
0.0
 10
690.5979243132476
 20
-205.9927386359762
 42
-0.0173183823972844
 10
688.5889716000056
 20
-169.3449932558997
 42
0.0130176630155546
 10
686.3733590195593
 20
-125.4777731756272
 42
0.0454660182156488
 10
686.1046419834231
 20
-124.1666593420651
 10
686.0364712492382
 20
-124.019775825506
 10
685.9390255236888
 20
-123.9417653923204
  0
LWPOLYLINE
  5
95
330
1F
100
AcDbEntity
  8
4
  6
________________
 62
     7
370
     0
100
AcDbPolyline
 90
        6
 70
     0
 43
0.0
 10
700.5980074504847
 20
-205.993094721541
 42
-0.0174368775279983
 10
698.5997355227782
 20
-169.6241014055941
 42
0.012775076346898
 10
696.3822666993995
 20
-125.5407914618027
 42
0.0627735354103678
 10
696.0453713808012
 20
-124.0347072326323
 10
695.9791815412937
 20
-123.9551164812097
 10
695.9390441605012
 20
-123.9417653923334
  0
LWPOLYLINE
  5
96
330
1F
100
AcDbEntity
  8
4
  6
________________
 62
     7
370
     0
100
AcDbPolyline
 90
        6
 70
     0
 43
0.0
 10
710.5982896080651
 20
-205.9945247656313
 42
-0.017510518469146
 10
708.6047007326924
 20
-169.7532320507864
 42
0.0126508590888827
 10
706.3872644722239
 20
-125.5765184805546
 42
0.0584886391558848
 10
706.0542514647434
 20
-124.0507467053517
 10
705.9861412545176
 20
-123.9602332461443
 10
705.9390577776653
 20
-123.9417653923728
  0
LWPOLYLINE
  5
97
330
1F
100
AcDbEntity
  8
4
  6
________________
 62
     7
370
     0
100
AcDbPolyline
 90
        6
 70
     0
 43
0.0
 10
720.5984099217928
 20
-205.9950508878915
 42
-0.0176662738722265
 10
718.6135758478929
 20
-169.9836925726133
 42
0.0124092226539837
 10
716.3980147266445
 20
-125.6554916575973
 42
0.0563406656174632
 10
716.0592588685665
 20
-124.0601861694336
 10
715.9931255455891
 20
-123.9658656894319
 10
715.939064622336
 20
-123.9417653923813
  0
LWPOLYLINE
  5
98
330
1F
100
AcDbEntity
  8
4
  6
________________
 62
     7
370
     0
100
AcDbPolyline
 90
        6
 70
     0
 43
0.0
 10
730.5982492711623
 20
-205.9940329706351
 42
-0.0177557097782434
 10
728.6224665455062
 20
-170.2140460773405
 42
0.0140193792807643
 10
726.3367882300724
 20
-125.2312209784013
 42
0.0584507449107559
 10
726.0700361353097
 20
-124.0824409757
 10
726.0038987887494
 20
-123.9762017646201
 10
725.9390646098398
 20
-123.9417653923312
  0
LWPOLYLINE
  5
99
330
1F
100
AcDbEntity
  8
4
  6
________________
 62
     7
370
     0
100
AcDbPolyline
 90
        6
 70
     0
 43
0.0
 10
590.5982400943661
 20
-205.9938417437448
 42
-0.0172805875872808
 10
588.585732025012
 20
-169.2628647968011
 42
0.0130988228775252
 10
586.3701892377363
 20
-125.4555137589395
 42
0.0469696444404163
 10
586.0996036873757
 20
-124.1529579854399
 10
586.0315403551018
 20
-124.0117997030708
 10
585.977418128812
 20
-123.9538153344971
  0
SPLINE
  5
9A
330
1F
100
AcDbEntity
  8
4
  6
________________
 62
     7
370
     0
100
AcDbSpline
210
0.0
220
0.0
230
1.0
 70
     8
 71
     3
 72
    18
 73
    14
 74
     0
 42
0.000000001
 43
0.0001
 40
2.726259583766541
 40
2.726259583766541
 40
2.726259583766541
 40
2.726259583766541
 40
2.730794458248995
 40
2.738255645293391
 40
2.745716832337787
 40
2.753178019382183
 40
2.760639206426579
 40
2.768100393470975
 40
2.775561580515372
 40
2.783022767559768
 40
2.790483954604164
 40
2.79794514164856
 40
2.802822775994341
 40
2.802822775994341
 40
2.802822775994341
 40
2.802822775994341
 10
591.0578101945222
 20
-208.543895682947
 30
0.0
 10
590.9654513158694
 20
-208.0306581193327
 30
0.0
 10
590.7211352283665
 20
-206.0987293964398
 30
0.0
 10
590.3248619320144
 20
-200.6030798139587
 30
0.0
 10
589.8689903054642
 20
-191.4158081440335
 30
0.0
 10
589.4131186789134
 20
-180.1120615751448
 30
0.0
 10
588.9572470523643
 20
-167.6129172036061
 30
0.0
 10
588.5013754258147
 20
-154.9368581963926
 30
0.0
 10
588.0455037992638
 20
-143.1167834735137
 30
0.0
 10
587.5896321727148
 20
-133.1158427338435
 30
0.0
 10
587.1337605461638
 20
-125.7489549425908
 30
0.0
 10
586.7305064796166
 20
-122.0933919350934
 30
0.0
 10
586.4792096219196
 20
-121.4430640360003
 30
0.0
 10
586.3798699730721
 20
-121.4424755636065
 30
0.0
  0
SPLINE
  5
9B
330
1F
100
AcDbEntity
  8
4
  6
________________
 62
     7
370
     0
100
AcDbSpline
210
0.0
220
0.0
230
1.0
 70
     8
 71
     3
 72
    18
 73
    14
 74
     0
 42
0.000000001
 43
0.0001
 40
2.562572095631067
 40
2.562572095631067
 40
2.562572095631067
 40
2.562572095631067
 40
2.566648343272279
 40
2.574109530316675
 40
2.581570717361072
 40
2.589031904405468
 40
2.596493091449864
 40
2.60395427849426
 40
2.611415465538656
 40
2.618876652583052
 40
2.626337839627448
 40
2.633799026671845
 40
2.639154884000981
 40
2.639154884000981
 40
2.639154884000981
 40
2.639154884000981
 10
601.0589643028673
 20
-208.5502327219843
 30
0.0
 10
600.9759459827991
 20
-208.0906561792061
 30
0.0
 10
600.7409704538811
 20
-206.2935472559703
 30
0.0
 10
600.3540377161128
 20
-201.1002981614911
 30
0.0
 10
599.8981660895632
 20
-192.0761720644328
 30
0.0
 10
599.442294463013
 20
-180.8817618221931
 30
0.0
 10
598.9864228364629
 20
-168.4292353445911
 30
0.0
 10
598.5305512099137
 20
-155.733277175364
 30
0.0
 10
598.0746795833629
 20
-143.8284077024354
 30
0.0
 10
597.618807956813
 20
-133.6846860596772
 30
0.0
 10
597.1629363302637
 20
-126.1286656043864
 30
0.0
 10
596.749942603079
 20
-122.1854373168733
 30
0.0
 10
596.4889060847449
 20
-121.443022208765
 30
0.0
 10
596.3798267752609
 20
-121.4423465816819
 30
0.0
  0
SPLINE
  5
9C
330
1F
100
AcDbEntity
  8
4
  6
________________
 62
     7
370
     0
100
AcDbSpline
210
0.0
220
0.0
230
1.0
 70
     8
 71
     3
 72
    18
 73
    14
 74
     0
 42
0.000000001
 43
0.0001
 40
2.398924706309497
 40
2.398924706309497
 40
2.398924706309497
 40
2.398924706309497
 40
2.402502228295564
 40
2.40996341533996
 40
2.417424602384356
 40
2.424885789428752
 40
2.432346976473148
 40
2.439808163517545
 40
2.447269350561941
 40
2.454730537606337
 40
2.462191724650733
 40
2.469652911695129
 40
2.475487964440386
 40
2.475487964440386
 40
2.475487964440386
 40
2.475487964440386
 10
611.0576684107759
 20
-208.543030247308
 30
0.0
 10
610.9848073161046
 20
-208.1382055967321
 30
0.0
 10
610.7599890125833
 20
-206.472432732437
 30
0.0
 10
610.3832135002124
 20
-201.5855337695487
 30
0.0
 10
609.9273418736616
 20
-192.7275857243642
 30
0.0
 10
609.4714702471125
 20
-181.6462735928706
 30
0.0
 10
609.0155986205623
 20
-169.2445495723093
 30
0.0
 10
608.5597269940115
 20
-156.5329586072731
 30
0.0
 10
608.1038553674625
 20
-144.5472949120307
 30
0.0
 10
607.6479837409124
 20
-134.2642010755264
 30
0.0
 10
607.1921121143624
 20
-126.5215870910834
 30
0.0
 10
606.7693589216271
 20
-122.2824475798338
 30
0.0
 10
606.4985629377426
 20
-121.4427708957405
 30
0.0
 10
606.3797241627079
 20
-121.442195585535
 30
0.0
  0
SPLINE
  5
9D
330
1F
100
AcDbEntity
  8
4
  6
________________
 62
     7
370
     0
100
AcDbSpline
210
0.0
220
0.0
230
1.0
 70
     8
 71
     3
 72
    18
 73
    14
 74
     0
 42
0.000000001
 43
0.0001
 40
2.235256780554761
 40
2.235256780554761
 40
2.235256780554761
 40
2.235256780554761
 40
2.238356113318849
 40
2.245817300363244
 40
2.253278487407641
 40
2.260739674452037
 40
2.268200861496433
 40
2.275662048540829
 40
2.283123235585225
 40
2.290584422629621
 40
2.298045609674018
 40
2.305506796718414
 40
2.311821524229944
 40
2.311821524229944
 40
2.311821524229944
 40
2.311821524229944
 10
621.0576272757539
 20
-208.5428376447137
 30
0.0
 10
620.994505154123
 20
-208.1921854013265
 30
0.0
 10
620.7794258236421
 20
-206.6519759043203
 30
0.0
 10
620.4123892843112
 20
-202.058623578931
 30
0.0
 10
619.956517657761
 20
-193.3698302219379
 30
0.0
 10
619.500646031211
 20
-182.4053399796526
 30
0.0
 10
619.0447744046613
 20
-170.0585859075126
 30
0.0
 10
618.5889027781107
 20
-157.3356337661373
 30
0.0
 10
618.1330311515617
 20
-145.2732035265122
 30
0.0
 10
617.6771595250109
 20
-134.8541930404149
 30
0.0
 10
617.2212878984611
 20
-126.9275873648379
 30
0.0
 10
616.7887654775591
 20
-122.3845313153855
 30
0.0
 10
616.5082002655064
 20
-121.4423275333267
 30
0.0
 10
616.3795922623038
 20
-121.4420429922487
 30
0.0
  0
SPLINE
  5
9E
330
1F
100
AcDbEntity
  8
4
  6
________________
 62
     7
370
     0
100
AcDbSpline
210
0.0
220
0.0
230
1.0
 70
     8
 71
     3
 72
    19
 73
    15
 74
     0
 42
0.000000001
 43
0.0001
 40
1.580583659866533
 40
1.580583659866533
 40
1.580583659866533
 40
1.580583659866533
 40
1.581771653411982
 40
1.589232840456378
 40
1.596694027500774
 40
1.604155214545171
 40
1.611616401589567
 40
1.619077588633963
 40
1.626538775678359
 40
1.633999962722755
 40
1.641461149767151
 40
1.648922336811548
 40
1.656383523855944
 40
1.657151267840487
 40
1.657151267840487
 40
1.657151267840487
 40
1.657151267840487
 10
661.0575493539482
 20
-208.542906165826
 30
0.0
 10
661.0333542517179
 20
-208.4085365253011
 30
0.0
 10
660.8572019406377
 20
-207.3213381487873
 30
0.0
 10
660.5290924207075
 20
-203.8264076099707
 30
0.0
 10
660.0732207941577
 20
-195.8428479090699
 30
0.0
 10
659.6173491676076
 20
-185.3820793784509
 30
0.0
 10
659.1614775410575
 20
-173.2964896972499
 30
0.0
 10
658.7056059145075
 20
-160.5708638465323
 30
0.0
 10
658.2497342879577
 20
-148.2421396624327
 30
0.0
 10
657.7938626614077
 20
-137.3149137540095
 30
0.0
 10
657.3379910348576
 20
-128.6795827211117
 30
0.0
 10
656.8821194083075
 20
-123.0397898721794
 30
0.0
 10
656.5625688415195
 20
-121.5083888448604
 30
0.0
 10
656.394975483581
 20
-121.441764820875
 30
0.0
 10
656.3793393344927
 20
-121.4419387673176
 30
0.0
  0
SPLINE
  5
9F
330
1F
100
AcDbEntity
  8
4
  6
________________
 62
     7
370
     0
100
AcDbSpline
210
0.0
220
0.0
230
1.0
 70
     8
 71
     3
 72
    19
 73
    15
 74
     0
 42
0.000000001
 43
0.0001
 40
1.416879078177395
 40
1.416879078177395
 40
1.416879078177395
 40
1.416879078177395
 40
1.417625538435266
 40
1.425086725479662
 40
1.432547912524058
 40
1.440009099568455
 40
1.447470286612851
 40
1.454931473657247
 40
1.462392660701643
 40
1.469853847746039
 40
1.477315034790435
 40
1.484776221834832
 40
1.492237408879228
 40
1.493480367376894
 40
1.493480367376894
 40
1.493480367376894
 40
1.493480367376894
 10
671.0597478626104
 20
-208.5552100419066
 30
0.0
 10
671.0445451855257
 20
-208.4713343944526
 30
0.0
 10
670.8773852995913
 20
-207.4840041734968
 30
0.0
 10
670.5582682048068
 20
-204.2364672306107
 30
0.0
 10
670.1023965782566
 20
-196.4360734250716
 30
0.0
 10
669.6465249517067
 20
-186.1101322648472
 30
0.0
 10
669.1906533251567
 20
-174.1000451244828
 30
0.0
 10
668.7347816986069
 20
-161.384444718567
 30
0.0
 10
668.278910072057
 20
-148.9994519675751
 30
0.0
 10
667.8230384455069
 20
-137.9542484814658
 30
0.0
 10
667.3671668189569
 20
-129.148844172279
 30
0.0
 10
666.9112951924071
 20
-123.300740638583
 30
0.0
 10
666.5820662365649
 20
-121.5571596843616
 30
0.0
 10
666.4047944895726
 20
-121.4418265116376
 30
0.0
 10
666.3794799514304
 20
-121.4420731261488
 30
0.0
  0
SPLINE
  5
A0
330
1F
100
AcDbEntity
  8
4
  6
________________
 62
     7
370
     0
100
AcDbSpline
210
0.0
220
0.0
230
1.0
 70
     8
 71
     3
 72
    19
 73
    15
 74
     0
 42
0.000000001
 43
0.0001
 40
1.253245966942711
 40
1.253245966942711
 40
1.253245966942711
 40
1.253245966942711
 40
1.25347942345855
 40
1.260940610502946
 40
1.268401797547343
 40
1.275862984591739
 40
1.283324171636135
 40
1.290785358680531
 40
1.298246545724927
 40
1.305707732769323
 40
1.31316891981372
 40
1.320630106858116
 40
1.328091293902512
 40
1.329808641632829
 40
1.329808641632829
 40
1.329808641632829
 40
1.329808641632829
 10
681.057579592618
 20
-208.543292672945
 30
0.0
 10
681.052824933564
 20
-208.5168740362597
 30
0.0
 10
680.8961130656598
 20
-207.6270008955424
 30
0.0
 10
680.5874439889063
 20
-204.6334902294657
 30
0.0
 10
680.1315723623558
 20
-197.0188835737121
 30
0.0
 10
679.6757007358062
 20
-186.8312397265058
 30
0.0
 10
679.219829109256
 20
-174.9006910121954
 30
0.0
 10
678.7639574827061
 20
-162.1993890178892
 30
0.0
 10
678.308085856156
 20
-149.7622895689878
 30
0.0
 10
677.8522142296063
 20
-138.6028201496586
 30
0.0
 10
677.3963426030564
 20
-129.6303015436367
 30
0.0
 10
676.9404709765059
 20
-123.5758525294518
 30
0.0
 10
676.601580439568
 20
-121.6110442857949
 30
0.0
 10
676.4146471114798
 20
-121.4419945025645
 30
0.0
 10
676.3796709922416
 20
-121.4422251785064
 30
0.0
  0
SPLINE
  5
A1
330
1F
100
AcDbEntity
  8
4
  6
________________
 62
     7
370
     0
100
AcDbSpline
210
0.0
220
0.0
230
1.0
 70
     8
 71
     3
 72
    18
 73
    14
 74
     0
 42
0.000000001
 43
0.0001
 40
1.089577930944295
 40
1.089577930944295
 40
1.089577930944295
 40
1.089577930944295
 40
1.096794495526231
 40
1.104255682570626
 40
1.111716869615023
 40
1.119178056659419
 40
1.126639243703815
 40
1.134100430748211
 40
1.141561617792608
 40
1.149022804837004
 40
1.1564839918814
 40
1.163945178925796
 40
1.166138029326179
 40
1.166138029326179
 40
1.166138029326179
 40
1.166138029326179
 10
691.0575451933835
 20
-208.5431064740902
 30
0.0
 10
690.9105700532574
 20
-207.7259158622765
 30
0.0
 10
690.6116377042812
 20
-204.9361840681227
 30
0.0
 10
690.1607481464555
 20
-197.591082506715
 30
0.0
 10
689.7048765199052
 20
-187.5451594415431
 30
0.0
 10
689.2490048933555
 20
-175.6981583103081
 30
0.0
 10
688.7931332668054
 20
-163.0154228895618
 30
0.0
 10
688.3372616402555
 20
-150.5303961217371
 30
0.0
 10
687.8813900137055
 20
-139.2604108117259
 30
0.0
 10
687.4255183871554
 20
-130.1237930456261
 30
0.0
 10
686.9696467606059
 20
-123.8650330958314
 30
0.0
 10
686.6210719659058
 20
-121.6698372005106
 30
0.0
 10
686.4244543800562
 20
-121.4421976887093
 30
0.0
 10
686.3797940030564
 20
-121.4423722759314
 30
0.0
  0
SPLINE
  5
A2
330
1F
100
AcDbEntity
  8
4
  6
________________
 62
     7
370
     0
100
AcDbSpline
210
0.0
220
0.0
230
1.0
 70
     8
 71
     3
 72
    18
 73
    14
 74
     0
 42
0.000000001
 43
0.0001
 40
0.9259064976841529
 40
0.9259064976841529
 40
0.9259064976841529
 40
0.9259064976841529
 40
0.9326483805495145
 40
0.9401095675939107
 40
0.9475707546383068
 40
0.9550319416827029
 40
0.9624931287270991
 40
0.9699543157714954
 40
0.9774155028158915
 40
0.9848766898602878
 40
0.992337876904684
 40
0.99979906394908
 40
1.002468448412814
 40
1.002468448412814
 40
1.002468448412814
 40
1.002468448412814
 10
701.0577183636974
 20
-208.5439933126018
 30
0.0
 10
700.9204107614999
 20
-207.7806554800984
 30
0.0
 10
700.6311459504524
 20
-205.1553841987578
 30
0.0
 10
700.1899239305542
 20
-198.1524779416116
 30
0.0
 10
699.734052304005
 20
-188.251651503454
 30
0.0
 10
699.2781806774547
 20
-176.4921790368783
 30
0.0
 10
698.8223090509044
 20
-163.8322721125076
 30
0.0
 10
698.366437424355
 20
-151.3035135103034
 30
0.0
 10
697.9105657978047
 20
-139.9267994900507
 30
0.0
 10
697.4546941712546
 20
-130.6291528447253
 30
0.0
 10
696.998822544705
 20
-124.1681851611091
 30
0.0
 10
696.6405424865187
 20
-121.7335353864689
 30
0.0
 10
696.4342196371824
 20
-121.4423993629273
 30
0.0
 10
696.379853996696
 20
-121.4424951492697
 30
0.0
  0
SPLINE
  5
A3
330
1F
100
AcDbEntity
  8
4
  6
________________
 62
     7
370
     0
100
AcDbSpline
210
0.0
220
0.0
230
1.0
 70
     8
 71
     3
 72
    18
 73
    14
 74
     0
 42
0.000000001
 43
0.0001
 40
0.7622344140935884
 40
0.7622344140935884
 40
0.7622344140935884
 40
0.7622344140935884
 40
0.7685022655728008
 40
0.7759634526171969
 40
0.7834246396615928
 40
0.790885826705989
 40
0.798347013750385
 40
0.8058082007947811
 40
0.8132693878391772
 40
0.8207305748835733
 40
0.8281917619279694
 40
0.8356529489723653
 40
0.8387998430013857
 40
0.8387998430013857
 40
0.8387998430013857
 40
0.8387998430013857
 10
711.0579312685987
 20
-208.5450507177746
 30
0.0
 10
710.930277959467
 20
-207.8356956009708
 30
0.0
 10
710.6506674414852
 20
-205.3695893188251
 30
0.0
 10
710.2190997146538
 20
-198.7028812263506
 30
0.0
 10
709.7632280881039
 20
-188.9504785017298
 30
0.0
 10
709.3073564615539
 20
-177.2824863681511
 30
0.0
 10
708.8514848350037
 20
-164.649662191654
 30
0.0
 10
708.395613208454
 20
-152.0813819353162
 30
0.0
 10
707.939741581904
 20
-140.6017622505179
 30
0.0
 10
707.4838699553538
 20
-131.1462111191721
 30
0.0
 10
707.027998328804
 20
-124.4852068536723
 30
0.0
 10
706.6599931397093
 20
-121.8021370755477
 30
0.0
 10
706.4439451594644
 20
-121.4425627345986
 30
0.0
 10
706.3798543880695
 20
-121.4425795615386
 30
0.0
  0
SPLINE
  5
A4
330
1F
100
AcDbEntity
  8
4
  6
________________
 62
     7
370
     0
100
AcDbSpline
210
0.0
220
0.0
230
1.0
 70
     8
 71
     3
 72
    18
 73
    14
 74
     0
 42
0.000000001
 43
0.0001
 40
0.5985622845247124
 40
0.5985622845247124
 40
0.5985622845247124
 40
0.5985622845247124
 40
0.6043561505960872
 40
0.6118173376404833
 40
0.6192785246848793
 40
0.6267397117292753
 40
0.6342008987736714
 40
0.6416620858180675
 40
0.6491232728624636
 40
0.6565844599068597
 40
0.6640456469512558
 40
0.6715068339956518
 40
0.6751322565246489
 40
0.6751322565246489
 40
0.6751322565246489
 40
0.6751322565246489
 10
721.0581469827322
 20
-208.5461009352861
 30
0.0
 10
720.9401470302556
 20
-207.8907852136654
 30
0.0
 10
720.6701898689294
 20
-205.5786273552387
 30
0.0
 10
720.248275498753
 20
-199.2421074027029
 30
0.0
 10
719.7924038722027
 20
-189.6414056016446
 30
0.0
 10
719.3365322456532
 20
-178.0688147282311
 30
0.0
 10
718.8806606191029
 20
-165.4673184501834
 30
0.0
 10
718.424788992553
 20
-152.8637400008662
 30
0.0
 10
717.9689173660032
 20
-141.285072277769
 30
0.0
 10
717.5130457394532
 20
-131.6747941160355
 30
0.0
 10
717.057174112903
 20
-124.8159916411416
 30
0.0
 10
716.6794230409108
 20
-121.8756288362545
 30
0.0
 10
716.4536291777684
 20
-121.4426438440334
 30
0.0
 10
716.379792523476
 20
-121.4426164192531
 30
0.0
  0
SPLINE
  5
A5
330
1F
100
AcDbEntity
  8
4
  6
________________
 62
     7
370
     0
100
AcDbSpline
210
0.0
220
0.0
230
1.0
 70
     8
 71
     3
 72
    18
 73
    14
 74
     0
 42
0.000000001
 43
0.0001
 40
0.4348976971360146
 40
0.4348976971360146
 40
0.4348976971360146
 40
0.4348976971360146
 40
0.4402100356193734
 40
0.4476712226637695
 40
0.4551324097081656
 40
0.4625935967525617
 40
0.4700547837969578
 40
0.4775159708413539
 40
0.48497715788575
 40
0.492438344930146
 40
0.4998995319745422
 40
0.5073607190189382
 40
0.5114652807025756
 40
0.5114652807025756
 40
0.5114652807025756
 40
0.5114652807025756
 10
731.0579018766337
 20
-208.5445925504528
 30
0.0
 10
730.9497088875565
 20
-207.9433348083761
 30
0.0
 10
730.6895586896293
 20
-205.7802717839204
 30
0.0
 10
730.2774512828518
 20
-199.7699752684072
 30
0.0
 10
729.8215796563021
 20
-190.3242006231625
 30
0.0
 10
729.3657080297522
 20
-178.8508998783199
 30
0.0
 10
728.9098364032021
 20
-166.2849661218303
 30
0.0
 10
728.4539647766521
 20
-153.6503248023378
 30
0.0
 10
727.9980931501022
 20
-141.9764999514197
 30
0.0
 10
727.5422215235523
 20
-132.2147242096028
 30
0.0
 10
727.0863498970023
 20
-125.1604283661697
 30
0.0
 10
726.6988405053005
 20
-121.9540734545178
 30
0.0
 10
726.463288322449
 20
-121.4426351539671
 30
0.0
 10
726.3796933484473
 20
-121.44260189122
 30
0.0
  0
SPLINE
  5
A6
330
1F
100
AcDbEntity
  8
4
  6
________________
 62
     7
370
     0
100
AcDbSpline
210
0.0
220
0.0
230
1.0
 70
     8
 71
     3
 72
    18
 73
    14
 74
     0
 42
0.000000001
 43
0.0001
 40
0.2711943726644277
 40
0.2711943726644277
 40
0.2711943726644277
 40
0.2711943726644277
 40
0.2760639206426576
 40
0.2835251076870538
 40
0.29098629473145
 40
0.2984474817758461
 40
0.3059086688202423
 40
0.3133698558646385
 40
0.3208310429090346
 40
0.3282922299534308
 40
0.335753416997827
 40
0.3432146040422232
 40
0.347798443216622
 40
0.347798443216622
 40
0.347798443216622
 40
0.347798443216622
 10
741.0600235704665
 20
-208.5562171174207
 30
0.0
 10
740.960848611478
 20
-208.0087459677045
 30
0.0
 10
740.7097164436395
 20
-205.9880848796304
 30
0.0
 10
740.3066270669511
 20
-200.2863074380639
 30
0.0
 10
739.8507554404014
 20
-190.9986341189625
 30
0.0
 10
739.3948838138514
 20
-179.6284790055137
 30
0.0
 10
738.9390121873012
 20
-167.1023304432154
 30
0.0
 10
738.4831405607515
 20
-154.4408720147587
 30
0.0
 10
738.0272689342015
 20
-142.675812923222
 30
0.0
 10
737.5713973076514
 20
-132.7658199610675
 30
0.0
 10
737.1155256811015
 20
-125.518401283795
 30
0.0
 10
736.7182551522876
 20
-122.0375632166349
 30
0.0
 10
736.4729418323236
 20
-121.4425506015171
 30
0.0
 10
736.3795857212095
 20
-121.4425374385285
 30
0.0
  0
LINE
  5
A7
330
1F
100
AcDbEntity
  8
4
  6
________________
 62
     7
370
     0
100
AcDbLine
 10
747.379647543128
 20
-129.8440631464433
 30
0.0
 11
747.379647543128
 21
-139.812479117555
 31
0.0
  0
LWPOLYLINE
  5
A8
330
1F
100
AcDbEntity
  8
4
  6
________________
 62
     7
370
     0
100
AcDbPolyline
 90
        3
 70
     0
 43
0.0
 10
747.3796475431279
 20
-139.812479117555
 42
0.0370227719098503
 10
746.0599425762958
 20
-124.0614551460511
 10
745.9774144340462
 20
-123.9538153344971
  0
ARC
  5
A9
330
1F
100
AcDbEntity
  8
4
  6
________________
 62
     7
370
     0
100
AcDbCircle
 10
-582.8052285434218
 20
-208.1903027558744
 30
0.0
 40
2.422488065208084
210
0.0
220
0.0
230
-1.0
100
AcDbArc
 50
188.4130461405589
 51
211.0833482712462
  0
ARC
  5
AA
330
1F
100
AcDbEntity
  8
4
  6
________________
 62
     7
370
     0
100
AcDbCircle
 10
587.6448406280559
 20
-122.7508198367245
 30
0.0
 40
2.589806897836966
100
AcDbArc
 50
9.146153966089715
 51
30.3437521530509
  0
ARC
  5
AB
330
1F
100
AcDbEntity
  8
4
  6
________________
 62
     7
370
     0
100
AcDbCircle
 10
-592.4764095299222
 20
-208.0723867100033
 30
0.0
 40
2.765892816381336
210
0.0
220
0.0
230
-1.0
100
AcDbArc
 50
189.7971451016019
 51
209.6603073164337
  0
ARC
  5
AC
330
1F
100
AcDbEntity
  8
4
  6
________________
 62
     7
370
     0
100
AcDbCircle
 10
598.9383651353799
 20
-122.2858653418472
 30
0.0
 40
1.264064998270371
100
AcDbArc
 50
357.6693200497134
 51
41.8590256633152
  0
ARC
  5
AD
330
1F
100
AcDbEntity
  8
4
  6
________________
 62
     7
370
     0
100
AcDbCircle
 10
-603.9310905395786
 20
-208.593900477905
 30
0.0
 40
1.272052765508251
210
0.0
220
0.0
230
-1.0
100
AcDbArc
 50
177.6745832339073
 51
221.7688762150997
  0
ARC
  5
AE
330
1F
100
AcDbEntity
  8
4
  6
________________
 62
     7
370
     0
100
AcDbCircle
 10
608.9330530693335
 20
-122.2886947022028
 30
0.0
 40
1.269934355465209
100
AcDbArc
 50
357.6669902908741
 51
41.80233453784547
  0
ARC
  5
AF
330
1F
100
AcDbEntity
  8
4
  6
________________
 62
     7
370
     0
100
AcDbCircle
 10
-613.9325999126936
 20
-208.5948051758347
 30
0.0
 40
1.270343762330256
210
0.0
220
0.0
230
-1.0
100
AcDbArc
 50
177.6757109931263
 51
221.7923713341763
  0
ARC
  5
B0
330
1F
100
AcDbEntity
  8
4
  6
________________
 62
     7
370
     0
100
AcDbCircle
 10
618.931293496273
 20
-122.2897212743819
 30
0.0
 40
1.271933706700194
100
AcDbArc
 50
357.6546249360654
 51
41.79305778622642
  0
ARC
  5
B1
330
1F
100
AcDbEntity
  8
4
  6
________________
 62
     7
370
     0
100
AcDbCircle
 10
-623.9325585336384
 20
-208.5946688941247
 30
0.0
 40
1.270462293273838
210
0.0
220
0.0
230
-1.0
100
AcDbArc
 50
177.6600493226558
 51
221.8045695908445
  0
SPLINE
  5
B2
330
1F
100
AcDbEntity
  8
4
  6
________________
 62
     7
370
     0
100
AcDbSpline
210
0.0
220
0.0
230
1.0
 70
     8
 71
     3
 72
     9
 73
     5
 74
     0
 42
0.000000001
 43
0.0001
 40
1.733704154560352
 40
1.733704154560352
 40
1.733704154560352
 40
1.733704154560352
 40
1.738456581344302
 40
1.738985255533949
 40
1.738985255533949
 40
1.738985255533949
 40
1.738985255533949
 10
655.2020287700346
 20
-208.5420144230798
 30
0.0
 10
655.1052391432559
 20
-209.0798367514848
 30
0.0
 10
654.9976823484956
 20
-209.4125048353116
 30
0.0
 10
654.8901255537352
 20
-209.4417429294672
 30
0.0
 10
654.8793583857534
 20
-209.4416366340399
 30
0.0
  0
SPLINE
  5
B3
330
1F
100
AcDbEntity
  8
4
  6
________________
 62
     7
370
     0
100
AcDbSpline
210
0.0
220
0.0
230
1.0
 70
     8
 71
     3
 72
     9
 73
     5
 74
     0
 42
0.000000001
 43
0.0001
 40
1.65187100855805
 40
1.65187100855805
 40
1.65187100855805
 40
1.65187100855805
 40
1.656383523855944
 40
1.657151267840587
 40
1.657151267840587
 40
1.657151267840587
 40
1.657151267840587
 10
660.2019582922129
 20
-122.3411677442748
 30
0.0
 10
660.1100547887248
 20
-121.8305389415314
 30
0.0
 10
660.0025151361463
 20
-121.4845235200624
 30
0.0
 10
659.8949754835677
 20
-121.4417728814488
 30
0.0
 10
659.8793393344772
 20
-121.4419468278612
 30
0.0
  0
SPLINE
  5
B4
330
1F
100
AcDbEntity
  8
4
  6
________________
 62
     7
370
     0
100
AcDbSpline
210
0.0
220
0.0
230
1.0
 70
     8
 71
     3
 72
     9
 73
     5
 74
     0
 42
0.000000001
 43
0.0001
 40
1.570037052832255
 40
1.570037052832255
 40
1.570037052832255
 40
1.570037052832255
 40
1.574310466367586
 40
1.575298747902795
 40
1.575298747902795
 40
1.575298747902795
 40
1.575298747902795
 10
665.2019372877477
 20
-208.5424480574172
 30
0.0
 10
665.114903416431
 20
-209.0260583320125
 30
0.0
 10
665.0077418492459
 20
-209.3842352015826
 30
0.0
 10
664.9005802820608
 20
-209.4413692749077
 30
0.0
 10
664.8804525861922
 20
-209.4415222370494
 30
0.0
  0
SPLINE
  5
B5
330
1F
100
AcDbEntity
  8
4
  6
________________
 62
     7
370
     0
100
AcDbSpline
210
0.0
220
0.0
230
1.0
 70
     8
 71
     3
 72
     9
 73
     5
 74
     0
 42
0.000000001
 43
0.0001
 40
1.488205102778826
 40
1.488205102778826
 40
1.488205102778826
 40
1.488205102778826
 40
1.492237408879228
 40
1.49348036719189
 40
1.49348036719189
 40
1.49348036719189
 40
1.49348036719189
 10
670.2017937385561
 20
-122.3403047761085
 30
0.0
 10
670.1196703476534
 20
-121.8841113076842
 30
0.0
 10
670.0122324223762
 20
-121.5117337946269
 30
0.0
 10
669.904794497099
 20
-121.4418345771045
 30
0.0
 10
669.8794799627246
 20
-121.4420811865576
 30
0.0
  0
SPLINE
  5
B6
330
1F
100
AcDbEntity
  8
4
  6
________________
 62
     7
370
     0
100
AcDbSpline
210
0.0
220
0.0
230
1.0
 70
     8
 71
     3
 72
     9
 73
     5
 74
     0
 42
0.000000001
 43
0.0001
 40
1.406369608500735
 40
1.406369608500735
 40
1.406369608500735
 40
1.406369608500735
 40
1.41016435139087
 40
1.411631560589401
 40
1.411631560589401
 40
1.411631560589401
 40
1.411631560589401
 10
675.2018667382126
 20
-208.5428133910717
 30
0.0
 10
675.1245816447741
 20
-208.9722921653247
 30
0.0
 10
675.0174148430658
 20
-209.3571568450839
 30
0.0
 10
674.9102480413575
 20
-209.4412118326149
 30
0.0
 10
674.8803663330875
 20
-209.4413753827982
 30
0.0
  0
SPLINE
  5
B7
330
1F
100
AcDbEntity
  8
4
  6
________________
 62
     7
370
     0
100
AcDbSpline
210
0.0
220
0.0
230
1.0
 70
     8
 71
     3
 72
     9
 73
     5
 74
     0
 42
0.000000001
 43
0.0001
 40
1.324536415027553
 40
1.324536415027553
 40
1.324536415027553
 40
1.324536415027553
 40
1.328091293902512
 40
1.329808641447835
 40
1.329808641447835
 40
1.329808641447835
 40
1.329808641447835
 10
680.2017991608178
 20
-122.3403362381037
 30
0.0
 10
680.1293992238609
 20
-121.9380254587335
 30
0.0
 10
680.0220231714334
 20
-121.5391061588067
 30
0.0
 10
679.9146471190058
 20
-121.4420025699122
 30
0.0
 10
679.8796710035351
 20
-121.4422332389229
 30
0.0
  0
SPLINE
  5
B8
330
1F
100
AcDbEntity
  8
4
  6
________________
 62
     7
370
     0
100
AcDbSpline
210
0.0
220
0.0
230
1.0
 70
     8
 71
     3
 72
     9
 73
     5
 74
     0
 42
0.000000001
 43
0.0001
 40
1.242703174932882
 40
1.242703174932882
 40
1.242703174932882
 40
1.242703174932882
 40
1.246018236414154
 40
1.247963976020122
 40
1.247963976020122
 40
1.247963976020122
 40
1.247963976020122
 10
685.201734431953
 20
-208.543572407924
 30
0.0
 10
685.1342187019676
 20
-208.9187251485618
 30
0.0
 10
685.0270753419667
 20
-209.3300400654381
 30
0.0
 10
684.9199319819656
 20
-209.4410403143991
 30
0.0
 10
684.8803043519501
 20
-209.441222225821
 30
0.0
  0
SPLINE
  5
B9
330
1F
100
AcDbEntity
  8
4
  6
________________
 62
     7
370
     0
100
AcDbSpline
210
0.0
220
0.0
230
1.0
 70
     8
 71
     3
 72
     9
 73
     5
 74
     0
 42
0.000000001
 43
0.0001
 40
1.16086666899942
 40
1.16086666899942
 40
1.16086666899942
 40
1.16086666899942
 40
1.163945178925796
 40
1.1661380291412
 40
1.1661380291412
 40
1.1661380291412
 40
1.1661380291412
 10
690.2018692428169
 20
-122.3406774923196
 30
0.0
 10
690.13917120656
 20
-121.9921010956348
 30
0.0
 10
690.0318127970708
 20
-121.5665029484371
 30
0.0
 10
689.9244543875815
 20
-121.4422057579289
 30
0.0
 10
689.8797940143493
 20
-121.4423803363513
 30
0.0
  0
ARC
  5
BA
330
1F
100
AcDbEntity
  8
4
  6
________________
 62
     7
370
     0
100
AcDbCircle
 10
-694.0328537699722
 20
-208.6314144493105
 30
0.0
 40
1.172048071721312
210
0.0
220
0.0
230
-1.0
100
AcDbArc
 50
175.7290883746101
 51
223.6947682540305
  0
ARC
  5
BB
330
1F
100
AcDbEntity
  8
4
  6
________________
 62
     7
370
     0
100
AcDbCircle
 10
698.9244686977624
 20
-122.2915644605103
 30
0.0
 40
1.278149473655892
100
AcDbArc
 50
357.8414371505048
 51
41.62783939711989
  0
ARC
  5
BC
330
1F
100
AcDbEntity
  8
4
  6
________________
 62
     7
370
     0
100
AcDbCircle
 10
-703.8044512965984
 20
-208.5497045502946
 30
0.0
 40
1.397079089259501
210
0.0
220
0.0
230
-1.0
100
AcDbArc
 50
179.8044010423624
 51
219.6395208200115
  0
ARC
  5
BD
330
1F
100
AcDbEntity
  8
4
  6
________________
 62
     7
370
     0
100
AcDbCircle
 10
708.6858948971866
 20
-122.3771789641274
 30
0.0
 40
1.516245451661248
100
AcDbArc
 50
1.430050185428144
 51
38.05264461456817
  0
ARC
  5
BE
330
1F
100
AcDbEntity
  8
4
  6
________________
 62
     7
370
     0
100
AcDbCircle
 10
-713.5545025731744
 20
-208.4599038661048
 30
0.0
 40
1.6492779235041
210
0.0
220
0.0
230
-1.0
100
AcDbArc
 50
182.9445414167685
 51
216.49933041197
  0
ARC
  5
BF
330
1F
100
AcDbEntity
  8
4
  6
________________
 62
     7
370
     0
100
AcDbCircle
 10
718.4371028096213
 20
-122.464991054791
 30
0.0
 40
1.768215792700708
100
AcDbArc
 50
4.332460384396973
 51
35.32341222233256
  0
ARC
  5
C0
330
1F
100
AcDbEntity
  8
4
  6
________________
 62
     7
370
     0
100
AcDbCircle
 10
-723.2835477647931
 20
-208.3624024931196
 30
0.0
 40
1.926793658703341
210
0.0
220
0.0
230
-1.0
100
AcDbArc
 50
185.4003497100998
 51
214.0377820425044
  0
ARC
  5
C1
330
1F
100
AcDbEntity
  8
4
  6
________________
 62
     7
370
     0
100
AcDbCircle
 10
728.149378914252
 20
-122.5699870192795
 30
0.0
 40
2.065179685374157
100
AcDbArc
 50
6.446821425405729
 51
33.086038202569
  0
ARC
  5
C2
330
1F
100
AcDbEntity
  8
4
  6
________________
 62
     7
370
     0
100
AcDbCircle
 10
-733.0160061528808
 20
-208.2679877621542
 30
0.0
 40
2.202429517091116
210
0.0
220
0.0
230
-1.0
100
AcDbArc
 50
187.5567040045784
 51
212.1795546849009
  0
ARC
  5
C3
330
1F
100
AcDbEntity
  8
4
  6
________________
 62
     7
370
     0
100
AcDbCircle
 10
737.8482876125863
 20
-122.6784776980967
 30
0.0
 40
2.377751133492675
100
AcDbArc
 50
8.210040914828
 51
31.31819261003477
  0
ARC
  5
C4
330
1F
100
AcDbEntity
  8
4
  6
________________
 62
     7
370
     0
100
AcDbCircle
 10
-742.6842857988543
 20
-208.1471400367328
 30
0.0
 40
2.548574514855584
210
0.0
220
0.0
230
-1.0
100
AcDbArc
 50
188.9732532837802
 51
210.5102619041403
  0
LWPOLYLINE
  5
C5
330
1F
100
AcDbEntity
  8
4
  6
________________
 62
     7
370
     0
100
AcDbPolyline
 90
        6
 70
     0
 43
0.0
 10
720.660373801817
 20
-124.8845914110158
 42
-0.017360521508582
 10
722.6691760461277
 20
-161.5030325908433
 42
0.0129519017520198
 10
724.8828016677735
 20
-205.3826280389147
 42
0.0634312331961458
 10
725.2157684995923
 20
-206.8519866781913
 10
725.2838287188068
 20
-206.9306308517932
 10
725.3204177823053
 20
-206.9417653923122
  0
LWPOLYLINE
  5
C6
330
1F
100
AcDbEntity
  8
4
  6
________________
 62
     7
370
     0
100
AcDbPolyline
 90
        6
 70
     0
 43
0.0
 10
710.6612310801464
 20
-124.8894677828885
 42
-0.0174328901294062
 10
712.6602830592774
 20
-161.2723311315849
 42
0.0127881417400713
 10
714.8777744030523
 20
-205.3466291736698
 42
0.0622913951301672
 10
715.2126915731458
 20
-206.8465343871948
 10
715.2788336003161
 20
-206.9275995276368
 10
715.3204197486191
 20
-206.9417653922931
  0
LWPOLYLINE
  5
C7
330
1F
100
AcDbEntity
  8
4
  6
________________
 62
     7
370
     0
100
AcDbPolyline
 90
        6
 70
     0
 43
0.0
 10
700.6612408609285
 20
-124.8896226318836
 42
-0.017532745905733
 10
702.6553266516352
 20
-161.1431607079707
 42
0.0126365844510527
 10
704.8708103245932
 20
-205.2965324252241
 42
0.0584885520077777
 10
705.2057296171402
 20
-206.8337154058645
 10
705.2738609882672
 20
-206.9238484109844
 10
705.320429967513
 20
-206.9417653922627
  0
LWPOLYLINE
  5
C8
330
1F
100
AcDbEntity
  8
4
  6
________________
 62
     7
370
     0
100
AcDbPolyline
 90
        6
 70
     0
 43
0.0
 10
690.6614682081176
 20
-124.8909446641553
 42
-0.0176768411930008
 10
692.6445973936636
 20
-160.864366612527
 42
0.0123777452161053
 10
694.8600602815595
 20
-205.2175872715531
 42
0.05608634420842
 10
695.1987481263495
 20
-206.8203832051295
 10
695.2649800376481
 20
-206.9163293209374
 10
695.3204470133174
 20
-206.9417653922532
  0
LWPOLYLINE
  5
C9
330
1F
100
AcDbEntity
  8
4
  6
________________
 62
     7
370
     0
100
AcDbPolyline
 90
        6
 70
     0
 43
0.0
 10
680.6614270817038
 20
-124.8907322438954
 42
-0.0177213196984577
 10
682.6414867148862
 20
-160.7837135040108
 42
0.01405891283571
 10
684.9232573316373
 20
-205.6556730206599
 42
0.0611618792792934
 10
685.1956755353962
 20
-206.8143601718845
 10
685.261868090637
 20
-206.913530872482
 10
685.3204692065417
 20
-206.9417653922676
  0
LWPOLYLINE
  5
CA
330
1F
100
AcDbEntity
  8
4
  6
________________
 62
     7
370
     0
100
AcDbPolyline
 90
        6
 70
     0
 43
0.0
 10
670.6615221364431
 20
-124.8912274576962
 42
-0.0178133352625928
 10
672.6326034824054
 20
-160.5534511875362
 42
0.013902845044193
 10
674.9182983152705
 20
-205.6232596094289
 42
0.0565604640850529
 10
675.1849275844314
 20
-206.791320844017
 10
675.2511161998495
 20
-206.9024069205674
 10
675.3204916880719
 20
-206.9417653923113
  0
LWPOLYLINE
  5
CB
330
1F
100
AcDbEntity
  8
4
  6
________________
 62
     7
370
     0
100
AcDbPolyline
 90
        6
 70
     0
 43
0.0
 10
660.6616089252773
 20
-124.8916323534632
 42
-0.0178818233075329
 10
662.6276590741985
 20
-160.4245630138418
 42
0.0137667358232238
 10
664.9132297623539
 20
-205.5900804617803
 42
0.055667643632217
 10
665.1818250614754
 20
-206.7842317163648
 10
665.2480874183153
 20
-206.8987220956799
 10
665.3205152850314
 20
-206.9417653922779
  0
LWPOLYLINE
  5
CC
330
1F
100
AcDbEntity
  8
4
  6
________________
 62
     7
370
     0
100
AcDbPolyline
 90
        4
 70
     0
 43
0.0
 10
654.5620345896991
 20
-202.3181579489463
 42
0.046370229778238
 10
655.1729346394397
 20
-206.7635146556472
 10
655.2411468849627
 20
-206.8899332832503
 10
655.3205345855173
 20
-206.941765392245
  0
LWPOLYLINE
  5
CD
330
1F
100
AcDbEntity
  8
4
  6
________________
 62
     7
370
     0
100
AcDbPolyline
 90
        6
 70
     0
 43
0.0
 10
620.6618089616028
 20
-124.8922224722321
 42
-0.0172709935515802
 10
622.6737162493897
 20
-161.6208112267687
 42
0.0131020434489797
 10
624.8893376311983
 20
-205.4279450006597
 42
0.0464806852703199
 10
625.1579928246817
 20
-206.7253742674615
 10
625.226201392204
 20
-206.8687314112267
 10
625.3205239466799
 20
-206.9417653922978
  0
LWPOLYLINE
  5
CE
330
1F
100
AcDbEntity
  8
4
  6
________________
 62
     7
370
     0
100
AcDbPolyline
 90
        7
 70
     0
 43
0.0
 10
610.6616604346215
 20
-124.8913160929762
 42
-0.017392358593294
 10
612.662939785263
 20
-161.3416326396434
 42
0.0128589019338397
 10
614.880442639302
 20
-205.3653738857879
 42
0.0447470089161303
 10
615.1510246012817
 20
-206.7066103937345
 10
615.2172846630388
 20
-206.8542606868613
 10
615.2835193652255
 20
-206.9304167185003
 10
615.3205028375966
 20
-206.9417653923092
  0
LWPOLYLINE
  5
CF
330
1F
100
AcDbEntity
  8
4
  6
________________
 62
     7
370
     0
100
AcDbPolyline
 90
        6
 70
     0
 43
0.0
 10
600.6612302651023
 20
-124.8889229941291
 42
-0.0174687922946735
 10
602.6579562344729
 20
-161.2124916555404
 42
0.0127325268039854
 10
604.8754351002026
 20
-205.3298988230926
 42
0.0598885053871316
 10
605.2084183306887
 20
-206.8386826474446
 10
605.2765484467512
 20
-206.9256616878455
 10
605.3204786359183
 20
-206.9417653922778
  0
LWPOLYLINE
  5
D0
330
1F
100
AcDbEntity
  8
4
  6
________________
 62
     7
370
     0
100
AcDbPolyline
 90
        6
 70
     0
 43
0.0
 10
590.661263677378
 20
-124.8891761395001
 42
-0.0167478813608796
 10
592.7892167921549
 20
-164.6267277716368
 42
0.0151670956053328
 10
594.9385056486359
 20
-205.7526631083721
 42
0.0649429443451625
 10
595.2034493911062
 20
-206.829500518891
 10
595.2715080382891
 20
-206.921946232898
 10
595.320455518784
 20
-206.9417653922484
  0
LWPOLYLINE
  5
D1
330
1F
100
AcDbEntity
  8
4
  6
________________
 62
     7
370
     0
100
AcDbPolyline
 90
        6
 70
     0
 43
0.0
 10
730.6611654404176
 20
-124.8888341461473
 42
-0.0173022240110901
 10
732.6722673791753
 20
-161.5838387240149
 42
0.0130572746691687
 10
734.8877725348202
 20
-205.4178312235866
 42
0.0473620313231873
 10
735.160412596088
 20
-206.7318977070314
 10
735.2265480723507
 20
-206.8693389197579
 10
735.320423621
 20
-206.9417653923049
  0
LWPOLYLINE
  5
D2
330
1F
100
AcDbEntity
  8
4
  6
________________
 62
     7
370
     0
100
AcDbPolyline
 90
        6
 70
     0
 43
0.0
 10
740.6613555388502
 20
-124.88975460614
 42
-0.0173666502750739
 10
742.743436900148
 20
-163.4343722064121
 42
0.0138594106228664
 10
744.892766089452
 20
-205.452328512732
 42
0.0485296267660485
 10
745.1632684399425
 20
-206.7392913149717
 10
745.2292163232464
 20
-206.8735030481756
 10
745.320438260052
 20
-206.9417653922915
  0
LWPOLYLINE
  5
D3
330
1F
100
AcDbEntity
  8
4
  6
________________
 62
     7
370
     0
100
AcDbPolyline
 90
        5
 70
     0
 43
0.0
 10
582.3796475431271
 20
-154.0919567393311
 42
0.0109989512590169
 10
584.8239493712886
 20
-204.9382708361623
 42
0.0438853361227575
 10
585.1608319098668
 20
-206.7328690883338
 10
585.2289065474286
 20
-206.8730524211784
 10
585.3204318294031
 20
-206.941765392294
  0
LINE
  5
D4
330
1F
100
AcDbEntity
  8
4
  6
________________
 62
     7
370
     0
100
AcDbLine
 10
582.3796475431279
 20
-165.4390096872179
 30
0.0
 11
582.3796475431279
 21
-154.091956739333
 31
0.0
  0
LINE
  5
D5
330
1F
100
AcDbEntity
  8
4
  6
________________
 62
     7
370
     0
100
AcDbLine
 10
735.9774216959794
 20
-123.9538153344971
 30
0.0
 11
730.4925522601094
 21
-123.9538153344971
 31
0.0
  0
LINE
  5
D6
330
1F
100
AcDbEntity
  8
4
  6
________________
 62
     7
370
     0
100
AcDbLine
 10
595.9774058491745
 20
-123.9538153344971
 30
0.0
 11
590.4925873155387
 21
-123.9538153344971
 31
0.0
  0
LINE
  5
D7
330
1F
100
AcDbEntity
  8
4
  6
________________
 62
     7
370
     0
100
AcDbLine
 10
749.379647543128
 20
-123.9538153344971
 30
0.0
 11
747.379647543128
 21
-123.9538153344971
 31
0.0
  0
LINE
  5
D8
330
1F
100
AcDbEntity
  8
4
  6
________________
 62
     7
370
     0
100
AcDbLine
 10
745.9774144340462
 20
-123.9538153344971
 30
0.0
 11
740.4925756690537
 21
-123.9538153344971
 31
0.0
  0
LINE
  5
D9
330
1F
100
AcDbEntity
  8
4
  6
________________
 62
     7
370
     0
100
AcDbLine
 10
749.379647543128
 20
-123.9538153344971
 30
0.0
 11
749.379647543128
 21
-206.9417653923151
 31
0.0
  0
LINE
  5
DA
330
1F
100
AcDbEntity
  8
4
  6
________________
 62
     7
370
     0
100
AcDbLine
 10
580.3796475431279
 20
-124.625102128398
 30
0.0
 11
579.3796475431279
 21
-124.625102128398
 31
0.0
  0
LINE
  5
DB
330
1F
100
AcDbEntity
  8
4
  6
________________
 62
     7
370
     0
100
AcDbLine
 10
580.3796475431279
 20
-123.9538153344971
 30
0.0
 11
580.3796475431279
 21
-124.625102128398
 31
0.0
  0
LINE
  5
DC
330
1F
100
AcDbEntity
  8
4
  6
________________
 62
     7
370
     0
100
AcDbLine
 10
585.977418128812
 20
-123.9538153344971
 30
0.0
 11
580.3796475431279
 21
-123.9538153344971
 31
0.0
  0
LINE
  5
DD
330
1F
100
AcDbEntity
  8
4
  6
________________
 62
     7
370
     0
100
AcDbLine
 10
580.3796475431279
 20
-206.2584286562322
 30
0.0
 11
580.3796475431279
 21
-206.9417653923151
 31
0.0
  0
LINE
  5
DE
330
1F
100
AcDbEntity
  8
4
  6
________________
 62
     7
370
     0
100
AcDbLine
 10
580.3796475431279
 20
-206.2584286562322
 30
0.0
 11
579.3796475431279
 21
-206.2584286562322
 31
0.0
  0
LINE
  5
DF
330
1F
100
AcDbEntity
  8
4
  6
________________
 62
     7
370
     0
100
AcDbLine
 10
579.379647543128
 20
-172.9417653923151
 30
0.0
 11
579.379647543128
 21
-206.2584286562322
 31
0.0
  0
LINE
  5
E0
330
1F
100
AcDbEntity
  8
4
  6
________________
 62
     7
370
     0
100
AcDbLine
 10
580.3796475431279
 20
-172.9417653923151
 30
0.0
 11
579.3796475431279
 21
-172.9417653923151
 31
0.0
  0
LINE
  5
E1
330
1F
100
AcDbEntity
  8
4
  6
________________
 62
     7
370
     0
100
AcDbLine
 10
579.3796475431279
 20
-157.9417653923151
 30
0.0
 11
580.3796475431279
 21
-157.9417653923151
 31
0.0
  0
LINE
  5
E2
330
1F
100
AcDbEntity
  8
4
  6
________________
 62
     7
370
     0
100
AcDbLine
 10
579.3796475431279
 20
-124.625102128398
 30
0.0
 11
579.3796475431279
 21
-157.9417653923151
 31
0.0
  0
LINE
  5
E3
330
1F
100
AcDbEntity
  8
4
  6
________________
 62
     7
370
     0
100
AcDbLine
 10
580.3796475431279
 20
-157.9417653923151
 30
0.0
 11
580.3796475431279
 21
-172.9417653923151
 31
0.0
  0
LINE
  5
E4
330
1F
100
AcDbEntity
  8
4
  6
________________
 62
     7
370
     0
100
AcDbLine
 10
770.679647543128
 20
-120.6326744832242
 30
0.0
 11
770.679647543128
 21
-113.2144926650424
 31
0.0
  0
LINE
  5
E5
330
1F
100
AcDbEntity
  8
4
  6
________________
 62
     7
370
     0
100
AcDbLine
 10
770.3796475431279
 20
-113.2144926650424
 30
0.0
 11
770.6796475431279
 21
-113.2144926650424
 31
0.0
  0
LINE
  5
E6
330
1F
100
AcDbEntity
  8
4
  6
________________
 62
     7
370
     0
100
AcDbLine
 10
654.5620319110924
 20
-107.9417653923151
 30
0.0
 11
654.5620319110924
 21
-222.9417653923151
 31
0.0
  0
LINE
  5
E7
330
1F
100
AcDbEntity
  8
4
  6
________________
 62
     7
370
     0
100
AcDbLine
 10
650.169647543128
 20
-207.8334487398883
 30
0.0
 11
650.169647543128
 21
-222.8871519326183
 31
0.0
  0
LINE
  5
E8
330
1F
100
AcDbEntity
  8
4
  6
________________
 62
     7
370
     0
100
AcDbLine
 10
650.169647543128
 20
-167.9472723739756
 30
0.0
 11
650.169647543128
 21
-204.2901267858035
 31
0.0
  0
LINE
  5
E9
330
1F
100
AcDbEntity
  8
4
  6
________________
 62
     7
370
     0
100
AcDbLine
 10
650.169647543128
 20
-126.5934039988267
 30
0.0
 11
650.169647543128
 21
-162.9362584106545
 31
0.0
  0
LINE
  5
EA
330
1F
100
AcDbEntity
  8
4
  6
________________
 62
     7
370
     0
100
AcDbLine
 10
650.169647543128
 20
-107.9963788520119
 30
0.0
 11
650.169647543128
 21
-123.0500820447419
 31
0.0
  0
ELLIPSE
  5
EB
330
1F
100
AcDbEntity
  8
4
  6
________________
 62
     7
370
     0
100
AcDbEllipse
 10
631.3081395256023
 20
-162.9580454278864
 30
0.0
 11
-0.01569365484783011
 21
0.4997536485084598
 31
0.0
210
0.0
220
0.0
230
1.0
 40
0.5138051922436104
 41
0.0
 42
0.1613289384432972
  0
ELLIPSE
  5
EC
330
1F
100
AcDbEntity
  8
4
  6
________________
 62
     7
370
     0
100
AcDbEllipse
 10
631.3081395256023
 20
-162.9580454278864
 30
0.0
 11
-0.01569365484786204
 21
0.4997536485084583
 31
0.0
210
0.0
220
0.0
230
1.0
 40
0.5138051922436101
 41
-0.0610421400379136
 42
0.0
  0
ELLIPSE
  5
ED
330
1F
100
AcDbEntity
  8
4
  6
________________
 62
     7
370
     0
100
AcDbEllipse
 10
631.3081395256023
 20
-167.9254853567438
 30
0.0
 11
0.01569365484782177
 21
0.4997536485084599
 31
-3.851859888774472E-34
210
2.417990384663828E-35
220
7.699924131833735E-34
230
1.0
 40
0.5138051922435808
 41
3.141592653589793
 42
3.20263479362768
  0
ELLIPSE
  5
EE
330
1F
100
AcDbEntity
  8
4
  6
________________
 62
     7
370
     0
100
AcDbEllipse
 10
631.3081395256023
 20
-167.9254853567438
 30
0.0
 11
0.01569365484781551
 21
0.4997536485084608
 31
0.0
210
0.0
220
0.0
230
1.0
 40
0.51380519224358
 41
2.980263468656686
 42
3.141592653589781
  0
ELLIPSE
  5
EF
330
1F
100
AcDbEntity
  8
4
  6
________________
 62
     7
370
     0
100
AcDbEllipse
 10
626.669647543128
 20
-167.7798235167915
 30
0.0
 11
0.01569371836948407
 21
0.4997536465136987
 31
0.0
210
0.0
220
0.0
230
0.9999999999999999
 40
0.5138067228933049
 41
2.980215323112614
 42
3.141592653589781
  0
LINE
  5
F0
330
1F
100
AcDbEntity
  8
4
  6
________________
 62
     7
370
     0
100
AcDbLine
 10
626.169647543128
 20
-167.7798235167915
 30
0.0
 11
626.169647543128
 21
-163.1037072678386
 31
0.0
  0
ELLIPSE
  5
F1
330
1F
100
AcDbEntity
  8
4
  6
________________
 62
     7
370
     0
100
AcDbEllipse
 10
626.669647543128
 20
-163.1037072678387
 30
0.0
 11
-0.01569371836951384
 21
0.4997536465136979
 31
0.0
210
0.0
220
0.0
230
1.0
 40
0.5138067228933072
 41
0.0
 42
0.1613770497988775
  0
LINE
  5
F2
330
1F
100
AcDbEntity
  8
4
  6
________________
 62
     7
370
     0
100
AcDbLine
 10
650.169647543128
 20
-132.3175659687763
 30
0.0
 11
639.5824918003802
 21
-132.9373522789447
 31
0.0
  0
LINE
  5
F3
330
1F
100
AcDbEntity
  8
4
  6
________________
 62
     7
370
     0
100
AcDbLine
 10
650.169647543128
 20
-198.565964815854
 30
0.0
 11
639.5824918003802
 21
-197.9461785056856
 31
0.0
  0
LINE
  5
F4
330
1F
100
AcDbEntity
  8
4
  6
________________
 62
     7
370
     0
100
AcDbLine
 10
638.6916571954064
 20
-133.4643224484929
 30
0.0
 11
638.6696475431279
 21
-133.6202972142827
 31
0.0
  0
ELLIPSE
  5
F5
330
1F
100
AcDbEntity
  8
4
  6
________________
 62
     7
370
     0
100
AcDbEllipse
 10
639.669647543128
 20
-133.6039366413303
 30
0.0
 11
0.999999999999987
 21
3.475218160756681E-15
 31
0.0
210
0.0
220
0.0
230
1.0
 40
0.6691306063588403
 41
1.658062789394609
 42
2.931398138958865
  0
LINE
  5
F6
330
1F
100
AcDbEntity
  8
4
  6
________________
 62
     7
370
     0
100
AcDbLine
 10
638.669647543128
 20
-133.6202972142826
 30
0.0
 11
638.669647543128
 21
-162.4580454278864
 31
0.0
  0
ELLIPSE
  5
F7
330
1F
100
AcDbEntity
  8
4
  6
________________
 62
     7
370
     0
100
AcDbEllipse
 10
639.669647543128
 20
-197.2795941433
 30
0.0
 11
0.999999999999987
 21
3.051486557553457E-15
 31
0.0
210
0.0
220
0.0
230
-1.0
 40
0.6691306063588729
 41
1.658062789394616
 42
2.931398138958879
  0
LINE
  5
F8
330
1F
100
AcDbEntity
  8
4
  6
________________
 62
     7
370
     0
100
AcDbLine
 10
638.669647543128
 20
-197.2632335703475
 30
0.0
 11
638.6916571954064
 21
-197.4192083361373
 31
0.0
  0
LINE
  5
F9
330
1F
100
AcDbEntity
  8
4
  6
________________
 62
     7
370
     0
100
AcDbLine
 10
638.669647543128
 20
-168.4254853567438
 30
0.0
 11
638.669647543128
 21
-197.2632335703475
 31
0.0
  0
LINE
  5
FA
330
1F
100
AcDbEntity
  8
4
  6
________________
 62
     7
370
     0
100
AcDbLine
 10
626.169647543128
 20
-163.4395583168339
 30
0.0
 11
626.169647543128
 21
-163.104353065314
 31
0.0
  0
LINE
  5
FB
330
1F
100
AcDbEntity
  8
4
  6
________________
 62
     7
370
     0
100
AcDbLine
 10
626.169647543128
 20
-163.104353065314
 30
0.0
 11
626.169647543128
 21
-162.0990295889767
 31
0.0
  0
LINE
  5
FC
330
1F
100
AcDbEntity
  8
4
  6
________________
 62
     7
370
     0
100
AcDbLine
 10
626.169647543128
 20
-168.7845011956535
 30
0.0
 11
626.169647543128
 21
-167.7791777193164
 31
0.0
  0
LINE
  5
FD
330
1F
100
AcDbEntity
  8
4
  6
________________
 62
     7
370
     0
100
AcDbLine
 10
626.169647543128
 20
-167.7791777193164
 30
0.0
 11
626.169647543128
 21
-167.4439724677963
 31
0.0
  0
LINE
  5
FE
330
1F
100
AcDbEntity
  8
4
  6
________________
 62
     7
370
     0
100
AcDbLine
 10
626.169647543128
 20
-134.7973608881119
 30
0.0
 11
626.169647543128
 21
-162.0990295889767
 31
0.0
  0
LINE
  5
FF
330
1F
100
AcDbEntity
  8
4
  6
________________
 62
     7
370
     0
100
AcDbLine
 10
626.169647543128
 20
-168.7845011956535
 30
0.0
 11
626.169647543128
 21
-196.0861698965182
 31
0.0
  0
LINE
  5
100
330
1F
100
AcDbEntity
  8
4
  6
________________
 62
     7
370
     0
100
AcDbLine
 10
626.169647543128
 20
-133.0874998620218
 30
0.0
 11
626.169647543128
 21
-128.7935453383432
 31
0.0
  0
LINE
  5
101
330
1F
100
AcDbEntity
  8
4
  6
________________
 62
     7
370
     0
100
AcDbLine
 10
626.169647543128
 20
-202.089985446287
 30
0.0
 11
626.169647543128
 21
-197.7960309226085
 31
0.0
  0
LINE
  5
102
330
1F
100
AcDbEntity
  8
4
  6
________________
 62
     7
370
     0
100
AcDbLine
 10
626.169647543128
 20
-128.7935453383432
 30
0.0
 11
626.169647543128
 21
-125.487031829092
 31
0.0
  0
LINE
  5
103
330
1F
100
AcDbEntity
  8
4
  6
________________
 62
     7
370
     0
100
AcDbLine
 10
626.169647543128
 20
-205.3964989555382
 30
0.0
 11
626.169647543128
 21
-202.089985446287
 31
0.0
  0
LINE
  5
104
330
1F
100
AcDbEntity
  8
4
  6
________________
 62
     7
370
     0
100
AcDbLine
 10
626.169647543128
 20
-197.7314652417295
 30
0.0
 11
626.169647543128
 21
-197.6315174557077
 31
0.0
  0
LINE
  5
105
330
1F
100
AcDbEntity
  8
4
  6
________________
 62
     7
370
     0
100
AcDbLine
 10
626.169647543128
 20
-197.6315174557077
 30
0.0
 11
626.169647543128
 21
-196.0861698965183
 31
0.0
  0
LINE
  5
106
330
1F
100
AcDbEntity
  8
4
  6
________________
 62
     7
370
     0
100
AcDbLine
 10
626.169647543128
 20
-197.7960309226085
 30
0.0
 11
626.169647543128
 21
-197.7314652417295
 31
0.0
  0
LINE
  5
107
330
1F
100
AcDbEntity
  8
4
  6
________________
 62
     7
370
     0
100
AcDbLine
 10
626.169647543128
 20
-133.1520655429009
 30
0.0
 11
626.1696475431278
 21
-133.0874998620218
 31
0.0
  0
LINE
  5
108
330
1F
100
AcDbEntity
  8
4
  6
________________
 62
     7
370
     0
100
AcDbLine
 10
626.169647543128
 20
-134.7973608881119
 30
0.0
 11
626.169647543128
 21
-133.2520133289227
 31
0.0
  0
LINE
  5
109
330
1F
100
AcDbEntity
  8
4
  6
________________
 62
     7
370
     0
100
AcDbLine
 10
626.169647543128
 20
-133.2520133289227
 30
0.0
 11
626.169647543128
 21
-133.1520655429009
 31
0.0
  0
LINE
  5
10A
330
1F
100
AcDbEntity
  8
4
  6
________________
 62
     7
370
     0
100
AcDbLine
 10
650.169647543128
 20
-116.0062687268017
 30
0.0
 11
639.5824918003802
 21
-116.9312554314731
 31
0.0
  0
LINE
  5
10B
330
1F
100
AcDbEntity
  8
4
  6
________________
 62
     7
370
     0
100
AcDbLine
 10
650.169647543128
 20
-214.8772620578286
 30
0.0
 11
639.5824918003802
 21
-213.9522753531571
 31
0.0
  0
LINE
  5
10C
330
1F
100
AcDbEntity
  8
4
  6
________________
 62
     7
370
     0
100
AcDbLine
 10
638.6916571954064
 20
-117.7177206898913
 30
0.0
 11
638.6696475431279
 21
-117.9272419164628
 31
0.0
  0
ELLIPSE
  5
10D
330
1F
100
AcDbEntity
  8
4
  6
________________
 62
     7
370
     0
100
AcDbEllipse
 10
639.669647543128
 20
-117.9260848793535
 30
0.0
 11
0.999999999999987
 21
3.041140474340943E-14
 31
0.0
210
0.0
220
0.0
230
1.0
 40
0.9986295347545735
 41
1.658062789394588
 42
2.931398138958851
  0
LINE
  5
10E
330
1F
100
AcDbEntity
  8
4
  6
________________
 62
     7
370
     0
100
AcDbLine
 10
638.669647543128
 20
-117.9272419164628
 30
0.0
 11
638.669647543128
 21
-122.918705378199
 31
0.0
  0
ELLIPSE
  5
10F
330
1F
100
AcDbEntity
  8
4
  6
________________
 62
     7
370
     0
100
AcDbEllipse
 10
639.669647543128
 20
-212.9574459052767
 30
0.0
 11
0.999999999999987
 21
3.634448033872085E-14
 31
0.0
210
0.0
220
0.0
230
-1.0
 40
0.9986295347545744
 41
1.658062789394651
 42
2.931398138958913
  0
LINE
  5
110
330
1F
100
AcDbEntity
  8
4
  6
________________
 62
     7
370
     0
100
AcDbLine
 10
638.669647543128
 20
-212.9562888681674
 30
0.0
 11
638.6916571954065
 21
-213.1658100947389
 31
0.0
  0
LINE
  5
111
330
1F
100
AcDbEntity
  8
4
  6
________________
 62
     7
370
     0
100
AcDbLine
 10
638.669647543128
 20
-207.9648254064312
 30
0.0
 11
638.669647543128
 21
-212.9562888681674
 31
0.0
  0
LINE
  5
112
330
1F
100
AcDbEntity
  8
4
  6
________________
 62
     7
370
     0
100
AcDbLine
 10
626.169647543128
 20
-118.7612971282854
 30
0.0
 11
626.169647543128
 21
-125.487031829092
 31
0.0
  0
LINE
  5
113
330
1F
100
AcDbEntity
  8
4
  6
________________
 62
     7
370
     0
100
AcDbLine
 10
626.169647543128
 20
-205.3964989555382
 30
0.0
 11
626.169647543128
 21
-212.1222336563448
 31
0.0
  0
LINE
  5
114
330
1F
100
AcDbEntity
  8
4
  6
________________
 62
     7
370
     0
100
AcDbLine
 10
626.169647543128
 20
-213.1998135813575
 30
0.0
 11
626.169647543128
 21
-212.1222336563447
 31
0.0
  0
LINE
  5
115
330
1F
100
AcDbEntity
  8
4
  6
________________
 62
     7
370
     0
100
AcDbLine
 10
626.169647543128
 20
-118.7612971282854
 30
0.0
 11
626.169647543128
 21
-117.6837172032727
 31
0.0
  0
LINE
  5
116
330
1F
100
AcDbEntity
  8
4
  6
________________
 62
     7
370
     0
100
AcDbLine
 10
626.169647543128
 20
-117.6837172032727
 30
0.0
 11
626.169647543128
 21
-111.275297430678
 31
0.0
  0
LINE
  5
117
330
1F
100
AcDbEntity
  8
4
  6
________________
 62
     7
370
     0
100
AcDbLine
 10
626.169647543128
 20
-219.6082333539522
 30
0.0
 11
626.169647543128
 21
-213.1998135813575
 31
0.0
  0
LINE
  5
118
330
1F
100
AcDbEntity
  8
4
  6
________________
 62
     7
370
     0
100
AcDbLine
 10
626.169647543128
 20
-111.275297430678
 30
0.0
 11
626.169647543128
 21
-111.2248605817997
 31
0.0
  0
LINE
  5
119
330
1F
100
AcDbEntity
  8
4
  6
________________
 62
     7
370
     0
100
AcDbLine
 10
626.169647543128
 20
-219.6586702028305
 30
0.0
 11
626.169647543128
 21
-219.6082333539522
 31
0.0
  0
LINE
  5
11A
330
1F
100
AcDbEntity
  8
4
  6
________________
 62
     7
370
     0
100
AcDbLine
 10
755.2556235041468
 20
-224.8811365706356
 30
0.0
 11
764.379647543128
 21
-222.9417653923151
 31
0.0
  0
LINE
  5
11B
330
1F
100
AcDbEntity
  8
4
  6
________________
 62
     7
370
     0
100
AcDbLine
 10
755.379647543128
 20
-106.0287563372849
 30
0.0
 11
751.2757869704711
 21
-105.1564538443878
 31
0.0
  0
LINE
  5
11C
330
1F
100
AcDbEntity
  8
4
  6
________________
 62
     7
370
     0
100
AcDbLine
 10
751.8168699389986
 20
-121.2826294544637
 30
0.0
 11
751.379647543128
 21
-121.4417653923151
 31
0.0
  0
LINE
  5
11D
330
1F
100
AcDbEntity
  8
4
  6
________________
 62
     7
370
     0
100
AcDbLine
 10
751.379647543128
 20
-209.4417653923151
 30
0.0
 11
754.7872871733686
 21
-210.6820447868285
 31
0.0
  0
ARC
  5
11E
330
1F
100
AcDbEntity
  8
4
  6
________________
 62
     7
370
     0
100
AcDbCircle
 10
769.379647543128
 20
-221.9417653923151
 30
0.0
 40
1.000000000000001
100
AcDbArc
 50
270.0000000000005
 51
0.0
  0
LINE
  5
11F
330
1F
100
AcDbEntity
  8
4
  6
________________
 62
     7
370
     0
100
AcDbLine
 10
764.379647543128
 20
-222.9417653923151
 30
0.0
 11
769.379647543128
 21
-222.9417653923151
 31
0.0
  0
LINE
  5
120
330
1F
100
AcDbEntity
  8
4
  6
________________
 62
     7
370
     0
100
AcDbLine
 10
770.579647543128
 20
-161.7283679326935
 30
0.0
 11
770.379647543128
 21
-161.7283679326935
 31
0.0
  0
LINE
  5
121
330
1F
100
AcDbEntity
  8
4
  6
________________
 62
     7
370
     0
100
AcDbLine
 10
589.8798699504576
 20
-121.4424836239178
 30
0.0
 11
586.3798699504667
 21
-121.4424755634727
 31
0.0
  0
LINE
  5
122
330
1F
100
AcDbEntity
  8
4
  6
________________
 62
     7
370
     0
100
AcDbLine
 10
599.8798267752514
 20
-121.4423546421506
 30
0.0
 11
596.3798267752609
 21
-121.4423465816819
 31
0.0
  0
LINE
  5
123
330
1F
100
AcDbEntity
  8
4
  6
________________
 62
     7
370
     0
100
AcDbLine
 10
609.8797241626985
 20
-121.4422036460315
 30
0.0
 11
606.3797241627079
 21
-121.442195585535
 31
0.0
  0
LINE
  5
124
330
1F
100
AcDbEntity
  8
4
  6
________________
 62
     7
370
     0
100
AcDbLine
 10
619.8795922622945
 20
-121.4420510527731
 30
0.0
 11
616.3795922623037
 21
-121.4420429922486
 31
0.0
  0
LINE
  5
125
330
1F
100
AcDbEntity
  8
4
  6
________________
 62
     7
370
     0
100
AcDbLine
 10
659.8793393344773
 20
-121.4419468278612
 30
0.0
 11
656.3793393344865
 21
-121.4419387673177
 31
0.0
  0
LINE
  5
126
330
1F
100
AcDbEntity
  8
4
  6
________________
 62
     7
370
     0
100
AcDbLine
 10
669.8794799627246
 20
-121.4420811865576
 30
0.0
 11
666.3794799627341
 21
-121.4420731260387
 31
0.0
  0
LINE
  5
127
330
1F
100
AcDbEntity
  8
4
  6
________________
 62
     7
370
     0
100
AcDbLine
 10
679.8796710035351
 20
-121.442233238923
 30
0.0
 11
676.3796710035446
 21
-121.4422251784319
 31
0.0
  0
LINE
  5
128
330
1F
100
AcDbEntity
  8
4
  6
________________
 62
     7
370
     0
100
AcDbLine
 10
689.8797940143493
 20
-121.4423803363513
 30
0.0
 11
686.3797940143586
 21
-121.4423722758872
 31
0.0
  0
LINE
  5
129
330
1F
100
AcDbEntity
  8
4
  6
________________
 62
     7
370
     0
100
AcDbLine
 10
699.879854007988
 20
-121.4425032096914
 30
0.0
 11
696.3798540079973
 21
-121.4424951492498
 31
0.0
  0
LINE
  5
12A
330
1F
100
AcDbEntity
  8
4
  6
________________
 62
     7
370
     0
100
AcDbLine
 10
709.8798543993612
 20
-121.4425876219618
 30
0.0
 11
706.3798543993704
 21
-121.4425795615356
 31
0.0
  0
LINE
  5
12B
330
1F
100
AcDbEntity
  8
4
  6
________________
 62
     7
370
     0
100
AcDbLine
 10
719.879792534768
 20
-121.4426244796767
 30
0.0
 11
716.3797925347773
 21
-121.4426164192572
 31
0.0
  0
LINE
  5
12C
330
1F
100
AcDbEntity
  8
4
  6
________________
 62
     7
370
     0
100
AcDbLine
 10
729.8796933484371
 20
-121.4426099516421
 30
0.0
 11
726.3796933484463
 21
-121.44260189122
 31
0.0
  0
LINE
  5
12D
330
1F
100
AcDbEntity
  8
4
  6
________________
 62
     7
370
     0
100
AcDbLine
 10
739.8795857212009
 20
-121.4425454989624
 30
0.0
 11
736.3795857212102
 21
-121.4425374385285
 31
0.0
  0
LINE
  5
12E
330
1F
100
AcDbEntity
  8
4
  6
________________
 62
     7
370
     0
100
AcDbLine
 10
747.3796475574966
 20
-121.4424320319203
 30
0.0
 11
746.3794955245004
 21
-121.4424297285835
 31
0.0
  0
LINE
  5
12F
330
1F
100
AcDbEntity
  8
4
  6
________________
 62
     7
370
     0
100
AcDbLine
 10
741.379980200975
 20
-209.4410407128507
 30
0.0
 11
744.8799802009656
 21
-209.4410326524082
 31
0.0
  0
LINE
  5
130
330
1F
100
AcDbEntity
  8
4
  6
________________
 62
     7
370
     0
100
AcDbLine
 10
731.3801056336272
 20
-209.4409531549971
 30
0.0
 11
734.880105633618
 21
-209.4409450945706
 31
0.0
  0
LINE
  5
131
330
1F
100
AcDbEntity
  8
4
  6
________________
 62
     7
370
     0
100
AcDbLine
 10
721.380221273717
 20
-209.4409130083477
 30
0.0
 11
724.8802212737078
 21
-209.4409049479286
 31
0.0
  0
LINE
  5
132
330
1F
100
AcDbEntity
  8
4
  6
________________
 62
     7
370
     0
100
AcDbLine
 10
711.3802974230676
 20
-209.4409245231638
 30
0.0
 11
714.8802974230583
 21
-209.4409164627425
 31
0.0
  0
LINE
  5
133
330
1F
100
AcDbEntity
  8
4
  6
________________
 62
     7
370
     0
100
AcDbLine
 10
701.3803047306825
 20
-209.4409866394165
 30
0.0
 11
704.8803047306731
 21
-209.4409785789839
 31
0.0
  0
LINE
  5
134
330
1F
100
AcDbEntity
  8
4
  6
________________
 62
     7
370
     0
100
AcDbLine
 10
691.3802799660325
 20
-209.4410925312744
 30
0.0
 11
694.8802799660234
 21
-209.4410844708225
 31
0.0
  0
LINE
  5
135
330
1F
100
AcDbEntity
  8
4
  6
________________
 62
     7
370
     0
100
AcDbLine
 10
681.380304363262
 20
-209.4412302862463
 30
0.0
 11
684.8803043632528
 21
-209.4412222257691
 31
0.0
  0
LINE
  5
136
330
1F
100
AcDbEntity
  8
4
  6
________________
 62
     7
370
     0
100
AcDbLine
 10
671.3803663444003
 20
-209.4413834432417
 30
0.0
 11
674.880366344391
 21
-209.4413753827364
 31
0.0
  0
LINE
  5
137
330
1F
100
AcDbEntity
  8
4
  6
________________
 62
     7
370
     0
100
AcDbLine
 10
661.3804525862015
 20
-209.4415302975816
 30
0.0
 11
664.8804525861921
 21
-209.4415222370494
 31
0.0
  0
LINE
  5
138
330
1F
100
AcDbEntity
  8
4
  6
________________
 62
     7
370
     0
100
AcDbLine
 10
654.5620319110924
 20
-209.4416373649592
 30
0.0
 11
654.8793583970559
 21
-209.4416366341515
 31
0.0
  0
LINE
  5
139
330
1F
100
AcDbEntity
  8
4
  6
________________
 62
     7
370
     0
100
AcDbLine
 10
621.3795901423941
 20
-209.4415568579928
 30
0.0
 11
624.8795901423848
 21
-209.4415487974557
 31
0.0
  0
LINE
  5
13A
330
1F
100
AcDbEntity
  8
4
  6
________________
 62
     7
370
     0
100
AcDbLine
 10
611.3797234167025
 20
-209.4414125047969
 30
0.0
 11
614.8797234166932
 21
-209.4414044442862
 31
0.0
  0
LINE
  5
13B
330
1F
100
AcDbEntity
  8
4
  6
________________
 62
     7
370
     0
100
AcDbLine
 10
601.3798357659676
 20
-209.4412577652941
 30
0.0
 11
604.8798357659582
 21
-209.4412497048118
 31
0.0
  0
LINE
  5
13C
330
1F
100
AcDbEntity
  8
4
  6
________________
 62
     7
370
     0
100
AcDbLine
 10
591.3798999671932
 20
-209.4411156096341
 30
0.0
 11
594.8798999671842
 21
-209.4411075491779
 31
0.0
  0
LINE
  5
13D
330
1F
100
AcDbEntity
  8
4
  6
________________
 62
     7
370
     0
100
AcDbLine
 10
582.3796475630068
 20
-209.441001437896
 30
0.0
 11
584.8798888985565
 21
-209.4409956798861
 31
0.0
  0
LINE
  5
13E
330
1F
100
AcDbEntity
  8
4
  6
________________
 62
     7
370
     0
100
AcDbLine
 10
586.0600498189729
 20
-122.3271826149855
 30
0.0
 11
585.7670127973637
 21
-123.9539347426625
 31
0.0
  0
LINE
  5
13F
330
1F
100
AcDbEntity
  8
4
  6
________________
 62
     7
370
     0
100
AcDbLine
 10
596.057779664684
 20
-122.3398421268191
 30
0.0
 11
595.7670222777161
 21
-123.9539295642106
 31
0.0
  0
LINE
  5
140
330
1F
100
AcDbEntity
  8
4
  6
________________
 62
     7
370
     0
100
AcDbLine
 10
606.0577584238744
 20
-122.3399995160725
 30
0.0
 11
605.7691992529543
 21
-123.941872662338
 31
0.0
  0
LINE
  5
141
330
1F
100
AcDbEntity
  8
4
  6
________________
 62
     7
370
     0
100
AcDbLine
 10
616.0577006246815
 20
-122.3403098323381
 30
0.0
 11
615.7691940038726
 21
-123.9418723851128
 31
0.0
  0
LINE
  5
142
330
1F
100
AcDbEntity
  8
4
  6
________________
 62
     7
370
     0
100
AcDbLine
 10
626.0575863076558
 20
-122.3408847425994
 30
0.0
 11
625.7691804668179
 21
-123.9418720902579
 31
0.0
  0
LINE
  5
143
330
1F
100
AcDbEntity
  8
4
  6
________________
 62
     7
370
     0
100
AcDbLine
 10
656.0574911665431
 20
-122.34102285692
 30
0.0
 11
655.7691086157714
 21
-123.9418717854308
 31
0.0
  0
LINE
  5
144
330
1F
100
AcDbEntity
  8
4
  6
________________
 62
     7
370
     0
100
AcDbLine
 10
666.0574282778063
 20
-122.3412266506298
 30
0.0
 11
665.7690851399883
 21
-123.9418715115801
 31
0.0
  0
LINE
  5
145
330
1F
100
AcDbEntity
  8
4
  6
________________
 62
     7
370
     0
100
AcDbLine
 10
676.0575787100003
 20
-122.3402777566204
 30
0.0
 11
675.7690691102902
 21
-123.941871766602
 31
0.0
  0
LINE
  5
146
330
1F
100
AcDbEntity
  8
4
  6
________________
 62
     7
370
     0
100
AcDbLine
 10
686.0586975250262
 20
-122.3340211406053
 30
0.0
 11
685.7690659436265
 21
-123.9418741886457
 31
0.0
  0
LINE
  5
147
330
1F
100
AcDbEntity
  8
4
  6
________________
 62
     7
370
     0
100
AcDbLine
 10
696.0579168326309
 20
-122.3383885575342
 30
0.0
 11
695.7690780409274
 21
-123.9418730549154
 31
0.0
  0
LINE
  5
148
330
1F
100
AcDbEntity
  8
4
  6
________________
 62
     7
370
     0
100
AcDbLine
 10
706.0577814547381
 20
-122.3392453237374
 30
0.0
 11
705.7691144484226
 21
-123.9417888118849
 31
0.0
  0
LINE
  5
149
330
1F
100
AcDbEntity
  8
4
  6
________________
 62
     7
370
     0
100
AcDbLine
 10
716.0577368363557
 20
-122.3396337534768
 30
0.0
 11
715.7691250688865
 21
-123.9418728424745
 31
0.0
  0
LINE
  5
14A
330
1F
100
AcDbEntity
  8
4
  6
________________
 62
     7
370
     0
100
AcDbLine
 10
726.0579671685073
 20
-122.3385035685879
 30
0.0
 11
725.769150394986
 21
-123.9418733565173
 31
0.0
  0
LINE
  5
14B
330
1F
100
AcDbEntity
  8
4
  6
________________
 62
     7
370
     0
100
AcDbLine
 10
736.0579678303038
 20
-122.3386383592772
 30
0.0
 11
735.7669992412067
 21
-123.9539300656591
 31
0.0
  0
LINE
  5
14C
330
1F
100
AcDbEntity
  8
4
  6
________________
 62
     7
370
     0
100
AcDbLine
 10
746.0578994763824
 20
-122.3391279721145
 30
0.0
 11
745.7670156988754
 21
-123.953929887257
 31
0.0
  0
LINE
  5
14D
330
1F
100
AcDbEntity
  8
4
  6
________________
 62
     7
370
     0
100
AcDbLine
 10
740.598339140455
 20
-205.9944120936392
 30
0.0
 11
741.0600645648797
 21
-208.5564434028033
 31
0.0
  0
LINE
  5
14E
330
1F
100
AcDbEntity
  8
4
  6
________________
 62
     7
370
     0
100
AcDbLine
 10
730.596597418185
 20
-205.9848788981766
 30
0.0
 11
731.0579150637969
 21
-208.5446658336124
 31
0.0
  0
LINE
  5
14F
330
1F
100
AcDbEntity
  8
4
  6
________________
 62
     7
370
     0
100
AcDbLine
 10
720.5967485681958
 20
-205.9858440464294
 30
0.0
 11
721.0582188764416
 21
-208.5465001548518
 31
0.0
  0
LINE
  5
150
330
1F
100
AcDbEntity
  8
4
  6
________________
 62
     7
370
     0
100
AcDbLine
 10
710.5968844150506
 20
-205.9867374662023
 30
0.0
 11
711.0580226463904
 21
-208.5455584227685
 31
0.0
  0
LINE
  5
151
330
1F
100
AcDbEntity
  8
4
  6
________________
 62
     7
370
     0
100
AcDbLine
 10
700.5968326059026
 20
-205.9865839173077
 30
0.0
 11
701.0578102663576
 21
-208.5445041574232
 31
0.0
  0
LINE
  5
152
330
1F
100
AcDbEntity
  8
4
  6
________________
 62
     7
370
     0
100
AcDbLine
 10
690.5972333059582
 20
-205.9889090581982
 30
0.0
 11
691.0576007204578
 21
-208.5434151815822
 31
0.0
  0
LINE
  5
153
330
1F
100
AcDbEntity
  8
4
  6
________________
 62
     7
370
     0
100
AcDbLine
 10
680.5977766878457
 20
-205.9919682501946
 30
0.0
 11
681.0575846944522
 21
-208.5433210203913
 31
0.0
  0
LINE
  5
154
330
1F
100
AcDbEntity
  8
4
  6
________________
 62
     7
370
     0
100
AcDbLine
 10
670.5987183259201
 20
-205.9971312001881
 30
0.0
 11
671.0597639720102
 21
-208.5552989178756
 31
0.0
  0
LINE
  5
155
330
1F
100
AcDbEntity
  8
4
  6
________________
 62
     7
370
     0
100
AcDbLine
 10
660.5966231023863
 20
-205.9854406363572
 30
0.0
 11
661.0576090982473
 21
-208.5432379306694
 31
0.0
  0
LINE
  5
156
330
1F
100
AcDbEntity
  8
4
  6
________________
 62
     7
370
     0
100
AcDbLine
 10
620.5965690597249
 20
-205.984630673123
 30
0.0
 11
621.0576410832134
 21
-208.5429143454719
 31
0.0
  0
LINE
  5
157
330
1F
100
AcDbEntity
  8
4
  6
________________
 62
     7
370
     0
100
AcDbLine
 10
610.5971332468124
 20
-205.9876942123768
 30
0.0
 11
611.0577189827993
 21
-208.5433112096221
 31
0.0
  0
LINE
  5
158
330
1F
100
AcDbEntity
  8
4
  6
________________
 62
     7
370
     0
100
AcDbLine
 10
600.5981248613493
 20
-205.9931693135562
 30
0.0
 11
601.0590321747912
 21
-208.5506084113591
 31
0.0
  0
LINE
  5
159
330
1F
100
AcDbEntity
  8
4
  6
________________
 62
     7
370
     0
100
AcDbLine
 10
590.5978042399454
 20
-205.9914263145889
 30
0.0
 11
591.0578899270055
 21
-208.5443387018003
 31
0.0
  0
LINE
  5
15A
330
1F
100
AcDbEntity
  8
4
  6
________________
 62
     7
370
     0
100
AcDbLine
 10
590.662099625623
 20
-124.8938089311185
 30
0.0
 11
590.2016349220138
 21
-122.3386832612362
 31
0.0
  0
LINE
  5
15B
330
1F
100
AcDbEntity
  8
4
  6
________________
 62
     7
370
     0
100
AcDbLine
 10
600.6625151326685
 20
-124.89604349732
 30
0.0
 11
600.2013454068331
 21
-122.3370542324152
 31
0.0
  0
LINE
  5
15C
330
1F
100
AcDbEntity
  8
4
  6
________________
 62
     7
370
     0
100
AcDbLine
 10
610.6626598816613
 20
-124.8968547692863
 30
0.0
 11
610.2019090196463
 21
-122.3402473605317
 31
0.0
  0
LINE
  5
15D
330
1F
100
AcDbEntity
  8
4
  6
________________
 62
     7
370
     0
100
AcDbLine
 10
620.6622840655052
 20
-124.8948554629857
 30
0.0
 11
620.2021097653042
 21
-122.3414841045099
 31
0.0
  0
LINE
  5
15E
330
1F
100
AcDbEntity
  8
4
  6
________________
 62
     7
370
     0
100
AcDbLine
 10
660.6630607836701
 20
-124.8996778733748
 30
0.0
 11
660.2018987988454
 21
-122.3408372207707
 31
0.0
  0
LINE
  5
15F
330
1F
100
AcDbEntity
  8
4
  6
________________
 62
     7
370
     0
100
AcDbLine
 10
670.6630975106274
 20
-124.8999575124996
 30
0.0
 11
670.2017795797759
 21
-122.3402261261232
 31
0.0
  0
LINE
  5
160
330
1F
100
AcDbEntity
  8
4
  6
________________
 62
     7
370
     0
100
AcDbLine
 10
680.6630840318463
 20
-124.8999144588834
 30
0.0
 11
680.2017294766445
 21
-122.3399490594077
 31
0.0
  0
LINE
  5
161
330
1F
100
AcDbEntity
  8
4
  6
________________
 62
     7
370
     0
100
AcDbLine
 10
690.6631563470686
 20
-124.9002998004539
 30
0.0
 11
690.201786375799
 21
-122.3402168425682
 31
0.0
  0
LINE
  5
162
330
1F
100
AcDbEntity
  8
4
  6
________________
 62
     7
370
     0
100
AcDbLine
 10
700.6626648626294
 20
-124.8975140566911
 30
0.0
 11
700.2016318780663
 21
-122.3392651615844
 31
0.0
  0
LINE
  5
163
330
1F
100
AcDbEntity
  8
4
  6
________________
 62
     7
370
     0
100
AcDbLine
 10
710.6623431930627
 20
-124.895631012927
 30
0.0
 11
710.2016122400513
 21
-122.3390283422237
 31
0.0
  0
LINE
  5
164
330
1F
100
AcDbEntity
  8
4
  6
________________
 62
     7
370
     0
100
AcDbLine
 10
720.6610911568436
 20
-124.8885666112518
 30
0.0
 11
720.2002198976346
 21
-122.3311588595796
 31
0.0
  0
LINE
  5
165
330
1F
100
AcDbEntity
  8
4
  6
________________
 62
     7
370
     0
100
AcDbLine
 10
730.6619383919622
 20
-124.8931178660062
 30
0.0
 11
730.2014832184524
 21
-122.3380165451934
 31
0.0
  0
LINE
  5
166
330
1F
100
AcDbEntity
  8
4
  6
________________
 62
     7
370
     0
100
AcDbLine
 10
740.6617637752851
 20
-124.8920172222741
 30
0.0
 11
740.2016106973366
 21
-122.3386012990993
 31
0.0
  0
LINE
  5
167
330
1F
100
AcDbEntity
  8
4
  6
________________
 62
     7
370
     0
100
AcDbLine
 10
745.2016313224627
 20
-208.5448589881217
 30
0.0
 11
745.4904118534739
 21
-206.9416578232116
 31
0.0
  0
LINE
  5
168
330
1F
100
AcDbEntity
  8
4
  6
________________
 62
     7
370
     0
100
AcDbLine
 10
735.199225920804
 20
-208.5580762618954
 30
0.0
 11
735.4903880971024
 21
-206.9416521823689
 31
0.0
  0
LINE
  5
169
330
1F
100
AcDbEntity
  8
4
  6
________________
 62
     7
370
     0
100
AcDbLine
 10
725.201699084693
 20
-208.5442422135603
 30
0.0
 11
725.4903655050445
 21
-206.9416578069468
 31
0.0
  0
LINE
  5
16A
330
1F
100
AcDbEntity
  8
4
  6
________________
 62
     7
370
     0
100
AcDbLine
 10
715.2015204479023
 20
-208.545084876893
 30
0.0
 11
715.4903400362947
 21
-206.9416573724948
 31
0.0
  0
LINE
  5
16B
330
1F
100
AcDbEntity
  8
4
  6
________________
 62
     7
370
     0
100
AcDbLine
 10
705.2014833050299
 20
-208.5451514698491
 30
0.0
 11
705.4903173788798
 21
-206.9416573837132
 31
0.0
  0
LINE
  5
16C
330
1F
100
AcDbEntity
  8
4
  6
________________
 62
     7
370
     0
100
AcDbLine
 10
695.2016070072377
 20
-208.5443521749378
 30
0.0
 11
695.490300444311
 21
-206.9416576419751
 31
0.0
  0
LINE
  5
16D
330
1F
100
AcDbEntity
  8
4
  6
________________
 62
     7
370
     0
100
AcDbLine
 10
685.2016746567687
 20
-208.5439045198419
 30
0.0
 11
685.4902911600443
 21
-206.9416578224001
 31
0.0
  0
LINE
  5
16E
330
1F
100
AcDbEntity
  8
4
  6
________________
 62
     7
370
     0
100
AcDbLine
 10
675.2017976156361
 20
-208.5431974696478
 30
0.0
 11
675.4902752932547
 21
-206.9417418687673
 31
0.0
  0
LINE
  5
16F
330
1F
100
AcDbEntity
  8
4
  6
________________
 62
     7
370
     0
100
AcDbLine
 10
665.2018573672032
 20
-208.542892087789
 30
0.0
 11
665.4902983057573
 21
-206.9416584516846
 31
0.0
  0
LINE
  5
170
330
1F
100
AcDbEntity
  8
4
  6
________________
 62
     7
370
     0
100
AcDbLine
 10
655.2019584842288
 20
-208.5424049320642
 30
0.0
 11
655.4903141421627
 21
-206.9416587739136
 31
0.0
  0
LINE
  5
171
330
1F
100
AcDbEntity
  8
4
  6
________________
 62
     7
370
     0
100
AcDbLine
 10
625.2018862034048
 20
-208.5432158323726
 30
0.0
 11
625.4903882388544
 21
-206.941658762818
 31
0.0
  0
LINE
  5
172
330
1F
100
AcDbEntity
  8
4
  6
________________
 62
     7
370
     0
100
AcDbLine
 10
615.2018129245123
 20
-208.5437613982752
 30
0.0
 11
615.4904101450269
 21
-206.941658543023
 31
0.0
  0
LINE
  5
173
330
1F
100
AcDbEntity
  8
4
  6
________________
 62
     7
370
     0
100
AcDbLine
 10
605.202014269246
 20
-208.5427398435449
 30
0.0
 11
605.4904222322374
 21
-206.9416591165614
 31
0.0
  0
LINE
  5
174
330
1F
100
AcDbEntity
  8
4
  6
________________
 62
     7
370
     0
100
AcDbLine
 10
595.2019059598836
 20
-208.5433637537062
 30
0.0
 11
595.490419801018
 21
-206.9416587136066
 31
0.0
  0
LINE
  5
175
330
1F
100
AcDbEntity
  8
4
  6
________________
 62
     7
370
     0
100
AcDbLine
 10
585.2016238948604
 20
-208.5448685508699
 30
0.0
 11
585.49040478916
 21
-206.9416578537903
 31
0.0
  0
LINE
  5
176
330
1F
100
AcDbEntity
  8
4
  6
________________
 62
     7
370
     0
100
AcDbLine
 10
735.3204409709804
 20
-206.9417653923151
 30
0.0
 11
740.7691843045068
 21
-206.9417653923151
 31
0.0
  0
LINE
  5
177
330
1F
100
AcDbEntity
  8
4
  6
________________
 62
     7
370
     0
100
AcDbLine
 10
605.9389956313499
 20
-123.9417653923151
 30
0.0
 11
600.4904235736313
 21
-123.9417653923151
 31
0.0
  0
LINE
  5
178
330
1F
100
AcDbEntity
  8
4
  6
________________
 62
     7
370
     0
100
AcDbLine
 10
615.938967215115
 20
-123.9417653923151
 30
0.0
 11
610.4904176641659
 21
-123.9417653923151
 31
0.0
  0
LINE
  5
179
330
1F
100
AcDbEntity
  8
4
  6
________________
 62
     7
370
     0
100
AcDbLine
 10
625.9389832079072
 20
-123.9417653923151
 30
0.0
 11
620.4903996568452
 21
-123.9417653923151
 31
0.0
  0
LINE
  5
17A
330
1F
100
AcDbEntity
  8
4
  6
________________
 62
     7
370
     0
100
AcDbLine
 10
655.9389736710779
 20
-123.9417653923151
 30
0.0
 11
654.5620319110925
 21
-123.9417653923151
 31
0.0
  0
LINE
  5
17B
330
1F
100
AcDbEntity
  8
4
  6
________________
 62
     7
370
     0
100
AcDbLine
 10
665.9389892618727
 20
-123.9417653923151
 30
0.0
 11
660.4903053036246
 21
-123.9417653923151
 31
0.0
  0
LINE
  5
17C
330
1F
100
AcDbEntity
  8
4
  6
________________
 62
     7
370
     0
100
AcDbLine
 10
675.9389883904179
 20
-123.9417653923151
 30
0.0
 11
670.4902932646866
 21
-123.9417653923151
 31
0.0
  0
LINE
  5
17D
330
1F
100
AcDbEntity
  8
4
  6
________________
 62
     7
370
     0
100
AcDbLine
 10
685.9390186041378
 20
-123.9417653923151
 30
0.0
 11
680.4902896085015
 21
-123.9417653923151
 31
0.0
  0
LINE
  5
17E
330
1F
100
AcDbEntity
  8
4
  6
________________
 62
     7
370
     0
100
AcDbLine
 10
695.939043654406
 20
-123.9417653923151
 30
0.0
 11
690.4902945093468
 21
-123.9417653923151
 31
0.0
  0
LINE
  5
17F
330
1F
100
AcDbEntity
  8
4
  6
________________
 62
     7
370
     0
100
AcDbLine
 10
705.9390441931894
 20
-123.9417653923151
 30
0.0
 11
700.4902906384847
 21
-123.9417653923151
 31
0.0
  0
LINE
  5
180
330
1F
100
AcDbEntity
  8
4
  6
________________
 62
     7
370
     0
100
AcDbLine
 10
715.939049315575
 20
-123.9417653923151
 30
0.0
 11
710.4903280667072
 21
-123.9417653923151
 31
0.0
  0
LINE
  5
181
330
1F
100
AcDbEntity
  8
4
  6
________________
 62
     7
370
     0
100
AcDbLine
 10
725.9390549530659
 20
-123.9417653923151
 30
0.0
 11
720.4903528927275
 21
-123.9417653923151
 31
0.0
  0
LINE
  5
182
330
1F
100
AcDbEntity
  8
4
  6
________________
 62
     7
370
     0
100
AcDbLine
 10
725.3204368306748
 20
-206.9417653923151
 30
0.0
 11
730.7691621849538
 21
-206.9417653923151
 31
0.0
  0
LINE
  5
183
330
1F
100
AcDbEntity
  8
4
  6
________________
 62
     7
370
     0
100
AcDbLine
 10
715.3204292205506
 20
-206.9417653923151
 30
0.0
 11
720.7691374949825
 21
-206.9417653923151
 31
0.0
  0
LINE
  5
184
330
1F
100
AcDbEntity
  8
4
  6
________________
 62
     7
370
     0
100
AcDbLine
 10
705.3204357185796
 20
-206.9417653923151
 30
0.0
 11
710.769111631802
 21
-206.9417653923151
 31
0.0
  0
LINE
  5
185
330
1F
100
AcDbEntity
  8
4
  6
________________
 62
     7
370
     0
100
AcDbLine
 10
695.3204571693112
 20
-206.9417653923151
 30
0.0
 11
700.7690881223083
 21
-206.9417653923151
 31
0.0
  0
LINE
  5
186
330
1F
100
AcDbEntity
  8
4
  6
________________
 62
     7
370
     0
100
AcDbLine
 10
685.3204806807751
 20
-206.9417653923151
 30
0.0
 11
690.7690711266076
 21
-206.9417653923151
 31
0.0
  0
LINE
  5
187
330
1F
100
AcDbEntity
  8
4
  6
________________
 62
     7
370
     0
100
AcDbLine
 10
675.3204781346074
 20
-206.9417653923151
 30
0.0
 11
680.7690828204361
 21
-206.9417653923151
 31
0.0
  0
LINE
  5
188
330
1F
100
AcDbEntity
  8
4
  6
________________
 62
     7
370
     0
100
AcDbLine
 10
665.3205135484069
 20
-206.9417653923151
 30
0.0
 11
670.7690783924904
 21
-206.9417653923151
 31
0.0
  0
LINE
  5
189
330
1F
100
AcDbEntity
  8
4
  6
________________
 62
     7
370
     0
100
AcDbLine
 10
655.3205354499092
 20
-206.9417653923151
 30
0.0
 11
660.7690961022056
 21
-206.9417653923151
 31
0.0
  0
LINE
  5
18A
330
1F
100
AcDbEntity
  8
4
  6
________________
 62
     7
370
     0
100
AcDbLine
 10
625.3205245789258
 20
-206.9417653923151
 30
0.0
 11
626.169647543128
 21
-206.9417653923151
 31
0.0
  0
LINE
  5
18B
330
1F
100
AcDbEntity
  8
4
  6
________________
 62
     7
370
     0
100
AcDbLine
 10
615.3204922187596
 20
-206.9417653923151
 30
0.0
 11
620.7691881430461
 21
-206.9417653923151
 31
0.0
  0
LINE
  5
18C
330
1F
100
AcDbEntity
  8
4
  6
________________
 62
     7
370
     0
100
AcDbLine
 10
605.320472285443
 20
-206.9417653923151
 30
0.0
 11
610.7691976946505
 21
-206.9417653923151
 31
0.0
  0
LINE
  5
18D
330
1F
100
AcDbEntity
  8
4
  6
________________
 62
     7
370
     0
100
AcDbLine
 10
595.3204699012625
 20
-206.9417653923151
 30
0.0
 11
600.7691984817659
 21
-206.9417653923151
 31
0.0
  0
LINE
  5
18E
330
1F
100
AcDbEntity
  8
4
  6
________________
 62
     7
370
     0
100
AcDbLine
 10
745.3204438220807
 20
-206.9417653923151
 30
0.0
 11
749.379647543128
 21
-206.9417653923151
 31
0.0
  0
LINE
  5
18F
330
1F
100
AcDbEntity
  8
4
  6
________________
 62
     7
370
     0
100
AcDbLine
 10
585.320448146839
 20
-206.9417653923151
 30
0.0
 11
590.7691907949843
 21
-206.9417653923151
 31
0.0
  0
LINE
  5
190
330
1F
100
AcDbEntity
  8
4
  6
________________
 62
     7
370
     0
100
AcDbLine
 10
580.3796475431279
 20
-206.9417653923151
 30
0.0
 11
582.3796475431279
 21
-206.9417653923151
 31
0.0
  0
LINE
  5
191
330
1F
100
AcDbEntity
  8
4
  6
________________
 62
     7
370
     0
100
AcDbLine
 10
751.379647543128
 20
-124.2417653923151
 30
0.0
 11
749.379647543128
 21
-124.2417653923151
 31
0.0
  0
LINE
  5
192
330
1F
100
AcDbEntity
  8
4
  6
________________
 62
     7
370
     0
100
AcDbLine
 10
749.379647543128
 20
-206.6417653923151
 30
0.0
 11
751.379647543128
 21
-206.6417653923151
 31
0.0
  0
LINE
  5
193
330
1F
100
AcDbEntity
  8
4
  6
________________
 62
     7
370
     0
100
AcDbLine
 10
770.3796475431279
 20
-120.6326744832242
 30
0.0
 11
770.717147543128
 21
-120.6326744832242
 31
0.0
  0
LINE
  5
194
330
1F
100
AcDbEntity
  8
4
  6
________________
 62
     7
370
     0
100
AcDbLine
 10
770.3796475431279
 20
-120.6690381195878
 30
0.0
 11
770.6796475431279
 21
-120.6690381195878
 31
0.0
  0
LINE
  5
195
330
1F
100
AcDbEntity
  8
4
  6
________________
 62
     7
370
     0
100
AcDbLine
 10
770.717147543128
 20
-113.2144926650424
 30
0.0
 11
770.679647543128
 21
-113.2144926650424
 31
0.0
  0
LINE
  5
196
330
1F
100
AcDbEntity
  8
4
  6
________________
 62
     7
370
     0
100
AcDbLine
 10
654.5620319110924
 20
-107.9417653923151
 30
0.0
 11
631.3081395256023
 21
-107.9417653923151
 31
0.0
  0
LINE
  5
197
330
1F
100
AcDbEntity
  8
4
  6
________________
 62
     7
370
     0
100
AcDbLine
 10
631.3081395256023
 20
-222.9417653923151
 30
0.0
 11
654.5620319110924
 21
-222.9417653923151
 31
0.0
  0
LINE
  5
198
330
1F
100
AcDbEntity
  8
4
  6
________________
 62
     7
370
     0
100
AcDbLine
 10
650.169647543128
 20
-162.4580454278863
 30
0.0
 11
631.3081395256023
 21
-162.4580454278863
 31
0.0
  0
LINE
  5
199
330
1F
100
AcDbEntity
  8
4
  6
________________
 62
     7
370
     0
100
AcDbLine
 10
631.3081395256023
 20
-168.4254853567438
 30
0.0
 11
650.169647543128
 21
-168.4254853567438
 31
0.0
  0
LINE
  5
19A
330
1F
100
AcDbEntity
  8
4
  6
________________
 62
     7
370
     0
100
AcDbLine
 10
626.6128991959308
 20
-168.2717881148326
 30
0.0
 11
631.251403435596
 21
-168.4174542114076
 31
0.0
  0
LINE
  5
19B
330
1F
100
AcDbEntity
  8
4
  6
________________
 62
     7
370
     0
100
AcDbLine
 10
631.251403435596
 20
-162.4660765732226
 30
0.0
 11
626.6128991959308
 21
-162.6117426697976
 31
0.0
  0
ARC
  5
19C
330
1F
100
AcDbEntity
  8
4
  6
________________
 62
     7
370
     0
100
AcDbCircle
 10
626.669647543128
 20
-163.1037072678387
 30
0.0
 40
0.4999999999999998
100
AcDbArc
 50
91.79866306919634
 51
180.0000000000153
  0
ARC
  5
19D
330
1F
100
AcDbEntity
  8
4
  6
________________
 62
     7
370
     0
100
AcDbCircle
 10
626.669647543128
 20
-167.7798235167915
 30
0.0
 40
0.5000000000000004
100
AcDbArc
 50
179.9999999999999
 51
268.2013369308037
  0
ARC
  5
19E
330
1F
100
AcDbEntity
  8
4
  6
________________
 62
     7
370
     0
100
AcDbCircle
 10
631.3081395256023
 20
-207.4648254064312
 30
0.0
 40
0.5000000000000006
100
AcDbArc
 50
245.9677140947742
 51
270.0
  0
LINE
  5
19F
330
1F
100
AcDbEntity
  8
4
  6
________________
 62
     7
370
     0
100
AcDbLine
 10
631.3081395256023
 20
-207.9648254064312
 30
0.0
 11
650.169647543128
 21
-207.9648254064312
 31
0.0
  0
LINE
  5
1A0
330
1F
100
AcDbEntity
  8
4
  6
________________
 62
     7
370
     0
100
AcDbLine
 10
650.169647543128
 20
-122.918705378199
 30
0.0
 11
631.3081395256022
 21
-122.918705378199
 31
0.0
  0
ARC
  5
1A1
330
1F
100
AcDbEntity
  8
4
  6
________________
 62
     7
370
     0
100
AcDbCircle
 10
631.3081395256023
 20
-123.418705378199
 30
0.0
 40
0.5000000000000004
100
AcDbArc
 50
90.0
 51
114.0322859052291
  0
LINE
  5
1A2
330
1F
100
AcDbEntity
  8
4
  6
________________
 62
     7
370
     0
100
AcDbLine
 10
631.104437986545
 20
-122.9620812092755
 30
0.0
 11
626.465945215061
 21
-125.0304080122985
 31
0.0
  0
LINE
  5
1A3
330
1F
100
AcDbEntity
  8
4
  6
________________
 62
     7
370
     0
100
AcDbLine
 10
626.465945215061
 20
-205.8531227723317
 30
0.0
 11
631.104437986545
 21
-207.9214495753547
 31
0.0
  0
ARC
  5
1A4
330
1F
100
AcDbEntity
  8
4
  6
________________
 62
     7
370
     0
100
AcDbCircle
 10
626.669647543128
 20
-125.487031829092
 30
0.0
 40
0.4999999999999997
100
AcDbArc
 50
114.032372249153
 51
180.0000000000008
  0
ARC
  5
1A5
330
1F
100
AcDbEntity
  8
4
  6
________________
 62
     7
370
     0
100
AcDbCircle
 10
626.669647543128
 20
-205.3964989555382
 30
0.0
 40
0.5000000000000004
100
AcDbArc
 50
180.0
 51
245.967627750847
  0
LINE
  5
1A6
330
1F
100
AcDbEntity
  8
4
  6
________________
 62
     7
370
     0
100
AcDbLine
 10
626.1696713440591
 20
-197.7314080361862
 30
0.0
 11
626.1726154955477
 21
-197.7565611927693
 31
0.0
  0
LINE
  5
1A7
330
1F
100
AcDbEntity
  8
4
  6
________________
 62
     7
370
     0
100
AcDbLine
 10
626.1726154955476
 20
-133.126969591861
 30
0.0
 11
626.169671344059
 21
-133.1521227484442
 31
0.0
  0
LINE
  5
1A8
330
1F
100
AcDbEntity
  8
4
  6
________________
 62
     7
370
     0
100
AcDbLine
 10
626.1697243278675
 20
-130.2994172519016
 30
0.0
 11
626.1304730987885
 21
-130.4030714667421
 31
0.0
  0
LINE
  5
1A9
330
1F
100
AcDbEntity
  8
4
  6
________________
 62
     7
370
     0
100
AcDbLine
 10
626.1410478748177
 20
-200.4895300279131
 30
0.0
 11
626.1697575622143
 21
-200.571857544168
 31
0.0
  0
ARC
  5
1AA
330
1F
100
AcDbEntity
  8
4
  6
________________
 62
     7
370
     0
100
AcDbCircle
 10
631.3081395256023
 20
-222.4417653923151
 30
0.0
 40
0.499999999999996
100
AcDbArc
 50
239.0362434679278
 51
270.0
  0
ARC
  5
1AB
330
1F
100
AcDbEntity
  8
4
  6
________________
 62
     7
370
     0
100
AcDbCircle
 10
631.3081395256023
 20
-108.4417653923151
 30
0.0
 40
0.5000000000000004
100
AcDbArc
 50
90.0
 51
120.9637565320721
  0
LINE
  5
1AC
330
1F
100
AcDbEntity
  8
4
  6
________________
 62
     7
370
     0
100
AcDbLine
 10
631.0508916478885
 20
-108.0130189294588
 30
0.0
 11
626.4123996654142
 21
-110.7961141189434
 31
0.0
  0
LINE
  5
1AD
330
1F
100
AcDbEntity
  8
4
  6
________________
 62
     7
370
     0
100
AcDbLine
 10
626.4123996654142
 20
-220.0874166656868
 30
0.0
 11
631.0508916478885
 21
-222.8705118551714
 31
0.0
  0
ARC
  5
1AE
330
1F
100
AcDbEntity
  8
4
  6
________________
 62
     7
370
     0
100
AcDbCircle
 10
626.669647543128
 20
-111.2248605817996
 30
0.0
 40
0.499999999999996
100
AcDbArc
 50
120.9637565320722
 51
180.0
  0
ARC
  5
1AF
330
1F
100
AcDbEntity
  8
4
  6
________________
 62
     7
370
     0
100
AcDbCircle
 10
626.669647543128
 20
-219.6586702028306
 30
0.0
 40
0.5000000000000004
100
AcDbArc
 50
180.0
 51
239.0362434679278
  0
LINE
  5
1B0
330
1F
100
AcDbEntity
  8
4
  6
________________
 62
     7
370
     0
100
AcDbLine
 10
861.8274554556865
 20
-107.9504617021047
 30
0.0
 11
861.8274554556865
 21
-106.0371725987179
 31
0.0
  0
LINE
  5
1B1
330
1F
100
AcDbEntity
  8
4
  6
________________
 62
     7
370
     0
100
AcDbLine
 10
863.8274554556865
 20
-107.9504617021047
 30
0.0
 11
863.8274554556865
 21
-106.0371725987179
 31
0.0
  0
ARC
  5
1B2
330
1F
100
AcDbEntity
  8
4
  6
________________
 62
     7
370
     0
100
AcDbCircle
 10
-862.8274554556865
 20
-165.4417653923151
 30
0.0
 40
59.41300905503019
210
0.0
220
0.0
230
-1.0
100
AcDbArc
 50
89.03559025161613
 51
90.9644097483839
  0
CIRCLE
  5
1B3
330
1F
100
AcDbEntity
  8
4
  6
________________
 62
     7
370
     0
100
AcDbCircle
 10
862.8318189570282
 20
-165.0223387433289
 30
0.0
 40
59.86095006231847
  0
LINE
  5
1B4
330
1F
100
AcDbEntity
  8
4
  6
________________
 62
     7
370
     0
100
AcDbLine
 10
863.8274554556865
 20
-107.0510969321499
 30
0.0
 11
861.8274554556865
 21
-107.0510969321499
 31
0.0
  0
ARC
  5
1B5
330
1F
100
AcDbEntity
  8
4
  6
________________
 62
     7
370
     0
100
AcDbCircle
 10
862.8274554556865
 20
-165.4417653923151
 30
0.0
 40
57.49999999999999
100
AcDbArc
 50
0.0
 51
89.00350142326404
  0
LINE
  5
1B6
330
1F
100
AcDbEntity
  8
4
  6
________________
 62
     7
370
     0
100
AcDbLine
 10
863.8274554556865
 20
-108.9417653923151
 30
0.0
 11
862.8274554556865
 21
-108.9417653923151
 31
0.0
  0
LINE
  5
1B7
330
1F
100
AcDbEntity
  8
4
  6
________________
 62
     7
370
     0
100
AcDbLine
 10
863.8274554556865
 20
-107.9504617021047
 30
0.0
 11
863.8274554556865
 21
-108.9417653923151
 31
0.0
  0
ARC
  5
1B8
330
1F
100
AcDbEntity
  8
4
  6
________________
 62
     7
370
     0
100
AcDbCircle
 10
862.8274554556865
 20
-165.4417653923151
 30
0.0
 40
57.50000000000001
100
AcDbArc
 50
90.99649857673597
 51
0.0
  0
LINE
  5
1B9
330
1F
100
AcDbEntity
  8
4
  6
________________
 62
     7
370
     0
100
AcDbLine
 10
861.8274554556865
 20
-108.9417653923151
 30
0.0
 11
861.8274554556865
 21
-107.9504617021047
 31
0.0
  0
LINE
  5
1BA
330
1F
100
AcDbEntity
  8
4
  6
________________
 62
     7
370
     0
100
AcDbLine
 10
862.8274554556865
 20
-108.9417653923151
 30
0.0
 11
861.8274554556865
 21
-108.9417653923151
 31
0.0
  0
CIRCLE
  5
1BB
330
1F
100
AcDbEntity
  8
4
  6
________________
 62
     7
370
     0
100
AcDbCircle
 10
862.8274554556865
 20
-165.4417653923151
 30
0.0
 40
37.59999999999999
  0
ARC
  5
1BC
330
1F
100
AcDbEntity
  8
4
  6
________________
 62
     7
370
     0
100
AcDbCircle
 10
862.8274554556865
 20
-165.4417653923151
 30
0.0
 40
33.49999999999997
100
AcDbArc
 50
180.0
 51
0.0
  0
ARC
  5
1BD
330
1F
100
AcDbEntity
  8
4
  6
________________
 62
     7
370
     0
100
AcDbCircle
 10
862.8274554556865
 20
-165.4417653923151
 30
0.0
 40
33.49999999999997
100
AcDbArc
 50
0.0
 51
180.0
  0
MTEXT
  5
1BE
330
1F
100
AcDbEntity
  8
4
 62
     7
100
AcDbMText
 10
739.8113705686924
 20
-239.6166470777205
 30
0.0
 40
6.0
 41
0.0
 46
0.0
 71
     1
 72
     1
  1
{\FＭＳ ゴシック;BMHM-65P}
 73
     1
 44
1.0
  0
ENDSEC
  0
SECTION
  2
OBJECTS
  0
DICTIONARY
  5
C
330
0
100
AcDbDictionary
281
     1
  3
ACAD_GROUP
350
D
  3
ACAD_LAYOUT
350
1A
  3
ACAD_MLEADERSTYLE
350
1C0
  3
ACAD_MLINESTYLE
350
17
  3
ACAD_PLOTSETTINGS
350
19
  3
ACAD_PLOTSTYLENAME
350
E
  3
ACAD_TABLESTYLE
350
1BF
  3
ACAD_VISUALSTYLE
350
2A
  0
DICTIONARY
  5
D
102
{ACAD_REACTORS
330
C
102
}
330
C
100
AcDbDictionary
281
     1
  0
DICTIONARY
  5
1A
102
{ACAD_REACTORS
330
C
102
}
330
C
100
AcDbDictionary
281
     1
  3
Layout1
350
1E
  3
Layout2
350
26
  3
Model
350
22
  0
DICTIONARY
  5
1C0
102
{ACAD_REACTORS
330
C
102
}
330
C
100
AcDbDictionary
281
     1
  0
DICTIONARY
  5
17
102
{ACAD_REACTORS
330
C
102
}
330
C
100
AcDbDictionary
281
     1
  3
Standard
350
18
  0
DICTIONARY
  5
19
102
{ACAD_REACTORS
330
C
102
}
330
C
100
AcDbDictionary
281
     1
  0
ACDBDICTIONARYWDFLT
  5
E
102
{ACAD_REACTORS
330
C
102
}
330
C
100
AcDbDictionary
281
     1
  3
Normal
350
F
100
AcDbDictionaryWithDefault
340
F
  0
DICTIONARY
  5
1BF
102
{ACAD_REACTORS
330
C
102
}
330
C
100
AcDbDictionary
281
     1
  0
DICTIONARY
  5
2A
102
{ACAD_REACTORS
330
C
102
}
330
C
100
AcDbDictionary
281
     1
  3
2dWireframe
350
2F
  3
3D Hidden
350
31
  3
3dWireframe
350
30
  3
Basic
350
32
  3
Brighten
350
36
  3
ColorChange
350
3A
  3
Conceptual
350
34
  3
Dim
350
35
  3
Facepattern
350
39
  3
Flat
350
2B
  3
FlatWithEdges
350
2C
  3
Gouraud
350
2D
  3
GouraudWithEdges
350
2E
  3
Linepattern
350
38
  3
Realistic
350
33
  3
Thicken
350
37
  0
LAYOUT
  5
1E
102
{ACAD_REACTORS
330
1A
102
}
330
1A
100
AcDbPlotSettings
  1

  2
none_device
  4

  6

 40
0.0
 41
0.0
 42
0.0
 43
0.0
 44
0.0
 45
0.0
 46
0.0
 47
0.0
 48
0.0
 49
0.0
140
0.0
141
0.0
142
1.0
143
1.0
 70
   688
 72
     0
 73
     0
 74
     5
  7

 75
    16
 76
     0
 77
     2
 78
   300
147
1.0
148
0.0
149
0.0
100
AcDbLayout
  1
Layout1
 70
     1
 71
     1
 10
0.0
 20
0.0
 11
12.0
 21
9.0
 12
0.0
 22
0.0
 32
0.0
 14
1.000000000000000E+20
 24
1.000000000000000E+20
 34
1.000000000000000E+20
 15
-1.000000000000000E+20
 25
-1.000000000000000E+20
 35
-1.000000000000000E+20
146
0.0
 13
0.0
 23
0.0
 33
0.0
 16
1.0
 26
0.0
 36
0.0
 17
0.0
 27
1.0
 37
0.0
 76
     0
330
1B
  0
LAYOUT
  5
26
102
{ACAD_REACTORS
330
1A
102
}
330
1A
100
AcDbPlotSettings
  1

  2
none_device
  4

  6

 40
0.0
 41
0.0
 42
0.0
 43
0.0
 44
0.0
 45
0.0
 46
0.0
 47
0.0
 48
0.0
 49
0.0
140
0.0
141
0.0
142
1.0
143
1.0
 70
   688
 72
     0
 73
     0
 74
     5
  7

 75
    16
 76
     0
 77
     2
 78
   300
147
1.0
148
0.0
149
0.0
100
AcDbLayout
  1
Layout2
 70
     1
 71
     2
 10
0.0
 20
0.0
 11
0.0
 21
0.0
 12
0.0
 22
0.0
 32
0.0
 14
0.0
 24
0.0
 34
0.0
 15
0.0
 25
0.0
 35
0.0
146
0.0
 13
0.0
 23
0.0
 33
0.0
 16
1.0
 26
0.0
 36
0.0
 17
0.0
 27
1.0
 37
0.0
 76
     0
330
23
  0
LAYOUT
  5
22
102
{ACAD_REACTORS
330
1A
102
}
330
1A
100
AcDbPlotSettings
  1

  2
none_device
  4

  6

 40
0.0
 41
0.0
 42
0.0
 43
0.0
 44
0.0
 45
0.0
 46
0.0
 47
0.0
 48
0.0
 49
0.0
140
0.0
141
0.0
142
1.0
143
1.0
 70
  1712
 72
     0
 73
     0
 74
     0
  7

 75
     0
 76
     0
 77
     2
 78
   300
147
1.0
148
0.0
149
0.0
100
AcDbLayout
  1
Model
 70
     1
 71
     0
 10
0.0
 20
0.0
 11
12.0
 21
9.0
 12
0.0
 22
0.0
 32
0.0
 14
0.0
 24
-244.9348288959024
 34
0.0
 15
922.6927690193467
 25
10.0
 35
10.0
146
0.0
 13
0.0
 23
0.0
 33
0.0
 16
1.0
 26
0.0
 36
0.0
 17
0.0
 27
1.0
 37
0.0
 76
     0
330
1F
331
29
  0
MLINESTYLE
  5
18
102
{ACAD_REACTORS
330
17
102
}
330
17
100
AcDbMlineStyle
  2
Standard
 70
     0
  3

 62
   256
 51
90.0
 52
90.0
 71
     2
 49
0.5
 62
   256
  6
BYLAYER
 49
-0.5
 62
   256
  6
BYLAYER
  0
ACDBPLACEHOLDER
  5
F
102
{ACAD_REACTORS
330
E
102
}
330
E
  0
VISUALSTYLE
  5
2F
102
{ACAD_REACTORS
330
2A
102
}
330
2A
100
AcDbVisualStyle
  2
2dWireframe
 70
     4
 71
     0
 72
     2
 73
     0
 90
        0
 40
-0.6
 41
-30.0
 62
     5
 63
     7
421
 16777215
 74
     1
 91
        4
 64
     7
 65
   257
 75
     1
175
     1
 42
1.0
 92
        0
 66
   257
 43
1.0
 76
     1
 77
     6
 78
     2
 67
     7
 79
     5
170
     0
171
     0
290
     0
174
     0
 93
        1
 44
0.0
173
     0
291
     0
 45
0.0
  0
VISUALSTYLE
  5
31
102
{ACAD_REACTORS
330
2A
102
}
330
2A
100
AcDbVisualStyle
  2
3D Hidden
 70
     6
 71
     1
 72
     2
 73
     2
 90
        0
 40
-0.6
 41
-30.0
 62
     5
 63
     7
421
 16777215
 74
     2
 91
        2
 64
     7
 65
   257
 75
     2
175
     1
 42
40.0
 92
        0
 66
   257
 43
1.0
 76
     1
 77
     6
 78
     2
 67
     7
 79
     3
170
     0
171
     0
290
     0
174
     0
 93
        1
 44
0.0
173
     0
291
     0
 45
0.0
  0
VISUALSTYLE
  5
30
102
{ACAD_REACTORS
330
2A
102
}
330
2A
100
AcDbVisualStyle
  2
3dWireframe
 70
     5
 71
     0
 72
     2
 73
     0
 90
        0
 40
-0.6
 41
-30.0
 62
     5
 63
     7
421
 16777215
 74
     1
 91
        4
 64
     7
 65
   257
 75
     1
175
     1
 42
1.0
 92
        0
 66
   257
 43
1.0
 76
     1
 77
     6
 78
     2
 67
     7
 79
     5
170
     0
171
     0
290
     0
174
     0
 93
        1
 44
0.0
173
     0
291
     0
 45
0.0
  0
VISUALSTYLE
  5
32
102
{ACAD_REACTORS
330
2A
102
}
330
2A
100
AcDbVisualStyle
  2
Basic
 70
     7
 71
     1
 72
     0
 73
     1
 90
        0
 40
-0.6
 41
-30.0
 62
     5
 63
     7
421
 16777215
 74
     0
 91
        4
 64
     7
 65
   257
 75
     1
175
     1
 42
1.0
 92
        8
 66
     7
 43
1.0
 76
     1
 77
     6
 78
     2
 67
     7
 79
     5
170
     0
171
     0
290
     0
174
     0
 93
        1
 44
0.0
173
     0
291
     1
 45
0.0
  0
VISUALSTYLE
  5
36
102
{ACAD_REACTORS
330
2A
102
}
330
2A
100
AcDbVisualStyle
  2
Brighten
 70
    12
 71
     2
 72
     2
 73
     0
 90
        0
 40
-0.6
 41
-30.0
 62
     5
 63
     7
421
 16777215
 74
     1
 91
        4
 64
     7
 65
   257
 75
     1
175
     1
 42
1.0
 92
        8
 66
     7
 43
1.0
 76
     1
 77
     6
 78
     2
 67
     7
 79
     5
170
     0
171
     0
290
     0
174
     0
 93
        1
 44
50.0
173
     0
291
     1
 45
0.0
  0
VISUALSTYLE
  5
3A
102
{ACAD_REACTORS
330
2A
102
}
330
2A
100
AcDbVisualStyle
  2
ColorChange
 70
    16
 71
     2
 72
     2
 73
     3
 90
        0
 40
-0.6
 41
-30.0
 62
     5
 63
     8
421
  8421504
 74
     1
 91
        4
 64
     7
 65
   257
 75
     1
175
     1
 42
1.0
 92
        8
 66
     8
424
  8421504
 43
1.0
 76
     1
 77
     6
 78
     2
 67
     7
 79
     5
170
     0
171
     0
290
     0
174
     0
 93
        1
 44
0.0
173
     0
291
     1
 45
0.0
  0
VISUALSTYLE
  5
34
102
{ACAD_REACTORS
330
2A
102
}
330
2A
100
AcDbVisualStyle
  2
Conceptual
 70
     9
 71
     3
 72
     2
 73
     0
 90
        0
 40
-0.6
 41
-30.0
 62
     5
 63
     7
421
 16777215
 74
     2
 91
        2
 64
     7
 65
   257
 75
     1
175
     1
 42
40.0
 92
        8
 66
     7
 43
1.0
 76
     1
 77
     6
 78
     2
 67
     7
 79
     3
170
     0
171
     0
290
     0
174
     0
 93
        1
 44
0.0
173
     0
291
     0
 45
0.0
  0
VISUALSTYLE
  5
35
102
{ACAD_REACTORS
330
2A
102
}
330
2A
100
AcDbVisualStyle
  2
Dim
 70
    11
 71
     2
 72
     2
 73
     0
 90
        0
 40
-0.6
 41
-30.0
 62
     5
 63
     7
421
 16777215
 74
     1
 91
        4
 64
     7
 65
   257
 75
     1
175
     1
 42
1.0
 92
        8
 66
     7
 43
1.0
 76
     1
 77
     6
 78
     2
 67
     7
 79
     5
170
     0
171
     0
290
     0
174
     0
 93
        1
 44
-50.0
173
     0
291
     1
 45
0.0
  0
VISUALSTYLE
  5
39
102
{ACAD_REACTORS
330
2A
102
}
330
2A
100
AcDbVisualStyle
  2
Facepattern
 70
    15
 71
     2
 72
     2
 73
     0
 90
        0
 40
-0.6
 41
-30.0
 62
     5
 63
     7
421
 16777215
 74
     1
 91
        4
 64
     7
 65
   257
 75
     1
175
     1
 42
1.0
 92
        8
 66
     7
 43
1.0
 76
     1
 77
     6
 78
     2
 67
     7
 79
     5
170
     0
171
     0
290
     0
174
     0
 93
        1
 44
0.0
173
     0
291
     1
 45
0.0
  0
VISUALSTYLE
  5
2B
102
{ACAD_REACTORS
330
2A
102
}
330
2A
100
AcDbVisualStyle
  2
Flat
 70
     0
 71
     2
 72
     1
 73
     1
 90
        2
 40
-0.6
 41
30.0
 62
     5
 63
     7
421
 16777215
 74
     0
 91
        4
 64
     7
 65
   257
 75
     1
175
     1
 42
1.0
 92
        8
 66
     7
 43
1.0
 76
     1
 77
     6
 78
     2
 67
     7
 79
     5
170
     0
171
     0
290
     0
174
     0
 93
       13
 44
0.0
173
     0
291
     1
 45
0.0
  0
VISUALSTYLE
  5
2C
102
{ACAD_REACTORS
330
2A
102
}
330
2A
100
AcDbVisualStyle
  2
FlatWithEdges
 70
     1
 71
     2
 72
     1
 73
     1
 90
        2
 40
-0.6
 41
30.0
 62
     5
 63
     7
421
 16777215
 74
     1
 91
        4
 64
     7
 65
   257
 75
     1
175
     1
 42
1.0
 92
        0
 66
   257
 43
1.0
 76
     1
 77
     6
 78
     2
 67
     7
 79
     5
170
     0
171
     0
290
     0
174
     0
 93
       13
 44
0.0
173
     0
291
     1
 45
0.0
  0
VISUALSTYLE
  5
2D
102
{ACAD_REACTORS
330
2A
102
}
330
2A
100
AcDbVisualStyle
  2
Gouraud
 70
     2
 71
     2
 72
     2
 73
     1
 90
        2
 40
-0.6
 41
30.0
 62
     5
 63
     7
421
 16777215
 74
     0
 91
        4
 64
     7
 65
   257
 75
     1
175
     1
 42
1.0
 92
        0
 66
     7
 43
1.0
 76
     1
 77
     6
 78
     2
 67
     7
 79
     5
170
     0
171
     0
290
     0
174
     0
 93
       13
 44
0.0
173
     0
291
     1
 45
0.0
  0
VISUALSTYLE
  5
2E
102
{ACAD_REACTORS
330
2A
102
}
330
2A
100
AcDbVisualStyle
  2
GouraudWithEdges
 70
     3
 71
     2
 72
     2
 73
     1
 90
        2
 40
-0.6
 41
30.0
 62
     5
 63
     7
421
 16777215
 74
     1
 91
        4
 64
     7
 65
   257
 75
     1
175
     1
 42
1.0
 92
        0
 66
   257
 43
1.0
 76
     1
 77
     6
 78
     2
 67
     7
 79
     5
170
     0
171
     0
290
     0
174
     0
 93
       13
 44
0.0
173
     0
291
     1
 45
0.0
  0
VISUALSTYLE
  5
38
102
{ACAD_REACTORS
330
2A
102
}
330
2A
100
AcDbVisualStyle
  2
Linepattern
 70
    14
 71
     2
 72
     2
 73
     0
 90
        0
 40
-0.6
 41
-30.0
 62
     5
 63
     7
421
 16777215
 74
     1
 91
        4
 64
     7
 65
   257
 75
     7
175
     7
 42
1.0
 92
        8
 66
     7
 43
1.0
 76
     1
 77
     6
 78
     2
 67
     7
 79
     5
170
     0
171
     0
290
     0
174
     0
 93
        1
 44
0.0
173
     0
291
     1
 45
0.0
  0
VISUALSTYLE
  5
33
102
{ACAD_REACTORS
330
2A
102
}
330
2A
100
AcDbVisualStyle
  2
Realistic
 70
     8
 71
     2
 72
     2
 73
     0
 90
        0
 40
-0.6
 41
-30.0
 62
     5
 63
     7
421
 16777215
 74
     1
 91
        0
 64
     7
 65
   257
 75
     1
175
     1
 42
1.0
 92
        8
 66
     8
424
  7895160
 43
1.0
 76
     1
 77
     6
 78
     2
 67
     7
 79
     5
170
     0
171
     0
290
     0
174
     0
 93
       13
 44
0.0
173
     0
291
     0
 45
0.0
  0
VISUALSTYLE
  5
37
102
{ACAD_REACTORS
330
2A
102
}
330
2A
100
AcDbVisualStyle
  2
Thicken
 70
    13
 71
     2
 72
     2
 73
     0
 90
        0
 40
-0.6
 41
-30.0
 62
     5
 63
     7
421
 16777215
 74
     1
 91
        4
 64
     7
 65
   257
 75
     1
175
     1
 42
1.0
 92
       12
 66
     7
 43
1.0
 76
     1
 77
     6
 78
     2
 67
     7
 79
     5
170
     0
171
     0
290
     0
174
     0
 93
        1
 44
0.0
173
     0
291
     1
 45
0.0
  0
ENDSEC
  0
EOF
