  0
SECTION
  2
HEADER
  9
$ACADVER
  1
AC1021
  9
$ACADMAINTVER
 70
    25
  9
$DWGCODEPAGE
  3
ANSI_932
  9
$INSBASE
 10
0.0
 20
0.0
 30
0.0
  9
$EXTMIN
 10
0.0
 20
-455.9956588666776
 30
0.0
  9
$EXTMAX
 10
1502.5
 20
10.0
 30
10.0
  9
$LIMMIN
 10
0.0
 20
0.0
  9
$LIMMAX
 10
12.0
 20
9.0
  9
$ORTHOMODE
 70
     0
  9
$REGENMODE
 70
     1
  9
$FILLMODE
 70
     1
  9
$QTEXTMODE
 70
     0
  9
$MIRRTEXT
 70
     1
  9
$LTSCALE
 40
1.0
  9
$ATTMODE
 70
     1
  9
$TEXTSIZE
 40
0.2
  9
$TRACEWID
 40
0.05
  9
$TEXTSTYLE
  7
Standard
  9
$CLAYER
  8
0
  9
$CELTYPE
  6
ByLayer
  9
$CECOLOR
 62
   256
  9
$CELTSCALE
 40
1.0
  9
$DISPSILH
 70
     0
  9
$DIMSCALE
 40
1.0
  9
$DIMASZ
 40
3.0
  9
$DIMEXO
 40
0.0625
  9
$DIMDLI
 40
0.38
  9
$DIMRND
 40
0.0
  9
$DIMDLE
 40
0.0
  9
$DIMEXE
 40
0.18
  9
$DIMTP
 40
0.0
  9
$DIMTM
 40
0.0
  9
$DIMTXT
 40
3.0
  9
$DIMCEN
 40
0.09
  9
$DIMTSZ
 40
0.0
  9
$DIMTOL
 70
     0
  9
$DIMLIM
 70
     0
  9
$DIMTIH
 70
     1
  9
$DIMTOH
 70
     1
  9
$DIMSE1
 70
     0
  9
$DIMSE2
 70
     0
  9
$DIMTAD
 70
     1
  9
$DIMZIN
 70
     0
  9
$DIMBLK
  1

  9
$DIMASO
 70
     1
  9
$DIMSHO
 70
     1
  9
$DIMPOST
  1

  9
$DIMAPOST
  1

  9
$DIMALT
 70
     0
  9
$DIMALTD
 70
     2
  9
$DIMALTF
 40
25.4
  9
$DIMLFAC
 40
1.0
  9
$DIMTOFL
 70
     0
  9
$DIMTVP
 40
0.0
  9
$DIMTIX
 70
     0
  9
$DIMSOXD
 70
     0
  9
$DIMSAH
 70
     0
  9
$DIMBLK1
  1

  9
$DIMBLK2
  1

  9
$DIMSTYLE
  2
Standard
  9
$DIMCLRD
 70
     0
  9
$DIMCLRE
 70
     0
  9
$DIMCLRT
 70
     0
  9
$DIMTFAC
 40
1.0
  9
$DIMGAP
 40
0.09
  9
$DIMJUST
 70
     0
  9
$DIMSD1
 70
     0
  9
$DIMSD2
 70
     0
  9
$DIMTOLJ
 70
     1
  9
$DIMTZIN
 70
     0
  9
$DIMALTZ
 70
     0
  9
$DIMALTTZ
 70
     0
  9
$DIMUPT
 70
     0
  9
$DIMDEC
 70
     2
  9
$DIMTDEC
 70
     4
  9
$DIMALTU
 70
     2
  9
$DIMALTTD
 70
     2
  9
$DIMTXSTY
  7
Standard
  9
$DIMAUNIT
 70
     0
  9
$DIMADEC
 70
     2
  9
$DIMALTRND
 40
0.0
  9
$DIMAZIN
 70
     0
  9
$DIMDSEP
 70
    46
  9
$DIMATFIT
 70
     3
  9
$DIMFRAC
 70
     0
  9
$DIMLDRBLK
  1

  9
$DIMLUNIT
 70
     2
  9
$DIMLWD
 70
    -2
  9
$DIMLWE
 70
    -2
  9
$DIMTMOVE
 70
     0
  9
$DIMFXL
 40
1.0
  9
$DIMFXLON
 70
     0
  9
$DIMJOGANG
 40
0.7853981633974483
  9
$DIMTFILL
 70
     0
  9
$DIMTFILLCLR
 70
     0
  9
$DIMARCSYM
 70
     0
  9
$DIMLTYPE
  6

  9
$DIMLTEX1
  6

  9
$DIMLTEX2
  6

  9
$LUNITS
 70
     2
  9
$LUPREC
 70
     4
  9
$SKETCHINC
 40
0.1
  9
$FILLETRAD
 40
0.5
  9
$AUNITS
 70
     0
  9
$AUPREC
 70
     0
  9
$MENU
  1
.
  9
$ELEVATION
 40
0.0
  9
$PELEVATION
 40
0.0
  9
$THICKNESS
 40
0.0
  9
$LIMCHECK
 70
     0
  9
$CHAMFERA
 40
0.5
  9
$CHAMFERB
 40
0.5
  9
$CHAMFERC
 40
1.0
  9
$CHAMFERD
 40
0.0
  9
$SKPOLY
 70
     0
  9
$TDCREATE
 40
2459298.580993264
  9
$TDUCREATE
 40
2459298.205993264
  9
$TDUPDATE
 40
2459298.580993276
  9
$TDUUPDATE
 40
2459298.205993276
  9
$TDINDWG
 40
0.0000000116
  9
$TDUSRTIMER
 40
0.0000000116
  9
$USRTIMER
 70
     1
  9
$ANGBASE
 50
0.0
  9
$ANGDIR
 70
     0
  9
$PDMODE
 70
     0
  9
$PDSIZE
 40
0.0
  9
$PLINEWID
 40
0.0
  9
$SPLFRAME
 70
     0
  9
$SPLINETYPE
 70
     6
  9
$SPLINESEGS
 70
     8
  9
$HANDSEED
  5
1E6
  9
$SURFTAB1
 70
     6
  9
$SURFTAB2
 70
     6
  9
$SURFTYPE
 70
     6
  9
$SURFU
 70
     6
  9
$SURFV
 70
     6
  9
$UCSBASE
  2

  9
$UCSNAME
  2

  9
$UCSORG
 10
0.0
 20
0.0
 30
0.0
  9
$UCSXDIR
 10
1.0
 20
0.0
 30
0.0
  9
$UCSYDIR
 10
0.0
 20
1.0
 30
0.0
  9
$UCSORTHOREF
  2

  9
$UCSORTHOVIEW
 70
     0
  9
$UCSORGTOP
 10
0.0
 20
0.0
 30
0.0
  9
$UCSORGBOTTOM
 10
0.0
 20
0.0
 30
0.0
  9
$UCSORGLEFT
 10
0.0
 20
0.0
 30
0.0
  9
$UCSORGRIGHT
 10
0.0
 20
0.0
 30
0.0
  9
$UCSORGFRONT
 10
0.0
 20
0.0
 30
0.0
  9
$UCSORGBACK
 10
0.0
 20
0.0
 30
0.0
  9
$PUCSBASE
  2

  9
$PUCSNAME
  2

  9
$PUCSORG
 10
0.0
 20
0.0
 30
0.0
  9
$PUCSXDIR
 10
1.0
 20
0.0
 30
0.0
  9
$PUCSYDIR
 10
0.0
 20
1.0
 30
0.0
  9
$PUCSORTHOREF
  2

  9
$PUCSORTHOVIEW
 70
     0
  9
$PUCSORGTOP
 10
0.0
 20
0.0
 30
0.0
  9
$PUCSORGBOTTOM
 10
0.0
 20
0.0
 30
0.0
  9
$PUCSORGLEFT
 10
0.0
 20
0.0
 30
0.0
  9
$PUCSORGRIGHT
 10
0.0
 20
0.0
 30
0.0
  9
$PUCSORGFRONT
 10
0.0
 20
0.0
 30
0.0
  9
$PUCSORGBACK
 10
0.0
 20
0.0
 30
0.0
  9
$USERI1
 70
     0
  9
$USERI2
 70
     0
  9
$USERI3
 70
     0
  9
$USERI4
 70
     0
  9
$USERI5
 70
     0
  9
$USERR1
 40
0.0
  9
$USERR2
 40
0.0
  9
$USERR3
 40
0.0
  9
$USERR4
 40
0.0
  9
$USERR5
 40
0.0
  9
$WORLDVIEW
 70
     1
  9
$SHADEDGE
 70
     3
  9
$SHADEDIF
 70
    70
  9
$TILEMODE
 70
     1
  9
$MAXACTVP
 70
    64
  9
$PINSBASE
 10
0.0
 20
0.0
 30
0.0
  9
$PLIMCHECK
 70
     0
  9
$PEXTMIN
 10
1.000000000000000E+20
 20
1.000000000000000E+20
 30
1.000000000000000E+20
  9
$PEXTMAX
 10
-1.000000000000000E+20
 20
-1.000000000000000E+20
 30
-1.000000000000000E+20
  9
$PLIMMIN
 10
0.0
 20
0.0
  9
$PLIMMAX
 10
12.0
 20
9.0
  9
$UNITMODE
 70
     0
  9
$VISRETAIN
 70
     1
  9
$PLINEGEN
 70
     0
  9
$PSLTSCALE
 70
     1
  9
$TREEDEPTH
 70
  3020
  9
$CMLSTYLE
  2
Standard
  9
$CMLJUST
 70
     0
  9
$CMLSCALE
 40
1.0
  9
$PROXYGRAPHICS
 70
     1
  9
$MEASUREMENT
 70
     1
  9
$CELWEIGHT
370
    -1
  9
$ENDCAPS
280
     0
  9
$JOINSTYLE
280
     0
  9
$LWDISPLAY
290
     1
  9
$INSUNITS
 70
     4
  9
$HYPERLINKBASE
  1

  9
$STYLESHEET
  1

  9
$XEDIT
290
     1
  9
$CEPSNTYPE
380
     0
  9
$PSTYLEMODE
290
     1
  9
$FINGERPRINTGUID
  2
{A8850FA4-A8F8-4875-B3F2-0C2E36A86ABC}
  9
$VERSIONGUID
  2
{FAEB1C32-E019-11D5-929B-00C0DF256EC4}
  9
$EXTNAMES
290
     1
  9
$PSVPSCALE
 40
0.0
  9
$OLESTARTUP
290
     0
  9
$SORTENTS
280
   127
  9
$INDEXCTL
280
     0
  9
$HIDETEXT
280
     1
  9
$XCLIPFRAME
290
     0
  9
$HALOGAP
280
     0
  9
$OBSCOLOR
 70
   257
  9
$OBSLTYPE
280
     0
  9
$INTERSECTIONDISPLAY
280
     0
  9
$INTERSECTIONCOLOR
 70
   257
  9
$DIMASSOC
280
     2
  9
$PROJECTNAME
  1

  9
$CAMERADISPLAY
290
     0
  9
$LENSLENGTH
 40
50.0
  9
$CAMERAHEIGHT
 40
0.0
  9
$STEPSPERSEC
 40
2.0
  9
$STEPSIZE
 40
6.0
  9
$3DDWFPREC
 40
2.0
  9
$PSOLWIDTH
 40
0.25
  9
$PSOLHEIGHT
 40
4.0
  9
$LOFTANG1
 40
1.570796326794897
  9
$LOFTANG2
 40
1.570796326794897
  9
$LOFTMAG1
 40
0.0
  9
$LOFTMAG2
 40
0.0
  9
$LOFTPARAM
 70
     7
  9
$LOFTNORMALS
280
     1
  9
$LATITUDE
 40
37.795
  9
$LONGITUDE
 40
-122.394
  9
$NORTHDIRECTION
 40
0.0
  9
$TIMEZONE
 70
 -8000
  9
$LIGHTGLYPHDISPLAY
280
     1
  9
$TILEMODELIGHTSYNCH
280
     1
  9
$SOLIDHIST
280
     1
  9
$SHOWHIST
280
     1
  9
$DWFFRAME
280
     2
  9
$DGNFRAME
280
     2
  9
$REALWORLDSCALE
290
     1
  9
$INTERFERECOLOR
 62
   256
  9
$CSHADOW
280
     0
  9
$SHADOWPLANELOCATION
 40
0.0
  0
ENDSEC
  0
SECTION
  2
CLASSES
  0
CLASS
  1
ACDBDICTIONARYWDFLT
  2
AcDbDictionaryWithDefault
  3
ObjectDBX Classes
 90
        0
 91
        4
280
     0
281
     0
  0
CLASS
  1
VISUALSTYLE
  2
AcDbVisualStyle
  3
ObjectDBX Classes
 90
     4095
 91
        4
280
     0
281
     0
  0
ENDSEC
  0
SECTION
  2
TABLES
  0
TABLE
  2
VPORT
  5
8
330
0
100
AcDbSymbolTable
 70
     1
  0
VPORT
  5
29
330
8
100
AcDbSymbolTableRecord
100
AcDbViewportTableRecord
  2
*Active
 70
     0
 10
0.0
 20
0.0
 11
1.0
 21
1.0
 12
751.25
 22
-222.9978294333388
 13
0.0
 23
0.0
 14
0.5
 24
0.5
 15
0.5
 25
0.5
 16
0.0
 26
0.0
 36
1.0
 17
0.0
 27
0.0
 37
0.0
 40
465.9956588666776
 41
1.6
 42
50.0
 43
0.0
 44
0.0
 50
0.0
 51
0.0
 71
     0
 72
   100
 73
     1
 74
     3
 75
     0
 76
     0
 77
     0
 78
     0
281
     0
 65
     1
110
0.0
120
0.0
130
0.0
111
1.0
121
0.0
131
0.0
112
0.0
122
1.0
132
0.0
 79
     0
146
0.0
 60
     3
 61
     5
292
     1
282
     1
141
0.0
142
0.0
 63
   250
  0
ENDTAB
  0
TABLE
  2
LTYPE
  5
5
330
0
100
AcDbSymbolTable
 70
     2
  0
LTYPE
  5
14
330
5
100
AcDbSymbolTableRecord
100
AcDbLinetypeTableRecord
  2
ByBlock
 70
     0
  3

 72
    65
 73
     0
 40
0.0
  0
LTYPE
  5
15
330
5
100
AcDbSymbolTableRecord
100
AcDbLinetypeTableRecord
  2
ByLayer
 70
     0
  3

 72
    65
 73
     0
 40
0.0
  0
LTYPE
  5
16
330
5
100
AcDbSymbolTableRecord
100
AcDbLinetypeTableRecord
  2
Continuous
 70
     0
  3
Solid line
 72
    65
 73
     0
 40
0.0
  0
LTYPE
  5
3D
330
5
100
AcDbSymbolTableRecord
100
AcDbLinetypeTableRecord
  2
________________
 70
     0
  3

 72
    65
 73
     0
 40
0.0
  0
ENDTAB
  0
TABLE
  2
LAYER
  5
2
330
0
100
AcDbSymbolTable
 70
     2
  0
LAYER
  5
10
330
2
100
AcDbSymbolTableRecord
100
AcDbLayerTableRecord
  2
0
 70
     0
 62
     7
  6
Continuous
370
    -3
390
F
347
0
  0
LAYER
  5
3B
330
2
100
AcDbSymbolTableRecord
100
AcDbLayerTableRecord
  2
JIS B 0405-c 普通公差｢c｣粗級
 70
     0
 62
     7
  6
Continuous
370
    -3
390
F
347
0
  0
ENDTAB
  0
TABLE
  2
STYLE
  5
3
330
0
100
AcDbSymbolTable
 70
     1
  0
STYLE
  5
11
330
3
100
AcDbSymbolTableRecord
100
AcDbTextStyleTableRecord
  2
Standard
 70
     0
 40
0.0
 41
1.0
 50
0.0
 71
     0
 42
0.2
  3
txt
  4

  0
ENDTAB
  0
TABLE
  2
VIEW
  5
6
330
0
100
AcDbSymbolTable
 70
     0
  0
ENDTAB
  0
TABLE
  2
UCS
  5
7
330
0
100
AcDbSymbolTable
 70
     0
  0
ENDTAB
  0
TABLE
  2
APPID
  5
9
330
0
100
AcDbSymbolTable
 70
     1
  0
APPID
  5
12
330
9
100
AcDbSymbolTableRecord
100
AcDbRegAppTableRecord
  2
ACAD
 70
     0
  0
ENDTAB
  0
TABLE
  2
DIMSTYLE
  5
A
330
0
100
AcDbSymbolTable
 70
     1
100
AcDbDimStyleTable
  0
DIMSTYLE
105
27
330
A
100
AcDbSymbolTableRecord
100
AcDbDimStyleTableRecord
  2
Standard
 70
     0
340
11
  0
ENDTAB
  0
TABLE
  2
BLOCK_RECORD
  5
1
330
0
100
AcDbSymbolTable
 70
     1
  0
BLOCK_RECORD
  5
1F
330
1
100
AcDbSymbolTableRecord
100
AcDbBlockTableRecord
  2
*Model_Space
340
22
 70
     0
280
     1
281
     0
  0
BLOCK_RECORD
  5
1B
330
1
100
AcDbSymbolTableRecord
100
AcDbBlockTableRecord
  2
*Paper_Space
340
1E
 70
     0
280
     1
281
     0
  0
BLOCK_RECORD
  5
23
330
1
100
AcDbSymbolTableRecord
100
AcDbBlockTableRecord
  2
*Paper_Space0
340
26
 70
     0
280
     1
281
     0
  0
ENDTAB
  0
ENDSEC
  0
SECTION
  2
BLOCKS
  0
BLOCK
  5
20
330
1F
100
AcDbEntity
  8
0
100
AcDbBlockBegin
  2
*Model_Space
 70
     0
 10
0.0
 20
0.0
 30
0.0
  3
*Model_Space
  1

  0
ENDBLK
  5
21
330
1F
100
AcDbEntity
  8
0
100
AcDbBlockEnd
  0
BLOCK
  5
1C
330
1B
100
AcDbEntity
 67
     1
  8
0
100
AcDbBlockBegin
  2
*Paper_Space
 70
     0
 10
0.0
 20
0.0
 30
0.0
  3
*Paper_Space
  1

  0
ENDBLK
  5
1D
330
1B
100
AcDbEntity
 67
     1
  8
0
100
AcDbBlockEnd
  0
BLOCK
  5
24
330
23
100
AcDbEntity
  8
0
100
AcDbBlockBegin
  2
*Paper_Space0
 70
     0
 10
0.0
 20
0.0
 30
0.0
  3
*Paper_Space0
  1

  0
ENDBLK
  5
25
330
23
100
AcDbEntity
  8
0
100
AcDbBlockEnd
  0
ENDSEC
  0
SECTION
  2
ENTITIES
  0
LINE
  5
3C
330
1F
100
AcDbEntity
  8
JIS B 0405-c 普通公差｢c｣粗級
  6
________________
 62
     7
370
     0
100
AcDbLine
 10
1207.283199881904
 20
-305.0025953630904
 30
0.0
 11
1207.283199881904
 21
-435.0025953630904
 31
0.0
  0
LINE
  5
3E
330
1F
100
AcDbEntity
  8
JIS B 0405-c 普通公差｢c｣粗級
  6
________________
 62
     7
370
     0
100
AcDbLine
 10
1202.851445615353
 20
-417.9683987971391
 30
0.0
 11
1202.851445615353
 21
-434.9379355923991
 31
0.0
  0
LINE
  5
3F
330
1F
100
AcDbEntity
  8
JIS B 0405-c 普通公差｢c｣粗級
  6
________________
 62
     7
370
     0
100
AcDbLine
 10
1202.851445615353
 20
-372.9011448803354
 30
0.0
 11
1202.851445615353
 21
-413.8692307586412
 31
0.0
  0
LINE
  5
40
330
1F
100
AcDbEntity
  8
JIS B 0405-c 普通公差｢c｣粗級
  6
________________
 62
     7
370
     0
100
AcDbLine
 10
1202.851445615353
 20
-326.1359599675395
 30
0.0
 11
1202.851445615353
 21
-367.1040458458453
 31
0.0
  0
LINE
  5
41
330
1F
100
AcDbEntity
  8
JIS B 0405-c 普通公差｢c｣粗級
  6
________________
 62
     7
370
     0
100
AcDbLine
 10
1202.851445615353
 20
-305.0672551337817
 30
0.0
 11
1202.851445615353
 21
-322.0367919290416
 31
0.0
  0
ELLIPSE
  5
42
330
1F
100
AcDbEntity
  8
JIS B 0405-c 普通公差｢c｣粗級
  6
________________
 62
     7
370
     0
100
AcDbEllipse
 10
1179.989937597827
 20
-372.8788483455874
 30
0.0
 11
0.01569352271779678
 21
0.4997536526576973
 31
0.0
210
0.0
220
0.0
230
1.0
 40
0.5138020083496596
 41
3.141592653589793
 42
3.20263465778285
  0
LINE
  5
43
330
1F
100
AcDbEntity
  8
JIS B 0405-c 普通公差｢c｣粗級
  6
________________
 62
     7
370
     0
100
AcDbLine
 10
1179.989937597827
 20
-373.3788483455874
 30
0.0
 11
1179.989937597827
 21
-373.3781631129647
 31
0.0
  0
ELLIPSE
  5
44
330
1F
100
AcDbEntity
  8
JIS B 0405-c 普通公差｢c｣粗級
  6
________________
 62
     7
370
     0
100
AcDbEllipse
 10
1179.989937597827
 20
-367.1263423805934
 30
0.0
 11
-0.01569352271757474
 21
0.4997536526576972
 31
0.0
210
0.0
220
0.0
230
1.0
 40
0.5138020083501106
 41
0.0
 42
0.1481995224665296
  0
ELLIPSE
  5
45
330
1F
100
AcDbEntity
  8
JIS B 0405-c 普通公差｢c｣粗級
  6
________________
 62
     7
370
     0
100
AcDbEllipse
 10
1179.989937597827
 20
-367.1263423805934
 30
0.0
 11
-0.01569352271757474
 21
0.4997536526576972
 31
0.0
210
0.0
220
0.0
230
1.0
 40
0.513802008350114
 41
-0.0610420041929765
 42
0.0
  0
LINE
  5
46
330
1F
100
AcDbEntity
  8
JIS B 0405-c 普通公差｢c｣粗級
  6
________________
 62
     7
370
     0
100
AcDbLine
 10
1179.989937597827
 20
-366.6263423805934
 30
0.0
 11
1179.989937597827
 21
-366.6270276132161
 31
0.0
  0
ELLIPSE
  5
47
330
1F
100
AcDbEntity
  8
JIS B 0405-c 普通公差｢c｣粗級
  6
________________
 62
     7
370
     0
100
AcDbEllipse
 10
1179.989937597827
 20
-372.8788483455874
 30
0.0
 11
0.01569352271779678
 21
0.4997536526576973
 31
0.0
210
0.0
220
0.0
230
1.0
 40
0.5138020083496596
 41
2.993397532013736
 42
3.141592653589793
  0
ELLIPSE
  5
48
330
1F
100
AcDbEntity
  8
JIS B 0405-c 普通公差｢c｣粗級
  6
________________
 62
     7
370
     0
100
AcDbEllipse
 10
1175.351445615353
 20
-372.7331878235444
 30
0.0
 11
0.01569356616348827
 21
0.4997536512933998
 31
0.0
210
0.0
220
0.0
230
0.9999999999999998
 40
0.5138030552501945
 41
2.993358530960378
 42
3.141592653589806
  0
LINE
  5
49
330
1F
100
AcDbEntity
  8
JIS B 0405-c 普通公差｢c｣粗級
  6
________________
 62
     7
370
     0
100
AcDbLine
 10
1174.851445615353
 20
-372.7331878235444
 30
0.0
 11
1174.851445615353
 21
-367.2720029026366
 31
0.0
  0
ELLIPSE
  5
4A
330
1F
100
AcDbEntity
  8
JIS B 0405-c 普通公差｢c｣粗級
  6
________________
 62
     7
370
     0
100
AcDbEllipse
 10
1175.351445615353
 20
-367.2720029026364
 30
0.0
 11
-0.01569356616326623
 21
0.4997536512933998
 31
3.851859888774470E-34
210
2.417976720663163E-35
220
-7.699924174742281E-34
230
1.0
 40
0.5138030552502015
 41
0.0
 42
0.1482385243446683
  0
LINE
  5
4B
330
1F
100
AcDbEntity
  8
JIS B 0405-c 普通公差｢c｣粗級
  6
________________
 62
     7
370
     0
100
AcDbLine
 10
1202.851445615353
 20
-408.1800088497445
 30
0.0
 11
1192.264289872605
 21
-407.560222539576
 31
0.0
  0
LINE
  5
4C
330
1F
100
AcDbEntity
  8
JIS B 0405-c 普通公差｢c｣粗級
  6
________________
 62
     7
370
     0
100
AcDbLine
 10
1202.851445615353
 20
-331.8251818764363
 30
0.0
 11
1192.264289872605
 21
-332.4449681866048
 31
0.0
  0
LINE
  5
4D
330
1F
100
AcDbEntity
  8
JIS B 0405-c 普通公差｢c｣粗級
  6
________________
 62
     7
370
     0
100
AcDbLine
 10
1191.373352413571
 20
-332.9722613347153
 30
0.0
 11
1191.351445615353
 21
-333.1278360736644
 31
0.0
  0
ELLIPSE
  5
4E
330
1F
100
AcDbEntity
  8
JIS B 0405-c 普通公差｢c｣粗級
  6
________________
 62
     7
370
     0
100
AcDbEllipse
 10
1192.351445615353
 20
-333.1115525489905
 30
0.0
 11
1.000000000000112
 21
0.0
 31
-2.465190328815664E-32
210
2.465190328815388E-32
220
0.0
230
1.0
 40
0.669130606358795
 41
1.658062789394657
 42
2.931891659675566
  0
LINE
  5
4F
330
1F
100
AcDbEntity
  8
JIS B 0405-c 普通公差｢c｣粗級
  6
________________
 62
     7
370
     0
100
AcDbLine
 10
1191.351445615353
 20
-333.1278360736643
 30
0.0
 11
1191.351445615353
 21
-366.6263423805934
 31
0.0
  0
ELLIPSE
  5
50
330
1F
100
AcDbEntity
  8
JIS B 0405-c 普通公差｢c｣粗級
  6
________________
 62
     7
370
     0
100
AcDbEllipse
 10
1192.351445615353
 20
-406.8936381771904
 30
0.0
 11
1.000000000000112
 21
0.0
 31
-2.465190328815664E-32
210
-2.465190328815388E-32
220
0.0
230
-1.0
 40
0.669130606358795
 41
1.658062789394658
 42
2.931891659675566
  0
LINE
  5
51
330
1F
100
AcDbEntity
  8
JIS B 0405-c 普通公差｢c｣粗級
  6
________________
 62
     7
370
     0
100
AcDbLine
 10
1191.351445615353
 20
-406.8773546525163
 30
0.0
 11
1191.373352413571
 21
-407.0329293914655
 31
0.0
  0
LINE
  5
52
330
1F
100
AcDbEntity
  8
JIS B 0405-c 普通公差｢c｣粗級
  6
________________
 62
     7
370
     0
100
AcDbLine
 10
1191.351445615353
 20
-373.3788483455874
 30
0.0
 11
1191.351445615353
 21
-406.8773546525163
 31
0.0
  0
LINE
  5
53
330
1F
100
AcDbEntity
  8
JIS B 0405-c 普通公差｢c｣粗級
  6
________________
 62
     7
370
     0
100
AcDbLine
 10
1174.851445615353
 20
-373.7431329036728
 30
0.0
 11
1174.851445615353
 21
-372.7332064871928
 31
0.0
  0
LINE
  5
54
330
1F
100
AcDbEntity
  8
JIS B 0405-c 普通公差｢c｣粗級
  6
________________
 62
     7
370
     0
100
AcDbLine
 10
1174.851445615353
 20
-367.2719813328661
 30
0.0
 11
1174.851445615353
 21
-366.262057822508
 31
0.0
  0
LINE
  5
55
330
1F
100
AcDbEntity
  8
JIS B 0405-c 普通公差｢c｣粗級
  6
________________
 62
     7
370
     0
100
AcDbLine
 10
1174.851445615353
 20
-334.3074265051491
 30
0.0
 11
1174.851445615353
 21
-366.2620578225081
 31
0.0
  0
LINE
  5
56
330
1F
100
AcDbEntity
  8
JIS B 0405-c 普通公差｢c｣粗級
  6
________________
 62
     7
370
     0
100
AcDbLine
 10
1174.851445615353
 20
-373.7431329036728
 30
0.0
 11
1174.851445615353
 21
-405.6977642210319
 31
0.0
  0
LINE
  5
57
330
1F
100
AcDbEntity
  8
JIS B 0405-c 普通公差｢c｣粗級
  6
________________
 62
     7
370
     0
100
AcDbLine
 10
1174.851445615353
 20
-332.5961550542823
 30
0.0
 11
1174.851445615353
 21
-328.3357082758833
 31
0.0
  0
LINE
  5
58
330
1F
100
AcDbEntity
  8
JIS B 0405-c 普通公差｢c｣粗級
  6
________________
 62
     7
370
     0
100
AcDbLine
 10
1174.851445615353
 20
-411.6694824502976
 30
0.0
 11
1174.851445615353
 21
-407.4090356718984
 31
0.0
  0
LINE
  5
59
330
1F
100
AcDbEntity
  8
JIS B 0405-c 普通公差｢c｣粗級
  6
________________
 62
     7
370
     0
100
AcDbLine
 10
1174.851445615353
 20
-415.5311233411851
 30
0.0
 11
1174.851445615353
 21
-411.6694824502973
 31
0.0
  0
LINE
  5
5A
330
1F
100
AcDbEntity
  8
JIS B 0405-c 普通公差｢c｣粗級
  6
________________
 62
     7
370
     0
100
AcDbLine
 10
1174.851445615353
 20
-328.3357082758833
 30
0.0
 11
1174.851445615353
 21
-324.4740673849956
 31
0.0
  0
LINE
  5
5B
330
1F
100
AcDbEntity
  8
JIS B 0405-c 普通公差｢c｣粗級
  6
________________
 62
     7
370
     0
100
AcDbLine
 10
1174.851445615353
 20
-332.6945281362578
 30
0.0
 11
1174.851445615353
 21
-332.5961550542824
 31
0.0
  0
LINE
  5
5C
330
1F
100
AcDbEntity
  8
JIS B 0405-c 普通公差｢c｣粗級
  6
________________
 62
     7
370
     0
100
AcDbLine
 10
1174.851445615353
 20
-334.307426505149
 30
0.0
 11
1174.851445615353
 21
-332.7917708196017
 31
0.0
  0
LINE
  5
5D
330
1F
100
AcDbEntity
  8
JIS B 0405-c 普通公差｢c｣粗級
  6
________________
 62
     7
370
     0
100
AcDbLine
 10
1174.851445615353
 20
-332.7917708196017
 30
0.0
 11
1174.851445615353
 21
-332.6945281362578
 31
0.0
  0
LINE
  5
5E
330
1F
100
AcDbEntity
  8
JIS B 0405-c 普通公差｢c｣粗級
  6
________________
 62
     7
370
     0
100
AcDbLine
 10
1174.851445615353
 20
-407.3149733399687
 30
0.0
 11
1174.851445615353
 21
-407.2158416730971
 31
0.0
  0
LINE
  5
5F
330
1F
100
AcDbEntity
  8
JIS B 0405-c 普通公差｢c｣粗級
  6
________________
 62
     7
370
     0
100
AcDbLine
 10
1174.851445615353
 20
-407.2158416730971
 30
0.0
 11
1174.851445615353
 21
-405.6977642210319
 31
0.0
  0
LINE
  5
60
330
1F
100
AcDbEntity
  8
JIS B 0405-c 普通公差｢c｣粗級
  6
________________
 62
     7
370
     0
100
AcDbLine
 10
1174.851445615353
 20
-407.4090356718985
 30
0.0
 11
1174.851445615353
 21
-407.3149733399687
 31
0.0
  0
LINE
  5
61
330
1F
100
AcDbEntity
  8
JIS B 0405-c 普通公差｢c｣粗級
  6
________________
 62
     7
370
     0
100
AcDbLine
 10
1202.851445615353
 20
-426.9796523172952
 30
0.0
 11
1192.264289872605
 21
-426.0546656126237
 31
0.0
  0
LINE
  5
62
330
1F
100
AcDbEntity
  8
JIS B 0405-c 普通公差｢c｣粗級
  6
________________
 62
     7
370
     0
100
AcDbLine
 10
1202.851445615353
 20
-313.0255384088855
 30
0.0
 11
1192.264289872605
 21
-313.950525113557
 31
0.0
  0
ELLIPSE
  5
63
330
1F
100
AcDbEntity
  8
JIS B 0405-c 普通公差｢c｣粗級
  6
________________
 62
     7
370
     0
100
AcDbEllipse
 10
1192.351445615353
 20
-425.0598361647434
 30
0.0
 11
1.000000000000112
 21
5.551115123125783E-14
 31
0.0
210
0.0
220
0.0
230
-1.0
 40
0.9986295347544908
 41
1.658062789394698
 42
2.931891659675628
  0
LINE
  5
64
330
1F
100
AcDbEntity
  8
JIS B 0405-c 普通公差｢c｣粗級
  6
________________
 62
     7
370
     0
100
AcDbLine
 10
1191.363653424763
 20
-425.2153823755767
 30
0.0
 11
1191.373352413571
 21
-425.2677183318197
 31
0.0
  0
LINE
  5
65
330
1F
100
AcDbEntity
  8
JIS B 0405-c 普通公差｢c｣粗級
  6
________________
 62
     7
370
     0
100
AcDbLine
 10
1191.351445615353
 20
-425.0586852563345
 30
0.0
 11
1191.36366169169
 21
-425.2153810732004
 31
0.0
  0
LINE
  5
66
330
1F
100
AcDbEntity
  8
JIS B 0405-c 普通公差｢c｣粗級
  6
________________
 62
     7
370
     0
100
AcDbLine
 10
1191.351445615353
 20
-418.0994310784158
 30
0.0
 11
1191.351445615353
 21
-425.0586852563345
 31
0.0
  0
LINE
  5
67
330
1F
100
AcDbEntity
  8
JIS B 0405-c 普通公差｢c｣粗級
  6
________________
 62
     7
370
     0
100
AcDbLine
 10
1191.36366169169
 20
-314.7898096529803
 30
0.0
 11
1191.351445615353
 21
-314.9465054698463
 31
0.0
  0
LINE
  5
68
330
1F
100
AcDbEntity
  8
JIS B 0405-c 普通公差｢c｣粗級
  6
________________
 62
     7
370
     0
100
AcDbLine
 10
1191.373352413571
 20
-314.7374723943612
 30
0.0
 11
1191.363653424763
 21
-314.7898083506041
 31
0.0
  0
ELLIPSE
  5
69
330
1F
100
AcDbEntity
  8
JIS B 0405-c 普通公差｢c｣粗級
  6
________________
 62
     7
370
     0
100
AcDbEllipse
 10
1192.351445615353
 20
-314.9453545614374
 30
0.0
 11
1.000000000000112
 21
0.0
 31
-2.465190328815664E-32
210
2.465190328815388E-32
220
0.0
230
1.0
 40
0.9986295347544353
 41
1.658062789394643
 42
2.931891659675572
  0
LINE
  5
6A
330
1F
100
AcDbEntity
  8
JIS B 0405-c 普通公差｢c｣粗級
  6
________________
 62
     7
370
     0
100
AcDbLine
 10
1191.351445615353
 20
-314.9465054698462
 30
0.0
 11
1191.351445615353
 21
-321.905759647765
 31
0.0
  0
LINE
  5
6B
330
1F
100
AcDbEntity
  8
JIS B 0405-c 普通公差｢c｣粗級
  6
________________
 62
     7
370
     0
100
AcDbLine
 10
1174.851445615353
 20
-315.7814659124095
 30
0.0
 11
1174.851445615353
 21
-324.4740673849956
 31
0.0
  0
LINE
  5
6C
330
1F
100
AcDbEntity
  8
JIS B 0405-c 普通公差｢c｣粗級
  6
________________
 62
     7
370
     0
100
AcDbLine
 10
1174.851445615353
 20
-415.5311233411853
 30
0.0
 11
1174.851445615353
 21
-424.2237248137714
 31
0.0
  0
LINE
  5
6D
330
1F
100
AcDbEntity
  8
JIS B 0405-c 普通公差｢c｣粗級
  6
________________
 62
     7
370
     0
100
AcDbLine
 10
1174.851445615353
 20
-315.7814659124094
 30
0.0
 11
1174.851445615353
 21
-314.7045379432325
 31
0.0
  0
LINE
  5
6E
330
1F
100
AcDbEntity
  8
JIS B 0405-c 普通公差｢c｣粗級
  6
________________
 62
     7
370
     0
100
AcDbLine
 10
1174.851445615353
 20
-425.3006527829482
 30
0.0
 11
1174.851445615353
 21
-424.2237248137713
 31
0.0
  0
LINE
  5
6F
330
1F
100
AcDbEntity
  8
JIS B 0405-c 普通公差｢c｣粗級
  6
________________
 62
     7
370
     0
100
AcDbLine
 10
1174.851445615353
 20
-314.7045379432326
 30
0.0
 11
1174.851445615353
 21
-308.3461260820398
 31
0.0
  0
LINE
  5
70
330
1F
100
AcDbEntity
  8
JIS B 0405-c 普通公差｢c｣粗級
  6
________________
 62
     7
370
     0
100
AcDbLine
 10
1174.851445615353
 20
-431.659064644141
 30
0.0
 11
1174.851445615353
 21
-425.3006527829482
 31
0.0
  0
LINE
  5
71
330
1F
100
AcDbEntity
  8
JIS B 0405-c 普通公差｢c｣粗級
  6
________________
 62
     7
370
     0
100
AcDbLine
 10
1174.851445615353
 20
-308.3461260820396
 30
0.0
 11
1174.851445615353
 21
-308.2856905525748
 31
0.0
  0
LINE
  5
72
330
1F
100
AcDbEntity
  8
JIS B 0405-c 普通公差｢c｣粗級
  6
________________
 62
     7
370
     0
100
AcDbLine
 10
1174.851445615353
 20
-431.7195001736059
 30
0.0
 11
1174.851445615353
 21
-431.659064644141
 31
0.0
  0
LWPOLYLINE
  5
73
330
1F
100
AcDbEntity
  8
JIS B 0405-c 普通公差｢c｣粗級
  6
________________
 62
     7
370
     0
100
AcDbPolyline
 90
       38
 70
     0
 43
0.0
 10
1322.851415101034
 20
-306.0025953630904
 10
1322.849854609618
 20
-305.9540146557059
 10
1322.845987037623
 20
-305.9060533877297
 10
1322.839891595481
 20
-305.858816900683
 10
1322.831651305707
 20
-305.8124033863414
 10
1322.821352470065
 20
-305.7669038800271
 10
1322.809084154679
 20
-305.7224022867481
 10
1322.7949376945
 20
-305.6789754377928
 10
1322.779006218346
 20
-305.636693175399
 10
1322.761384195488
 20
-305.59561846313
 10
1322.742167004602
 20
-305.5558075196268
 10
1322.721450525677
 20
-305.5173099734479
 10
1322.699330755348
 20
-305.4801690367637
 10
1322.675903445895
 20
-305.4444216957359
 10
1322.651263768072
 20
-305.4100989154859
 10
1322.625505997722
 20
-305.3772258576333
 10
1322.59872322605
 20
-305.3458221084716
 10
1322.571007093303
 20
-305.3159019159363
 10
1322.542447545476
 20
-305.2874744336166
 10
1322.5131326136
 20
-305.2605439701529
 10
1322.48314821506
 20
-305.2351102424644
 10
1322.448874060757
 20
-305.2083955361103
 10
1322.413978795371
 20
-305.1835398902673
 10
1322.378572162511
 20
-305.1605247952971
 10
1322.342759616522
 20
-305.1393262225184
 10
1322.306642157497
 20
-305.1199150674203
 10
1322.27096616799
 20
-305.1025577335091
 10
1322.235176017507
 20
-305.0868560841154
 10
1322.199354228257
 20
-305.0727706499842
 10
1322.163578862714
 20
-305.060258790001
 10
1322.123074580717
 20
-305.0478930448794
 10
1322.082826117863
 20
-305.0374299728718
 10
1322.04292706592
 20
-305.0287955320541
 10
1322.003463716012
 20
-305.0219127721723
 10
1321.964515186162
 20
-305.0167023937912
 10
1321.92615357976
 20
-305.013083274283
 10
1321.888444171239
 20
-305.0109729602175
 10
1321.851445615353
 20
-305.0102881260027
  0
LINE
  5
74
330
1F
100
AcDbEntity
  8
JIS B 0405-c 普通公差｢c｣粗級
  6
________________
 62
     7
370
     0
100
AcDbLine
 10
1322.851445615353
 20
-306.0025953630904
 30
0.0
 11
1322.851445615353
 21
-434.0025953630904
 31
0.0
  0
LINE
  5
75
330
1F
100
AcDbEntity
  8
JIS B 0405-c 普通公差｢c｣粗級
  6
________________
 62
     7
370
     0
100
AcDbLine
 10
1321.851445615353
 20
-305.0102881260026
 30
0.0
 11
1316.851445615353
 21
-305.0102881260026
 31
0.0
  0
LINE
  5
76
330
1F
100
AcDbEntity
  8
JIS B 0405-c 普通公差｢c｣粗級
  6
________________
 62
     7
370
     0
100
AcDbLine
 10
1316.851445615353
 20
-305.0102881260027
 30
0.0
 11
1316.851445615353
 21
-435.0025953630904
 31
0.0
  0
LINE
  5
77
330
1F
100
AcDbEntity
  8
JIS B 0405-c 普通公差｢c｣粗級
  6
________________
 62
     7
370
     0
100
AcDbLine
 10
1323.051445615353
 20
-364.752777113131
 30
0.0
 11
1323.051445615353
 21
-365.1017801686522
 31
0.0
  0
LINE
  5
78
330
1F
100
AcDbEntity
  8
JIS B 0405-c 普通公差｢c｣粗級
  6
________________
 62
     7
370
     0
100
AcDbLine
 10
1322.851445615353
 20
-365.1017801686522
 30
0.0
 11
1323.051445615353
 21
-365.1017801686522
 31
0.0
  0
LINE
  5
79
330
1F
100
AcDbEntity
  8
JIS B 0405-c 普通公差｢c｣粗級
  6
________________
 62
     7
370
     0
100
AcDbLine
 10
1322.851445615353
 20
-364.7527771131323
 30
0.0
 11
1323.051445615353
 21
-364.7527771131323
 31
0.0
  0
LINE
  5
7A
330
1F
100
AcDbEntity
  8
JIS B 0405-c 普通公差｢c｣粗級
  6
________________
 62
     7
370
     0
100
AcDbLine
 10
1323.051445615353
 20
-362.5025953630904
 30
0.0
 11
1323.051445615353
 21
-364.7527771131324
 31
0.0
  0
LINE
  5
7B
330
1F
100
AcDbEntity
  8
JIS B 0405-c 普通公差｢c｣粗級
  6
________________
 62
     7
370
     0
100
AcDbLine
 10
1322.851445615353
 20
-362.5025953630904
 30
0.0
 11
1323.051445615353
 21
-362.5025953630904
 31
0.0
  0
LINE
  5
7C
330
1F
100
AcDbEntity
  8
JIS B 0405-c 普通公差｢c｣粗級
  6
________________
 62
     7
370
     0
100
AcDbLine
 10
1323.051445615353
 20
-366.3103303900093
 30
0.0
 11
1323.051445615353
 21
-373.7525953630903
 31
0.0
  0
LINE
  5
7D
330
1F
100
AcDbEntity
  8
JIS B 0405-c 普通公差｢c｣粗級
  6
________________
 62
     7
370
     0
100
AcDbLine
 10
1322.851445615353
 20
-373.7525953630904
 30
0.0
 11
1323.051445615353
 21
-373.7525953630904
 31
0.0
  0
LINE
  5
7E
330
1F
100
AcDbEntity
  8
JIS B 0405-c 普通公差｢c｣粗級
  6
________________
 62
     7
370
     0
100
AcDbLine
 10
1322.851445615353
 20
-365.9364038395754
 30
0.0
 11
1323.051445615353
 21
-365.9364038395754
 31
0.0
  0
LINE
  5
7F
330
1F
100
AcDbEntity
  8
JIS B 0405-c 普通公差｢c｣粗級
  6
________________
 62
     7
370
     0
100
AcDbLine
 10
1322.851445615353
 20
-365.7284953788666
 30
0.0
 11
1323.051445615353
 21
-365.7284953788661
 31
0.0
  0
LINE
  5
80
330
1F
100
AcDbEntity
  8
JIS B 0405-c 普通公差｢c｣粗級
  6
________________
 62
     7
370
     0
100
AcDbLine
 10
1323.051445615353
 20
-365.7284953788666
 30
0.0
 11
1323.051445615353
 21
-365.9364038395752
 31
0.0
  0
LINE
  5
81
330
1F
100
AcDbEntity
  8
JIS B 0405-c 普通公差｢c｣粗級
  6
________________
 62
     7
370
     0
100
AcDbLine
 10
1323.051445615353
 20
-365.1017801686522
 30
0.0
 11
1323.051445615353
 21
-365.7284953788661
 31
0.0
  0
LINE
  5
82
330
1F
100
AcDbEntity
  8
JIS B 0405-c 普通公差｢c｣粗級
  6
________________
 62
     7
370
     0
100
AcDbLine
 10
1323.051445615353
 20
-365.9364038395754
 30
0.0
 11
1323.051445615353
 21
-366.0556699714033
 31
0.0
  0
LINE
  5
83
330
1F
100
AcDbEntity
  8
JIS B 0405-c 普通公差｢c｣粗級
  6
________________
 62
     7
370
     0
100
AcDbLine
 10
1322.851445615353
 20
-366.0556699714033
 30
0.0
 11
1323.051445615353
 21
-366.0556699714033
 31
0.0
  0
LINE
  5
84
330
1F
100
AcDbEntity
  8
JIS B 0405-c 普通公差｢c｣粗級
  6
________________
 62
     7
370
     0
100
AcDbLine
 10
1322.851445615353
 20
-366.1713433852793
 30
0.0
 11
1323.051445615353
 21
-366.1713433852793
 31
0.0
  0
LINE
  5
85
330
1F
100
AcDbEntity
  8
JIS B 0405-c 普通公差｢c｣粗級
  6
________________
 62
     7
370
     0
100
AcDbLine
 10
1323.051445615353
 20
-366.0556699714033
 30
0.0
 11
1323.051445615353
 21
-366.1713433852794
 31
0.0
  0
LINE
  5
86
330
1F
100
AcDbEntity
  8
JIS B 0405-c 普通公差｢c｣粗級
  6
________________
 62
     7
370
     0
100
AcDbLine
 10
1323.051445615353
 20
-366.2268402667179
 30
0.0
 11
1323.051445615353
 21
-366.2525953630904
 31
0.0
  0
LINE
  5
87
330
1F
100
AcDbEntity
  8
JIS B 0405-c 普通公差｢c｣粗級
  6
________________
 62
     7
370
     0
100
AcDbLine
 10
1322.851445615353
 20
-366.2525953630904
 30
0.0
 11
1323.051445615353
 21
-366.2525953630904
 31
0.0
  0
LINE
  5
88
330
1F
100
AcDbEntity
  8
JIS B 0405-c 普通公差｢c｣粗級
  6
________________
 62
     7
370
     0
100
AcDbLine
 10
1322.851445615353
 20
-366.2268402667181
 30
0.0
 11
1323.051445615353
 21
-366.2268402667181
 31
0.0
  0
LINE
  5
89
330
1F
100
AcDbEntity
  8
JIS B 0405-c 普通公差｢c｣粗級
  6
________________
 62
     7
370
     0
100
AcDbLine
 10
1323.051445615353
 20
-366.1713433852793
 30
0.0
 11
1323.051445615353
 21
-366.226840266718
 31
0.0
  0
LINE
  5
8A
330
1F
100
AcDbEntity
  8
JIS B 0405-c 普通公差｢c｣粗級
  6
________________
 62
     7
370
     0
100
AcDbLine
 10
1323.051445615353
 20
-374.1275953630904
 30
0.0
 11
1323.051445615353
 21
-373.7525953630904
 31
0.0
  0
LINE
  5
8B
330
1F
100
AcDbEntity
  8
JIS B 0405-c 普通公差｢c｣粗級
  6
________________
 62
     7
370
     0
100
AcDbLine
 10
1322.851445615353
 20
-377.5025953630904
 30
0.0
 11
1323.051445615353
 21
-377.5025953630904
 31
0.0
  0
LINE
  5
8C
330
1F
100
AcDbEntity
  8
JIS B 0405-c 普通公差｢c｣粗級
  6
________________
 62
     7
370
     0
100
AcDbLine
 10
1323.051445615353
 20
-374.1275953630904
 30
0.0
 11
1323.051445615353
 21
-377.5025953630904
 31
0.0
  0
LINE
  5
8D
330
1F
100
AcDbEntity
  8
JIS B 0405-c 普通公差｢c｣粗級
  6
________________
 62
     7
370
     0
100
AcDbLine
 10
1323.051445615353
 20
-366.2891979034688
 30
0.0
 11
1323.051445615353
 21
-366.3103303900094
 31
0.0
  0
LINE
  5
8E
330
1F
100
AcDbEntity
  8
JIS B 0405-c 普通公差｢c｣粗級
  6
________________
 62
     7
370
     0
100
AcDbLine
 10
1299.851445615353
 20
-319.0096941029647
 30
0.0
 11
1299.851445615353
 21
-328.7413103187221
 31
0.0
  0
ARC
  5
8F
330
1F
100
AcDbEntity
  8
JIS B 0405-c 普通公差｢c｣粗級
  6
________________
 62
     7
370
     0
100
AcDbCircle
 10
1130.071508809569
 20
-319.8791658912422
 30
0.0
 40
1.501698307743638
100
AcDbArc
 50
144.330598843971
 51
176.3161505420937
  0
ARC
  5
90
330
1F
100
AcDbEntity
  8
JIS B 0405-c 普通公差｢c｣粗級
  6
________________
 62
     7
370
     0
100
AcDbCircle
 10
-1134.925736595521
 20
-420.1808752206661
 30
0.0
 40
1.351773868569558
210
0.0
220
0.0
230
-1.0
100
AcDbArc
 50
322.6099906530817
 51
357.7434739833748
  0
ARC
  5
91
330
1F
100
AcDbEntity
  8
JIS B 0405-c 普通公差｢c｣粗級
  6
________________
 62
     7
370
     0
100
AcDbCircle
 10
1139.816329379818
 20
-319.7878939540193
 30
0.0
 40
1.243464723832398
100
AcDbArc
 50
140.8843601797539
 51
179.7779352609664
  0
ARC
  5
92
330
1F
100
AcDbEntity
  8
JIS B 0405-c 普通公差｢c｣粗級
  6
________________
 62
     7
370
     0
100
AcDbCircle
 10
-1144.69949699521
 20
-420.2593484141723
 30
0.0
 40
1.127233150244794
210
0.0
220
0.0
230
-1.0
100
AcDbArc
 50
318.7993805936287
 51
1.895158259524806
  0
ARC
  5
93
330
1F
100
AcDbEntity
  8
JIS B 0405-c 普通公差｢c｣粗級
  6
________________
 62
     7
370
     0
100
AcDbCircle
 10
1149.584243201046
 20
-319.704998456495
 30
0.0
 40
1.014437210743493
100
AcDbArc
 50
136.2310052129009
 51
184.4333859212171
  0
ARC
  5
94
330
1F
100
AcDbEntity
  8
JIS B 0405-c 普通公差｢c｣粗級
  6
________________
 62
     7
370
     0
100
AcDbCircle
 10
-1154.468863257547
 20
-420.3460063609548
 30
0.0
 40
0.9006901742948731
210
0.0
220
0.0
230
-1.0
100
AcDbArc
 50
313.2524140824478
 51
7.119448304184401
  0
SPLINE
  5
95
330
1F
100
AcDbEntity
  8
JIS B 0405-c 普通公差｢c｣粗級
  6
________________
 62
     7
370
     0
100
AcDbSpline
210
0.0
220
0.0
230
1.0
 70
    12
 71
     3
 72
     9
 73
     5
 74
     0
 42
0.000000001
 43
0.0001
 40
2.475493046026353
 40
2.475493046026353
 40
2.475493046026353
 40
2.475493046026353
 40
2.47711409873953
 40
2.480050289408005
 40
2.480050289408005
 40
2.480050289408005
 40
2.480050289408005
 10
1158.851227875857
 20
-319.0030828738265
 30
0.0
 41
1.0
 10
1158.818212935443
 20
-319.0031039692936
 30
0.0
 41
1.0
 10
1158.725398483774
 20
-319.0956935177327
 30
0.0
 41
1.0
 10
1158.632584032105
 20
-319.4497228996333
 30
0.0
 41
1.0
 10
1158.572784520851
 20
-319.7838528682913
 30
0.0
 41
1.0
  0
SPLINE
  5
96
330
1F
100
AcDbEntity
  8
JIS B 0405-c 普通公差｢c｣粗級
  6
________________
 62
     7
370
     0
100
AcDbSpline
210
0.0
220
0.0
230
1.0
 70
    12
 71
     3
 72
     9
 73
     5
 74
     0
 42
0.000000001
 43
0.0001
 40
2.393655466520002
 40
2.393655466520002
 40
2.393655466520002
 40
2.393655466520002
 40
2.39504104125117
 40
2.398215567884306
 40
2.398215567884306
 40
2.398215567884306
 40
2.398215567884306
 10
1163.851428281032
 20
-421.0021971684707
 30
0.0
 41
1.0
 10
1163.823209169575
 20
-421.0022909305497
 30
0.0
 41
1.0
 10
1163.730336511207
 20
-420.9233992462477
 30
0.0
 41
1.0
 10
1163.63746385284
 20
-420.58260069595
 30
0.0
 41
1.0
 10
1163.572810305928
 20
-420.2214392481522
 30
0.0
 41
1.0
  0
SPLINE
  5
97
330
1F
100
AcDbEntity
  8
JIS B 0405-c 普通公差｢c｣粗級
  6
________________
 62
     7
370
     0
100
AcDbSpline
210
0.0
220
0.0
230
1.0
 70
    12
 71
     3
 72
     9
 73
     5
 74
     0
 42
0.000000001
 43
0.0001
 40
2.311811621951816
 40
2.311811621951816
 40
2.311811621951816
 40
2.311811621951816
 40
2.31296798376281
 40
2.316382806091399
 40
2.316382806091399
 40
2.316382806091399
 40
2.316382806091399
 10
1168.852011475689
 20
-319.0029120182652
 30
0.0
 41
1.0
 10
1168.828460596697
 20
-319.0025643124459
 30
0.0
 41
1.0
 10
1168.735362222557
 20
-319.0675041147499
 30
0.0
 41
1.0
 10
1168.642263848416
 20
-319.3957429785058
 30
0.0
 41
1.0
 10
1168.572716353268
 20
-319.7843054517857
 30
0.0
 41
1.0
  0
SPLINE
  5
98
330
1F
100
AcDbEntity
  8
JIS B 0405-c 普通公差｢c｣粗級
  6
________________
 62
     7
370
     0
100
AcDbSpline
210
0.0
220
0.0
230
1.0
 70
    12
 71
     3
 72
     9
 73
     5
 74
     0
 42
0.000000001
 43
0.0001
 40
2.229986058878701
 40
2.229986058878701
 40
2.229986058878701
 40
2.229986058878701
 40
2.23089492627445
 40
2.234506373037997
 40
2.234506373037997
 40
2.234506373037997
 40
2.234506373037997
 10
1173.851477687908
 20
-421.0023638072074
 30
0.0
 41
1.0
 10
1173.83296736886
 20
-421.0024269970944
 30
0.0
 41
1.0
 10
1173.740905030966
 20
-420.9511492563489
 30
0.0
 41
1.0
 10
1173.648842693072
 20
-420.6423066937818
 30
0.0
 41
1.0
 10
1173.575290674226
 20
-420.2351852449738
 30
0.0
 41
1.0
  0
ARC
  5
99
330
1F
100
AcDbEntity
  8
JIS B 0405-c 普通公差｢c｣粗級
  6
________________
 62
     7
370
     0
100
AcDbCircle
 10
1209.681620826295
 20
-319.740040506701
 30
0.0
 40
1.110143922408422
100
AcDbArc
 50
138.3858659325438
 51
182.3576993916756
  0
ARC
  5
9A
330
1F
100
AcDbEntity
  8
JIS B 0405-c 普通公差｢c｣粗級
  6
________________
 62
     7
370
     0
100
AcDbCircle
 10
-1214.655504428021
 20
-420.2811153973831
 30
0.0
 40
1.080309249553034
210
0.0
220
0.0
230
-1.0
100
AcDbArc
 50
318.117813835064
 51
2.210488548798935
  0
ARC
  5
9B
330
1F
100
AcDbEntity
  8
JIS B 0405-c 普通公差｢c｣粗級
  6
________________
 62
     7
370
     0
100
AcDbCircle
 10
1219.678705208951
 20
-319.7391284688033
 30
0.0
 40
1.107171312140022
100
AcDbArc
 50
138.3231554637284
 51
182.38124666657
  0
ARC
  5
9C
330
1F
100
AcDbEntity
  8
JIS B 0405-c 普通公差｢c｣粗級
  6
________________
 62
     7
370
     0
100
AcDbCircle
 10
-1224.677386502997
 20
-420.2663186770698
 30
0.0
 40
1.105901853472036
210
0.0
220
0.0
230
-1.0
100
AcDbArc
 50
318.2884924866434
 51
2.402327165635029
  0
ARC
  5
9D
330
1F
100
AcDbEntity
  8
JIS B 0405-c 普通公差｢c｣粗級
  6
________________
 62
     7
370
     0
100
AcDbCircle
 10
1229.68303216208
 20
-319.7405897410467
 30
0.0
 40
1.111544261311297
100
AcDbArc
 50
138.4353258305252
 51
182.3147887105608
  0
ARC
  5
9E
330
1F
100
AcDbEntity
  8
JIS B 0405-c 普通公差｢c｣粗級
  6
________________
 62
     7
370
     0
100
AcDbCircle
 10
-1234.645906217081
 20
-420.284849926611
 30
0.0
 40
1.070279884187137
210
0.0
220
0.0
230
-1.0
100
AcDbArc
 50
317.9295611331179
 51
2.273941108970803
  0
ARC
  5
9F
330
1F
100
AcDbEntity
  8
JIS B 0405-c 普通公差｢c｣粗級
  6
________________
 62
     7
370
     0
100
AcDbCircle
 10
1239.674839723903
 20
-319.7382236480117
 30
0.0
 40
1.103392937526988
100
AcDbArc
 50
138.2356197039198
 51
182.4333084793751
  0
ARC
  5
A0
330
1F
100
AcDbEntity
  8
JIS B 0405-c 普通公差｢c｣粗級
  6
________________
 62
     7
370
     0
100
AcDbCircle
 10
-1244.675730709546
 20
-420.2667605175826
 30
0.0
 40
1.104259849004674
210
0.0
220
0.0
230
-1.0
100
AcDbArc
 50
318.266719082242
 51
2.414823504099104
  0
ARC
  5
A1
330
1F
100
AcDbEntity
  8
JIS B 0405-c 普通公差｢c｣粗級
  6
________________
 62
     7
370
     0
100
AcDbCircle
 10
1249.678692399869
 20
-319.739351446926
 30
0.0
 40
1.107243988952601
100
AcDbArc
 50
138.3452406375094
 51
182.3738806900982
  0
ARC
  5
A2
330
1F
100
AcDbEntity
  8
JIS B 0405-c 普通公差｢c｣粗級
  6
________________
 62
     7
370
     0
100
AcDbCircle
 10
-1256.016152399728
 20
-419.785577914927
 30
0.0
 40
2.482064439201299
210
0.0
220
0.0
230
-1.0
100
AcDbArc
 50
330.6617973716863
 51
349.8992308401706
  0
ARC
  5
A3
330
1F
100
AcDbEntity
  8
JIS B 0405-c 普通公差｢c｣粗級
  6
________________
 62
     7
370
     0
100
AcDbCircle
 10
1260.863979226565
 20
-320.1622207162126
 30
0.0
 40
2.322371356489755
100
AcDbArc
 50
150.0710542732912
 51
170.6306893628673
  0
ARC
  5
A4
330
1F
100
AcDbEntity
  8
JIS B 0405-c 普通公差｢c｣粗級
  6
________________
 62
     7
370
     0
100
AcDbCircle
 10
-1265.697500665458
 20
-419.9021465640327
 30
0.0
 40
2.1486780704546
210
0.0
220
0.0
230
-1.0
100
AcDbArc
 50
329.2226248764198
 51
351.4426934679992
  0
ARC
  5
A5
330
1F
100
AcDbEntity
  8
JIS B 0405-c 普通公差｢c｣粗級
  6
________________
 62
     7
370
     0
100
AcDbCircle
 10
1270.539326855277
 20
-320.0467924882238
 30
0.0
 40
1.98415192180927
100
AcDbArc
 50
148.2794479110464
 51
172.3740426633263
  0
ARC
  5
A6
330
1F
100
AcDbEntity
  8
JIS B 0405-c 普通公差｢c｣粗級
  6
________________
 62
     7
370
     0
100
AcDbCircle
 10
-1275.386979410366
 20
-420.0130457156139
 30
0.0
 40
1.826134065526491
210
0.0
220
0.0
230
-1.0
100
AcDbArc
 50
327.2245314884473
 51
353.4043373094587
  0
ARC
  5
A7
330
1F
100
AcDbEntity
  8
JIS B 0405-c 普通公差｢c｣粗級
  6
________________
 62
     7
370
     0
100
AcDbCircle
 10
1280.243742865711
 20
-319.940725199792
 30
0.0
 40
1.678291204958953
100
AcDbArc
 50
146.0542538852043
 51
174.5900950099311
  0
ARC
  5
A8
330
1F
100
AcDbEntity
  8
JIS B 0405-c 普通公差｢c｣粗級
  6
________________
 62
     7
370
     0
100
AcDbCircle
 10
-1285.103198218983
 20
-420.1146515130073
 30
0.0
 40
1.534015189015764
210
0.0
220
0.0
230
-1.0
100
AcDbArc
 50
324.6738040198043
 51
355.9438678961301
  0
ARC
  5
A9
330
1F
100
AcDbEntity
  8
JIS B 0405-c 普通公差｢c｣粗級
  6
________________
 62
     7
370
     0
100
AcDbCircle
 10
1289.970542135852
 20
-319.8431772415616
 30
0.0
 40
1.398874541334689
100
AcDbArc
 50
143.1110776754257
 51
177.5058809559936
  0
ARC
  5
AA
330
1F
100
AcDbEntity
  8
JIS B 0405-c 普通公差｢c｣粗級
  6
________________
 62
     7
370
     0
100
AcDbCircle
 10
-1294.840602488516
 20
-420.2081256376386
 30
0.0
 40
1.267662880324773
210
0.0
220
0.0
230
-1.0
100
AcDbArc
 50
321.2397821030503
 51
359.3281026072092
  0
ARC
  5
AB
330
1F
100
AcDbEntity
  8
JIS B 0405-c 普通公差｢c｣粗級
  6
________________
 62
     7
370
     0
100
AcDbCircle
 10
1299.509417969051
 20
-319.7047120255495
 30
0.0
 40
0.9396584293732855
100
AcDbArc
 50
132.3159921249127
 51
184.7492918885763
  0
SPLINE
  5
AC
330
1F
100
AcDbEntity
  8
JIS B 0405-c 普通公差｢c｣粗級
  6
________________
 62
     7
370
     0
100
AcDbSpline
210
0.0
220
0.0
230
1.0
 70
    12
 71
     3
 72
    16
 73
    12
 74
     0
 42
0.000000001
 43
0.0001
 40
3.048329157494414
 40
3.048329157494414
 40
3.048329157494414
 40
3.048329157494414
 40
3.05162550115803
 40
3.05908668820243
 40
3.06654787524682
 40
3.07400906229122
 40
3.08147024933561
 40
3.08893143638001
 40
3.09639262342441
 40
3.1038538104688
 40
3.10561358848701
 40
3.10561358848701
 40
3.10561358848701
 40
3.10561358848701
 10
1127.351471358871
 20
-421.0016343539493
 30
0.0
 41
1.0
 10
1127.284336842667
 20
-421.001633060116
 30
0.0
 41
1.0
 10
1127.065245117613
 20
-420.5588860350443
 30
0.0
 41
1.0
 10
1126.694196183708
 20
-417.3568643639583
 30
0.0
 41
1.0
 10
1126.238324557159
 20
-409.5642265243636
 30
0.0
 41
1.0
 10
1125.782452930609
 20
-398.5479395934335
 30
0.0
 41
1.0
 10
1125.326581304058
 20
-385.2056572399464
 30
0.0
 41
1.0
 10
1124.870709677509
 20
-370.6245650809414
 30
0.0
 41
1.0
 10
1124.414838050959
 20
-355.9927921977873
 30
0.0
 41
1.0
 10
1124.075083363573
 20
-345.9387404302101
 30
0.0
 41
1.0
 10
1123.887285885038
 20
-340.9518365177091
 30
0.0
 41
1.0
 10
1123.851445615353
 20
-340.022889389136
 30
0.0
 41
1.0
  0
SPLINE
  5
AD
330
1F
100
AcDbEntity
  8
JIS B 0405-c 普通公差｢c｣粗級
  6
________________
 62
     7
370
     0
100
AcDbSpline
210
0.0
220
0.0
230
1.0
 70
    12
 71
     3
 72
    18
 73
    14
 74
     0
 42
0.000000001
 43
0.0001
 40
2.884656806922644
 40
2.884656806922644
 40
2.884656806922644
 40
2.884656806922644
 40
2.88747938618131
 40
2.89494057322571
 40
2.9024017602701
 40
2.90986294731451
 40
2.9173241343589
 40
2.92478532140329
 40
2.93224650844769
 40
2.93970769549209
 40
2.94716888253648
 40
2.95463006958088
 40
2.961931107340096
 40
2.961931107340096
 40
2.961931107340096
 40
2.961931107340096
 10
1137.351700576075
 20
-421.0017148452793
 30
0.0
 41
1.0
 10
1137.294214915503
 20
-421.0020834059482
 30
0.0
 41
1.0
 10
1137.08477204608
 20
-420.6408402873394
 30
0.0
 41
1.0
 10
1136.723371967808
 20
-417.7293200717559
 30
0.0
 41
1.0
 10
1136.267500341257
 20
-410.1677403812438
 30
0.0
 41
1.0
 10
1135.811628714707
 20
-399.3333347368846
 30
0.0
 41
1.0
 10
1135.355757088157
 20
-386.1089363506923
 30
0.0
 41
1.0
 10
1134.899885461607
 20
-371.5721251552861
 30
0.0
 41
1.0
 10
1134.444013835058
 20
-356.9074220317694
 30
0.0
 41
1.0
 10
1133.988142208507
 20
-343.3097690366535
 30
0.0
 41
1.0
 10
1133.532270581958
 20
-331.8871604673258
 30
0.0
 41
1.0
 10
1133.079660613133
 20
-323.6298636217443
 30
0.0
 41
1.0
 10
1132.779007853161
 20
-320.6133144859334
 30
0.0
 41
1.0
 10
1132.630312302038
 20
-319.7828911548612
 30
0.0
 41
1.0
  0
SPLINE
  5
AE
330
1F
100
AcDbEntity
  8
JIS B 0405-c 普通公差｢c｣粗級
  6
________________
 62
     7
370
     0
100
AcDbSpline
210
0.0
220
0.0
230
1.0
 70
    12
 71
     3
 72
    19
 73
    15
 74
     0
 42
0.000000001
 43
0.0001
 40
2.720994567418772
 40
2.720994567418772
 40
2.720994567418772
 40
2.720994567418772
 40
2.7233332712046
 40
2.73079445824899
 40
2.73825564529339
 40
2.74571683233779
 40
2.75317801938218
 40
2.76063920642658
 40
2.76810039347097
 40
2.77556158051537
 40
2.78302276755977
 40
2.79048395460417
 40
2.79794514164856
 40
2.798300989858606
 40
2.798300989858606
 40
2.798300989858606
 40
2.798300989858606
 10
1147.351312016386
 20
-421.0018461415178
 30
0.0
 41
1.0
 10
1147.303681137076
 20
-421.0018486256823
 30
0.0
 41
1.0
 10
1147.104093048916
 20
-420.7153295342473
 30
0.0
 41
1.0
 10
1146.752547751906
 20
-418.0857376292503
 30
0.0
 41
1.0
 10
1146.296676125356
 20
-410.7577570908402
 30
0.0
 41
1.0
 10
1145.840804498807
 20
-400.108873540739
 30
0.0
 41
1.0
 10
1145.384932872256
 20
-387.0068030657803
 30
0.0
 41
1.0
 10
1144.929061245707
 20
-372.5191578028096
 30
0.0
 41
1.0
 10
1144.473189619157
 20
-357.8264523847356
 30
0.0
 41
1.0
 10
1144.017317992606
 20
-344.1259106135074
 30
0.0
 41
1.0
 10
1143.561446366057
 20
-332.5339105993098
 30
0.0
 41
1.0
 10
1143.105574739506
 20
-323.9950175487736
 30
0.0
 41
1.0
 10
1142.794412989652
 20
-320.7255333527526
 30
0.0
 41
1.0
 10
1142.635208448648
 20
-319.8099562679247
 30
0.0
 41
1.0
 10
1142.627961116494
 20
-319.7698473969137
 30
0.0
 41
1.0
  0
SPLINE
  5
AF
330
1F
100
AcDbEntity
  8
JIS B 0405-c 普通公差｢c｣粗級
  6
________________
 62
     7
370
     0
100
AcDbSpline
210
0.0
220
0.0
230
1.0
 70
    12
 71
     3
 72
    19
 73
    15
 74
     0
 42
0.000000001
 43
0.0001
 40
2.557320408825842
 40
2.557320408825842
 40
2.557320408825842
 40
2.557320408825842
 40
2.55918715622789
 40
2.56664834327228
 40
2.57410953031668
 40
2.58157071736107
 40
2.58903190440547
 40
2.59649309144987
 40
2.60395427849426
 40
2.61141546553865
 40
2.61887665258305
 40
2.62633783962745
 40
2.63379902667185
 40
2.634593185581538
 40
2.634593185581538
 40
2.634593185581538
 40
2.634593185581538
 10
1157.351651702013
 20
-421.0020092536736
 30
0.0
 41
1.0
 10
1157.313632855527
 20
-421.0023035896484
 30
0.0
 41
1.0
 10
1157.123656800191
 20
-420.7858325764918
 30
0.0
 41
1.0
 10
1156.781723536006
 20
-418.4259972654242
 30
0.0
 41
1.0
 10
1156.325851909455
 20
-411.3340783831754
 30
0.0
 41
1.0
 10
1155.869980282906
 20
-400.8742953919333
 30
0.0
 41
1.0
 10
1155.414108656355
 20
-387.8989556649173
 30
0.0
 41
1.0
 10
1154.958237029805
 20
-373.4653447814356
 30
0.0
 41
1.0
 10
1154.502365403256
 20
-358.7495744245376
 30
0.0
 41
1.0
 10
1154.046493776705
 20
-344.9507478249751
 30
0.0
 41
1.0
 10
1153.590622150156
 20
-333.1932517565854
 30
0.0
 41
1.0
 10
1153.134750523606
 20
-324.4351367447074
 30
0.0
 41
1.0
 10
1152.814661980986
 20
-320.892748862957
 30
0.0
 41
1.0
 10
1152.646530647217
 20
-319.8735195346334
 30
0.0
 41
1.0
 10
1152.630356522298
 20
-319.783272585003
 30
0.0
 41
1.0
  0
SPLINE
  5
B0
330
1F
100
AcDbEntity
  8
JIS B 0405-c 普通公差｢c｣粗級
  6
________________
 62
     7
370
     0
100
AcDbSpline
210
0.0
220
0.0
230
1.0
 70
    12
 71
     3
 72
    19
 73
    15
 74
     0
 42
0.000000001
 43
0.0001
 40
2.393655875158578
 40
2.393655875158578
 40
2.393655875158578
 40
2.393655875158578
 40
2.39504104125117
 40
2.40250222829557
 40
2.40996341533996
 40
2.41742460238435
 40
2.42488578942876
 40
2.43234697647315
 40
2.43980816351755
 40
2.44726935056194
 40
2.45473053760634
 40
2.46219172465073
 40
2.46965291169513
 40
2.470952846719999
 40
2.470952846719999
 40
2.470952846719999
 40
2.470952846719999
 10
1167.351403313583
 20
-421.0021891846384
 30
0.0
 41
1.0
 10
1167.323192524607
 20
-421.0022687286826
 30
0.0
 41
1.0
 10
1167.14302452678
 20
-420.8491775677485
 30
0.0
 41
1.0
 10
1166.810899320104
 20
-418.7499846389901
 30
0.0
 41
1.0
 10
1166.355027693555
 20
-411.8965105904958
 30
0.0
 41
1.0
 10
1165.899156067004
 20
-401.6293430771198
 30
0.0
 41
1.0
 10
1165.443284440455
 20
-388.7850943479909
 30
0.0
 41
1.0
 10
1164.987412813904
 20
-374.4103681332685
 30
0.0
 41
1.0
 10
1164.531541187354
 20
-359.6764779440508
 30
0.0
 41
1.0
 10
1164.075669560805
 20
-345.7840034916925
 30
0.0
 41
1.0
 10
1163.619797934255
 20
-333.8649623732982
 30
0.0
 41
1.0
 10
1163.163926307705
 20
-324.8905684883736
 30
0.0
 41
1.0
 10
1162.833536947493
 20
-321.0505405383634
 30
0.0
 41
1.0
 10
1162.655104796132
 20
-319.9206165094835
 30
0.0
 41
1.0
 10
1162.628629853621
 20
-319.7738303107272
 30
0.0
 41
1.0
  0
LINE
  5
B1
330
1F
100
AcDbEntity
  8
JIS B 0405-c 普通公差｢c｣粗級
  6
________________
 62
     7
370
     0
100
AcDbLine
 10
1174.851445615353
 20
-369.9988912024562
 30
0.0
 11
1174.775348709208
 21
-367.5613298926561
 31
0.0
  0
LINE
  5
B2
330
1F
100
AcDbEntity
  8
JIS B 0405-c 普通公差｢c｣粗級
  6
________________
 62
     7
370
     0
100
AcDbLine
 10
1174.775348709208
 20
-367.5613298926561
 30
0.0
 11
1174.773493303455
 21
-367.5019437641013
 31
0.0
  0
SPLINE
  5
B3
330
1F
100
AcDbEntity
  8
JIS B 0405-c 普通公差｢c｣粗級
  6
________________
 62
     7
370
     0
100
AcDbSpline
210
0.0
220
0.0
230
1.0
 70
    12
 71
     3
 72
    13
 73
     9
 74
     0
 42
0.000000001
 43
0.0001
 40
2.272179568124793
 40
2.272179568124793
 40
2.272179568124793
 40
2.272179568124793
 40
2.27566204854083
 40
2.28312323558523
 40
2.29058442262962
 40
2.29804560967402
 40
2.30550679671842
 40
2.307258438495425
 40
2.307258438495425
 40
2.307258438495425
 40
2.307258438495425
 10
1174.773493303455
 20
-367.5019437641013
 30
0.0
 41
1.0
 10
1174.702567859454
 20
-365.2318913968962
 30
0.0
 41
1.0
 10
1174.479685206604
 20
-358.1216301542864
 30
0.0
 41
1.0
 10
1174.104845344904
 20
-346.625397605348
 30
0.0
 41
1.0
 10
1173.648973718353
 20
-334.5488167269427
 30
0.0
 41
1.0
 10
1173.193102091804
 20
-325.3611597359007
 30
0.0
 41
1.0
 10
1172.853513110022
 20
-321.2267779407233
 30
0.0
 41
1.0
 10
1172.665881337091
 20
-319.9816807794386
 30
0.0
 41
1.0
 10
1172.630206773009
 20
-319.7827749721463
 30
0.0
 41
1.0
  0
SPLINE
  5
B4
330
1F
100
AcDbEntity
  8
JIS B 0405-c 普通公差｢c｣粗級
  6
________________
 62
     7
370
     0
100
AcDbSpline
210
0.0
220
0.0
230
1.0
 70
    12
 71
     3
 72
    18
 73
    14
 74
     0
 42
0.000000001
 43
0.0001
 40
1.575317090399142
 40
1.575317090399142
 40
1.575317090399142
 40
1.575317090399142
 40
1.58177165341198
 40
1.58923284045638
 40
1.59669402750078
 40
1.60415521454517
 40
1.61161640158957
 40
1.61907758863397
 40
1.62653877567836
 40
1.63399996272276
 40
1.64146114976715
 40
1.64892233681155
 40
1.65258228901036
 40
1.65258228901036
 40
1.65258228901036
 40
1.65258228901036
 10
1217.351146069984
 20
-421.0023223580903
 30
0.0
 41
1.0
 10
1217.219690126856
 20
-421.0005078785394
 30
0.0
 41
1.0
 10
1216.936276974878
 20
-419.8691053738027
 30
0.0
 41
1.0
 10
1216.50090661405
 20
-414.4938872039725
 30
0.0
 41
1.0
 10
1216.0450349875
 20
-405.2402153169775
 30
0.0
 41
1.0
 10
1215.58916336095
 20
-393.1152330666126
 30
0.0
 41
1.0
 10
1215.1332917344
 20
-379.106935307147
 30
0.0
 41
1.0
 10
1214.67742010785
 20
-364.3567774087954
 30
0.0
 41
1.0
 10
1214.2215484813
 20
-350.0666646446802
 30
0.0
 41
1.0
 10
1213.76567685475
 20
-337.4010158639477
 30
0.0
 41
1.0
 10
1213.3098052282
 20
-327.391881717308
 30
0.0
 41
1.0
 10
1212.931350912579
 20
-321.9649848158041
 30
0.0
 41
1.0
 10
1212.704853805809
 20
-320.1999878485587
 30
0.0
 41
1.0
 10
1212.630313907888
 20
-319.7837945061125
 30
0.0
 41
1.0
  0
SPLINE
  5
B5
330
1F
100
AcDbEntity
  8
JIS B 0405-c 普通公差｢c｣粗級
  6
________________
 62
     7
370
     0
100
AcDbSpline
210
0.0
220
0.0
230
1.0
 70
    12
 71
     3
 72
    18
 73
    14
 74
     0
 42
0.000000001
 43
0.0001
 40
1.411637779267915
 40
1.411637779267915
 40
1.411637779267915
 40
1.411637779267915
 40
1.41762553843527
 40
1.42508672547966
 40
1.43254791252406
 40
1.44000909956845
 40
1.44747028661285
 40
1.45493147365725
 40
1.46239266070164
 40
1.46985384774604
 40
1.47731503479043
 40
1.48477622183483
 40
1.488926168986233
 40
1.488926168986233
 40
1.488926168986233
 40
1.488926168986233
 10
1227.351800570934
 20
-421.0021558959814
 30
0.0
 41
1.0
 10
1227.229851722189
 20
-421.001996309142
 30
0.0
 41
1.0
 10
1226.955945664594
 20
-419.9925138491046
 30
0.0
 41
1.0
 10
1226.530082398149
 20
-414.9691836037828
 30
0.0
 41
1.0
 10
1226.074210771599
 20
-405.9278176504897
 30
0.0
 41
1.0
 10
1225.618339145049
 20
-393.9591125864626
 30
0.0
 41
1.0
 10
1225.162467518499
 20
-380.0383291396236
 30
0.0
 41
1.0
 10
1224.706595891949
 20
-365.2997916437231
 30
0.0
 41
1.0
 10
1224.250724265399
 20
-350.944458492327
 30
0.0
 41
1.0
 10
1223.794852638849
 20
-338.1420629676819
 30
0.0
 41
1.0
 10
1223.338981012299
 20
-327.9357984237651
 30
0.0
 41
1.0
 10
1222.950547283899
 20
-322.1600676289917
 30
0.0
 41
1.0
 10
1222.714070764348
 20
-320.2503227390662
 30
0.0
 41
1.0
 10
1222.629551453647
 20
-319.7795155977533
 30
0.0
 41
1.0
  0
SPLINE
  5
B6
330
1F
100
AcDbEntity
  8
JIS B 0405-c 普通公差｢c｣粗級
  6
________________
 62
     7
370
     0
100
AcDbSpline
210
0.0
220
0.0
230
1.0
 70
    12
 71
     3
 72
    18
 73
    14
 74
     0
 42
0.000000001
 43
0.0001
 40
1.247975515354177
 40
1.247975515354177
 40
1.247975515354177
 40
1.247975515354177
 40
1.25347942345855
 40
1.26094061050295
 40
1.26840179754734
 40
1.27586298459174
 40
1.28332417163613
 40
1.29078535868053
 40
1.29824654572493
 40
1.30570773276932
 40
1.31316891981372
 40
1.32063010685812
 40
1.325248440435775
 40
1.325248440435775
 40
1.325248440435775
 40
1.325248440435775
 10
1237.351413502665
 20
-421.0019761692196
 30
0.0
 41
1.0
 10
1237.239318938043
 20
-421.0009831379892
 30
0.0
 41
1.0
 10
1236.97526716457
 20
-420.1057291242411
 30
0.0
 41
1.0
 10
1236.559258182248
 20
-415.4293693731184
 30
0.0
 41
1.0
 10
1236.103386555698
 20
-406.6033476258366
 30
0.0
 41
1.0
 10
1235.647514929148
 20
-394.7949417272781
 30
0.0
 41
1.0
 10
1235.191643302598
 20
-380.9663505511411
 30
0.0
 41
1.0
 10
1234.735771676048
 20
-366.2443862148959
 30
0.0
 41
1.0
 10
1234.279900049498
 20
-351.8286566609382
 30
0.0
 41
1.0
 10
1233.824028422948
 20
-338.8938165259323
 30
0.0
 41
1.0
 10
1233.368156796399
 20
-328.4938513110775
 30
0.0
 41
1.0
 10
1232.970183742207
 20
-322.3674809088869
 30
0.0
 41
1.0
 10
1232.724167896866
 20
-320.3076938875485
 30
0.0
 41
1.0
 10
1232.630109260376
 20
-319.7825437032491
 30
0.0
 41
1.0
  0
SPLINE
  5
B7
330
1F
100
AcDbEntity
  8
JIS B 0405-c 普通公差｢c｣粗級
  6
________________
 62
     7
370
     0
100
AcDbSpline
210
0.0
220
0.0
230
1.0
 70
    12
 71
     3
 72
    18
 73
    14
 74
     0
 42
0.000000001
 43
0.0001
 40
1.084303024594633
 40
1.084303024594633
 40
1.084303024594633
 40
1.084303024594633
 40
1.08933330848183
 40
1.09679449552623
 40
1.10425568257063
 40
1.11171686961502
 40
1.11917805665942
 40
1.12663924370381
 40
1.13410043074821
 40
1.14156161779261
 40
1.149022804837
 40
1.1564839918814
 40
1.161586714381357
 40
1.161586714381357
 40
1.161586714381357
 40
1.161586714381357
 10
1247.351651285215
 20
-421.0018183468125
 30
0.0
 41
1.0
 10
1247.249202721109
 20
-421.001501602826
 30
0.0
 41
1.0
 10
1246.994796948153
 20
-420.2153009609439
 30
0.0
 41
1.0
 10
1246.588433966347
 20
-415.8742898705585
 30
0.0
 41
1.0
 10
1246.132562339798
 20
-407.2665782370513
 30
0.0
 41
1.0
 10
1245.676690713247
 20
-395.6224396159537
 30
0.0
 41
1.0
 10
1245.220819086697
 20
-381.8906876881842
 30
0.0
 41
1.0
 10
1244.764947460147
 20
-367.1902436995316
 30
0.0
 41
1.0
 10
1244.309075833598
 20
-352.7189620234185
 30
0.0
 41
1.0
 10
1243.853204207048
 20
-339.6560239184613
 30
0.0
 41
1.0
 10
1243.397332580498
 20
-329.0658528504304
 30
0.0
 41
1.0
 10
1242.989494287949
 20
-322.5757549007564
 30
0.0
 41
1.0
 10
1242.733613204249
 20
-320.3595834172632
 30
0.0
 41
1.0
 10
1242.6296893294
 20
-319.7800709570982
 30
0.0
 41
1.0
  0
SPLINE
  5
B8
330
1F
100
AcDbEntity
  8
JIS B 0405-c 普通公差｢c｣粗級
  6
________________
 62
     7
370
     0
100
AcDbSpline
210
0.0
220
0.0
230
1.0
 70
    12
 71
     3
 72
    18
 73
    14
 74
     0
 42
0.000000001
 43
0.0001
 40
0.9206224179372755
 40
0.9206224179372755
 40
0.9206224179372755
 40
0.9206224179372755
 40
0.925187193505118
 40
0.932648380549514
 40
0.940109567593911
 40
0.947570754638307
 40
0.955031941682703
 40
0.962493128727099
 40
0.969954315771495
 40
0.977415502815892
 40
0.984876689860288
 40
0.992337876904684
 40
0.9979117810731691
 40
0.9979117810731691
 40
0.9979117810731691
 40
0.9979117810731691
 10
1257.352384941612
 20
-421.0016922149415
 30
0.0
 41
1.0
 10
1257.25941708674
 20
-421.0029164230883
 30
0.0
 41
1.0
 10
1257.014492023019
 20
-420.3204796100743
 30
0.0
 41
1.0
 10
1256.617609750447
 20
-416.3037955844429
 30
0.0
 41
1.0
 10
1256.161738123896
 20
-407.9172866112624
 30
0.0
 41
1.0
 10
1255.705866497347
 20
-396.4413281790283
 30
0.0
 41
1.0
 10
1255.249994870797
 20
-382.8110299353055
 30
0.0
 41
1.0
 10
1254.794123244247
 20
-368.1370462504581
 30
0.0
 41
1.0
 10
1254.338251617697
 20
-353.6150754004018
 30
0.0
 41
1.0
 10
1253.882379991147
 20
-340.4284290121103
 30
0.0
 41
1.0
 10
1253.426508364597
 20
-329.6516108256872
 30
0.0
 41
1.0
 10
1253.009073817352
 20
-322.794188229572
 30
0.0
 41
1.0
 10
1252.743596478957
 20
-320.4160558493905
 30
0.0
 41
1.0
 10
1252.630076349412
 20
-319.7820684044389
 30
0.0
 41
1.0
  0
SPLINE
  5
B9
330
1F
100
AcDbEntity
  8
JIS B 0405-c 普通公差｢c｣粗級
  6
________________
 62
     7
370
     0
100
AcDbSpline
210
0.0
220
0.0
230
1.0
 70
    12
 71
     3
 72
    18
 73
    14
 74
     0
 42
0.000000001
 43
0.0001
 40
0.7569696897030264
 40
0.7569696897030264
 40
0.7569696897030264
 40
0.7569696897030264
 40
0.761041078528405
 40
0.768502265572801
 40
0.775963452617197
 40
0.783424639661593
 40
0.790885826705989
 40
0.798347013750385
 40
0.805808200794781
 40
0.813269387839177
 40
0.820730574883573
 40
0.828191761927969
 40
0.8342425234741283
 40
0.8342425234741283
 40
0.8342425234741283
 40
0.8342425234741283
 10
1267.351415252147
 20
-421.0016247980837
 30
0.0
 41
1.0
 10
1267.268495888464
 20
-421.001258476701
 30
0.0
 41
1.0
 10
1267.03361931593
 20
-420.4140126991273
 30
0.0
 41
1.0
 10
1266.646785534546
 20
-416.7177421831151
 30
0.0
 41
1.0
 10
1266.190913907996
 20
-408.5552540835823
 30
0.0
 41
1.0
 10
1265.735042281446
 20
-397.2513322361268
 30
0.0
 41
1.0
 10
1265.279170654896
 20
-383.7270680195025
 30
0.0
 41
1.0
 10
1264.823299028346
 20
-369.0844757029181
 30
0.0
 41
1.0
 10
1264.367427401796
 20
-354.5166956607866
 30
0.0
 41
1.0
 10
1263.911555775246
 20
-341.2107722468704
 30
0.0
 41
1.0
 10
1263.455684148696
 20
-330.2509283979785
 30
0.0
 41
1.0
 10
1263.028537753229
 20
-323.0167133582145
 30
0.0
 41
1.0
 10
1262.753348566612
 20
-320.4704500565715
 30
0.0
 41
1.0
 10
1262.630116588845
 20
-319.7821180802761
 30
0.0
 41
1.0
  0
SPLINE
  5
BA
330
1F
100
AcDbEntity
  8
JIS B 0405-c 普通公差｢c｣粗級
  6
________________
 62
     7
370
     0
100
AcDbSpline
210
0.0
220
0.0
230
1.0
 70
    12
 71
     3
 72
    18
 73
    14
 74
     0
 42
0.000000001
 43
0.0001
 40
0.5932989910509072
 40
0.5932989910509072
 40
0.5932989910509072
 40
0.5932989910509072
 40
0.596894963551691
 40
0.604356150596087
 40
0.611817337640483
 40
0.619278524684879
 40
0.626739711729275
 40
0.634200898773671
 40
0.641662085818068
 40
0.649123272862464
 40
0.65658445990686
 40
0.664045646951256
 40
0.6705726599872023
 40
0.6705726599872023
 40
0.6705726599872023
 40
0.6705726599872023
 10
1277.351543538591
 20
-421.0016121789365
 30
0.0
 41
1.0
 10
1277.278306674125
 20
-421.0016253837342
 30
0.0
 41
1.0
 10
1277.05311260081
 20
-420.505289636122
 30
0.0
 41
1.0
 10
1276.675961318645
 20
-417.1159905634256
 30
0.0
 41
1.0
 10
1276.220089692095
 20
-409.1802662705997
 30
0.0
 41
1.0
 10
1275.764218065545
 20
-398.0521795924412
 30
0.0
 41
1.0
 10
1275.308346438995
 20
-384.6384941141552
 30
0.0
 41
1.0
 10
1274.852474812445
 20
-370.0322136814949
 30
0.0
 41
1.0
 10
1274.396603185895
 20
-355.4235198229366
 30
0.0
 41
1.0
 10
1273.940731559345
 20
-342.0027907231099
 30
0.0
 41
1.0
 10
1273.484859932795
 20
-330.8636041718526
 30
0.0
 41
1.0
 10
1273.048014028836
 20
-323.2454190747363
 30
0.0
 41
1.0
 10
1272.763125333727
 20
-320.5249826666846
 30
0.0
 41
1.0
 10
1272.630193847468
 20
-319.7823869552229
 30
0.0
 41
1.0
  0
SPLINE
  5
BB
330
1F
100
AcDbEntity
  8
JIS B 0405-c 普通公差｢c｣粗級
  6
________________
 62
     7
370
     0
100
AcDbSpline
210
0.0
220
0.0
230
1.0
 70
    12
 71
     3
 72
    18
 73
    14
 74
     0
 42
0.000000001
 43
0.0001
 40
0.4296289055821241
 40
0.4296289055821241
 40
0.4296289055821241
 40
0.4296289055821241
 40
0.432748848574977
 40
0.440210035619374
 40
0.447671222663769
 40
0.455132409708166
 40
0.462593596752562
 40
0.470054783796958
 40
0.477515970841354
 40
0.48497715788575
 40
0.492438344930146
 40
0.499899531974542
 40
0.5069011123877915
 40
0.5069011123877915
 40
0.5069011123877915
 40
0.5069011123877915
 10
1287.3516343601
 20
-421.0016581472169
 30
0.0
 41
1.0
 10
1287.288092483165
 20
-421.0019104206074
 30
0.0
 41
1.0
 10
1287.072593397379
 20
-420.5905309336769
 30
0.0
 41
1.0
 10
1286.705137102744
 20
-417.4984068974742
 30
0.0
 41
1.0
 10
1286.249265476194
 20
-409.792113142411
 30
0.0
 41
1.0
 10
1285.793393849644
 20
-398.8436011301905
 30
0.0
 41
1.0
 10
1285.337522223095
 20
-385.5450019424609
 30
0.0
 41
1.0
 10
1284.881650596544
 20
-370.9799417070939
 30
0.0
 41
1.0
 10
1284.425778969994
 20
-356.3352431564884
 30
0.0
 41
1.0
 10
1283.969907343444
 20
-342.8042182899172
 30
0.0
 41
1.0
 10
1283.514035716895
 20
-331.4894322629511
 30
0.0
 41
1.0
 10
1283.067524603681
 20
-323.4807530523995
 30
0.0
 41
1.0
 10
1282.772970699318
 20
-320.5800850684289
 30
0.0
 41
1.0
 10
1282.630374003805
 20
-319.7832735341751
 30
0.0
 41
1.0
  0
SPLINE
  5
BC
330
1F
100
AcDbEntity
  8
JIS B 0405-c 普通公差｢c｣粗級
  6
________________
 62
     7
370
     0
100
AcDbSpline
210
0.0
220
0.0
230
1.0
 70
    12
 71
     3
 72
    19
 73
    15
 74
     0
 42
0.000000001
 43
0.0001
 40
0.265952487776604
 40
0.265952487776604
 40
0.265952487776604
 40
0.265952487776604
 40
0.268602733598261
 40
0.276063920642658
 40
0.283525107687054
 40
0.29098629473145
 40
0.298447481775846
 40
0.305908668820242
 40
0.313369855864639
 40
0.320831042909035
 40
0.328292229953431
 40
0.335753416997827
 40
0.343214604042223
 40
0.343229616723596
 40
0.343229616723596
 40
0.343229616723596
 40
0.343229616723596
 10
1297.352112081525
 20
-421.0017538446657
 30
0.0
 41
1.0
 10
1297.298136225481
 20
-421.0025782682935
 30
0.0
 41
1.0
 10
1297.092203160587
 20
-420.6708951287741
 30
0.0
 41
1.0
 10
1296.734312886843
 20
-417.8648626775821
 30
0.0
 41
1.0
 10
1296.278441260293
 20
-410.3905890932032
 30
0.0
 41
1.0
 10
1295.822569633744
 20
-399.625330899059
 30
0.0
 41
1.0
 10
1295.366698007194
 20
-386.4462868803585
 30
0.0
 41
1.0
 10
1294.910826380643
 20
-371.9273413039654
 30
0.0
 41
1.0
 10
1294.454954754094
 20
-357.2515592847558
 30
0.0
 41
1.0
 10
1293.999083127544
 20
-343.6147856345375
 30
0.0
 41
1.0
 10
1293.543211500993
 20
-332.1282023671937
 30
0.0
 41
1.0
 10
1293.087339874444
 20
-323.7277848868067
 30
0.0
 41
1.0
 10
1292.783119703096
 20
-320.6381796177141
 30
0.0
 41
1.0
 10
1292.630856740597
 20
-319.7859290358712
 30
0.0
 41
1.0
 10
1292.630550986949
 20
-319.7842204617639
 30
0.0
 41
1.0
  0
SPLINE
  5
BD
330
1F
100
AcDbEntity
  8
JIS B 0405-c 普通公差｢c｣粗級
  6
________________
 62
     7
370
     0
100
AcDbSpline
210
0.0
220
0.0
230
1.0
 70
    12
 71
     3
 72
    10
 73
     6
 74
     0
 42
0.000000001
 43
0.0001
 40
0.167762236331709
 40
0.167762236331709
 40
0.167762236331709
 40
0.167762236331709
 40
0.171607302021111
 40
0.179068489065507
 40
0.1837137624207273
 40
0.1837137624207273
 40
0.1837137624207273
 40
0.1837137624207273
 10
1299.851445615353
 20
-328.7413103187195
 30
0.0
 41
1.0
 10
1299.773135629752
 20
-327.2664915616401
 30
0.0
 41
1.0
 10
1299.542868435302
 20
-323.3689292580391
 30
0.0
 41
1.0
 10
1299.217993939199
 20
-319.8870529317326
 30
0.0
 41
1.0
 10
1298.971429428695
 20
-319.0583471470942
 30
0.0
 41
1.0
 10
1298.876822127041
 20
-319.0098879725953
 30
0.0
 41
1.0
  0
LINE
  5
BE
330
1F
100
AcDbEntity
  8
JIS B 0405-c 普通公差｢c｣粗級
  6
________________
 62
     7
370
     0
100
AcDbLine
 10
1123.851445615353
 20
-421.0016424072264
 30
0.0
 11
1123.851445615353
 21
-340.0228893891316
 31
0.0
  0
LWPOLYLINE
  5
BF
330
1F
100
AcDbEntity
  8
JIS B 0405-c 普通公差｢c｣粗級
  6
________________
 62
     7
370
     0
100
AcDbPolyline
 90
        3
 70
     0
 43
0.0
 10
-1293.118094166327
 20
-417.6847519388394
 42
0.0189200465756305
 10
-1291.457656770191
 20
-386.3417532526105
 42
0.0005255896310369
 10
-1290.910780173614
 20
-370.0025953630873
210
0.0
220
0.0
230
-1.0
  0
LWPOLYLINE
  5
C0
330
1F
100
AcDbEntity
  8
JIS B 0405-c 普通公差｢c｣粗級
  6
________________
 62
     7
370
     0
100
AcDbPolyline
 90
        3
 70
     0
 43
0.0
 10
-1283.118061698614
 20
-417.6846956783028
 42
0.0189197569355178
 10
-1281.457635538276
 20
-386.3417532526132
 42
0.000525589270955
 10
-1280.910759317208
 20
-370.0025953630904
210
0.0
220
0.0
230
-1.0
  0
LWPOLYLINE
  5
C1
330
1F
100
AcDbEntity
  8
JIS B 0405-c 普通公差｢c｣粗級
  6
________________
 62
     7
370
     0
100
AcDbPolyline
 90
        3
 70
     0
 43
0.0
 10
-1273.118000440777
 20
-417.6842810613414
 42
0.0189178553434868
 10
-1271.457636521182
 20
-386.3417532526129
 42
0.0005255931082918
 10
-1270.910756298359
 20
-370.0025953630903
210
0.0
220
0.0
230
-1.0
  0
LWPOLYLINE
  5
C2
330
1F
100
AcDbEntity
  8
JIS B 0405-c 普通公差｢c｣粗級
  6
________________
 62
     7
370
     0
100
AcDbPolyline
 90
        3
 70
     0
 43
0.0
 10
-1263.117834190627
 20
-417.6834589386066
 42
0.0189136535674411
 10
-1261.457631940026
 20
-386.3417532526131
 42
0.000525588617144
 10
-1260.910756400781
 20
-370.0025953630903
210
0.0
220
0.0
230
-1.0
  0
LWPOLYLINE
  5
C3
330
1F
100
AcDbEntity
  8
JIS B 0405-c 普通公差｢c｣粗級
  6
________________
 62
     7
370
     0
100
AcDbPolyline
 90
        3
 70
     0
 43
0.0
 10
-1253.117677790483
 20
-417.6824948082367
 42
0.0189088354133694
 10
-1251.457655701206
 20
-386.3417532526131
 42
0.0005255862996688
 10
-1250.910782578735
 20
-370.0025953630904
210
0.0
220
0.0
230
-1.0
  0
LWPOLYLINE
  5
C4
330
1F
100
AcDbEntity
  8
JIS B 0405-c 普通公差｢c｣粗級
  6
________________
 62
     7
370
     0
100
AcDbPolyline
 90
        3
 70
     0
 43
0.0
 10
-1243.117627183681
 20
-417.6820433522887
 42
0.0189066282645076
 10
-1241.457685214088
 20
-386.341753252613
 42
0.0005255865432716
 10
-1240.910811837574
 20
-370.0025953630903
210
0.0
220
0.0
230
-1.0
  0
LWPOLYLINE
  5
C5
330
1F
100
AcDbEntity
  8
JIS B 0405-c 普通公差｢c｣粗級
  6
________________
 62
     7
370
     0
100
AcDbPolyline
 90
        3
 70
     0
 43
0.0
 10
-1233.121369341359
 20
-417.7025990337518
 42
0.0190083775268066
 10
-1231.457725723256
 20
-386.3417532526132
 42
0.0005255852424952
 10
-1230.910853703257
 20
-370.0025953630906
210
0.0
220
0.0
230
-1.0
  0
LWPOLYLINE
  5
C6
330
1F
100
AcDbEntity
  8
JIS B 0405-c 普通公差｢c｣粗級
  6
________________
 62
     7
370
     0
100
AcDbPolyline
 90
        3
 70
     0
 43
0.0
 10
-1223.11769968195
 20
-417.6821220622593
 42
0.0189070358767763
 10
-1221.4577417235
 20
-386.341753252613
 42
0.0005255871395198
 10
-1220.910867725189
 20
-370.0025953630906
210
0.0
220
0.0
230
-1.0
  0
LWPOLYLINE
  5
C7
330
1F
100
AcDbEntity
  8
JIS B 0405-c 普通公差｢c｣粗級
  6
________________
 62
     7
370
     0
100
AcDbPolyline
 90
        3
 70
     0
 43
0.0
 10
-1213.120925865615
 20
-417.6999931856854
 42
0.0189955342265657
 10
-1211.457740089993
 20
-386.341753252613
 42
0.0005255898239937
 10
-1210.910863292186
 20
-370.0025953630904
210
0.0
220
0.0
230
-1.0
  0
LWPOLYLINE
  5
C8
330
1F
100
AcDbEntity
  8
JIS B 0405-c 普通公差｢c｣粗級
  6
________________
 62
     7
370
     0
100
AcDbPolyline
 90
        3
 70
     0
 43
0.0
 10
-1173.120108771867
 20
-417.6954026657257
 42
0.0189726650076757
 10
-1171.457755715669
 20
-386.3417532526119
 42
0.0005255890620218
 10
-1170.910879712483
 20
-370.002595363089
210
0.0
220
0.0
230
-1.0
  0
LWPOLYLINE
  5
C9
330
1F
100
AcDbEntity
  8
JIS B 0405-c 普通公差｢c｣粗級
  6
________________
 62
     7
370
     0
100
AcDbPolyline
 90
        3
 70
     0
 43
0.0
 10
-1163.11801181894
 20
-417.6838795417976
 42
0.0189157445587466
 10
-1161.457732019661
 20
-386.341753252613
 42
0.0005255892873288
 10
-1160.910855781513
 20
-370.0025953630905
210
0.0
220
0.0
230
-1.0
  0
LWPOLYLINE
  5
CA
330
1F
100
AcDbEntity
  8
JIS B 0405-c 普通公差｢c｣粗級
  6
________________
 62
     7
370
     0
100
AcDbPolyline
 90
        3
 70
     0
 43
0.0
 10
-1153.119909133005
 20
-417.6946258411251
 42
0.0189687515490153
 10
-1151.4577014117
 20
-386.3417532526126
 42
0.0005255874657037
 10
-1150.910827073232
 20
-370.00259536309
210
0.0
220
0.0
230
-1.0
  0
LWPOLYLINE
  5
CB
330
1F
100
AcDbEntity
  8
JIS B 0405-c 普通公差｢c｣粗級
  6
________________
 62
     7
370
     0
100
AcDbPolyline
 90
        3
 70
     0
 43
0.0
 10
-1143.11804734433
 20
-417.6843922636667
 42
0.0189182816224085
 10
-1141.457674128636
 20
-386.3417532526131
 42
0.0005255897433361
 10
-1140.910797414941
 20
-370.0025953630903
210
0.0
220
0.0
230
-1.0
  0
LWPOLYLINE
  5
CC
330
1F
100
AcDbEntity
  8
JIS B 0405-c 普通公差｢c｣粗級
  6
________________
 62
     7
370
     0
100
AcDbPolyline
 90
        3
 70
     0
 43
0.0
 10
-1133.119741443213
 20
-417.6939640465962
 42
0.0189655414610683
 10
-1131.457646736149
 20
-386.3417532526134
 42
0.0005255894963804
 10
-1130.910770280002
 20
-370.0025953630907
210
0.0
220
0.0
230
-1.0
  0
SPLINE
  5
CD
330
1F
100
AcDbEntity
  8
JIS B 0405-c 普通公差｢c｣粗級
  6
________________
 62
     7
370
     0
100
AcDbSpline
210
0.0
220
0.0
230
1.0
 70
    12
 71
     3
 72
    18
 73
    14
 74
     0
 42
0.000000001
 43
0.0001
 40
2.889185347283118
 40
2.889185347283118
 40
2.889185347283118
 40
2.889185347283118
 40
2.89494057322571
 40
2.9024017602701
 40
2.90986294731451
 40
2.9173241343589
 40
2.92478532140329
 40
2.93224650844769
 40
2.93970769549209
 40
2.94716888253648
 40
2.95463006958088
 40
2.96209125662527
 40
2.966493791256851
 40
2.966493791256851
 40
2.966493791256851
 40
2.966493791256851
 10
1133.57501094912
 20
-420.2340994623347
 30
0.0
 41
1.0
 10
1133.457797955352
 20
-419.5840314144692
 30
0.0
 41
1.0
 10
1133.188627752734
 20
-417.1530224067917
 30
0.0
 41
1.0
 10
1132.767500341267
 20
-410.1677467293647
 30
0.0
 41
1.0
 10
1132.311628714717
 20
-399.3333393726224
 30
0.0
 41
1.0
 10
1131.855757088166
 20
-386.1089388963074
 30
0.0
 41
1.0
 10
1131.399885461617
 20
-371.572125403351
 30
0.0
 41
1.0
 10
1130.944013835067
 20
-356.9074199620709
 30
0.0
 41
1.0
 10
1130.488142208516
 20
-343.3097648178393
 30
0.0
 41
1.0
 10
1130.032270581967
 20
-331.8871544431627
 30
0.0
 41
1.0
 10
1129.576398955417
 20
-323.57035146016
 30
0.0
 41
1.0
 10
1129.182820939887
 20
-319.6565082081053
 30
0.0
 41
1.0
 10
1128.941200133208
 20
-319.0037151735555
 30
0.0
 41
1.0
 10
1128.851536535378
 20
-319.0035144436408
 30
0.0
 41
1.0
  0
SPLINE
  5
CE
330
1F
100
AcDbEntity
  8
JIS B 0405-c 普通公差｢c｣粗級
  6
________________
 62
     7
370
     0
100
AcDbSpline
210
0.0
220
0.0
230
1.0
 70
    12
 71
     3
 72
    18
 73
    14
 74
     0
 42
0.000000001
 43
0.0001
 40
2.72555161825768
 40
2.72555161825768
 40
2.72555161825768
 40
2.72555161825768
 40
2.73079445824899
 40
2.73825564529339
 40
2.74571683233779
 40
2.75317801938218
 40
2.76063920642658
 40
2.76810039347097
 40
2.77556158051537
 40
2.78302276755977
 40
2.79048395460417
 40
2.79794514164856
 40
2.802824854837158
 40
2.802824854837158
 40
2.802824854837158
 40
2.802824854837158
 10
1143.572880425572
 20
-420.2220700018163
 30
0.0
 41
1.0
 10
1143.466102867686
 20
-419.6254335867265
 30
0.0
 41
1.0
 10
1143.20736810095
 20
-417.3594976712901
 30
0.0
 41
1.0
 10
1142.796676125366
 20
-410.7577635322135
 30
0.0
 41
1.0
 10
1142.340804498816
 20
-400.108878299051
 30
0.0
 41
1.0
 10
1141.884932872265
 20
-387.0068057533036
 30
0.0
 41
1.0
 10
1141.429061245716
 20
-372.5191582005535
 30
0.0
 41
1.0
 10
1140.973189619166
 20
-357.8264504602902
 30
0.0
 41
1.0
 10
1140.517317992615
 20
-344.1259065236848
 30
0.0
 41
1.0
 10
1140.061446366066
 20
-332.5339046773658
 30
0.0
 41
1.0
 10
1139.605574739515
 20
-323.9950102772535
 30
0.0
 41
1.0
 10
1139.20227833451
 20
-319.757434702824
 30
0.0
 41
1.0
 10
1138.950939138356
 20
-319.0038363159035
 30
0.0
 41
1.0
 10
1138.851557151051
 20
-319.0034074557196
 30
0.0
 41
1.0
  0
SPLINE
  5
CF
330
1F
100
AcDbEntity
  8
JIS B 0405-c 普通公差｢c｣粗級
  6
________________
 62
     7
370
     0
100
AcDbSpline
210
0.0
220
0.0
230
1.0
 70
    12
 71
     3
 72
    18
 73
    14
 74
     0
 42
0.000000001
 43
0.0001
 40
2.561846405837515
 40
2.561846405837515
 40
2.561846405837515
 40
2.561846405837515
 40
2.56664834327228
 40
2.57410953031668
 40
2.58157071736107
 40
2.58903190440547
 40
2.59649309144987
 40
2.60395427849426
 40
2.61141546553865
 40
2.61887665258305
 40
2.62633783962745
 40
2.63379902667185
 40
2.639154197392627
 40
2.639154197392627
 40
2.639154197392627
 40
2.639154197392627
 10
1153.575117471316
 20
-420.2343763485648
 30
0.0
 41
1.0
 10
1153.477319492883
 20
-419.6923636159676
 30
0.0
 41
1.0
 10
1153.227564305599
 20
-417.5834586685249
 30
0.0
 41
1.0
 10
1152.825851909464
 20
-411.3340849156365
 30
0.0
 41
1.0
 10
1152.369980282915
 20
-400.8743002712208
 30
0.0
 41
1.0
 10
1151.914108656364
 20
-387.8989584934458
 30
0.0
 41
1.0
 10
1151.458237029814
 20
-373.4653453287249
 30
0.0
 41
1.0
 10
1151.002365403265
 20
-358.7495726459922
 30
0.0
 41
1.0
 10
1150.546493776715
 20
-344.9507438655184
 30
0.0
 41
1.0
 10
1150.090622150165
 20
-333.1932459388507
 30
0.0
 41
1.0
 10
1149.634750523615
 20
-324.4351295427483
 30
0.0
 41
1.0
 10
1149.221770780142
 20
-319.8647233109847
 30
0.0
 41
1.0
 10
1148.96074824552
 20
-319.0041339799601
 30
0.0
 41
1.0
 10
1148.851682919748
 20
-319.0032589828974
 30
0.0
 41
1.0
  0
SPLINE
  5
D0
330
1F
100
AcDbEntity
  8
JIS B 0405-c 普通公差｢c｣粗級
  6
________________
 62
     7
370
     0
100
AcDbSpline
210
0.0
220
0.0
230
1.0
 70
    12
 71
     3
 72
    18
 73
    14
 74
     0
 42
0.000000001
 43
0.0001
 40
2.398215567884306
 40
2.398215567884306
 40
2.398215567884306
 40
2.398215567884306
 40
2.40250222829557
 40
2.40996341533996
 40
2.41742460238435
 40
2.42488578942876
 40
2.43234697647315
 40
2.43980816351755
 40
2.44726935056194
 40
2.45473053760634
 40
2.46219172465073
 40
2.46965291169513
 40
2.475493046026353
 40
2.475493046026353
 40
2.475493046026353
 40
2.475493046026353
 10
1163.572810305928
 20
-420.2214392481522
 30
0.0
 41
1.0
 10
1163.48550664399
 20
-419.7337518984257
 30
0.0
 41
1.0
 10
1163.246245773202
 20
-417.7780049459288
 30
0.0
 41
1.0
 10
1162.855027693564
 20
-411.8965172118496
 30
0.0
 41
1.0
 10
1162.399156067013
 20
-401.6293480757427
 30
0.0
 41
1.0
 10
1161.943284440464
 20
-388.785097316574
 30
0.0
 41
1.0
 10
1161.487412813914
 20
-374.4103688299191
 30
0.0
 41
1.0
 10
1161.031541187363
 20
-359.6764763120029
 30
0.0
 41
1.0
 10
1160.575669560814
 20
-345.7839996639322
 30
0.0
 41
1.0
 10
1160.119797934264
 20
-333.8649566617277
 30
0.0
 41
1.0
 10
1159.663926307714
 20
-324.8905613583956
 30
0.0
 41
1.0
 10
1159.241069621577
 20
-319.9758094147781
 30
0.0
 41
1.0
 10
1158.970170144293
 20
-319.0030068736073
 30
0.0
 41
1.0
 10
1158.851227875857
 20
-319.0030828738265
 30
0.0
 41
1.0
  0
SPLINE
  5
D1
330
1F
100
AcDbEntity
  8
JIS B 0405-c 普通公差｢c｣粗級
  6
________________
 62
     7
370
     0
100
AcDbSpline
210
0.0
220
0.0
230
1.0
 70
    12
 71
     3
 72
    18
 73
    14
 74
     0
 42
0.000000001
 43
0.0001
 40
2.234506373037997
 40
2.234506373037997
 40
2.234506373037997
 40
2.234506373037997
 40
2.23835611331885
 40
2.24581730036325
 40
2.25327848740764
 40
2.26073967445204
 40
2.26820086149643
 40
2.27566204854083
 40
2.28312323558523
 40
2.29058442262962
 40
2.29804560967402
 40
2.30550679671842
 40
2.311811621951816
 40
2.311811621951816
 40
2.311811621951816
 40
2.311811621951816
 10
1173.575290674226
 20
-420.2351852449738
 30
0.0
 41
1.0
 10
1173.496885484222
 20
-419.8012007663723
 30
0.0
 41
1.0
 10
1173.266523085367
 20
-417.9906766984211
 30
0.0
 41
1.0
 10
1172.884203477663
 20
-412.4448714203772
 30
0.0
 41
1.0
 10
1172.428331851113
 20
-402.3737679853749
 30
0.0
 41
1.0
 10
1171.972460224563
 20
-389.6649244434515
 30
0.0
 41
1.0
 10
1171.516588598013
 20
-375.353911137216
 30
0.0
 41
1.0
 10
1171.060716971462
 20
-360.606849980416
 30
0.0
 41
1.0
 10
1170.604845344914
 20
-346.6253939105705
 30
0.0
 41
1.0
 10
1170.148973718363
 20
-334.5488111234557
 30
0.0
 41
1.0
 10
1169.693102091813
 20
-325.3611526803001
 30
0.0
 41
1.0
 10
1169.260781344256
 20
-320.0977919508075
 30
0.0
 41
1.0
 10
1168.980417805547
 20
-319.0048078128189
 30
0.0
 41
1.0
 10
1168.852011475689
 20
-319.0029120182652
 30
0.0
 41
1.0
  0
SPLINE
  5
D2
330
1F
100
AcDbEntity
  8
JIS B 0405-c 普通公差｢c｣粗級
  6
________________
 62
     7
370
     0
100
AcDbSpline
210
0.0
220
0.0
230
1.0
 70
    12
 71
     3
 72
    19
 73
    15
 74
     0
 42
0.000000001
 43
0.0001
 40
1.579820382859193
 40
1.579820382859193
 40
1.579820382859193
 40
1.579820382859193
 40
1.58177165341198
 40
1.58923284045638
 40
1.59669402750078
 40
1.60415521454517
 40
1.61161640158957
 40
1.61907758863397
 40
1.62653877567836
 40
1.63399996272276
 40
1.64146114976715
 40
1.64892233681155
 40
1.65638352385595
 40
1.657143319452087
 40
1.657143319452087
 40
1.657143319452087
 40
1.657143319452087
 10
1213.57599906639
 20
-420.23944707752
 30
0.0
 41
1.0
 10
1213.53625879113
 20
-420.0202907795648
 30
0.0
 41
1.0
 10
1213.344561307019
 20
-418.7367628550744
 30
0.0
 41
1.0
 10
1213.000906614059
 20
-414.493894235843
 30
0.0
 41
1.0
 10
1212.54503498751
 20
-405.2402208863005
 30
0.0
 41
1.0
 10
1212.089163360959
 20
-393.1152367195763
 30
0.0
 41
1.0
 10
1211.633291734409
 20
-379.1069367460924
 30
0.0
 41
1.0
 10
1211.177420107859
 20
-364.3567765164712
 30
0.0
 41
1.0
 10
1210.72154848131
 20
-350.0666614937966
 30
0.0
 41
1.0
 10
1210.265676854759
 20
-337.4010107112521
 30
0.0
 41
1.0
 10
1209.809805228209
 20
-327.3918749826639
 30
0.0
 41
1.0
 10
1209.353933601659
 20
-320.8548410356119
 30
0.0
 41
1.0
 10
1209.034544914597
 20
-319.0807068728321
 30
0.0
 41
1.0
 10
1208.867113436385
 20
-319.0027343279324
 30
0.0
 41
1.0
 10
1208.851639167023
 20
-319.0027820894999
 30
0.0
 41
1.0
  0
SPLINE
  5
D3
330
1F
100
AcDbEntity
  8
JIS B 0405-c 普通公差｢c｣粗級
  6
________________
 62
     7
370
     0
100
AcDbSpline
210
0.0
220
0.0
230
1.0
 70
    12
 71
     3
 72
    19
 73
    15
 74
     0
 42
0.000000001
 43
0.0001
 40
1.416209762982503
 40
1.416209762982503
 40
1.416209762982503
 40
1.416209762982503
 40
1.41762553843527
 40
1.42508672547966
 40
1.43254791252406
 40
1.44000909956845
 40
1.44747028661285
 40
1.45493147365725
 40
1.46239266070164
 40
1.46985384774604
 40
1.47731503479043
 40
1.48477622183483
 40
1.49223740887923
 40
1.493472886124646
 40
1.493472886124646
 40
1.493472886124646
 40
1.493472886124646
 10
1223.572456595229
 20
-420.2199634353477
 30
0.0
 41
1.0
 10
1223.543622405056
 20
-420.0589332423576
 30
0.0
 41
1.0
 10
1223.362831006032
 20
-418.8941744835141
 30
0.0
 41
1.0
 10
1223.030082398158
 20
-414.9691907107741
 30
0.0
 41
1.0
 10
1222.574210771608
 20
-405.9278233284886
 30
0.0
 41
1.0
 10
1222.118339145058
 20
-393.9591163728019
 30
0.0
 41
1.0
 10
1221.662467518508
 20
-380.0383307257762
 30
0.0
 41
1.0
 10
1221.206595891958
 20
-365.2997909004426
 30
0.0
 41
1.0
 10
1220.750724265409
 20
-350.9444554801791
 30
0.0
 41
1.0
 10
1220.294852638858
 20
-338.1420579321092
 30
0.0
 41
1.0
 10
1219.838981012309
 20
-327.9357917750873
 30
0.0
 41
1.0
 10
1219.383109385759
 20
-321.1573067580563
 30
0.0
 41
1.0
 10
1219.05403279578
 20
-319.1372728112013
 30
0.0
 41
1.0
 10
1218.876913414652
 20
-319.0028863605536
 30
0.0
 41
1.0
 10
1218.851751242374
 20
-319.0029386484526
 30
0.0
 41
1.0
  0
SPLINE
  5
D4
330
1F
100
AcDbEntity
  8
JIS B 0405-c 普通公差｢c｣粗級
  6
________________
 62
     7
370
     0
100
AcDbSpline
210
0.0
220
0.0
230
1.0
 70
    12
 71
     3
 72
    19
 73
    15
 74
     0
 42
0.000000001
 43
0.0001
 40
1.252475491366727
 40
1.252475491366727
 40
1.252475491366727
 40
1.252475491366727
 40
1.25347942345855
 40
1.26094061050295
 40
1.26840179754734
 40
1.27586298459174
 40
1.28332417163613
 40
1.29078535868053
 40
1.29824654572493
 40
1.30570773276932
 40
1.31316891981372
 40
1.32063010685812
 40
1.32809129390251
 40
1.32981058187128
 40
1.32981058187128
 40
1.32981058187128
 40
1.32981058187128
 10
1233.576469130945
 20
-420.2423840663066
 30
0.0
 41
1.0
 10
1233.556022690232
 20
-420.1298114933981
 30
0.0
 41
1.0
 10
1233.38361904067
 20
-419.0755197067418
 30
0.0
 41
1.0
 10
1233.059258182258
 20
-415.4293765528422
 30
0.0
 41
1.0
 10
1232.603386555707
 20
-406.6033534106034
 30
0.0
 41
1.0
 10
1232.147514929158
 20
-394.7949456457205
 30
0.0
 41
1.0
 10
1231.691643302607
 20
-380.966352283968
 30
0.0
 41
1.0
 10
1231.235771676058
 20
-366.2443856209091
 30
0.0
 41
1.0
 10
1230.779900049508
 20
-351.8286537885384
 30
0.0
 41
1.0
 10
1230.324028422958
 20
-338.8938116091746
 30
0.0
 41
1.0
 10
1229.868156796408
 20
-328.4938447506002
 30
0.0
 41
1.0
 10
1229.412285169857
 20
-321.4761865144623
 30
0.0
 41
1.0
 10
1229.073355117328
 20
-319.1985291286283
 30
0.0
 41
1.0
 10
1228.886382273648
 20
-319.0027677788823
 30
0.0
 41
1.0
 10
1228.851366638818
 20
-319.003118994323
 30
0.0
 41
1.0
  0
SPLINE
  5
D5
330
1F
100
AcDbEntity
  8
JIS B 0405-c 普通公差｢c｣粗級
  6
________________
 62
     7
370
     0
100
AcDbSpline
210
0.0
220
0.0
230
1.0
 70
    12
 71
     3
 72
    19
 73
    15
 74
     0
 42
0.000000001
 43
0.0001
 40
1.088872648616572
 40
1.088872648616572
 40
1.088872648616572
 40
1.088872648616572
 40
1.08933330848183
 40
1.09679449552623
 40
1.10425568257063
 40
1.11171686961502
 40
1.11917805665942
 40
1.12663924370381
 40
1.13410043074821
 40
1.14156161779261
 40
1.149022804837
 40
1.1564839918814
 40
1.1639451789258
 40
1.166134403744512
 40
1.166134403744512
 40
1.166134403744512
 40
1.166134403744512
 10
1243.572451484548
 20
-420.2202334737183
 30
0.0
 41
1.0
 10
1243.563069520667
 20
-420.1678117553471
 30
0.0
 41
1.0
 10
1243.401730347937
 20
-419.2211159571181
 30
0.0
 41
1.0
 10
1243.088433966357
 20
-415.8742971206021
 30
0.0
 41
1.0
 10
1242.632562339807
 20
-407.2665841266421
 30
0.0
 41
1.0
 10
1242.176690713257
 20
-395.6224436651827
 30
0.0
 41
1.0
 10
1241.720819086707
 20
-381.890689567103
 30
0.0
 41
1.0
 10
1241.264947460157
 20
-367.1902432550381
 30
0.0
 41
1.0
 10
1240.809075833607
 20
-352.7189592917318
 30
0.0
 41
1.0
 10
1240.353204207057
 20
-339.6560191221708
 30
0.0
 41
1.0
 10
1239.897332580507
 20
-329.0658463803581
 30
0.0
 41
1.0
 10
1239.441460953957
 20
-321.8113731480651
 30
0.0
 41
1.0
 10
1239.092959999153
 20
-319.2674800222503
 30
0.0
 41
1.0
 10
1238.896416253198
 20
-319.003284430587
 30
0.0
 41
1.0
 10
1238.851829716094
 20
-319.0032879354283
 30
0.0
 41
1.0
  0
SPLINE
  5
D6
330
1F
100
AcDbEntity
  8
JIS B 0405-c 普通公差｢c｣粗級
  6
________________
 62
     7
370
     0
100
AcDbSpline
210
0.0
220
0.0
230
1.0
 70
    12
 71
     3
 72
    18
 73
    14
 74
     0
 42
0.000000001
 43
0.0001
 40
0.9252023077618795
 40
0.9252023077618795
 40
0.9252023077618795
 40
0.9252023077618795
 40
0.932648380549514
 40
0.940109567593911
 40
0.947570754638307
 40
0.955031941682703
 40
0.962493128727099
 40
0.969954315771495
 40
0.977415502815892
 40
0.984876689860288
 40
0.992337876904684
 40
0.99979906394908
 40
1.002472830930017
 40
1.002472830930017
 40
1.002472830930017
 40
1.002472830930017
 10
1253.572557909899
 20
-420.2208822333386
 30
0.0
 41
1.0
 10
1253.420908523418
 20
-419.3733643038431
 30
0.0
 41
1.0
 10
1253.117301928087
 20
-416.2981400022967
 30
0.0
 41
1.0
 10
1252.661738123906
 20
-407.9172926036978
 30
0.0
 41
1.0
 10
1252.205866497357
 20
-396.441332357683
 30
0.0
 41
1.0
 10
1251.749994870806
 20
-382.8110319596849
 30
0.0
 41
1.0
 10
1251.294123244256
 20
-368.1370459556072
 30
0.0
 41
1.0
 10
1250.838251617707
 20
-353.6150728103464
 30
0.0
 41
1.0
 10
1250.382379991156
 20
-340.4284243378988
 30
0.0
 41
1.0
 10
1249.926508364606
 20
-329.6516044481944
 30
0.0
 41
1.0
 10
1249.470636738057
 20
-322.1627540223137
 30
0.0
 41
1.0
 10
1249.112267423955
 20
-319.340070007725
 30
0.0
 41
1.0
 10
1248.905855318702
 20
-319.0030281166511
 30
0.0
 41
1.0
 10
1248.8514004223
 20
-319.0034321341456
 30
0.0
 41
1.0
  0
SPLINE
  5
D7
330
1F
100
AcDbEntity
  8
JIS B 0405-c 普通公差｢c｣粗級
  6
________________
 62
     7
370
     0
100
AcDbSpline
210
0.0
220
0.0
230
1.0
 70
    12
 71
     3
 72
    18
 73
    14
 74
     0
 42
0.000000001
 43
0.0001
 40
0.7615306845539539
 40
0.7615306845539539
 40
0.7615306845539539
 40
0.7615306845539539
 40
0.768502265572801
 40
0.775963452617197
 40
0.783424639661593
 40
0.790885826705989
 40
0.798347013750385
 40
0.805808200794781
 40
0.813269387839177
 40
0.820730574883573
 40
0.828191761927969
 40
0.835652948972365
 40
0.8388057419784463
 40
0.8388057419784463
 40
0.8388057419784463
 40
0.8388057419784463
 10
1263.572742685847
 20
-420.2218667206246
 30
0.0
 41
1.0
 10
1263.43075696875
 20
-419.4284193214829
 30
0.0
 41
1.0
 10
1263.136814042802
 20
-416.5392076461328
 30
0.0
 41
1.0
 10
1262.690913908005
 20
-408.5552601768488
 30
0.0
 41
1.0
 10
1262.235042281455
 20
-397.2513365428031
 30
0.0
 41
1.0
 10
1261.779170654906
 20
-383.7270701886621
 30
0.0
 41
1.0
 10
1261.323299028355
 20
-369.0844755578088
 30
0.0
 41
1.0
 10
1260.867427401806
 20
-354.5166932132325
 30
0.0
 41
1.0
 10
1260.411555775255
 20
-341.2107676963087
 30
0.0
 41
1.0
 10
1259.955684148705
 20
-330.2509221152082
 30
0.0
 41
1.0
 10
1259.499812522156
 20
-322.5302110587242
 30
0.0
 41
1.0
 10
1259.13168719238
 20
-319.4192733595868
 30
0.0
 41
1.0
 10
1258.915519071455
 20
-319.0030461124663
 30
0.0
 41
1.0
 10
1258.851308159379
 20
-319.003530122155
 30
0.0
 41
1.0
  0
SPLINE
  5
D8
330
1F
100
AcDbEntity
  8
JIS B 0405-c 普通公差｢c｣粗級
  6
________________
 62
     7
370
     0
100
AcDbSpline
210
0.0
220
0.0
230
1.0
 70
    12
 71
     3
 72
    18
 73
    14
 74
     0
 42
0.000000001
 43
0.0001
 40
0.5978589923114621
 40
0.5978589923114621
 40
0.5978589923114621
 40
0.5978589923114621
 40
0.604356150596087
 40
0.611817337640483
 40
0.619278524684879
 40
0.626739711729275
 40
0.634200898773671
 40
0.641662085818068
 40
0.649123272862464
 40
0.65658445990686
 40
0.664045646951256
 40
0.671506833995652
 40
0.675132980969577
 40
0.675132980969577
 40
0.675132980969577
 40
0.675132980969577
 10
1273.572931679743
 20
-420.2227990381115
 30
0.0
 41
1.0
 10
1273.440608226047
 20
-419.4835867538084
 30
0.0
 41
1.0
 10
1273.156327563501
 20
-416.7742173783232
 30
0.0
 41
1.0
 10
1272.720089692104
 20
-409.1802724626497
 30
0.0
 41
1.0
 10
1272.264218065554
 20
-398.0521840256917
 30
0.0
 41
1.0
 10
1271.808346439005
 20
-384.6384964273662
 30
0.0
 41
1.0
 10
1271.352474812454
 20
-370.0322136861761
 30
0.0
 41
1.0
 10
1270.896603185904
 20
-355.4235175187066
 30
0.0
 41
1.0
 10
1270.440731559355
 20
-342.0027862977271
 30
0.0
 41
1.0
 10
1269.984859932805
 20
-330.8635979859159
 30
0.0
 41
1.0
 10
1269.528988306255
 20
-322.9136207765589
 30
0.0
 41
1.0
 10
1269.151222479957
 20
-319.5053391718991
 30
0.0
 41
1.0
 10
1268.92541386251
 20
-319.00353763634
 30
0.0
 41
1.0
 10
1268.851562453913
 20
-319.0035714309658
 30
0.0
 41
1.0
  0
SPLINE
  5
D9
330
1F
100
AcDbEntity
  8
JIS B 0405-c 普通公差｢c｣粗級
  6
________________
 62
     7
370
     0
100
AcDbSpline
210
0.0
220
0.0
230
1.0
 70
    12
 71
     3
 72
    18
 73
    14
 74
     0
 42
0.000000001
 43
0.0001
 40
0.434188859687377
 40
0.434188859687377
 40
0.434188859687377
 40
0.434188859687377
 40
0.440210035619374
 40
0.447671222663769
 40
0.455132409708166
 40
0.462593596752562
 40
0.470054783796958
 40
0.477515970841354
 40
0.48497715788575
 40
0.492438344930146
 40
0.499899531974542
 40
0.507360719018938
 40
0.5114655946508734
 40
0.5114655946508734
 40
0.5114655946508734
 40
0.5114655946508734
 10
1283.573025382397
 20
-420.2231581501651
 30
0.0
 41
1.0
 10
1283.450395955849
 20
-419.5382275069542
 30
0.0
 41
1.0
 10
1283.175809320451
 20
-417.0026420679595
 30
0.0
 41
1.0
 10
1282.749265476203
 20
-409.7921194311637
 30
0.0
 41
1.0
 10
1282.293393849654
 20
-398.8436056885256
 30
0.0
 41
1.0
 10
1281.837522223104
 20
-385.5450043989459
 30
0.0
 41
1.0
 10
1281.381650596554
 20
-370.9799418615639
 30
0.0
 41
1.0
 10
1280.925778970003
 20
-356.3352409963567
 30
0.0
 41
1.0
 10
1280.469907343454
 20
-342.8042139912003
 30
0.0
 41
1.0
 10
1280.014035716904
 20
-331.4894261759268
 30
0.0
 41
1.0
 10
1279.558164090354
 20
-323.3128543343209
 30
0.0
 41
1.0
 10
1279.170648304668
 20
-319.5963354283431
 30
0.0
 41
1.0
 10
1278.935089727833
 20
-319.0035609639325
 30
0.0
 41
1.0
 10
1278.851488359848
 20
-319.0035545858967
 30
0.0
 41
1.0
  0
SPLINE
  5
DA
330
1F
100
AcDbEntity
  8
JIS B 0405-c 普通公差｢c｣粗級
  6
________________
 62
     7
370
     0
100
AcDbSpline
210
0.0
220
0.0
230
1.0
 70
    12
 71
     3
 72
    18
 73
    14
 74
     0
 42
0.000000001
 43
0.0001
 40
0.2705202379602442
 40
0.2705202379602442
 40
0.2705202379602442
 40
0.2705202379602442
 40
0.276063920642658
 40
0.283525107687054
 40
0.29098629473145
 40
0.298447481775846
 40
0.305908668820242
 40
0.313369855864639
 40
0.320831042909035
 40
0.328292229953431
 40
0.335753416997827
 40
0.343214604042223
 40
0.3477931838563519
 40
0.3477931838563519
 40
0.3477931838563519
 40
0.3477931838563519
 10
1293.573026770645
 20
-420.2229909535479
 30
0.0
 41
1.0
 10
1293.460122142714
 20
-419.5923929053263
 30
0.0
 41
1.0
 10
1293.195260305934
 20
-417.2245809522264
 30
0.0
 41
1.0
 10
1292.778441260303
 20
-410.3905954765454
 30
0.0
 41
1.0
 10
1292.322569633753
 20
-399.6253355809468
 30
0.0
 41
1.0
 10
1291.866698007203
 20
-386.446289479292
 30
0.0
 41
1.0
 10
1291.410826380652
 20
-371.9273416081725
 30
0.0
 41
1.0
 10
1290.954954754103
 20
-357.2515572694483
 30
0.0
 41
1.0
 10
1290.499083127553
 20
-343.6147814639313
 30
0.0
 41
1.0
 10
1290.043211501003
 20
-332.1281963811274
 30
0.0
 41
1.0
 10
1289.587339874453
 20
-323.7277775730503
 30
0.0
 41
1.0
 10
1289.190176459655
 20
-319.6942568253839
 30
0.0
 41
1.0
 10
1288.944970253707
 20
-319.0040977657885
 30
0.0
 41
1.0
 10
1288.851721256608
 20
-319.0034809735203
 30
0.0
 41
1.0
  0
LINE
  5
DB
330
1F
100
AcDbEntity
  8
JIS B 0405-c 普通公差｢c｣粗級
  6
________________
 62
     7
370
     0
100
AcDbLine
 10
1299.851445615353
 20
-328.7413103187221
 30
0.0
 11
1299.851445615353
 21
-340.0493827017532
 31
0.0
  0
LWPOLYLINE
  5
DC
330
1F
100
AcDbEntity
  8
JIS B 0405-c 普通公差｢c｣粗級
  6
________________
 62
     7
370
     0
100
AcDbPolyline
 90
        3
 70
     0
 43
0.0
 10
1299.851445615352
 20
-340.0493827017551
 42
0.0329554281287581
 10
1298.514096728855
 20
-321.6045277246672
 10
1298.443709945355
 20
-321.5129057373566
  0
LWPOLYLINE
  5
DD
330
1F
100
AcDbEntity
  8
JIS B 0405-c 普通公差｢c｣粗級
  6
________________
 62
     7
370
     0
100
AcDbPolyline
 90
        4
 70
     0
 43
0.0
 10
1290.910780173611
 20
-370.0025953630875
 42
0.0119677809369966
 10
1288.829198493352
 20
-323.1682184949571
 42
0.0600352497617952
 10
1288.520816022203
 20
-321.6182146643384
 10
1288.443720404415
 20
-321.5129057373566
  0
LWPOLYLINE
  5
DE
330
1F
100
AcDbEntity
  8
JIS B 0405-c 普通公差｢c｣粗級
  6
________________
 62
     7
370
     0
100
AcDbPolyline
 90
        7
 70
     0
 43
0.0
 10
1280.910759317208
 20
-370.0025953630904
 42
0.012517217031563
 10
1278.801403188804
 20
-322.956079583155
 10
1278.723278887752
 20
-322.4345092635337
 10
1278.645154586699
 20
-322.0275346297985
 10
1278.567030285647
 20
-321.7361361194889
 10
1278.488905984595
 20
-321.5610157371395
 10
1278.410781683544
 20
-321.5025953630904
  0
LWPOLYLINE
  5
DF
330
1F
100
AcDbEntity
  8
JIS B 0405-c 普通公差｢c｣粗級
  6
________________
 62
     7
370
     0
100
AcDbPolyline
 90
        7
 70
     0
 43
0.0
 10
1270.910756298358
 20
-370.0025953630903
 42
0.0125173159681204
 10
1268.801383421508
 20
-322.956079583155
 10
1268.723258500143
 20
-322.4345092635337
 10
1268.645133578778
 20
-322.0275346297985
 10
1268.567008657413
 20
-321.7361361194889
 10
1268.488883736048
 20
-321.5610157371395
 10
1268.410758814684
 20
-321.5025953630904
  0
LWPOLYLINE
  5
E0
330
1F
100
AcDbEntity
  8
JIS B 0405-c 普通公差｢c｣粗級
  6
________________
 62
     7
370
     0
100
AcDbPolyline
 90
        7
 70
     0
 43
0.0
 10
1260.910756400781
 20
-370.0025953630904
 42
0.0125173060512445
 10
1258.801385202706
 20
-322.956079583155
 10
1258.723260343518
 20
-322.4345092635337
 10
1258.64513548433
 20
-322.0275346297985
 10
1258.567010625142
 20
-321.7361361194889
 10
1258.488885765954
 20
-321.5610157371395
 10
1258.410760906766
 20
-321.5025953630904
  0
LWPOLYLINE
  5
E1
330
1F
100
AcDbEntity
  8
JIS B 0405-c 普通公差｢c｣粗級
  6
________________
 62
     7
370
     0
100
AcDbPolyline
 90
        7
 70
     0
 43
0.0
 10
1250.910782578736
 20
-370.0025953630904
 42
0.012517292585006
 10
1248.80141366029
 20
-322.956079583155
 10
1248.723288885532
 20
-322.4345092635337
 10
1248.645164110775
 20
-322.0275346297985
 10
1248.567039336018
 20
-321.7361361194889
 10
1248.488914561261
 20
-321.5610157371395
 10
1248.410789786503
 20
-321.5025953630904
  0
LWPOLYLINE
  5
E2
330
1F
100
AcDbEntity
  8
JIS B 0405-c 普通公差｢c｣粗級
  6
________________
 62
     7
370
     0
100
AcDbPolyline
 90
        7
 70
     0
 43
0.0
 10
1240.910811837572
 20
-370.0025953630904
 42
0.0125172920755423
 10
1238.80144300537
 20
-322.956079583155
 10
1238.723318233807
 20
-322.4345092635337
 10
1238.645193462244
 20
-322.0275346297985
 10
1238.567068690681
 20
-321.7361361194889
 10
1238.488943919117
 20
-321.5610157371395
 10
1238.410819147555
 20
-321.5025953630904
  0
LWPOLYLINE
  5
E3
330
1F
100
AcDbEntity
  8
JIS B 0405-c 普通公差｢c｣粗級
  6
________________
 62
     7
370
     0
100
AcDbPolyline
 90
        7
 70
     0
 43
0.0
 10
1230.910853703255
 20
-370.0025953630906
 42
0.0125173163893407
 10
1228.801480755099
 20
-322.956079583155
 10
1228.723355831093
 20
-322.4345092635337
 10
1228.645230907087
 20
-322.0275346297985
 10
1228.567105983081
 20
-321.7361361194889
 10
1228.488981059076
 20
-321.5610157371395
 10
1228.41085613507
 20
-321.5025953630904
  0
LWPOLYLINE
  5
E4
330
1F
100
AcDbEntity
  8
JIS B 0405-c 普通公差｢c｣粗級
  6
________________
 62
     7
370
     0
100
AcDbPolyline
 90
        7
 70
     0
 43
0.0
 10
1220.910867725189
 20
-370.0025953630903
 42
0.012517298594592
 10
1218.801497789412
 20
-322.956079583155
 10
1218.723372976976
 20
-322.4345092635337
 10
1218.645248164539
 20
-322.0275346297985
 10
1218.567123352103
 20
-321.7361361194889
 10
1218.488998539667
 20
-321.5610157371395
 10
1218.410873727231
 20
-321.5025953630904
  0
LWPOLYLINE
  5
E5
330
1F
100
AcDbEntity
  8
JIS B 0405-c 普通公差｢c｣粗級
  6
________________
 62
     7
370
     0
100
AcDbPolyline
 90
        7
 70
     0
 43
0.0
 10
1210.910863292185
 20
-370.0025953630903
 42
0.0125172460957387
 10
1208.80150224366
 20
-322.956079583155
 10
1208.723377760381
 20
-322.4345092635337
 10
1208.645253277102
 20
-322.0275346297985
 10
1208.567128793823
 20
-321.7361361194889
 10
1208.489004310545
 20
-321.5610157371395
 10
1208.410879827266
 20
-321.5025953630904
  0
LWPOLYLINE
  5
E6
330
1F
100
AcDbEntity
  8
JIS B 0405-c 普通公差｢c｣粗級
  6
________________
 62
     7
370
     0
100
AcDbPolyline
 90
        7
 70
     0
 43
0.0
 10
1170.910879712485
 20
-370.002595363089
 42
0.0125173599373173
 10
1168.801499392321
 20
-322.9560795831548
 10
1168.723374195278
 20
-322.4345092635336
 10
1168.645248998236
 20
-322.0275346297984
 10
1168.567123801192
 20
-321.7361361194888
 10
1168.488998604149
 20
-321.5610157371395
 10
1168.410873407106
 20
-321.5025953630904
  0
LWPOLYLINE
  5
E7
330
1F
100
AcDbEntity
  8
JIS B 0405-c 普通公差｢c｣粗級
  6
________________
 62
     7
370
     0
100
AcDbPolyline
 90
        7
 70
     0
 43
0.0
 10
1160.910855781515
 20
-370.0025953630904
 42
0.0125174151269819
 10
1158.801466118585
 20
-322.956079583155
 10
1158.723340575513
 20
-322.4345092635337
 10
1158.645215032442
 20
-322.0275346297985
 10
1158.56708948937
 20
-321.7361361194889
 10
1158.488963946299
 20
-321.5610157371395
 10
1158.410838403227
 20
-321.5025953630904
  0
LWPOLYLINE
  5
E8
330
1F
100
AcDbEntity
  8
JIS B 0405-c 普通公差｢c｣粗級
  6
________________
 62
     7
370
     0
100
AcDbPolyline
 90
        7
 70
     0
 43
0.0
 10
1150.910827073236
 20
-370.0025953630899
 42
0.0125173633750995
 10
1148.801446171109
 20
-322.9560795831549
 10
1148.723320952512
 20
-322.4345092635336
 10
1148.645195733914
 20
-322.0275346297985
 10
1148.567070515317
 20
-321.7361361194888
 10
1148.48894529672
 20
-321.5610157371395
 10
1148.410820078122
 20
-321.5025953630904
  0
LWPOLYLINE
  5
E9
330
1F
100
AcDbEntity
  8
JIS B 0405-c 普通公差｢c｣粗級
  6
________________
 62
     7
370
     0
100
AcDbPolyline
 90
        4
 70
     0
 43
0.0
 10
1140.910797414939
 20
-370.0025953630903
 42
0.0119678904096736
 10
1138.829196609284
 20
-323.1682184949569
 42
0.0600357520383524
 10
1138.520811304742
 20
-321.6182146643383
 10
1138.443714978607
 20
-321.5129057373565
  0
LWPOLYLINE
  5
EA
330
1F
100
AcDbEntity
  8
JIS B 0405-c 普通公差｢c｣粗級
  6
________________
 62
     7
370
     0
100
AcDbPolyline
 90
        4
 70
     0
 43
0.0
 10
1130.910770280001
 20
-370.0025953630907
 42
0.0119677263661755
 10
1128.829198133522
 20
-323.1682184949572
 42
0.0600349993825424
 10
1128.520817074784
 20
-321.6182146643383
 10
1128.4437218101
 20
-321.5129057373565
  0
LWPOLYLINE
  5
EB
330
1F
100
AcDbEntity
  8
JIS B 0405-c 普通公差｢c｣粗級
  6
________________
 62
     7
370
     0
100
AcDbPolyline
 90
        3
 70
     0
 43
0.0
 10
-1133.085032394078
 20
-322.3211138669418
 42
0.0176570297608336
 10
-1134.906787940679
 20
-358.3696956647125
 42
0.0002612932175285
 10
-1135.292299200811
 20
-370.0025953630902
210
0.0
220
0.0
230
-1.0
  0
LWPOLYLINE
  5
EC
330
1F
100
AcDbEntity
  8
JIS B 0405-c 普通公差｢c｣粗級
  6
________________
 62
     7
370
     0
100
AcDbPolyline
 90
        3
 70
     0
 43
0.0
 10
-1143.083196832644
 20
-322.3104071874945
 42
0.0189696021807936
 10
-1144.745439029856
 20
-353.6634374735675
 42
0.000525589360226
 10
-1145.292315344023
 20
-370.0025953630901
210
0.0
220
0.0
230
-1.0
  0
LWPOLYLINE
  5
ED
330
1F
100
AcDbEntity
  8
JIS B 0405-c 普通公差｢c｣粗級
  6
________________
 62
     7
370
     0
100
AcDbPolyline
 90
        3
 70
     0
 43
0.0
 10
-1153.084789580187
 20
-322.3193239610761
 42
0.0189253515709773
 10
-1154.745411051564
 20
-353.6634374735677
 42
0.0005255845639374
 10
-1155.292282363936
 20
-370.0025953630903
210
0.0
220
0.0
230
-1.0
  0
LWPOLYLINE
  5
EE
330
1F
100
AcDbEntity
  8
JIS B 0405-c 普通公差｢c｣粗級
  6
________________
 62
     7
370
     0
100
AcDbPolyline
 90
        3
 70
     0
 43
0.0
 10
-1163.083828525221
 20
-322.3141920931378
 42
0.0189507468498999
 10
-1164.74537908793
 20
-353.6634374735677
 42
0.0005255864996033
 10
-1165.292252418909
 20
-370.0025953630905
210
0.0
220
0.0
230
-1.0
  0
LWPOLYLINE
  5
EF
330
1F
100
AcDbEntity
  8
JIS B 0405-c 普通公差｢c｣粗級
  6
________________
 62
     7
370
     0
100
AcDbPolyline
 90
        4
 70
     0
 43
0.0
 10
-1173.085088235289
 20
-322.3213396344793
 42
0.0189155210753668
 10
-1174.745355537865
 20
-353.6634374735678
 10
-1174.823480366809
 20
-355.923788516249
 10
-1174.851445615353
 20
-356.7414238856479
210
0.0
220
0.0
230
-1.0
  0
LWPOLYLINE
  5
F0
330
1F
100
AcDbEntity
  8
JIS B 0405-c 普通公差｢c｣粗級
  6
________________
 62
     7
370
     0
100
AcDbPolyline
 90
        3
 70
     0
 43
0.0
 10
-1213.085173655348
 20
-322.3218084658212
 42
0.0189131916030197
 10
-1214.745354623132
 20
-353.6634374735676
 42
0.0005255862373169
 10
-1215.29222768058
 20
-370.0025953630904
210
0.0
220
0.0
230
-1.0
  0
LWPOLYLINE
  5
F1
330
1F
100
AcDbEntity
  8
JIS B 0405-c 普通公差｢c｣粗級
  6
________________
 62
     7
370
     0
100
AcDbPolyline
 90
        3
 70
     0
 43
0.0
 10
-1223.084807054725
 20
-322.3197050081051
 42
0.0189235873170941
 10
-1224.745369976692
 20
-353.6634374735676
 42
0.0005255876797672
 10
-1225.292244538394
 20
-370.0025953630903
210
0.0
220
0.0
230
-1.0
  0
LWPOLYLINE
  5
F2
330
1F
100
AcDbEntity
  8
JIS B 0405-c 普通公差｢c｣粗級
  6
________________
 62
     7
370
     0
100
AcDbPolyline
 90
        3
 70
     0
 43
0.0
 10
-1233.085054804975
 20
-322.3209696332829
 42
0.0189174137941307
 10
-1234.745395000071
 20
-353.6634374735676
 42
0.0005255890129254
 10
-1235.292270952051
 20
-370.0025953630904
210
0.0
220
0.0
230
-1.0
  0
LWPOLYLINE
  5
F3
330
1F
100
AcDbEntity
  8
JIS B 0405-c 普通公差｢c｣粗級
  6
________________
 62
     7
370
     0
100
AcDbPolyline
 90
        3
 70
     0
 43
0.0
 10
-1243.08499315423
 20
-322.3204439701374
 42
0.0189200229345114
 10
-1244.745429784122
 20
-353.6634374735676
 42
0.0005255896827669
 10
-1245.292306434648
 20
-370.0025953630903
210
0.0
220
0.0
230
-1.0
  0
LWPOLYLINE
  5
F4
330
1F
100
AcDbEntity
  8
JIS B 0405-c 普通公差｢c｣粗級
  6
________________
 62
     7
370
     0
100
AcDbPolyline
 90
        3
 70
     0
 43
0.0
 10
-1253.085023400376
 20
-322.3204209690875
 42
0.0189201693964453
 10
-1254.74546710265
 20
-353.6634374735677
 42
0.0005255906128303
 10
-1255.292344723088
 20
-370.0025953630904
210
0.0
220
0.0
230
-1.0
  0
LWPOLYLINE
  5
F5
330
1F
100
AcDbEntity
  8
JIS B 0405-c 普通公差｢c｣粗級
  6
________________
 62
     7
370
     0
100
AcDbPolyline
 90
        3
 70
     0
 43
0.0
 10
-1263.085108542574
 20
-322.3208191654285
 42
0.0189181312865733
 10
-1264.745473754319
 20
-353.6634374735676
 42
0.0005255883884945
 10
-1265.292349055119
 20
-370.0025953630903
210
0.0
220
0.0
230
-1.0
  0
LWPOLYLINE
  5
F6
330
1F
100
AcDbEntity
  8
JIS B 0405-c 普通公差｢c｣粗級
  6
________________
 62
     7
370
     0
100
AcDbPolyline
 90
        3
 70
     0
 43
0.0
 10
-1273.085122647567
 20
-322.3209919143306
 42
0.0189170804543528
 10
-1274.745439063986
 20
-353.663437473568
 42
0.0005255827649954
 10
-1275.292308500338
 20
-370.0025953630907
210
0.0
220
0.0
230
-1.0
  0
LWPOLYLINE
  5
F7
330
1F
100
AcDbEntity
  8
JIS B 0405-c 普通公差｢c｣粗級
  6
________________
 62
     7
370
     0
100
AcDbPolyline
 90
        3
 70
     0
 43
0.0
 10
-1283.085232410332
 20
-322.3222006042774
 42
0.0176527026466307
 10
-1284.906831914762
 20
-358.3696956647123
 42
0.0002612987757242
 10
-1285.292351393545
 20
-370.0025953630902
210
0.0
220
0.0
230
-1.0
  0
LWPOLYLINE
  5
F8
330
1F
100
AcDbEntity
  8
JIS B 0405-c 普通公差｢c｣粗級
  6
________________
 62
     7
370
     0
100
AcDbPolyline
 90
        3
 70
     0
 43
0.0
 10
-1293.085356622297
 20
-322.3229007392063
 42
0.0176494204747272
 10
-1294.906804078629
 20
-358.369695664713
 42
0.0002612949734155
 10
-1295.292317935116
 20
-370.0025953630909
210
0.0
220
0.0
230
-1.0
  0
ARC
  5
F9
330
1F
100
AcDbEntity
  8
JIS B 0405-c 普通公差｢c｣粗級
  6
________________
 62
     7
370
     0
100
AcDbCircle
 10
-1125.448454251227
 20
-419.8811854211094
 30
0.0
 40
2.208365894294924
210
0.0
220
0.0
230
-1.0
100
AcDbArc
 50
188.8757158534887
 51
210.4885138354018
  0
ARC
  5
FA
330
1F
100
AcDbEntity
  8
JIS B 0405-c 普通公差｢c｣粗級
  6
________________
 62
     7
370
     0
100
AcDbCircle
 10
1130.283167824369
 20
-320.182912520226
 30
0.0
 40
2.380988091486306
100
AcDbArc
 50
9.671930238789459
 51
29.6919339805377
  0
ARC
  5
FB
330
1F
100
AcDbEntity
  8
JIS B 0405-c 普通公差｢c｣粗級
  6
________________
 62
     7
370
     0
100
AcDbCircle
 10
-1136.528499718523
 20
-420.2678379909621
 30
0.0
 40
1.102830399099089
210
0.0
220
0.0
230
-1.0
100
AcDbArc
 50
177.6153198924147
 51
221.7167436487415
  0
ARC
  5
FC
330
1F
100
AcDbEntity
  8
JIS B 0405-c 普通公差｢c｣粗級
  6
________________
 62
     7
370
     0
100
AcDbCircle
 10
1141.550720569465
 20
-319.7253084032886
 30
0.0
 40
1.078160896210905
100
AcDbArc
 50
357.6324287594304
 51
42.03308396972403
  0
ARC
  5
FD
330
1F
100
AcDbEntity
  8
JIS B 0405-c 普通公差｢c｣粗級
  6
________________
 62
     7
370
     0
100
AcDbCircle
 10
-1146.531458424565
 20
-420.2686106091523
 30
0.0
 40
1.099906476907834
210
0.0
220
0.0
230
-1.0
100
AcDbArc
 50
177.5657229181249
 51
221.8078372546274
  0
ARC
  5
FE
330
1F
100
AcDbEntity
  8
JIS B 0405-c 普通公差｢c｣粗級
  6
________________
 62
     7
370
     0
100
AcDbCircle
 10
1151.526457222505
 20
-319.737927821823
 30
0.0
 40
1.104830218463988
100
AcDbArc
 50
357.6477892653127
 51
41.67878590525402
  0
ARC
  5
FF
330
1F
100
AcDbEntity
  8
JIS B 0405-c 普通公差｢c｣粗級
  6
________________
 62
     7
370
     0
100
AcDbCircle
 10
-1156.524696207071
 20
-420.2665972218874
 30
0.0
 40
1.106655432874278
210
0.0
220
0.0
230
-1.0
100
AcDbArc
 50
177.6610607727114
 51
221.6467146591824
  0
ARC
  5
100
330
1F
100
AcDbEntity
  8
JIS B 0405-c 普通公差｢c｣粗級
  6
________________
 62
     7
370
     0
100
AcDbCircle
 10
1161.545625515177
 20
-319.7283805133508
 30
0.0
 40
1.083957601186314
100
AcDbArc
 50
357.596912275303
 51
41.9986001971182
  0
ARC
  5
101
330
1F
100
AcDbEntity
  8
JIS B 0405-c 普通公差｢c｣粗級
  6
________________
 62
     7
370
     0
100
AcDbCircle
 10
-1166.525768155141
 20
-420.266776028197
 30
0.0
 40
1.105669898986098
210
0.0
220
0.0
230
-1.0
100
AcDbArc
 50
177.6240178257089
 51
221.6922256101155
  0
ARC
  5
102
330
1F
100
AcDbEntity
  8
JIS B 0405-c 普通公差｢c｣粗級
  6
________________
 62
     7
370
     0
100
AcDbCircle
 10
1171.520168696942
 20
-319.7392344843985
 30
0.0
 40
1.110891670862485
100
AcDbArc
 50
357.7537635672964
 51
41.51485406609794
  0
SPLINE
  5
103
330
1F
100
AcDbEntity
  8
JIS B 0405-c 普通公差｢c｣粗級
  6
________________
 62
     7
370
     0
100
AcDbSpline
210
0.0
220
0.0
230
1.0
 70
    12
 71
     3
 72
     9
 73
     5
 74
     0
 42
0.000000001
 43
0.0001
 40
1.734414032144828
 40
1.734414032144828
 40
1.734414032144828
 40
1.734414032144828
 40
1.7384565813443
 40
1.738971455422565
 40
1.738971455422565
 40
1.738971455422565
 40
1.738971455422565
 10
1207.630470099636
 20
-420.2205330907436
 30
0.0
 41
1.0
 10
1207.548138094108
 20
-420.6804055729256
 30
0.0
 41
1.0
 10
1207.45531997861
 20
-420.9723626724539
 30
0.0
 41
1.0
 10
1207.362501863113
 20
-421.0024014431574
 30
0.0
 41
1.0
 10
1207.352015753145
 20
-421.0024602147129
 30
0.0
 41
1.0
  0
SPLINE
  5
104
330
1F
100
AcDbEntity
  8
JIS B 0405-c 普通公差｢c｣粗級
  6
________________
 62
     7
370
     0
100
AcDbSpline
210
0.0
220
0.0
230
1.0
 70
    12
 71
     3
 72
     9
 73
     5
 74
     0
 42
0.000000001
 43
0.0001
 40
1.65258228901036
 40
1.65258228901036
 40
1.65258228901036
 40
1.65258228901036
 40
1.65638352385595
 40
1.65714369215288
 40
1.65714369215288
 40
1.65714369215288
 40
1.65714369215288
 10
1212.630313907888
 20
-319.7837945061125
 30
0.0
 41
1.0
 10
1212.552896596959
 20
-319.3515351349865
 30
0.0
 41
1.0
 10
1212.459997426109
 20
-319.0459768607979
 30
0.0
 41
1.0
 10
1212.36709825526
 20
-319.0027353204175
 30
0.0
 41
1.0
 10
1212.35161639534
 20
-319.0027902255655
 30
0.0
 41
1.0
  0
SPLINE
  5
105
330
1F
100
AcDbEntity
  8
JIS B 0405-c 普通公差｢c｣粗級
  6
________________
 62
     7
370
     0
100
AcDbSpline
210
0.0
220
0.0
230
1.0
 70
    12
 71
     3
 72
     9
 73
     5
 74
     0
 42
0.000000001
 43
0.0001
 40
1.570746877255516
 40
1.570746877255516
 40
1.570746877255516
 40
1.570746877255516
 40
1.57431046636759
 40
1.575317090399142
 40
1.575317090399142
 40
1.575317090399142
 40
1.575317090399142
 10
1217.630381865451
 20
-420.2210223653535
 30
0.0
 41
1.0
 10
1217.557804532684
 20
-420.6264277872193
 30
0.0
 41
1.0
 10
1217.464725934195
 20
-420.9461412634355
 30
0.0
 41
1.0
 10
1217.371647335706
 20
-421.0026053359956
 30
0.0
 41
1.0
 10
1217.351146069984
 20
-421.0023223580903
 30
0.0
 41
1.0
  0
SPLINE
  5
106
330
1F
100
AcDbEntity
  8
JIS B 0405-c 普通公差｢c｣粗級
  6
________________
 62
     7
370
     0
100
AcDbSpline
210
0.0
220
0.0
230
1.0
 70
    12
 71
     3
 72
     9
 73
     5
 74
     0
 42
0.000000001
 43
0.0001
 40
1.488926168986233
 40
1.488926168986233
 40
1.488926168986233
 40
1.488926168986233
 40
1.49223740887923
 40
1.493473302794444
 40
1.493473302794444
 40
1.493473302794444
 40
1.493473302794444
 10
1222.629551453647
 20
-319.7795155977533
 30
0.0
 41
1.0
 10
1222.562113555497
 20
-319.4038589131384
 30
0.0
 41
1.0
 10
1222.469504999024
 20
-319.0731229013302
 30
0.0
 41
1.0
 10
1222.37689644255
 20
-319.0028815459711
 30
0.0
 41
1.0
 10
1222.351725784225
 20
-319.0029467684072
 30
0.0
 41
1.0
  0
SPLINE
  5
107
330
1F
100
AcDbEntity
  8
JIS B 0405-c 普通公差｢c｣粗級
  6
________________
 62
     7
370
     0
100
AcDbSpline
210
0.0
220
0.0
230
1.0
 70
    12
 71
     3
 72
     9
 73
     5
 74
     0
 42
0.000000001
 43
0.0001
 40
1.407080037161921
 40
1.407080037161921
 40
1.407080037161921
 40
1.407080037161921
 40
1.41016435139087
 40
1.411637779267915
 40
1.411637779267915
 40
1.411637779267915
 40
1.411637779267915
 10
1227.630274397538
 20
-420.2216772387983
 30
0.0
 41
1.0
 10
1227.567458148774
 20
-420.5725453431658
 30
0.0
 41
1.0
 10
1227.474633539907
 20
-420.9181634483369
 30
0.0
 41
1.0
 10
1227.381808931039
 20
-421.0021951660473
 30
0.0
 41
1.0
 10
1227.351800570934
 20
-421.0021558959814
 30
0.0
 41
1.0
  0
SPLINE
  5
108
330
1F
100
AcDbEntity
  8
JIS B 0405-c 普通公差｢c｣粗級
  6
________________
 62
     7
370
     0
100
AcDbSpline
210
0.0
220
0.0
230
1.0
 70
    12
 71
     3
 72
     9
 73
     5
 74
     0
 42
0.000000001
 43
0.0001
 40
1.325248440435775
 40
1.325248440435775
 40
1.325248440435775
 40
1.325248440435775
 40
1.32809129390251
 40
1.329810613576028
 40
1.329810613576028
 40
1.329810613576028
 40
1.329810613576028
 10
1232.630109260376
 20
-319.7825437032491
 30
0.0
 41
1.0
 10
1232.572210688017
 20
-319.4592831598325
 30
0.0
 41
1.0
 10
1232.479295835118
 20
-319.1000548913413
 30
0.0
 41
1.0
 10
1232.386380982219
 20
-319.0027744873189
 30
0.0
 41
1.0
 10
1232.351364701679
 20
-319.0031270742816
 30
0.0
 41
1.0
  0
ARC
  5
109
330
1F
100
AcDbEntity
  8
JIS B 0405-c 普通公差｢c｣粗級
  6
________________
 62
     7
370
     0
100
AcDbCircle
 10
-1236.68679657352
 20
-420.3246563103335
 30
0.0
 40
0.9489351156676764
210
0.0
220
0.0
230
-1.0
100
AcDbArc
 50
173.8049948418083
 51
225.5423523148133
  0
ARC
  5
10A
330
1F
100
AcDbEntity
  8
JIS B 0405-c 普通公差｢c｣粗級
  6
________________
 62
     7
370
     0
100
AcDbCircle
 10
1241.576850908108
 20
-319.718598116985
 30
0.0
 40
1.054631524002016
100
AcDbArc
 50
356.6584236269643
 51
42.70691632679473
  0
ARC
  5
10B
330
1F
100
AcDbEntity
  8
JIS B 0405-c 普通公差｢c｣粗級
  6
________________
 62
     7
370
     0
100
AcDbCircle
 10
-1246.461339804014
 20
-420.2442178467438
 30
0.0
 40
1.169022262945239
210
0.0
220
0.0
230
-1.0
100
AcDbArc
 50
178.9385868971051
 51
220.3957464452861
  0
ARC
  5
10C
330
1F
100
AcDbEntity
  8
JIS B 0405-c 普通公差｢c｣粗級
  6
________________
 62
     7
370
     0
100
AcDbCircle
 10
1251.343707458068
 20
-319.8033146159065
 30
0.0
 40
1.286544335076603
100
AcDbArc
 50
0.94623523812238
 51
38.44206861979675
  0
ARC
  5
10D
330
1F
100
AcDbEntity
  8
JIS B 0405-c 普通公差｢c｣粗級
  6
________________
 62
     7
370
     0
100
AcDbCircle
 10
-1256.206122701127
 20
-420.1539662957878
 30
0.0
 40
1.425677508403972
210
0.0
220
0.0
230
-1.0
100
AcDbArc
 50
182.771139028235
 51
216.4850256119326
  0
ARC
  5
10E
330
1F
100
AcDbEntity
  8
JIS B 0405-c 普通公差｢c｣粗級
  6
________________
 62
     7
370
     0
100
AcDbCircle
 10
1261.08542569222
 20
-319.8961334942828
 30
0.0
 40
1.548892985569569
100
AcDbArc
 50
4.22141236987522
 51
35.18927095086837
  0
ARC
  5
10F
330
1F
100
AcDbEntity
  8
JIS B 0405-c 普通公差｢c｣粗級
  6
________________
 62
     7
370
     0
100
AcDbCircle
 10
-1265.944733862405
 20
-420.0588614517937
 30
0.0
 40
1.693385738500327
210
0.0
220
0.0
230
-1.0
100
AcDbArc
 50
185.5618833267025
 51
213.8301473445133
  0
ARC
  5
110
330
1F
100
AcDbEntity
  8
JIS B 0405-c 普通公差｢c｣粗級
  6
________________
 62
     7
370
     0
100
AcDbCircle
 10
1270.797924239882
 20
-319.9987118441532
 30
0.0
 40
1.844995493883695
100
AcDbArc
 50
6.733392646598105
 51
32.64065599928553
  0
ARC
  5
111
330
1F
100
AcDbEntity
  8
JIS B 0405-c 普通公差｢c｣粗級
  6
________________
 62
     7
370
     0
100
AcDbCircle
 10
-1275.646687936208
 20
-419.9523471232889
 30
0.0
 40
2.001871569801624
210
0.0
220
0.0
230
-1.0
100
AcDbArc
 50
187.7646090258276
 51
211.6105039915933
  0
ARC
  5
112
330
1F
100
AcDbEntity
  8
JIS B 0405-c 普通公差｢c｣粗級
  6
________________
 62
     7
370
     0
100
AcDbCircle
 10
1280.48887290781
 20
-320.1095704093167
 30
0.0
 40
2.166217116282303
100
AcDbArc
 50
8.663426789736048
 51
30.70187492496374
  0
ARC
  5
113
330
1F
100
AcDbEntity
  8
JIS B 0405-c 普通公差｢c｣粗級
  6
________________
 62
     7
370
     0
100
AcDbCircle
 10
-1285.322727602092
 20
-419.8366595366722
 30
0.0
 40
2.339590646942806
210
0.0
220
0.0
230
-1.0
100
AcDbArc
 50
189.4772503801726
 51
209.8644499262274
  0
ARC
  5
114
330
1F
100
AcDbEntity
  8
JIS B 0405-c 普通公差｢c｣粗級
  6
________________
 62
     7
370
     0
100
AcDbCircle
 10
1291.527252325231
 20
-319.73812184216
 30
0.0
 40
1.104261300453532
100
AcDbArc
 50
357.6074284994269
 51
41.70311559278633
  0
ARC
  5
115
330
1F
100
AcDbEntity
  8
JIS B 0405-c 普通公差｢c｣粗級
  6
________________
 62
     7
370
     0
100
AcDbCircle
 10
-1296.520858167667
 20
-420.2652626978879
 30
0.0
 40
1.110586457051637
210
0.0
220
0.0
230
-1.0
100
AcDbArc
 50
177.7111750047548
 51
221.5409499713271
  0
ARC
  5
116
330
1F
100
AcDbEntity
  8
JIS B 0405-c 普通公差｢c｣粗級
  6
________________
 62
     7
370
     0
100
AcDbCircle
 10
1105.308940320925
 20
-435.1463675049616
 30
0.0
 40
2231.552337062434
210
0.0
220
0.0
230
-1.0
100
AcDbArc
 50
177.3469279596681
 51
178.3271763476842
  0
LWPOLYLINE
  5
117
330
1F
100
AcDbEntity
  8
JIS B 0405-c 普通公差｢c｣粗級
  6
________________
 62
     7
370
     0
100
AcDbPolyline
 90
        7
 70
     0
 43
0.0
 10
1125.292351259428
 20
-370.0025953630929
 42
0.0125173128175666
 10
1127.401723602937
 20
-417.049111143026
 10
1127.479848504548
 20
-417.5706814626474
 10
1127.55797340616
 20
-417.9776560963825
 10
1127.636098307772
 20
-418.2690546066921
 10
1127.714223209383
 20
-418.4441749890414
 10
1127.792348110994
 20
-418.5025953630903
  0
LWPOLYLINE
  5
118
330
1F
100
AcDbEntity
  8
JIS B 0405-c 普通公差｢c｣粗級
  6
________________
 62
     7
370
     0
100
AcDbPolyline
 90
        7
 70
     0
 43
0.0
 10
1135.292299200812
 20
-370.0025953630904
 42
0.0125173387973143
 10
1137.401675942296
 20
-417.0491111430258
 10
1137.479801006795
 20
-417.5706814626471
 10
1137.557926071295
 20
-417.9776560963823
 10
1137.636051135794
 20
-418.269054606692
 10
1137.714176200294
 20
-418.4441749890412
 10
1137.792301264793
 20
-418.5025953630903
  0
LWPOLYLINE
  5
119
330
1F
100
AcDbEntity
  8
JIS B 0405-c 普通公差｢c｣粗級
  6
________________
 62
     7
370
     0
100
AcDbPolyline
 90
        7
 70
     0
 43
0.0
 10
1145.292315344023
 20
-370.0025953630902
 42
0.0125173303426517
 10
1147.401690654262
 20
-417.0491111430257
 10
1147.479815665752
 20
-417.570681462647
 10
1147.557940677242
 20
-417.9776560963823
 10
1147.636065688733
 20
-418.269054606692
 10
1147.714190700223
 20
-418.4441749890412
 10
1147.792315711713
 20
-418.5025953630903
  0
LWPOLYLINE
  5
11A
330
1F
100
AcDbEntity
  8
JIS B 0405-c 普通公差｢c｣粗級
  6
________________
 62
     7
370
     0
100
AcDbPolyline
 90
        7
 70
     0
 43
0.0
 10
1155.292282363934
 20
-370.0025953630903
 42
0.0125172919124528
 10
1157.401651168528
 20
-417.0491111430258
 10
1157.479775939069
 20
-417.5706814626471
 10
1157.557900709609
 20
-417.9776560963823
 10
1157.63602548015
 20
-418.269054606692
 10
1157.71415025069
 20
-418.4441749890412
 10
1157.792275021231
 20
-418.5025953630903
  0
LWPOLYLINE
  5
11B
330
1F
100
AcDbEntity
  8
JIS B 0405-c 普通公差｢c｣粗級
  6
________________
 62
     7
370
     0
100
AcDbPolyline
 90
        7
 70
     0
 43
0.0
 10
1165.292252418909
 20
-370.0025953630904
 42
0.0125172982787538
 10
1167.40162230122
 20
-417.0491111430258
 10
1167.479747111676
 20
-417.5706814626471
 10
1167.557871922131
 20
-417.9776560963823
 10
1167.635996732588
 20
-418.269054606692
 10
1167.714121543044
 20
-418.4441749890412
 10
1167.792246353499
 20
-418.5025953630903
  0
LWPOLYLINE
  5
11C
330
1F
100
AcDbEntity
  8
JIS B 0405-c 普通公差｢c｣粗級
  6
________________
 62
     7
370
     0
100
AcDbPolyline
 90
        4
 70
     0
 43
0.0
 10
1207.283199881904
 20
-416.0430980951175
 42
0.036342417770583
 10
1207.63597825224
 20
-418.269054606692
 10
1207.714103757794
 20
-418.4441749890412
 10
1207.792229263347
 20
-418.5025953630903
  0
LWPOLYLINE
  5
11D
330
1F
100
AcDbEntity
  8
JIS B 0405-c 普通公差｢c｣粗級
  6
________________
 62
     7
370
     0
100
AcDbPolyline
 90
        7
 70
     0
 43
0.0
 10
1215.29222768058
 20
-370.0025953630904
 42
0.0125173805079976
 10
1217.401611483045
 20
-417.0491111430258
 10
1217.479736809062
 20
-417.5706814626471
 10
1217.557862135079
 20
-417.9776560963823
 10
1217.635987461096
 20
-418.269054606692
 10
1217.714112787114
 20
-418.4441749890412
 10
1217.792238113131
 20
-418.5025953630903
  0
LWPOLYLINE
  5
11E
330
1F
100
AcDbEntity
  8
JIS B 0405-c 普通公差｢c｣粗級
  6
________________
 62
     7
370
     0
100
AcDbPolyline
 90
        7
 70
     0
 43
0.0
 10
1225.292244538395
 20
-370.0025953630903
 42
0.01251737264472
 10
1227.401627009727
 20
-417.0491111430258
 10
1227.479752286443
 20
-417.570681462647
 10
1227.557877563159
 20
-417.9776560963823
 10
1227.636002839874
 20
-418.269054606692
 10
1227.714128116591
 20
-418.4441749890412
 10
1227.792253393307
 20
-418.5025953630903
  0
LWPOLYLINE
  5
11F
330
1F
100
AcDbEntity
  8
JIS B 0405-c 普通公差｢c｣粗級
  6
________________
 62
     7
370
     0
100
AcDbPolyline
 90
        7
 70
     0
 43
0.0
 10
1235.292270952053
 20
-370.0025953630903
 42
0.0125173793291591
 10
1237.401654554959
 20
-417.0491111430258
 10
1237.479779873585
 20
-417.5706814626471
 10
1237.557905192211
 20
-417.9776560963823
 10
1237.636030510837
 20
-418.269054606692
 10
1237.714155829463
 20
-418.4441749890412
 10
1237.792281148089
 20
-418.5025953630903
  0
LWPOLYLINE
  5
120
330
1F
100
AcDbEntity
  8
JIS B 0405-c 普通公差｢c｣粗級
  6
________________
 62
     7
370
     0
100
AcDbPolyline
 90
        7
 70
     0
 43
0.0
 10
1245.292306434649
 20
-370.0025953630904
 42
0.0125173642222438
 10
1247.401687480184
 20
-417.0491111430258
 10
1247.479812704093
 20
-417.5706814626471
 10
1247.557937928002
 20
-417.9776560963823
 10
1247.636063151911
 20
-418.269054606692
 10
1247.714188375819
 20
-418.4441749890412
 10
1247.792313599728
 20
-418.5025953630903
  0
LWPOLYLINE
  5
121
330
1F
100
AcDbEntity
  8
JIS B 0405-c 普通公差｢c｣粗級
  6
________________
 62
     7
370
     0
100
AcDbPolyline
 90
        7
 70
     0
 43
0.0
 10
1255.292344723087
 20
-370.0025953630906
 42
0.0125173324521683
 10
1257.401720390434
 20
-417.0491111430258
 10
1257.479845415151
 20
-417.5706814626471
 10
1257.557970439867
 20
-417.9776560963823
 10
1257.636095464584
 20
-418.269054606692
 10
1257.7142204893
 20
-418.4441749890412
 10
1257.792345514017
 20
-418.5025953630903
  0
LWPOLYLINE
  5
122
330
1F
100
AcDbEntity
  8
JIS B 0405-c 普通公差｢c｣粗級
  6
________________
 62
     7
370
     0
100
AcDbPolyline
 90
        7
 70
     0
 43
0.0
 10
1265.292349055117
 20
-370.0025953630904
 42
0.0125173542107267
 10
1267.401728405856
 20
-417.0491111430258
 10
1267.479853566995
 20
-417.5706814626471
 10
1267.557978728133
 20
-417.9776560963823
 10
1267.636103889272
 20
-418.269054606692
 10
1267.71422905041
 20
-418.4441749890412
 10
1267.792354211549
 20
-418.5025953630903
  0
LWPOLYLINE
  5
123
330
1F
100
AcDbEntity
  8
JIS B 0405-c 普通公差｢c｣粗級
  6
________________
 62
     7
370
     0
100
AcDbPolyline
 90
        7
 70
     0
 43
0.0
 10
1275.292308500338
 20
-370.0025953630909
 42
0.0125173425421692
 10
1277.401685875768
 20
-417.0491111430258
 10
1277.479810963747
 20
-417.5706814626471
 10
1277.557936051726
 20
-417.9776560963823
 10
1277.636061139705
 20
-418.269054606692
 10
1277.714186227684
 20
-418.4441749890412
 10
1277.792311315663
 20
-418.5025953630903
  0
LWPOLYLINE
  5
124
330
1F
100
AcDbEntity
  8
JIS B 0405-c 普通公差｢c｣粗級
  6
________________
 62
     7
370
     0
100
AcDbPolyline
 90
        7
 70
     0
 43
0.0
 10
1285.292351393545
 20
-370.0025953630899
 42
0.0125173025509639
 10
1287.401721999075
 20
-417.0491111430257
 10
1287.479846836317
 20
-417.570681462647
 10
1287.557971673559
 20
-417.9776560963822
 10
1287.636096510801
 20
-418.2690546066919
 10
1287.714221348043
 20
-418.4441749890412
 10
1287.792346185285
 20
-418.5025953630903
  0
LWPOLYLINE
  5
125
330
1F
100
AcDbEntity
  8
JIS B 0405-c 普通公差｢c｣粗級
  6
________________
 62
     7
370
     0
100
AcDbPolyline
 90
        7
 70
     0
 43
0.0
 10
1295.292317935118
 20
-370.002595363091
 42
0.013100787153892
 10
1297.409055786655
 20
-417.1030882325401
 10
1297.490468780945
 20
-417.6329054606706
 10
1297.571881775235
 20
-418.0381181662622
 10
1297.653294769525
 20
-418.317666281984
 10
1297.734707763815
 20
-418.4708184886524
 10
1297.792325489391
 20
-418.5025953630681
  0
LINE
  5
126
330
1F
100
AcDbEntity
  8
JIS B 0405-c 普通公差｢c｣粗級
  6
________________
 62
     7
370
     0
100
AcDbLine
 10
1123.851445615353
 20
-340.0228893891315
 30
0.0
 11
1123.851445615353
 21
-331.8516105168457
 31
0.0
  0
LINE
  5
127
330
1F
100
AcDbEntity
  8
JIS B 0405-c 普通公差｢c｣粗級
  6
________________
 62
     7
370
     0
100
AcDbLine
 10
1303.851445615353
 20
-320.0025953630904
 30
0.0
 11
1303.851445615353
 21
-420.0025953630903
 31
0.0
  0
LINE
  5
128
330
1F
100
AcDbEntity
  8
JIS B 0405-c 普通公差｢c｣粗級
  6
________________
 62
     7
370
     0
100
AcDbLine
 10
1305.851445615353
 20
-320.0025953630904
 30
0.0
 11
1305.851445615353
 21
-420.0025953630903
 31
0.0
  0
LINE
  5
129
330
1F
100
AcDbEntity
  8
JIS B 0405-c 普通公差｢c｣粗級
  6
________________
 62
     7
370
     0
100
AcDbLine
 10
1122.851445615353
 20
-417.9191895659342
 30
0.0
 11
1122.851445615353
 21
-418.5025953630904
 31
0.0
  0
LINE
  5
12A
330
1F
100
AcDbEntity
  8
JIS B 0405-c 普通公差｢c｣粗級
  6
________________
 62
     7
370
     0
100
AcDbLine
 10
1122.851445615353
 20
-417.9191895659342
 30
0.0
 11
1121.851445615353
 21
-417.9191895659342
 31
0.0
  0
LINE
  5
12B
330
1F
100
AcDbEntity
  8
JIS B 0405-c 普通公差｢c｣粗級
  6
________________
 62
     7
370
     0
100
AcDbLine
 10
1121.851445615353
 20
-377.5025953630904
 30
0.0
 11
1121.851445615353
 21
-417.9191895659342
 31
0.0
  0
LINE
  5
12C
330
1F
100
AcDbEntity
  8
JIS B 0405-c 普通公差｢c｣粗級
  6
________________
 62
     7
370
     0
100
AcDbLine
 10
1122.851445615353
 20
-377.5025953630904
 30
0.0
 11
1121.851445615353
 21
-377.5025953630904
 31
0.0
  0
LINE
  5
12D
330
1F
100
AcDbEntity
  8
JIS B 0405-c 普通公差｢c｣粗級
  6
________________
 62
     7
370
     0
100
AcDbLine
 10
1122.851445615353
 20
-362.5025953630904
 30
0.0
 11
1122.851445615353
 21
-377.5025953630904
 31
0.0
  0
LINE
  5
12E
330
1F
100
AcDbEntity
  8
JIS B 0405-c 普通公差｢c｣粗級
  6
________________
 62
     7
370
     0
100
AcDbLine
 10
1121.851445615353
 20
-362.5025953630904
 30
0.0
 11
1122.851445615353
 21
-362.5025953630904
 31
0.0
  0
LINE
  5
12F
330
1F
100
AcDbEntity
  8
JIS B 0405-c 普通公差｢c｣粗級
  6
________________
 62
     7
370
     0
100
AcDbLine
 10
1121.851445615353
 20
-322.0860011602466
 30
0.0
 11
1121.851445615353
 21
-362.5025953630904
 31
0.0
  0
LINE
  5
130
330
1F
100
AcDbEntity
  8
JIS B 0405-c 普通公差｢c｣粗級
  6
________________
 62
     7
370
     0
100
AcDbLine
 10
1122.851445615353
 20
-322.0860011602466
 30
0.0
 11
1121.851445615353
 21
-322.0860011602466
 31
0.0
  0
LINE
  5
131
330
1F
100
AcDbEntity
  8
JIS B 0405-c 普通公差｢c｣粗級
  6
________________
 62
     7
370
     0
100
AcDbLine
 10
1122.851445615353
 20
-321.5129057373566
 30
0.0
 11
1122.851445615353
 21
-322.0860011602467
 31
0.0
  0
LINE
  5
132
330
1F
100
AcDbEntity
  8
JIS B 0405-c 普通公差｢c｣粗級
  6
________________
 62
     7
370
     0
100
AcDbLine
 10
1128.443721810099
 20
-321.5129057373566
 30
0.0
 11
1122.851445615353
 21
-321.5129057373566
 31
0.0
  0
LINE
  5
133
330
1F
100
AcDbEntity
  8
JIS B 0405-c 普通公差｢c｣粗級
  6
________________
 62
     7
370
     0
100
AcDbLine
 10
1288.443720404415
 20
-321.5129057373566
 30
0.0
 11
1282.940267660678
 21
-321.5129057373566
 31
0.0
  0
LINE
  5
134
330
1F
100
AcDbEntity
  8
JIS B 0405-c 普通公差｢c｣粗級
  6
________________
 62
     7
370
     0
100
AcDbLine
 10
1138.443714978607
 20
-321.5129057373566
 30
0.0
 11
1132.940277243227
 21
-321.5129057373566
 31
0.0
  0
LINE
  5
135
330
1F
100
AcDbEntity
  8
JIS B 0405-c 普通公差｢c｣粗級
  6
________________
 62
     7
370
     0
100
AcDbLine
 10
1298.443709945355
 20
-321.5129057373566
 30
0.0
 11
1292.940279818187
 21
-321.5129057373566
 31
0.0
  0
LINE
  5
136
330
1F
100
AcDbEntity
  8
JIS B 0405-c 普通公差｢c｣粗級
  6
________________
 62
     7
370
     0
100
AcDbLine
 10
1301.851445615353
 20
-321.5129057373566
 30
0.0
 11
1299.851445615353
 21
-321.5129057373566
 31
0.0
  0
LINE
  5
137
330
1F
100
AcDbEntity
  8
JIS B 0405-c 普通公差｢c｣粗級
  6
________________
 62
     7
370
     0
100
AcDbLine
 10
1301.851445615353
 20
-321.5129057373566
 30
0.0
 11
1301.851445615353
 21
-418.5025953630903
 31
0.0
  0
LINE
  5
138
330
1F
100
AcDbEntity
  8
JIS B 0405-c 普通公差｢c｣粗級
  6
________________
 62
     7
370
     0
100
AcDbLine
 10
1323.151445615353
 20
-317.6935044539995
 30
0.0
 11
1323.151445615353
 21
-310.2753226358177
 31
0.0
  0
LINE
  5
139
330
1F
100
AcDbEntity
  8
JIS B 0405-c 普通公差｢c｣粗級
  6
________________
 62
     7
370
     0
100
AcDbLine
 10
1322.851445615353
 20
-310.2753226358177
 30
0.0
 11
1323.151445615353
 21
-310.2753226358177
 31
0.0
  0
LINE
  5
13A
330
1F
100
AcDbEntity
  8
JIS B 0405-c 普通公差｢c｣粗級
  6
________________
 62
     7
370
     0
100
AcDbLine
 10
1323.151445615353
 20
-317.7298680903631
 30
0.0
 11
1323.151445615353
 21
-317.7169018263774
 31
0.0
  0
LINE
  5
13B
330
1F
100
AcDbEntity
  8
JIS B 0405-c 普通公差｢c｣粗級
  6
________________
 62
     7
370
     0
100
AcDbLine
 10
1179.989937597827
 20
-435.0025953630904
 30
0.0
 11
1207.283199881904
 21
-435.0025953630904
 31
0.0
  0
LINE
  5
13C
330
1F
100
AcDbEntity
  8
JIS B 0405-c 普通公差｢c｣粗級
  6
________________
 62
     7
370
     0
100
AcDbLine
 10
1207.283199881904
 20
-305.0025953630904
 30
0.0
 11
1179.989937597827
 21
-305.0025953630904
 31
0.0
  0
LINE
  5
13D
330
1F
100
AcDbEntity
  8
JIS B 0405-c 普通公差｢c｣粗級
  6
________________
 62
     7
370
     0
100
AcDbLine
 10
1202.851445615353
 20
-366.6263423805934
 30
0.0
 11
1179.989937597827
 21
-366.6263423805934
 31
0.0
  0
LINE
  5
13E
330
1F
100
AcDbEntity
  8
JIS B 0405-c 普通公差｢c｣粗級
  6
________________
 62
     7
370
     0
100
AcDbLine
 10
1179.989937597827
 20
-373.3788483455874
 30
0.0
 11
1202.851445615353
 21
-373.3788483455874
 31
0.0
  0
LINE
  5
13F
330
1F
100
AcDbEntity
  8
JIS B 0405-c 普通公差｢c｣粗級
  6
________________
 62
     7
370
     0
100
AcDbLine
 10
1179.936501412533
 20
-366.6332575391302
 30
0.0
 11
1175.297999423595
 21
-366.77892059496
 31
0.0
  0
LINE
  5
140
330
1F
100
AcDbEntity
  8
JIS B 0405-c 普通公差｢c｣粗級
  6
________________
 62
     7
370
     0
100
AcDbLine
 10
1175.298000531251
 20
-373.2262704912008
 30
0.0
 11
1179.936502519984
 21
-373.3719335469
 31
0.0
  0
ARC
  5
141
330
1F
100
AcDbEntity
  8
JIS B 0405-c 普通公差｢c｣粗級
  6
________________
 62
     7
370
     0
100
AcDbCircle
 10
1175.351445615353
 20
-372.7331878235444
 30
0.0
 40
0.4999999999999449
100
AcDbArc
 50
180.0
 51
268.2013543809368
  0
ARC
  5
142
330
1F
100
AcDbEntity
  8
JIS B 0405-c 普通公差｢c｣粗級
  6
________________
 62
     7
370
     0
100
AcDbCircle
 10
1175.351445615353
 20
-367.2720029026364
 30
0.0
 40
0.5000000000000059
100
AcDbArc
 50
91.79864561904739
 51
179.9999999999838
  0
ARC
  5
143
330
1F
100
AcDbEntity
  8
JIS B 0405-c 普通公差｢c｣粗級
  6
________________
 62
     7
370
     0
100
AcDbCircle
 10
1179.989937597827
 20
-417.5994310784158
 30
0.0
 40
0.4999999999999959
100
AcDbArc
 50
245.9678936976383
 51
270.0000000000132
  0
ARC
  5
144
330
1F
100
AcDbEntity
  8
JIS B 0405-c 普通公差｢c｣粗級
  6
________________
 62
     7
370
     0
100
AcDbCircle
 10
1179.989937597827
 20
-322.4057596477651
 30
0.0
 40
0.5000000000000004
100
AcDbArc
 50
90.0
 51
114.0321063023626
  0
LINE
  5
145
330
1F
100
AcDbEntity
  8
JIS B 0405-c 普通公差｢c｣粗級
  6
________________
 62
     7
370
     0
100
AcDbLine
 10
1202.851445615353
 20
-321.905759647765
 30
0.0
 11
1179.989937597827
 21
-321.905759647765
 31
0.0
  0
LINE
  5
146
330
1F
100
AcDbEntity
  8
JIS B 0405-c 普通公差｢c｣粗級
  6
________________
 62
     7
370
     0
100
AcDbLine
 10
1179.989937597827
 20
-418.0994310784158
 30
0.0
 11
1202.851445615353
 21
-418.0994310784158
 31
0.0
  0
LINE
  5
147
330
1F
100
AcDbEntity
  8
JIS B 0405-c 普通公差｢c｣粗級
  6
________________
 62
     7
370
     0
100
AcDbLine
 10
1179.785973745973
 20
-321.9492536609781
 30
0.0
 11
1175.147481338719
 21
-324.0175615876875
 31
0.0
  0
LINE
  5
148
330
1F
100
AcDbEntity
  8
JIS B 0405-c 普通公差｢c｣粗級
  6
________________
 62
     7
370
     0
100
AcDbLine
 10
1175.147481338719
 20
-415.9876291384933
 30
0.0
 11
1179.785973745973
 21
-418.0559370652028
 31
0.0
  0
ARC
  5
149
330
1F
100
AcDbEntity
  8
JIS B 0405-c 普通公差｢c｣粗級
  6
________________
 62
     7
370
     0
100
AcDbCircle
 10
1175.351445615353
 20
-415.5311233411852
 30
0.0
 40
0.4999999999999449
100
AcDbArc
 50
180.0
 51
245.9678346422533
  0
ARC
  5
14A
330
1F
100
AcDbEntity
  8
JIS B 0405-c 普通公差｢c｣粗級
  6
________________
 62
     7
370
     0
100
AcDbCircle
 10
1175.351445615353
 20
-324.4740673849956
 30
0.0
 40
0.4999999999999525
100
AcDbArc
 50
114.0321653577279
 51
179.9999999999967
  0
LINE
  5
14B
330
1F
100
AcDbEntity
  8
JIS B 0405-c 普通公差｢c｣粗級
  6
________________
 62
     7
370
     0
100
AcDbLine
 10
1174.860691961896
 20
-332.6657042364452
 30
0.0
 11
1174.851609709615
 21
-332.6866732058836
 31
0.0
  0
LINE
  5
14C
330
1F
100
AcDbEntity
  8
JIS B 0405-c 普通公差｢c｣粗級
  6
________________
 62
     7
370
     0
100
AcDbLine
 10
1174.851579737866
 20
-407.3184545026298
 30
0.0
 11
1174.860691961896
 21
-407.3394864897355
 31
0.0
  0
ARC
  5
14D
330
1F
100
AcDbEntity
  8
JIS B 0405-c 普通公差｢c｣粗級
  6
________________
 62
     7
370
     0
100
AcDbCircle
 10
1179.989937597827
 20
-434.5025953630904
 30
0.0
 40
0.4999999999999508
100
AcDbArc
 50
239.0362434679396
 51
270.0000000000082
  0
ARC
  5
14E
330
1F
100
AcDbEntity
  8
JIS B 0405-c 普通公差｢c｣粗級
  6
________________
 62
     7
370
     0
100
AcDbCircle
 10
1179.989937597827
 20
-305.5025953630904
 30
0.0
 40
0.5000000000000004
100
AcDbArc
 50
90.0
 51
120.9637565320686
  0
LINE
  5
14F
330
1F
100
AcDbEntity
  8
JIS B 0405-c 普通公差｢c｣粗級
  6
________________
 62
     7
370
     0
100
AcDbLine
 10
1179.732689720113
 20
-305.0738489002341
 30
0.0
 11
1175.094197737639
 21
-307.8569440897186
 31
0.0
  0
LINE
  5
150
330
1F
100
AcDbEntity
  8
JIS B 0405-c 普通公差｢c｣粗級
  6
________________
 62
     7
370
     0
100
AcDbLine
 10
1175.094197737639
 20
-432.1482466364621
 30
0.0
 11
1179.732689720114
 21
-434.9313418259467
 31
0.0
  0
ARC
  5
151
330
1F
100
AcDbEntity
  8
JIS B 0405-c 普通公差｢c｣粗級
  6
________________
 62
     7
370
     0
100
AcDbCircle
 10
1175.351445615353
 20
-308.2856905525749
 30
0.0
 40
0.4999999999999508
100
AcDbArc
 50
120.9637565320604
 51
179.9999999999921
  0
ARC
  5
152
330
1F
100
AcDbEntity
  8
JIS B 0405-c 普通公差｢c｣粗級
  6
________________
 62
     7
370
     0
100
AcDbCircle
 10
1175.351445615353
 20
-431.7195001736059
 30
0.0
 40
0.4999999999999449
100
AcDbArc
 50
180.0
 51
239.0362434679317
  0
ARC
  5
153
330
1F
100
AcDbEntity
  8
JIS B 0405-c 普通公差｢c｣粗級
  6
________________
 62
     7
370
     0
100
AcDbCircle
 10
1321.851445615353
 20
-434.0025953630904
 30
0.0
 40
1.000000000000001
100
AcDbArc
 50
270.0
 51
0.0
  0
LINE
  5
154
330
1F
100
AcDbEntity
  8
JIS B 0405-c 普通公差｢c｣粗級
  6
________________
 62
     7
370
     0
100
AcDbLine
 10
1316.851445615353
 20
-435.0025953630904
 30
0.0
 11
1321.851445615353
 21
-435.0025953630904
 31
0.0
  0
LINE
  5
155
330
1F
100
AcDbEntity
  8
JIS B 0405-c 普通公差｢c｣粗級
  6
________________
 62
     7
370
     0
100
AcDbLine
 10
1323.051445615353
 20
-366.2891979034688
 30
0.0
 11
1322.851445615353
 21
-366.2891979034688
 31
0.0
  0
LINE
  5
156
330
1F
100
AcDbEntity
  8
JIS B 0405-c 普通公差｢c｣粗級
  6
________________
 62
     7
370
     0
100
AcDbLine
 10
1132.351536406112
 20
-319.00352250378
 30
0.0
 11
1128.851536406122
 21
-319.0035144433515
 31
0.0
  0
LINE
  5
157
330
1F
100
AcDbEntity
  8
JIS B 0405-c 普通公差｢c｣粗級
  6
________________
 62
     7
370
     0
100
AcDbLine
 10
1142.351534529638
 20
-319.0034154236863
 30
0.0
 11
1138.851534529648
 21
-319.003407363241
 31
0.0
  0
LINE
  5
158
330
1F
100
AcDbEntity
  8
JIS B 0405-c 普通公差｢c｣粗級
  6
________________
 62
     7
370
     0
100
AcDbLine
 10
1152.351660662251
 20
-319.003266869781
 30
0.0
 11
1148.851660662261
 21
-319.0032588093122
 31
0.0
  0
LINE
  5
159
330
1F
100
AcDbEntity
  8
JIS B 0405-c 普通公差｢c｣粗級
  6
________________
 62
     7
370
     0
100
AcDbLine
 10
1162.351205024754
 20
-319.0030909541802
 30
0.0
 11
1158.851205024763
 21
-319.0030828936835
 31
0.0
  0
LINE
  5
15A
330
1F
100
AcDbEntity
  8
JIS B 0405-c 普通公差｢c｣粗級
  6
________________
 62
     7
370
     0
100
AcDbLine
 10
1172.352010422494
 20
-319.0029200632508
 30
0.0
 11
1168.852010422503
 21
-319.0029120027271
 31
0.0
  0
LINE
  5
15B
330
1F
100
AcDbEntity
  8
JIS B 0405-c 普通公差｢c｣粗級
  6
________________
 62
     7
370
     0
100
AcDbLine
 10
1212.351638846553
 20
-319.0027901510341
 30
0.0
 11
1208.851638846563
 21
-319.00278209049
 31
0.0
  0
LINE
  5
15C
330
1F
100
AcDbEntity
  8
JIS B 0405-c 普通公差｢c｣粗級
  6
________________
 62
     7
370
     0
100
AcDbLine
 10
1222.351750010767
 20
-319.0029467115465
 30
0.0
 11
1218.851750010776
 21
-319.0029386510272
 31
0.0
  0
LINE
  5
15D
330
1F
100
AcDbEntity
  8
JIS B 0405-c 普通公差｢c｣粗級
  6
________________
 62
     7
370
     0
100
AcDbLine
 10
1232.3513656558
 20
-319.0031270646836
 30
0.0
 11
1228.851365655809
 21
-319.0031190041926
 31
0.0
  0
LINE
  5
15E
330
1F
100
AcDbEntity
  8
JIS B 0405-c 普通公差｢c｣粗級
  6
________________
 62
     7
370
     0
100
AcDbLine
 10
1242.35182961455
 20
-319.0032959959005
 30
0.0
 11
1238.851829614559
 21
-319.0032879354363
 31
0.0
  0
LINE
  5
15F
330
1F
100
AcDbEntity
  8
JIS B 0405-c 普通公差｢c｣粗級
  6
________________
 62
     7
370
     0
100
AcDbLine
 10
1252.351377554829
 20
-319.003440369498
 30
0.0
 11
1248.851377554838
 21
-319.0034323090566
 31
0.0
  0
LINE
  5
160
330
1F
100
AcDbEntity
  8
JIS B 0405-c 普通公差｢c｣粗級
  6
________________
 62
     7
370
     0
100
AcDbLine
 10
1262.351285611295
 20
-319.0035383576458
 30
0.0
 11
1258.851285611304
 21
-319.0035302972199
 31
0.0
  0
LINE
  5
161
330
1F
100
AcDbEntity
  8
JIS B 0405-c 普通公差｢c｣粗級
  6
________________
 62
     7
370
     0
100
AcDbLine
 10
1272.351539397339
 20
-319.0035795072691
 30
0.0
 11
1268.851539397348
 21
-319.0035714468498
 31
0.0
  0
LINE
  5
162
330
1F
100
AcDbEntity
  8
JIS B 0405-c 普通公差｢c｣粗級
  6
________________
 62
     7
370
     0
100
AcDbLine
 10
1282.351487255831
 20
-319.0035626462468
 30
0.0
 11
1278.851487255841
 21
-319.0035545858248
 31
0.0
  0
LINE
  5
163
330
1F
100
AcDbEntity
  8
JIS B 0405-c 普通公差｢c｣粗級
  6
________________
 62
     7
370
     0
100
AcDbLine
 10
1292.351696960589
 20
-319.0034888791741
 30
0.0
 11
1288.851696960598
 21
-319.0034808187404
 31
0.0
  0
LINE
  5
164
330
1F
100
AcDbEntity
  8
JIS B 0405-c 普通公差｢c｣粗級
  6
________________
 62
     7
370
     0
100
AcDbLine
 10
1299.851445643184
 20
-319.0098787845794
 30
0.0
 11
1298.876799797835
 21
-319.0098765402699
 31
0.0
  0
LINE
  5
165
330
1F
100
AcDbEntity
  8
JIS B 0405-c 普通公差｢c｣粗級
  6
________________
 62
     7
370
     0
100
AcDbLine
 10
1293.852113345195
 20
-421.0017618857906
 30
0.0
 11
1297.352113345186
 21
-421.0017538253487
 31
0.0
  0
LINE
  5
166
330
1F
100
AcDbEntity
  8
JIS B 0405-c 普通公差｢c｣粗級
  6
________________
 62
     7
370
     0
100
AcDbLine
 10
1283.851635525993
 20
-421.0016662030013
 30
0.0
 11
1287.351635525984
 21
-421.0016581425745
 31
0.0
  0
LINE
  5
167
330
1F
100
AcDbEntity
  8
JIS B 0405-c 普通公差｢c｣粗級
  6
________________
 62
     7
370
     0
100
AcDbLine
 10
1273.851567751135
 20
-421.001620229109
 30
0.0
 11
1277.351567751125
 21
-421.0016121686895
 31
0.0
  0
LINE
  5
168
330
1F
100
AcDbEntity
  8
JIS B 0405-c 普通公差｢c｣粗級
  6
________________
 62
     7
370
     0
100
AcDbLine
 10
1263.851437884153
 20
-421.0016329533499
 30
0.0
 11
1267.351437884144
 21
-421.0016248929285
 31
0.0
  0
LINE
  5
169
330
1F
100
AcDbEntity
  8
JIS B 0405-c 普通公差｢c｣粗級
  6
________________
 62
     7
370
     0
100
AcDbLine
 10
1253.852407329884
 20
-421.0016999755321
 30
0.0
 11
1257.352407329875
 21
-421.0016919151
 31
0.0
  0
LINE
  5
16A
330
1F
100
AcDbEntity
  8
JIS B 0405-c 普通公差｢c｣粗級
  6
________________
 62
     7
370
     0
100
AcDbLine
 10
1243.851674472025
 20
-421.0018264735517
 30
0.0
 11
1247.351674472016
 21
-421.0018184130996
 31
0.0
  0
LINE
  5
16B
330
1F
100
AcDbEntity
  8
JIS B 0405-c 普通公差｢c｣粗級
  6
________________
 62
     7
370
     0
100
AcDbLine
 10
1233.851414290947
 20
-421.0019842366736
 30
0.0
 11
1237.351414290937
 21
-421.0019761761965
 31
0.0
  0
LINE
  5
16C
330
1F
100
AcDbEntity
  8
JIS B 0405-c 普通公差｢c｣粗級
  6
________________
 62
     7
370
     0
100
AcDbLine
 10
1223.851824400502
 20
-421.0021639819527
 30
0.0
 11
1227.351824400493
 21
-421.0021559214473
 31
0.0
  0
LINE
  5
16D
330
1F
100
AcDbEntity
  8
JIS B 0405-c 普通公差｢c｣粗級
  6
________________
 62
     7
370
     0
100
AcDbLine
 10
1213.851170364657
 20
-421.0023307480061
 30
0.0
 11
1217.351170364648
 21
-421.0023226874742
 31
0.0
  0
LINE
  5
16E
330
1F
100
AcDbEntity
  8
JIS B 0405-c 普通公差｢c｣粗級
  6
________________
 62
     7
370
     0
100
AcDbLine
 10
1207.283199881904
 20
-421.0024602409015
 30
0.0
 11
1207.352038438553
 21
-421.0024600823653
 31
0.0
  0
LINE
  5
16F
330
1F
100
AcDbEntity
  8
JIS B 0405-c 普通公差｢c｣粗級
  6
________________
 62
     7
370
     0
100
AcDbLine
 10
1173.851477114172
 20
-421.0023638091626
 30
0.0
 11
1174.851445615353
 21
-421.0023615062245
 31
0.0
  0
LINE
  5
170
330
1F
100
AcDbEntity
  8
JIS B 0405-c 普通公差｢c｣粗級
  6
________________
 62
     7
370
     0
100
AcDbLine
 10
1163.851427514026
 20
-421.0021971710132
 30
0.0
 11
1167.351427514017
 21
-421.0021891105026
 31
0.0
  0
LINE
  5
171
330
1F
100
AcDbEntity
  8
JIS B 0405-c 普通公差｢c｣粗級
  6
________________
 62
     7
370
     0
100
AcDbLine
 10
1153.851674590205
 20
-421.00201713169
 30
0.0
 11
1157.351674590196
 21
-421.0020090712077
 31
0.0
  0
LINE
  5
172
330
1F
100
AcDbEntity
  8
JIS B 0405-c 普通公差｢c｣粗級
  6
________________
 62
     7
370
     0
100
AcDbLine
 10
1143.851334744812
 20
-421.0018541955989
 30
0.0
 11
1147.351334744802
 21
-421.0018461351424
 31
0.0
  0
LINE
  5
173
330
1F
100
AcDbEntity
  8
JIS B 0405-c 普通公差｢c｣粗級
  6
________________
 62
     7
370
     0
100
AcDbLine
 10
1133.851724077629
 20
-421.0017227494939
 30
0.0
 11
1137.351724077619
 21
-421.0017146890582
 31
0.0
  0
LINE
  5
174
330
1F
100
AcDbEntity
  8
JIS B 0405-c 普通公差｢c｣粗級
  6
________________
 62
     7
370
     0
100
AcDbLine
 10
1123.851472252494
 20
-421.0016424143816
 30
0.0
 11
1127.351472252484
 21
-421.0016343539585
 31
0.0
  0
LINE
  5
175
330
1F
100
AcDbEntity
  8
JIS B 0405-c 普通公差｢c｣粗級
  6
________________
 62
     7
370
     0
100
AcDbLine
 10
1128.572946950975
 20
-319.7824925565992
 30
0.0
 11
1128.262907552226
 21
-321.513018561519
 31
0.0
  0
LINE
  5
176
330
1F
100
AcDbEntity
  8
JIS B 0405-c 普通公差｢c｣粗級
  6
________________
 62
     7
370
     0
100
AcDbLine
 10
1138.572940058848
 20
-319.7827054625055
 30
0.0
 11
1138.262937192204
 21
-321.5130186317651
 31
0.0
  0
LINE
  5
177
330
1F
100
AcDbEntity
  8
JIS B 0405-c 普通公差｢c｣粗級
  6
________________
 62
     7
370
     0
100
AcDbLine
 10
1148.572910646178
 20
-319.7830270445567
 30
0.0
 11
1148.264811454592
 21
-321.5027054456028
 31
0.0
  0
LINE
  5
178
330
1F
100
AcDbEntity
  8
JIS B 0405-c 普通公差｢c｣粗級
  6
________________
 62
     7
370
     0
100
AcDbLine
 10
1158.572862431256
 20
-319.7834176036336
 30
0.0
 11
1158.264846523295
 21
-321.502612749329
 31
0.0
  0
LINE
  5
179
330
1F
100
AcDbEntity
  8
JIS B 0405-c 普通公差｢c｣粗級
  6
________________
 62
     7
370
     0
100
AcDbLine
 10
1168.572768757836
 20
-319.7840126941271
 30
0.0
 11
1168.264857560837
 21
-321.5026033374405
 31
0.0
  0
LINE
  5
17A
330
1F
100
AcDbEntity
  8
JIS B 0405-c 普通公差｢c｣粗級
  6
________________
 62
     7
370
     0
100
AcDbLine
 10
1208.572479759321
 20
-319.7853572294502
 30
0.0
 11
1208.264781865921
 21
-321.5027046291855
 31
0.0
  0
LINE
  5
17B
330
1F
100
AcDbEntity
  8
JIS B 0405-c 普通公差｢c｣粗級
  6
________________
 62
     7
370
     0
100
AcDbLine
 10
1218.572526865091
 20
-319.7849238464472
 30
0.0
 11
1218.264751563209
 21
-321.5027045689743
 31
0.0
  0
LINE
  5
17C
330
1F
100
AcDbEntity
  8
JIS B 0405-c 普通公差｢c｣粗級
  6
________________
 62
     7
370
     0
100
AcDbLine
 10
1228.572419449023
 20
-319.7853476414491
 30
0.0
 11
1228.264721850006
 21
-321.5027043715887
 31
0.0
  0
LINE
  5
17D
330
1F
100
AcDbEntity
  8
JIS B 0405-c 普通公差｢c｣粗級
  6
________________
 62
     7
370
     0
100
AcDbLine
 10
1238.572477174388
 20
-319.7848716421636
 30
0.0
 11
1238.264697707049
 21
-321.5027043183863
 31
0.0
  0
LINE
  5
17E
330
1F
100
AcDbEntity
  8
JIS B 0405-c 普通公差｢c｣粗級
  6
________________
 62
     7
370
     0
100
AcDbLine
 10
1248.57246482744
 20
-319.784843692206
 30
0.0
 11
1248.264685614795
 21
-321.5027042046686
 31
0.0
  0
LINE
  5
17F
330
1F
100
AcDbEntity
  8
JIS B 0405-c 普通公差｢c｣粗級
  6
________________
 62
     7
370
     0
100
AcDbLine
 10
1258.572659602477
 20
-319.783752425434
 30
0.0
 11
1258.264690657239
 21
-321.5027046760342
 31
0.0
  0
LINE
  5
180
330
1F
100
AcDbEntity
  8
JIS B 0405-c 普通公差｢c｣粗級
  6
________________
 62
     7
370
     0
100
AcDbLine
 10
1268.572802366501
 20
-319.7830452080011
 30
0.0
 11
1268.264710035803
 21
-321.5027050603104
 31
0.0
  0
LINE
  5
181
330
1F
100
AcDbEntity
  8
JIS B 0405-c 普通公差｢c｣粗級
  6
________________
 62
     7
370
     0
100
AcDbLine
 10
1278.572980517411
 20
-319.7821979327188
 30
0.0
 11
1278.264737366616
 21
-321.5027053763019
 31
0.0
  0
LINE
  5
182
330
1F
100
AcDbEntity
  8
JIS B 0405-c 普通公差｢c｣粗級
  6
________________
 62
     7
370
     0
100
AcDbLine
 10
1288.573022397509
 20
-319.7821370755394
 30
0.0
 11
1288.262918930425
 21
-321.5130187093396
 31
0.0
  0
LINE
  5
183
330
1F
100
AcDbEntity
  8
JIS B 0405-c 普通公差｢c｣粗級
  6
________________
 62
     7
370
     0
100
AcDbLine
 10
1298.57304688396
 20
-319.782170905772
 30
0.0
 11
1298.262947361838
 21
-321.5130187638862
 31
0.0
  0
LINE
  5
184
330
1F
100
AcDbEntity
  8
JIS B 0405-c 普通公差｢c｣粗級
  6
________________
 62
     7
370
     0
100
AcDbLine
 10
1293.11624575929
 20
-417.6740839340542
 30
0.0
 11
1293.573060133474
 21
-420.2231772815177
 31
0.0
  0
LINE
  5
185
330
1F
100
AcDbEntity
  8
JIS B 0405-c 普通公差｢c｣粗級
  6
________________
 62
     7
370
     0
100
AcDbLine
 10
1283.116207466168
 20
-417.6740325398175
 30
0.0
 11
1283.57304750179
 21
-420.2232816902908
 31
0.0
  0
LINE
  5
186
330
1F
100
AcDbEntity
  8
JIS B 0405-c 普通公差｢c｣粗級
  6
________________
 62
     7
370
     0
100
AcDbLine
 10
1273.116109776788
 20
-417.6736517202651
 30
0.0
 11
1273.572967313954
 21
-420.2229980925962
 31
0.0
  0
LINE
  5
187
330
1F
100
AcDbEntity
  8
JIS B 0405-c 普通公差｢c｣粗級
  6
________________
 62
     7
370
     0
100
AcDbLine
 10
1263.115946961924
 20
-417.6728831793839
 30
0.0
 11
1263.572806099055
 21
-420.2222210475311
 31
0.0
  0
LINE
  5
188
330
1F
100
AcDbEntity
  8
JIS B 0405-c 普通公差｢c｣粗級
  6
________________
 62
     7
370
     0
100
AcDbLine
 10
1253.115771112273
 20
-417.6719865980962
 30
0.0
 11
1253.572611590669
 21
-420.2211822085272
 31
0.0
  0
LINE
  5
189
330
1F
100
AcDbEntity
  8
JIS B 0405-c 普通公差｢c｣粗級
  6
________________
 62
     7
370
     0
100
AcDbLine
 10
1243.115697146349
 20
-417.6715694689992
 30
0.0
 11
1243.572511522922
 21
-420.2205689022114
 31
0.0
  0
LINE
  5
18A
330
1F
100
AcDbEntity
  8
JIS B 0405-c 普通公差｢c｣粗級
  6
________________
 62
     7
370
     0
100
AcDbLine
 10
1233.11920657035
 20
-417.690918318355
 30
0.0
 11
1233.576508837111
 21
-420.2426026620521
 31
0.0
  0
LINE
  5
18B
330
1F
100
AcDbEntity
  8
JIS B 0405-c 普通公差｢c｣粗級
  6
________________
 62
     7
370
     0
100
AcDbLine
 10
1223.115753818584
 20
-417.6716454507356
 30
0.0
 11
1223.572510400908
 21
-420.2202638950037
 31
0.0
  0
LINE
  5
18C
330
1F
100
AcDbEntity
  8
JIS B 0405-c 普通公差｢c｣粗級
  6
________________
 62
     7
370
     0
100
AcDbLine
 10
1213.118815043478
 20
-417.6884474725815
 30
0.0
 11
1213.576076643889
 21
-420.2398748357174
 31
0.0
  0
LINE
  5
18D
330
1F
100
AcDbEntity
  8
JIS B 0405-c 普通公差｢c｣粗級
  6
________________
 62
     7
370
     0
100
AcDbLine
 10
1173.118102426511
 20
-417.6841021209194
 30
0.0
 11
1173.575304065046
 21
-420.2352593633953
 31
0.0
  0
LINE
  5
18E
330
1F
100
AcDbEntity
  8
JIS B 0405-c 普通公差｢c｣粗級
  6
________________
 62
     7
370
     0
100
AcDbLine
 10
1163.116166502804
 20
-417.6733659198293
 30
0.0
 11
1163.572845861946
 21
-420.2216378552764
 31
0.0
  0
LINE
  5
18F
330
1F
100
AcDbEntity
  8
JIS B 0405-c 普通公差｢c｣粗級
  6
________________
 62
     7
370
     0
100
AcDbLine
 10
1153.11795233117
 20
-417.6833623185955
 30
0.0
 11
1153.575180891778
 21
-420.2347277955803
 31
0.0
  0
LINE
  5
190
330
1F
100
AcDbEntity
  8
JIS B 0405-c 普通公差｢c｣粗級
  6
________________
 62
     7
370
     0
100
AcDbLine
 10
1143.116201653635
 20
-417.6737472017577
 30
0.0
 11
1143.572934282867
 21
-420.222370909227
 31
0.0
  0
LINE
  5
191
330
1F
100
AcDbEntity
  8
JIS B 0405-c 普通公差｢c｣粗級
  6
________________
 62
     7
370
     0
100
AcDbLine
 10
1133.117791480143
 20
-417.682738917757
 30
0.0
 11
1133.575077258941
 21
-420.2344671757249
 31
0.0
  0
LINE
  5
192
330
1F
100
AcDbEntity
  8
JIS B 0405-c 普通公差｢c｣粗級
  6
________________
 62
     7
370
     0
100
AcDbLine
 10
1133.087454834169
 20
-322.3338524516955
 30
0.0
 11
1132.630310371751
 21
-319.7828803747784
 31
0.0
  0
LINE
  5
193
330
1F
100
AcDbEntity
  8
JIS B 0405-c 普通公差｢c｣粗級
  6
________________
 62
     7
370
     0
100
AcDbLine
 10
1143.085265419818
 20
-322.3216586749418
 30
0.0
 11
1142.627898390288
 21
-319.769500290821
 31
0.0
  0
LINE
  5
194
330
1F
100
AcDbEntity
  8
JIS B 0405-c 普通公差｢c｣粗級
  6
________________
 62
     7
370
     0
100
AcDbLine
 10
1153.086762644164
 20
-322.3300402838845
 30
0.0
 11
1152.630295817904
 21
-319.7829339086377
 31
0.0
  0
LINE
  5
195
330
1F
100
AcDbEntity
  8
JIS B 0405-c 普通公差｢c｣粗級
  6
________________
 62
     7
370
     0
100
AcDbLine
 10
1163.085870436495
 20
-322.3252200676391
 30
0.0
 11
1162.628559173396
 21
-319.773438484796
 31
0.0
  0
LINE
  5
196
330
1F
100
AcDbEntity
  8
JIS B 0405-c 普通公差｢c｣粗級
  6
________________
 62
     7
370
     0
100
AcDbLine
 10
1173.087048219576
 20
-322.3319281627281
 30
0.0
 11
1172.630156805543
 21
-319.7824964000855
 31
0.0
  0
LINE
  5
197
330
1F
100
AcDbEntity
  8
JIS B 0405-c 普通公差｢c｣粗級
  6
________________
 62
     7
370
     0
100
AcDbLine
 10
1213.087044814929
 20
-322.3323827817962
 30
0.0
 11
1212.630251904495
 21
-319.7834483482953
 31
0.0
  0
LINE
  5
198
330
1F
100
AcDbEntity
  8
JIS B 0405-c 普通公差｢c｣粗級
  6
________________
 62
     7
370
     0
100
AcDbLine
 10
1223.08669130519
 20
-322.3304145251993
 30
0.0
 11
1222.629529547284
 21
-319.7793935750897
 31
0.0
  0
LINE
  5
199
330
1F
100
AcDbEntity
  8
JIS B 0405-c 普通公差｢c｣粗級
  6
________________
 62
     7
370
     0
100
AcDbLine
 10
1233.086913777208
 20
-322.3316012677343
 30
0.0
 11
1232.630098671168
 21
-319.782484582465
 31
0.0
  0
LINE
  5
19A
330
1F
100
AcDbEntity
  8
JIS B 0405-c 普通公差｢c｣粗級
  6
________________
 62
     7
370
     0
100
AcDbLine
 10
1243.086844330874
 20
-322.3311114732749
 30
0.0
 11
1242.629684934141
 21
-319.7800464479344
 31
0.0
  0
LINE
  5
19B
330
1F
100
AcDbEntity
  8
JIS B 0405-c 普通公差｢c｣粗級
  6
________________
 62
     7
370
     0
100
AcDbLine
 10
1253.086865968169
 20
-322.331091176512
 30
0.0
 11
1252.630013957433
 21
-319.7817199961476
 31
0.0
  0
LINE
  5
19C
330
1F
100
AcDbEntity
  8
JIS B 0405-c 普通公差｢c｣粗級
  6
________________
 62
     7
370
     0
100
AcDbLine
 10
1263.086961556546
 20
-322.3314614166824
 30
0.0
 11
1262.630053622843
 21
-319.7817664128983
 31
0.0
  0
LINE
  5
19D
330
1F
100
AcDbEntity
  8
JIS B 0405-c 普通公差｢c｣粗級
  6
________________
 62
     7
370
     0
100
AcDbLine
 10
1273.087018379207
 20
-322.331614957286
 30
0.0
 11
1272.630127389359
 21
-319.7820157439035
 31
0.0
  0
LINE
  5
19E
330
1F
100
AcDbEntity
  8
JIS B 0405-c 普通公差｢c｣粗級
  6
________________
 62
     7
370
     0
100
AcDbLine
 10
1283.087645828926
 20
-322.3349769496022
 30
0.0
 11
1282.630324269049
 21
-319.7829956475461
 31
0.0
  0
LINE
  5
19F
330
1F
100
AcDbEntity
  8
JIS B 0405-c 普通公差｢c｣粗級
  6
________________
 62
     7
370
     0
100
AcDbLine
 10
1293.087789059191
 20
-322.3356959418973
 30
0.0
 11
1292.630505037729
 21
-319.7839637151777
 31
0.0
  0
LINE
  5
1A0
330
1F
100
AcDbEntity
  8
JIS B 0405-c 普通公差｢c｣粗級
  6
________________
 62
     7
370
     0
100
AcDbLine
 10
1297.630557598092
 20
-420.2209149203994
 30
0.0
 11
1297.938430946825
 21
-418.5024864170311
 31
0.0
  0
LINE
  5
1A1
330
1F
100
AcDbEntity
  8
JIS B 0405-c 普通公差｢c｣粗級
  6
________________
 62
     7
370
     0
100
AcDbLine
 10
1287.630373549918
 20
-420.2219528274416
 30
0.0
 11
1287.938426981271
 21
-418.5024859828999
 31
0.0
  0
LINE
  5
1A2
330
1F
100
AcDbEntity
  8
JIS B 0405-c 普通公差｢c｣粗級
  6
________________
 62
     7
370
     0
100
AcDbLine
 10
1277.630185949359
 20
-420.2229152594949
 30
0.0
 11
1277.938408382633
 21
-418.5024855675065
 31
0.0
  0
LINE
  5
1A3
330
1F
100
AcDbEntity
  8
JIS B 0405-c 普通公差｢c｣粗級
  6
________________
 62
     7
370
     0
100
AcDbLine
 10
1267.630085305406
 20
-420.2233320361596
 30
0.0
 11
1267.93838124861
 21
-418.5024853084717
 31
0.0
  0
LINE
  5
1A4
330
1F
100
AcDbEntity
  8
JIS B 0405-c 普通公差｢c｣粗級
  6
________________
 62
     7
370
     0
100
AcDbLine
 10
1257.630060302095
 20
-420.2232993254129
 30
0.0
 11
1257.938351023232
 21
-418.5024851831333
 31
0.0
  0
LINE
  5
1A5
330
1F
100
AcDbEntity
  8
JIS B 0405-c 普通公差｢c｣粗級
  6
________________
 62
     7
370
     0
100
AcDbLine
 10
1247.630085490964
 20
-420.2229871949356
 30
0.0
 11
1247.938322273225
 21
-418.502485155495
 31
0.0
  0
LINE
  5
1A6
330
1F
100
AcDbEntity
  8
JIS B 0405-c 普通公差｢c｣粗級
  6
________________
 62
     7
370
     0
100
AcDbLine
 10
1237.630145575987
 20
-420.2225037603532
 30
0.0
 11
1237.938298637218
 21
-418.502485201878
 31
0.0
  0
LINE
  5
1A7
330
1F
100
AcDbEntity
  8
JIS B 0405-c 普通公差｢c｣粗級
  6
________________
 62
     7
370
     0
100
AcDbLine
 10
1227.630225011398
 20
-420.2219530672244
 30
0.0
 11
1227.938282798279
 21
-418.5024853001365
 31
0.0
  0
LINE
  5
1A8
330
1F
100
AcDbEntity
  8
JIS B 0405-c 普通公差｢c｣粗級
  6
________________
 62
     7
370
     0
100
AcDbLine
 10
1217.630316172352
 20
-420.2213892739088
 30
0.0
 11
1217.938276446869
 21
-418.5024854358199
 31
0.0
  0
LINE
  5
1A9
330
1F
100
AcDbEntity
  8
JIS B 0405-c 普通公差｢c｣粗級
  6
________________
 62
     7
370
     0
100
AcDbLine
 10
1207.630408041001
 20
-420.2208796865272
 30
0.0
 11
1207.93828026498
 21
-418.5024855918043
 31
0.0
  0
LINE
  5
1AA
330
1F
100
AcDbEntity
  8
JIS B 0405-c 普通公差｢c｣粗級
  6
________________
 62
     7
370
     0
100
AcDbLine
 10
1167.630469101496
 20
-420.2210411720939
 30
0.0
 11
1167.938374758487
 21
-418.502486053121
 31
0.0
  0
LINE
  5
1AB
330
1F
100
AcDbEntity
  8
JIS B 0405-c 普通公差｢c｣粗級
  6
________________
 62
     7
370
     0
100
AcDbLine
 10
1157.630367800575
 20
-420.2217789161266
 30
0.0
 11
1157.93840342325
 21
-418.5024860870242
 31
0.0
  0
LINE
  5
1AC
330
1F
100
AcDbEntity
  8
JIS B 0405-c 普通公差｢c｣粗級
  6
________________
 62
     7
370
     0
100
AcDbLine
 10
1147.630299129688
 20
-420.2223024384143
 30
0.0
 11
1147.938424606456
 21
-418.5024861517467
 31
0.0
  0
LINE
  5
1AD
330
1F
100
AcDbEntity
  8
JIS B 0405-c 普通公差｢c｣粗級
  6
________________
 62
     7
370
     0
100
AcDbLine
 10
1137.630298806965
 20
-420.2223765950845
 30
0.0
 11
1137.938431810535
 21
-418.5024861675907
 31
0.0
  0
LINE
  5
1AE
330
1F
100
AcDbEntity
  8
JIS B 0405-c 普通公差｢c｣粗級
  6
________________
 62
     7
370
     0
100
AcDbLine
 10
1127.63033072296
 20
-420.2221692985804
 30
0.0
 11
1127.93842142339
 21
-418.5024858798282
 31
0.0
  0
ARC
  5
1AF
330
1F
100
AcDbEntity
  8
JIS B 0405-c 普通公差｢c｣粗級
  6
________________
 62
     7
370
     0
100
AcDbCircle
 10
-1313.851445615353
 20
-318.5025953630904
 30
0.0
 40
3.000000000000114
210
0.0
220
0.0
230
-1.0
100
AcDbArc
 50
180.0
 51
270.0
  0
ARC
  5
1B0
330
1F
100
AcDbEntity
  8
JIS B 0405-c 普通公差｢c｣粗級
  6
________________
 62
     7
370
     0
100
AcDbCircle
 10
-1313.851445615353
 20
-421.5025953630903
 30
0.0
 40
3.000000000000003
210
0.0
220
0.0
230
-1.0
100
AcDbArc
 50
90.0
 51
180.0
  0
LINE
  5
1B1
330
1F
100
AcDbEntity
  8
JIS B 0405-c 普通公差｢c｣粗級
  6
________________
 62
     7
370
     0
100
AcDbLine
 10
1303.851445615353
 20
-420.0025953630904
 30
0.0
 11
1305.851445615353
 21
-420.0025953630904
 31
0.0
  0
LINE
  5
1B2
330
1F
100
AcDbEntity
  8
JIS B 0405-c 普通公差｢c｣粗級
  6
________________
 62
     7
370
     0
100
AcDbLine
 10
1305.851445615353
 20
-320.0025953630904
 30
0.0
 11
1303.851445615353
 21
-320.0025953630904
 31
0.0
  0
LINE
  5
1B3
330
1F
100
AcDbEntity
  8
JIS B 0405-c 普通公差｢c｣粗級
  6
________________
 62
     7
370
     0
100
AcDbLine
 10
1127.792348110994
 20
-418.5025953630903
 30
0.0
 11
1133.264774995708
 21
-418.5025953630903
 31
0.0
  0
LINE
  5
1B4
330
1F
100
AcDbEntity
  8
JIS B 0405-c 普通公差｢c｣粗級
  6
________________
 62
     7
370
     0
100
AcDbLine
 10
1122.851445615353
 20
-418.5025953630903
 30
0.0
 11
1123.851445615353
 21
-418.5025953630903
 31
0.0
  0
LINE
  5
1B5
330
1F
100
AcDbEntity
  8
JIS B 0405-c 普通公差｢c｣粗級
  6
________________
 62
     7
370
     0
100
AcDbLine
 10
1287.792346185285
 20
-418.5025953630903
 30
0.0
 11
1293.264782260577
 21
-418.5025953630903
 31
0.0
  0
LINE
  5
1B6
330
1F
100
AcDbEntity
  8
JIS B 0405-c 普通公差｢c｣粗級
  6
________________
 62
     7
370
     0
100
AcDbLine
 10
1277.792311315663
 20
-418.5025953630903
 30
0.0
 11
1283.264752377657
 21
-418.5025953630903
 31
0.0
  0
LINE
  5
1B7
330
1F
100
AcDbEntity
  8
JIS B 0405-c 普通公差｢c｣粗級
  6
________________
 62
     7
370
     0
100
AcDbLine
 10
1267.792354211549
 20
-418.5025953630903
 30
0.0
 11
1273.264722916711
 21
-418.5025953630903
 31
0.0
  0
LINE
  5
1B8
330
1F
100
AcDbEntity
  8
JIS B 0405-c 普通公差｢c｣粗級
  6
________________
 62
     7
370
     0
100
AcDbLine
 10
1257.792345514017
 20
-418.5025953630903
 30
0.0
 11
1263.264698834062
 21
-418.5025953630903
 31
0.0
  0
LINE
  5
1B9
330
1F
100
AcDbEntity
  8
JIS B 0405-c 普通公差｢c｣粗級
  6
________________
 62
     7
370
     0
100
AcDbLine
 10
1247.792313599728
 20
-418.5025953630903
 30
0.0
 11
1253.264685855331
 21
-418.5025953630903
 31
0.0
  0
LINE
  5
1BA
330
1F
100
AcDbEntity
  8
JIS B 0405-c 普通公差｢c｣粗級
  6
________________
 62
     7
370
     0
100
AcDbLine
 10
1237.792281148089
 20
-418.5025953630903
 30
0.0
 11
1243.264689672199
 21
-418.5025953630903
 31
0.0
  0
LINE
  5
1BB
330
1F
100
AcDbEntity
  8
JIS B 0405-c 普通公差｢c｣粗級
  6
________________
 62
     7
370
     0
100
AcDbLine
 10
1227.792253393307
 20
-418.5025953630903
 30
0.0
 11
1233.264730228215
 21
-418.5025953630903
 31
0.0
  0
LINE
  5
1BC
330
1F
100
AcDbEntity
  8
JIS B 0405-c 普通公差｢c｣粗級
  6
________________
 62
     7
370
     0
100
AcDbLine
 10
1217.792238113131
 20
-418.5025953630903
 30
0.0
 11
1223.264736311917
 21
-418.5025953630903
 31
0.0
  0
LINE
  5
1BD
330
1F
100
AcDbEntity
  8
JIS B 0405-c 普通公差｢c｣粗級
  6
________________
 62
     7
370
     0
100
AcDbLine
 10
1207.792229263347
 20
-418.5025953630903
 30
0.0
 11
1213.264783836046
 21
-418.5025953630903
 31
0.0
  0
LINE
  5
1BE
330
1F
100
AcDbEntity
  8
JIS B 0405-c 普通公差｢c｣粗級
  6
________________
 62
     7
370
     0
100
AcDbLine
 10
1167.792246353499
 20
-418.5025953630903
 30
0.0
 11
1173.264847305525
 21
-418.5025953630903
 31
0.0
  0
LINE
  5
1BF
330
1F
100
AcDbEntity
  8
JIS B 0405-c 普通公差｢c｣粗級
  6
________________
 62
     7
370
     0
100
AcDbLine
 10
1157.792275021231
 20
-418.5025953630903
 30
0.0
 11
1163.264824010313
 21
-418.5025953630903
 31
0.0
  0
LINE
  5
1C0
330
1F
100
AcDbEntity
  8
JIS B 0405-c 普通公差｢c｣粗級
  6
________________
 62
     7
370
     0
100
AcDbLine
 10
1147.792315711713
 20
-418.5025953630903
 30
0.0
 11
1153.264826610638
 21
-418.5025953630903
 31
0.0
  0
LINE
  5
1C1
330
1F
100
AcDbEntity
  8
JIS B 0405-c 普通公差｢c｣粗級
  6
________________
 62
     7
370
     0
100
AcDbLine
 10
1137.792301264793
 20
-418.5025953630903
 30
0.0
 11
1143.264799386478
 21
-418.5025953630903
 31
0.0
  0
LINE
  5
1C2
330
1F
100
AcDbEntity
  8
JIS B 0405-c 普通公差｢c｣粗級
  6
________________
 62
     7
370
     0
100
AcDbLine
 10
1148.410820078122
 20
-321.5025953630904
 30
0.0
 11
1142.93842338718
 21
-321.5025953630904
 31
0.0
  0
LINE
  5
1C3
330
1F
100
AcDbEntity
  8
JIS B 0405-c 普通公差｢c｣粗級
  6
________________
 62
     7
370
     0
100
AcDbLine
 10
1158.410838403227
 20
-321.5025953630904
 30
0.0
 11
1152.938415121089
 21
-321.5025953630904
 31
0.0
  0
LINE
  5
1C4
330
1F
100
AcDbEntity
  8
JIS B 0405-c 普通公差｢c｣粗級
  6
________________
 62
     7
370
     0
100
AcDbLine
 10
1168.410873407106
 20
-321.5025953630904
 30
0.0
 11
1162.938385573434
 21
-321.5025953630904
 31
0.0
  0
LINE
  5
1C5
330
1F
100
AcDbEntity
  8
JIS B 0405-c 普通公差｢c｣粗級
  6
________________
 62
     7
370
     0
100
AcDbLine
 10
1174.851445615353
 20
-321.5025953630904
 30
0.0
 11
1172.938359357169
 21
-321.5025953630904
 31
0.0
  0
LINE
  5
1C6
330
1F
100
AcDbEntity
  8
JIS B 0405-c 普通公差｢c｣粗級
  6
________________
 62
     7
370
     0
100
AcDbLine
 10
1208.410879827266
 20
-321.5025953630904
 30
0.0
 11
1207.283199881904
 21
-321.5025953630904
 31
0.0
  0
LINE
  5
1C7
330
1F
100
AcDbEntity
  8
JIS B 0405-c 普通公差｢c｣粗級
  6
________________
 62
     7
370
     0
100
AcDbLine
 10
1218.410873727231
 20
-321.5025953630904
 30
0.0
 11
1212.938277147141
 21
-321.5025953630904
 31
0.0
  0
LINE
  5
1C8
330
1F
100
AcDbEntity
  8
JIS B 0405-c 普通公差｢c｣粗級
  6
________________
 62
     7
370
     0
100
AcDbLine
 10
1228.41085613507
 20
-321.5025953630904
 30
0.0
 11
1222.938278444264
 21
-321.5025953630904
 31
0.0
  0
LINE
  5
1C9
330
1F
100
AcDbEntity
  8
JIS B 0405-c 普通公差｢c｣粗級
  6
________________
 62
     7
370
     0
100
AcDbLine
 10
1238.410819147555
 20
-321.5025953630904
 30
0.0
 11
1232.938289658656
 21
-321.5025953630904
 31
0.0
  0
LINE
  5
1CA
330
1F
100
AcDbEntity
  8
JIS B 0405-c 普通公差｢c｣粗級
  6
________________
 62
     7
370
     0
100
AcDbLine
 10
1248.410789786503
 20
-321.5025953630904
 30
0.0
 11
1242.938309769332
 21
-321.5025953630904
 31
0.0
  0
LINE
  5
1CB
330
1F
100
AcDbEntity
  8
JIS B 0405-c 普通公差｢c｣粗級
  6
________________
 62
     7
370
     0
100
AcDbLine
 10
1258.410760906766
 20
-321.5025953630904
 30
0.0
 11
1252.938336235351
 21
-321.5025953630904
 31
0.0
  0
LINE
  5
1CC
330
1F
100
AcDbEntity
  8
JIS B 0405-c 普通公差｢c｣粗級
  6
________________
 62
     7
370
     0
100
AcDbLine
 10
1268.410758814684
 20
-321.5025953630904
 30
0.0
 11
1262.938366179595
 21
-321.5025953630904
 31
0.0
  0
LINE
  5
1CD
330
1F
100
AcDbEntity
  8
JIS B 0405-c 普通公差｢c｣粗級
  6
________________
 62
     7
370
     0
100
AcDbLine
 10
1278.410781683544
 20
-321.5025953630904
 30
0.0
 11
1272.938395492817
 21
-321.5025953630904
 31
0.0
  0
LINE
  5
1CE
330
1F
100
AcDbEntity
  8
JIS B 0405-c 普通公差｢c｣粗級
  6
________________
 62
     7
370
     0
100
AcDbLine
 10
1297.792325489391
 20
-418.5025953630903
 30
0.0
 11
1301.851445615353
 21
-418.5025953630903
 31
0.0
  0
LINE
  5
1CF
330
1F
100
AcDbEntity
  8
JIS B 0405-c 普通公差｢c｣粗級
  6
________________
 62
     7
370
     0
100
AcDbLine
 10
1305.851445615353
 20
-418.5025953630903
 30
0.0
 11
1313.851445615353
 21
-418.5025953630903
 31
0.0
  0
LINE
  5
1D0
330
1F
100
AcDbEntity
  8
JIS B 0405-c 普通公差｢c｣粗級
  6
________________
 62
     7
370
     0
100
AcDbLine
 10
1313.851445615353
 20
-321.5025953630904
 30
0.0
 11
1305.851445615353
 21
-321.5025953630904
 31
0.0
  0
LINE
  5
1D1
330
1F
100
AcDbEntity
  8
JIS B 0405-c 普通公差｢c｣粗級
  6
________________
 62
     7
370
     0
100
AcDbLine
 10
1301.851445615353
 20
-418.2025953630904
 30
0.0
 11
1303.851445615353
 21
-418.2025953630904
 31
0.0
  0
LINE
  5
1D2
330
1F
100
AcDbEntity
  8
JIS B 0405-c 普通公差｢c｣粗級
  6
________________
 62
     7
370
     0
100
AcDbLine
 10
1303.851445615353
 20
-321.8025953630903
 30
0.0
 11
1301.851445615353
 21
-321.8025953630903
 31
0.0
  0
LINE
  5
1D3
330
1F
100
AcDbEntity
  8
JIS B 0405-c 普通公差｢c｣粗級
  6
________________
 62
     7
370
     0
100
AcDbLine
 10
1322.851445615353
 20
-317.6935044539995
 30
0.0
 11
1323.151445615353
 21
-317.6935044539995
 31
0.0
  0
LINE
  5
1D4
330
1F
100
AcDbEntity
  8
JIS B 0405-c 普通公差｢c｣粗級
  6
________________
 62
     7
370
     0
100
AcDbLine
 10
1322.851445615353
 20
-317.7298680903631
 30
0.0
 11
1323.151445615353
 21
-317.7298680903631
 31
0.0
  0
LINE
  5
1D5
330
1F
100
AcDbEntity
  8
JIS B 0405-c 普通公差｢c｣粗級
  6
________________
 62
     7
370
     0
100
AcDbLine
 10
1323.151445615353
 20
-317.6935044539995
 30
0.0
 11
1323.188945615353
 21
-317.6935044539995
 31
0.0
  0
LINE
  5
1D6
330
1F
100
AcDbEntity
  8
JIS B 0405-c 普通公差｢c｣粗級
  6
________________
 62
     7
370
     0
100
AcDbLine
 10
1323.188945615353
 20
-310.2753226358177
 30
0.0
 11
1323.151445615353
 21
-310.2753226358177
 31
0.0
  0
ARC
  5
1D7
330
1F
100
AcDbEntity
  8
JIS B 0405-c 普通公差｢c｣粗級
  6
________________
 62
     7
370
     0
100
AcDbCircle
 10
1437.5
 20
-370.0025953630904
 30
0.0
 40
64.99999999999997
100
AcDbArc
 50
89.11849169319404
 51
90.88195932300496
  0
ARC
  5
1D8
330
1F
100
AcDbEntity
  8
JIS B 0405-c 普通公差｢c｣粗級
  6
________________
 62
     7
370
     0
100
AcDbCircle
 10
1437.5
 20
-370.0025953630904
 30
0.0
 40
64.99999999999994
100
AcDbArc
 50
0.0
 51
89.11849169319404
  0
LINE
  5
1D9
330
1F
100
AcDbEntity
  8
JIS B 0405-c 普通公差｢c｣粗級
  6
________________
 62
     7
370
     0
100
AcDbLine
 10
1436.5
 20
-306.0025953630904
 30
0.0
 11
1436.5
 21
-305.0102881260027
 31
0.0
  0
LINE
  5
1DA
330
1F
100
AcDbEntity
  8
JIS B 0405-c 普通公差｢c｣粗級
  6
________________
 62
     7
370
     0
100
AcDbLine
 10
1437.5
 20
-306.0025953630904
 30
0.0
 11
1436.5
 21
-306.0025953630904
 31
0.0
  0
LINE
  5
1DB
330
1F
100
AcDbEntity
  8
JIS B 0405-c 普通公差｢c｣粗級
  6
________________
 62
     7
370
     0
100
AcDbLine
 10
1438.5
 20
-306.0025953630904
 30
0.0
 11
1437.5
 21
-306.0025953630904
 31
0.0
  0
LINE
  5
1DC
330
1F
100
AcDbEntity
  8
JIS B 0405-c 普通公差｢c｣粗級
  6
________________
 62
     7
370
     0
100
AcDbLine
 10
1438.5
 20
-305.0102881260027
 30
0.0
 11
1438.5
 21
-306.0025953630904
 31
0.0
  0
ARC
  5
1DD
330
1F
100
AcDbEntity
  8
JIS B 0405-c 普通公差｢c｣粗級
  6
________________
 62
     7
370
     0
100
AcDbCircle
 10
1437.5
 20
-370.0025953630904
 30
0.0
 40
64.99999999999997
100
AcDbArc
 50
90.88150830680597
 51
0.0
  0
ARC
  5
1DE
330
1F
100
AcDbEntity
  8
JIS B 0405-c 普通公差｢c｣粗級
  6
________________
 62
     7
370
     0
100
AcDbCircle
 10
1437.5
 20
-370.0025953630904
 30
0.0
 40
44.89999999999994
100
AcDbArc
 50
180.0
 51
0.0
  0
ARC
  5
1DF
330
1F
100
AcDbEntity
  8
JIS B 0405-c 普通公差｢c｣粗級
  6
________________
 62
     7
370
     0
100
AcDbCircle
 10
1437.5
 20
-370.0025953630904
 30
0.0
 40
44.89999999999994
100
AcDbArc
 50
0.0
 51
180.0
  0
CIRCLE
  5
1E0
330
1F
100
AcDbEntity
  8
JIS B 0405-c 普通公差｢c｣粗級
  6
________________
 62
     7
370
     0
100
AcDbCircle
 10
1437.5
 20
-370.0025953630904
 30
0.0
 40
44.09999999999997
  0
ARC
  5
1E1
330
1F
100
AcDbEntity
  8
JIS B 0405-c 普通公差｢c｣粗級
  6
________________
 62
     7
370
     0
100
AcDbCircle
 10
1437.5
 20
-370.0025953630904
 30
0.0
 40
38.59999999999997
100
AcDbArc
 50
180.0
 51
0.0
  0
ARC
  5
1E2
330
1F
100
AcDbEntity
  8
JIS B 0405-c 普通公差｢c｣粗級
  6
________________
 62
     7
370
     0
100
AcDbCircle
 10
1437.5
 20
-370.0025953630904
 30
0.0
 40
38.59999999999997
100
AcDbArc
 50
0.0
 51
180.0
  0
MTEXT
  5
1E3
330
1F
100
AcDbEntity
  8
JIS B 0405-c 普通公差｢c｣粗級
 62
     7
100
AcDbMText
 10
1293.283168640918
 20
-450.6774770484958
 30
0.0
 40
6.0
 41
0.0
 46
0.0
 71
     1
 72
     1
  1
{\FＭＳ ゴシック;BMHM-80}
 73
     1
 44
1.0
  0
ENDSEC
  0
SECTION
  2
OBJECTS
  0
DICTIONARY
  5
C
330
0
100
AcDbDictionary
281
     1
  3
ACAD_GROUP
350
D
  3
ACAD_LAYOUT
350
1A
  3
ACAD_MLEADERSTYLE
350
1E5
  3
ACAD_MLINESTYLE
350
17
  3
ACAD_PLOTSETTINGS
350
19
  3
ACAD_PLOTSTYLENAME
350
E
  3
ACAD_TABLESTYLE
350
1E4
  3
ACAD_VISUALSTYLE
350
2A
  0
DICTIONARY
  5
D
102
{ACAD_REACTORS
330
C
102
}
330
C
100
AcDbDictionary
281
     1
  0
DICTIONARY
  5
1A
102
{ACAD_REACTORS
330
C
102
}
330
C
100
AcDbDictionary
281
     1
  3
Layout1
350
1E
  3
Layout2
350
26
  3
Model
350
22
  0
DICTIONARY
  5
1E5
102
{ACAD_REACTORS
330
C
102
}
330
C
100
AcDbDictionary
281
     1
  0
DICTIONARY
  5
17
102
{ACAD_REACTORS
330
C
102
}
330
C
100
AcDbDictionary
281
     1
  3
Standard
350
18
  0
DICTIONARY
  5
19
102
{ACAD_REACTORS
330
C
102
}
330
C
100
AcDbDictionary
281
     1
  0
ACDBDICTIONARYWDFLT
  5
E
102
{ACAD_REACTORS
330
C
102
}
330
C
100
AcDbDictionary
281
     1
  3
Normal
350
F
100
AcDbDictionaryWithDefault
340
F
  0
DICTIONARY
  5
1E4
102
{ACAD_REACTORS
330
C
102
}
330
C
100
AcDbDictionary
281
     1
  0
DICTIONARY
  5
2A
102
{ACAD_REACTORS
330
C
102
}
330
C
100
AcDbDictionary
281
     1
  3
2dWireframe
350
2F
  3
3D Hidden
350
31
  3
3dWireframe
350
30
  3
Basic
350
32
  3
Brighten
350
36
  3
ColorChange
350
3A
  3
Conceptual
350
34
  3
Dim
350
35
  3
Facepattern
350
39
  3
Flat
350
2B
  3
FlatWithEdges
350
2C
  3
Gouraud
350
2D
  3
GouraudWithEdges
350
2E
  3
Linepattern
350
38
  3
Realistic
350
33
  3
Thicken
350
37
  0
LAYOUT
  5
1E
102
{ACAD_REACTORS
330
1A
102
}
330
1A
100
AcDbPlotSettings
  1

  2
none_device
  4

  6

 40
0.0
 41
0.0
 42
0.0
 43
0.0
 44
0.0
 45
0.0
 46
0.0
 47
0.0
 48
0.0
 49
0.0
140
0.0
141
0.0
142
1.0
143
1.0
 70
   688
 72
     0
 73
     0
 74
     5
  7

 75
    16
 76
     0
 77
     2
 78
   300
147
1.0
148
0.0
149
0.0
100
AcDbLayout
  1
Layout1
 70
     1
 71
     1
 10
0.0
 20
0.0
 11
12.0
 21
9.0
 12
0.0
 22
0.0
 32
0.0
 14
1.000000000000000E+20
 24
1.000000000000000E+20
 34
1.000000000000000E+20
 15
-1.000000000000000E+20
 25
-1.000000000000000E+20
 35
-1.000000000000000E+20
146
0.0
 13
0.0
 23
0.0
 33
0.0
 16
1.0
 26
0.0
 36
0.0
 17
0.0
 27
1.0
 37
0.0
 76
     0
330
1B
  0
LAYOUT
  5
26
102
{ACAD_REACTORS
330
1A
102
}
330
1A
100
AcDbPlotSettings
  1

  2
none_device
  4

  6

 40
0.0
 41
0.0
 42
0.0
 43
0.0
 44
0.0
 45
0.0
 46
0.0
 47
0.0
 48
0.0
 49
0.0
140
0.0
141
0.0
142
1.0
143
1.0
 70
   688
 72
     0
 73
     0
 74
     5
  7

 75
    16
 76
     0
 77
     2
 78
   300
147
1.0
148
0.0
149
0.0
100
AcDbLayout
  1
Layout2
 70
     1
 71
     2
 10
0.0
 20
0.0
 11
0.0
 21
0.0
 12
0.0
 22
0.0
 32
0.0
 14
0.0
 24
0.0
 34
0.0
 15
0.0
 25
0.0
 35
0.0
146
0.0
 13
0.0
 23
0.0
 33
0.0
 16
1.0
 26
0.0
 36
0.0
 17
0.0
 27
1.0
 37
0.0
 76
     0
330
23
  0
LAYOUT
  5
22
102
{ACAD_REACTORS
330
1A
102
}
330
1A
100
AcDbPlotSettings
  1

  2
none_device
  4

  6

 40
0.0
 41
0.0
 42
0.0
 43
0.0
 44
0.0
 45
0.0
 46
0.0
 47
0.0
 48
0.0
 49
0.0
140
0.0
141
0.0
142
1.0
143
1.0
 70
  1712
 72
     0
 73
     0
 74
     0
  7

 75
     0
 76
     0
 77
     2
 78
   300
147
1.0
148
0.0
149
0.0
100
AcDbLayout
  1
Model
 70
     1
 71
     0
 10
0.0
 20
0.0
 11
12.0
 21
9.0
 12
0.0
 22
0.0
 32
0.0
 14
0.0
 24
-455.9956588666776
 34
0.0
 15
1502.5
 25
10.0
 35
10.0
146
0.0
 13
0.0
 23
0.0
 33
0.0
 16
1.0
 26
0.0
 36
0.0
 17
0.0
 27
1.0
 37
0.0
 76
     0
330
1F
331
29
  0
MLINESTYLE
  5
18
102
{ACAD_REACTORS
330
17
102
}
330
17
100
AcDbMlineStyle
  2
Standard
 70
     0
  3

 62
   256
 51
90.0
 52
90.0
 71
     2
 49
0.5
 62
   256
  6
BYLAYER
 49
-0.5
 62
   256
  6
BYLAYER
  0
ACDBPLACEHOLDER
  5
F
102
{ACAD_REACTORS
330
E
102
}
330
E
  0
VISUALSTYLE
  5
2F
102
{ACAD_REACTORS
330
2A
102
}
330
2A
100
AcDbVisualStyle
  2
2dWireframe
 70
     4
 71
     0
 72
     2
 73
     0
 90
        0
 40
-0.6
 41
-30.0
 62
     5
 63
     7
421
 16777215
 74
     1
 91
        4
 64
     7
 65
   257
 75
     1
175
     1
 42
1.0
 92
        0
 66
   257
 43
1.0
 76
     1
 77
     6
 78
     2
 67
     7
 79
     5
170
     0
171
     0
290
     0
174
     0
 93
        1
 44
0.0
173
     0
291
     0
 45
0.0
  0
VISUALSTYLE
  5
31
102
{ACAD_REACTORS
330
2A
102
}
330
2A
100
AcDbVisualStyle
  2
3D Hidden
 70
     6
 71
     1
 72
     2
 73
     2
 90
        0
 40
-0.6
 41
-30.0
 62
     5
 63
     7
421
 16777215
 74
     2
 91
        2
 64
     7
 65
   257
 75
     2
175
     1
 42
40.0
 92
        0
 66
   257
 43
1.0
 76
     1
 77
     6
 78
     2
 67
     7
 79
     3
170
     0
171
     0
290
     0
174
     0
 93
        1
 44
0.0
173
     0
291
     0
 45
0.0
  0
VISUALSTYLE
  5
30
102
{ACAD_REACTORS
330
2A
102
}
330
2A
100
AcDbVisualStyle
  2
3dWireframe
 70
     5
 71
     0
 72
     2
 73
     0
 90
        0
 40
-0.6
 41
-30.0
 62
     5
 63
     7
421
 16777215
 74
     1
 91
        4
 64
     7
 65
   257
 75
     1
175
     1
 42
1.0
 92
        0
 66
   257
 43
1.0
 76
     1
 77
     6
 78
     2
 67
     7
 79
     5
170
     0
171
     0
290
     0
174
     0
 93
        1
 44
0.0
173
     0
291
     0
 45
0.0
  0
VISUALSTYLE
  5
32
102
{ACAD_REACTORS
330
2A
102
}
330
2A
100
AcDbVisualStyle
  2
Basic
 70
     7
 71
     1
 72
     0
 73
     1
 90
        0
 40
-0.6
 41
-30.0
 62
     5
 63
     7
421
 16777215
 74
     0
 91
        4
 64
     7
 65
   257
 75
     1
175
     1
 42
1.0
 92
        8
 66
     7
 43
1.0
 76
     1
 77
     6
 78
     2
 67
     7
 79
     5
170
     0
171
     0
290
     0
174
     0
 93
        1
 44
0.0
173
     0
291
     1
 45
0.0
  0
VISUALSTYLE
  5
36
102
{ACAD_REACTORS
330
2A
102
}
330
2A
100
AcDbVisualStyle
  2
Brighten
 70
    12
 71
     2
 72
     2
 73
     0
 90
        0
 40
-0.6
 41
-30.0
 62
     5
 63
     7
421
 16777215
 74
     1
 91
        4
 64
     7
 65
   257
 75
     1
175
     1
 42
1.0
 92
        8
 66
     7
 43
1.0
 76
     1
 77
     6
 78
     2
 67
     7
 79
     5
170
     0
171
     0
290
     0
174
     0
 93
        1
 44
50.0
173
     0
291
     1
 45
0.0
  0
VISUALSTYLE
  5
3A
102
{ACAD_REACTORS
330
2A
102
}
330
2A
100
AcDbVisualStyle
  2
ColorChange
 70
    16
 71
     2
 72
     2
 73
     3
 90
        0
 40
-0.6
 41
-30.0
 62
     5
 63
     8
421
  8421504
 74
     1
 91
        4
 64
     7
 65
   257
 75
     1
175
     1
 42
1.0
 92
        8
 66
     8
424
  8421504
 43
1.0
 76
     1
 77
     6
 78
     2
 67
     7
 79
     5
170
     0
171
     0
290
     0
174
     0
 93
        1
 44
0.0
173
     0
291
     1
 45
0.0
  0
VISUALSTYLE
  5
34
102
{ACAD_REACTORS
330
2A
102
}
330
2A
100
AcDbVisualStyle
  2
Conceptual
 70
     9
 71
     3
 72
     2
 73
     0
 90
        0
 40
-0.6
 41
-30.0
 62
     5
 63
     7
421
 16777215
 74
     2
 91
        2
 64
     7
 65
   257
 75
     1
175
     1
 42
40.0
 92
        8
 66
     7
 43
1.0
 76
     1
 77
     6
 78
     2
 67
     7
 79
     3
170
     0
171
     0
290
     0
174
     0
 93
        1
 44
0.0
173
     0
291
     0
 45
0.0
  0
VISUALSTYLE
  5
35
102
{ACAD_REACTORS
330
2A
102
}
330
2A
100
AcDbVisualStyle
  2
Dim
 70
    11
 71
     2
 72
     2
 73
     0
 90
        0
 40
-0.6
 41
-30.0
 62
     5
 63
     7
421
 16777215
 74
     1
 91
        4
 64
     7
 65
   257
 75
     1
175
     1
 42
1.0
 92
        8
 66
     7
 43
1.0
 76
     1
 77
     6
 78
     2
 67
     7
 79
     5
170
     0
171
     0
290
     0
174
     0
 93
        1
 44
-50.0
173
     0
291
     1
 45
0.0
  0
VISUALSTYLE
  5
39
102
{ACAD_REACTORS
330
2A
102
}
330
2A
100
AcDbVisualStyle
  2
Facepattern
 70
    15
 71
     2
 72
     2
 73
     0
 90
        0
 40
-0.6
 41
-30.0
 62
     5
 63
     7
421
 16777215
 74
     1
 91
        4
 64
     7
 65
   257
 75
     1
175
     1
 42
1.0
 92
        8
 66
     7
 43
1.0
 76
     1
 77
     6
 78
     2
 67
     7
 79
     5
170
     0
171
     0
290
     0
174
     0
 93
        1
 44
0.0
173
     0
291
     1
 45
0.0
  0
VISUALSTYLE
  5
2B
102
{ACAD_REACTORS
330
2A
102
}
330
2A
100
AcDbVisualStyle
  2
Flat
 70
     0
 71
     2
 72
     1
 73
     1
 90
        2
 40
-0.6
 41
30.0
 62
     5
 63
     7
421
 16777215
 74
     0
 91
        4
 64
     7
 65
   257
 75
     1
175
     1
 42
1.0
 92
        8
 66
     7
 43
1.0
 76
     1
 77
     6
 78
     2
 67
     7
 79
     5
170
     0
171
     0
290
     0
174
     0
 93
       13
 44
0.0
173
     0
291
     1
 45
0.0
  0
VISUALSTYLE
  5
2C
102
{ACAD_REACTORS
330
2A
102
}
330
2A
100
AcDbVisualStyle
  2
FlatWithEdges
 70
     1
 71
     2
 72
     1
 73
     1
 90
        2
 40
-0.6
 41
30.0
 62
     5
 63
     7
421
 16777215
 74
     1
 91
        4
 64
     7
 65
   257
 75
     1
175
     1
 42
1.0
 92
        0
 66
   257
 43
1.0
 76
     1
 77
     6
 78
     2
 67
     7
 79
     5
170
     0
171
     0
290
     0
174
     0
 93
       13
 44
0.0
173
     0
291
     1
 45
0.0
  0
VISUALSTYLE
  5
2D
102
{ACAD_REACTORS
330
2A
102
}
330
2A
100
AcDbVisualStyle
  2
Gouraud
 70
     2
 71
     2
 72
     2
 73
     1
 90
        2
 40
-0.6
 41
30.0
 62
     5
 63
     7
421
 16777215
 74
     0
 91
        4
 64
     7
 65
   257
 75
     1
175
     1
 42
1.0
 92
        0
 66
     7
 43
1.0
 76
     1
 77
     6
 78
     2
 67
     7
 79
     5
170
     0
171
     0
290
     0
174
     0
 93
       13
 44
0.0
173
     0
291
     1
 45
0.0
  0
VISUALSTYLE
  5
2E
102
{ACAD_REACTORS
330
2A
102
}
330
2A
100
AcDbVisualStyle
  2
GouraudWithEdges
 70
     3
 71
     2
 72
     2
 73
     1
 90
        2
 40
-0.6
 41
30.0
 62
     5
 63
     7
421
 16777215
 74
     1
 91
        4
 64
     7
 65
   257
 75
     1
175
     1
 42
1.0
 92
        0
 66
   257
 43
1.0
 76
     1
 77
     6
 78
     2
 67
     7
 79
     5
170
     0
171
     0
290
     0
174
     0
 93
       13
 44
0.0
173
     0
291
     1
 45
0.0
  0
VISUALSTYLE
  5
38
102
{ACAD_REACTORS
330
2A
102
}
330
2A
100
AcDbVisualStyle
  2
Linepattern
 70
    14
 71
     2
 72
     2
 73
     0
 90
        0
 40
-0.6
 41
-30.0
 62
     5
 63
     7
421
 16777215
 74
     1
 91
        4
 64
     7
 65
   257
 75
     7
175
     7
 42
1.0
 92
        8
 66
     7
 43
1.0
 76
     1
 77
     6
 78
     2
 67
     7
 79
     5
170
     0
171
     0
290
     0
174
     0
 93
        1
 44
0.0
173
     0
291
     1
 45
0.0
  0
VISUALSTYLE
  5
33
102
{ACAD_REACTORS
330
2A
102
}
330
2A
100
AcDbVisualStyle
  2
Realistic
 70
     8
 71
     2
 72
     2
 73
     0
 90
        0
 40
-0.6
 41
-30.0
 62
     5
 63
     7
421
 16777215
 74
     1
 91
        0
 64
     7
 65
   257
 75
     1
175
     1
 42
1.0
 92
        8
 66
     8
424
  7895160
 43
1.0
 76
     1
 77
     6
 78
     2
 67
     7
 79
     5
170
     0
171
     0
290
     0
174
     0
 93
       13
 44
0.0
173
     0
291
     0
 45
0.0
  0
VISUALSTYLE
  5
37
102
{ACAD_REACTORS
330
2A
102
}
330
2A
100
AcDbVisualStyle
  2
Thicken
 70
    13
 71
     2
 72
     2
 73
     0
 90
        0
 40
-0.6
 41
-30.0
 62
     5
 63
     7
421
 16777215
 74
     1
 91
        4
 64
     7
 65
   257
 75
     1
175
     1
 42
1.0
 92
       12
 66
     7
 43
1.0
 76
     1
 77
     6
 78
     2
 67
     7
 79
     5
170
     0
171
     0
290
     0
174
     0
 93
        1
 44
0.0
173
     0
291
     1
 45
0.0
  0
ENDSEC
  0
EOF
