  0
SECTION
  2
HEADER
  9
$ACADVER
  1
AC1021
  9
$ACADMAINTVER
 70
    25
  9
$DWGCODEPAGE
  3
ANSI_932
  9
$INSBASE
 10
0.0
 20
0.0
 30
0.0
  9
$EXTMIN
 10
0.0
 20
-459.7257582348424
 30
0.0
  9
$EXTMAX
 10
945.2600174097319
 20
10.0
 30
10.0
  9
$LIMMIN
 10
0.0
 20
0.0
  9
$LIMMAX
 10
12.0
 20
9.0
  9
$ORTHOMODE
 70
     0
  9
$REGENMODE
 70
     1
  9
$FILLMODE
 70
     1
  9
$QTEXTMODE
 70
     0
  9
$MIRRTEXT
 70
     1
  9
$LTSCALE
 40
1.0
  9
$ATTMODE
 70
     1
  9
$TEXTSIZE
 40
0.2
  9
$TRACEWID
 40
0.05
  9
$TEXTSTYLE
  7
Standard
  9
$CLAYER
  8
0
  9
$CELTYPE
  6
ByLayer
  9
$CECOLOR
 62
   256
  9
$CELTSCALE
 40
1.0
  9
$DISPSILH
 70
     0
  9
$DIMSCALE
 40
1.0
  9
$DIMASZ
 40
3.0
  9
$DIMEXO
 40
0.0625
  9
$DIMDLI
 40
0.38
  9
$DIMRND
 40
0.0
  9
$DIMDLE
 40
0.0
  9
$DIMEXE
 40
0.18
  9
$DIMTP
 40
0.0
  9
$DIMTM
 40
0.0
  9
$DIMTXT
 40
3.0
  9
$DIMCEN
 40
0.09
  9
$DIMTSZ
 40
0.0
  9
$DIMTOL
 70
     0
  9
$DIMLIM
 70
     0
  9
$DIMTIH
 70
     1
  9
$DIMTOH
 70
     1
  9
$DIMSE1
 70
     0
  9
$DIMSE2
 70
     0
  9
$DIMTAD
 70
     1
  9
$DIMZIN
 70
     0
  9
$DIMBLK
  1

  9
$DIMASO
 70
     1
  9
$DIMSHO
 70
     1
  9
$DIMPOST
  1

  9
$DIMAPOST
  1

  9
$DIMALT
 70
     0
  9
$DIMALTD
 70
     2
  9
$DIMALTF
 40
25.4
  9
$DIMLFAC
 40
1.0
  9
$DIMTOFL
 70
     0
  9
$DIMTVP
 40
0.0
  9
$DIMTIX
 70
     0
  9
$DIMSOXD
 70
     0
  9
$DIMSAH
 70
     0
  9
$DIMBLK1
  1

  9
$DIMBLK2
  1

  9
$DIMSTYLE
  2
Standard
  9
$DIMCLRD
 70
     0
  9
$DIMCLRE
 70
     0
  9
$DIMCLRT
 70
     0
  9
$DIMTFAC
 40
1.0
  9
$DIMGAP
 40
0.09
  9
$DIMJUST
 70
     0
  9
$DIMSD1
 70
     0
  9
$DIMSD2
 70
     0
  9
$DIMTOLJ
 70
     1
  9
$DIMTZIN
 70
     0
  9
$DIMALTZ
 70
     0
  9
$DIMALTTZ
 70
     0
  9
$DIMUPT
 70
     0
  9
$DIMDEC
 70
     2
  9
$DIMTDEC
 70
     4
  9
$DIMALTU
 70
     2
  9
$DIMALTTD
 70
     2
  9
$DIMTXSTY
  7
Standard
  9
$DIMAUNIT
 70
     0
  9
$DIMADEC
 70
     2
  9
$DIMALTRND
 40
0.0
  9
$DIMAZIN
 70
     0
  9
$DIMDSEP
 70
    46
  9
$DIMATFIT
 70
     3
  9
$DIMFRAC
 70
     0
  9
$DIMLDRBLK
  1

  9
$DIMLUNIT
 70
     2
  9
$DIMLWD
 70
    -2
  9
$DIMLWE
 70
    -2
  9
$DIMTMOVE
 70
     0
  9
$DIMFXL
 40
1.0
  9
$DIMFXLON
 70
     0
  9
$DIMJOGANG
 40
0.7853981633974483
  9
$DIMTFILL
 70
     0
  9
$DIMTFILLCLR
 70
     0
  9
$DIMARCSYM
 70
     0
  9
$DIMLTYPE
  6

  9
$DIMLTEX1
  6

  9
$DIMLTEX2
  6

  9
$LUNITS
 70
     2
  9
$LUPREC
 70
     4
  9
$SKETCHINC
 40
0.1
  9
$FILLETRAD
 40
0.5
  9
$AUNITS
 70
     0
  9
$AUPREC
 70
     0
  9
$MENU
  1
.
  9
$ELEVATION
 40
0.0
  9
$PELEVATION
 40
0.0
  9
$THICKNESS
 40
0.0
  9
$LIMCHECK
 70
     0
  9
$CHAMFERA
 40
0.5
  9
$CHAMFERB
 40
0.5
  9
$CHAMFERC
 40
1.0
  9
$CHAMFERD
 40
0.0
  9
$SKPOLY
 70
     0
  9
$TDCREATE
 40
2459298.581520706
  9
$TDUCREATE
 40
2459298.206520706
  9
$TDUPDATE
 40
2459298.581520718
  9
$TDUUPDATE
 40
2459298.206520718
  9
$TDINDWG
 40
0.0000000116
  9
$TDUSRTIMER
 40
0.0000000116
  9
$USRTIMER
 70
     1
  9
$ANGBASE
 50
0.0
  9
$ANGDIR
 70
     0
  9
$PDMODE
 70
     0
  9
$PDSIZE
 40
0.0
  9
$PLINEWID
 40
0.0
  9
$SPLFRAME
 70
     0
  9
$SPLINETYPE
 70
     6
  9
$SPLINESEGS
 70
     8
  9
$HANDSEED
  5
1EE
  9
$SURFTAB1
 70
     6
  9
$SURFTAB2
 70
     6
  9
$SURFTYPE
 70
     6
  9
$SURFU
 70
     6
  9
$SURFV
 70
     6
  9
$UCSBASE
  2

  9
$UCSNAME
  2

  9
$UCSORG
 10
0.0
 20
0.0
 30
0.0
  9
$UCSXDIR
 10
1.0
 20
0.0
 30
0.0
  9
$UCSYDIR
 10
0.0
 20
1.0
 30
0.0
  9
$UCSORTHOREF
  2

  9
$UCSORTHOVIEW
 70
     0
  9
$UCSORGTOP
 10
0.0
 20
0.0
 30
0.0
  9
$UCSORGBOTTOM
 10
0.0
 20
0.0
 30
0.0
  9
$UCSORGLEFT
 10
0.0
 20
0.0
 30
0.0
  9
$UCSORGRIGHT
 10
0.0
 20
0.0
 30
0.0
  9
$UCSORGFRONT
 10
0.0
 20
0.0
 30
0.0
  9
$UCSORGBACK
 10
0.0
 20
0.0
 30
0.0
  9
$PUCSBASE
  2

  9
$PUCSNAME
  2

  9
$PUCSORG
 10
0.0
 20
0.0
 30
0.0
  9
$PUCSXDIR
 10
1.0
 20
0.0
 30
0.0
  9
$PUCSYDIR
 10
0.0
 20
1.0
 30
0.0
  9
$PUCSORTHOREF
  2

  9
$PUCSORTHOVIEW
 70
     0
  9
$PUCSORGTOP
 10
0.0
 20
0.0
 30
0.0
  9
$PUCSORGBOTTOM
 10
0.0
 20
0.0
 30
0.0
  9
$PUCSORGLEFT
 10
0.0
 20
0.0
 30
0.0
  9
$PUCSORGRIGHT
 10
0.0
 20
0.0
 30
0.0
  9
$PUCSORGFRONT
 10
0.0
 20
0.0
 30
0.0
  9
$PUCSORGBACK
 10
0.0
 20
0.0
 30
0.0
  9
$USERI1
 70
     0
  9
$USERI2
 70
     0
  9
$USERI3
 70
     0
  9
$USERI4
 70
     0
  9
$USERI5
 70
     0
  9
$USERR1
 40
0.0
  9
$USERR2
 40
0.0
  9
$USERR3
 40
0.0
  9
$USERR4
 40
0.0
  9
$USERR5
 40
0.0
  9
$WORLDVIEW
 70
     1
  9
$SHADEDGE
 70
     3
  9
$SHADEDIF
 70
    70
  9
$TILEMODE
 70
     1
  9
$MAXACTVP
 70
    64
  9
$PINSBASE
 10
0.0
 20
0.0
 30
0.0
  9
$PLIMCHECK
 70
     0
  9
$PEXTMIN
 10
1.000000000000000E+20
 20
1.000000000000000E+20
 30
1.000000000000000E+20
  9
$PEXTMAX
 10
-1.000000000000000E+20
 20
-1.000000000000000E+20
 30
-1.000000000000000E+20
  9
$PLIMMIN
 10
0.0
 20
0.0
  9
$PLIMMAX
 10
12.0
 20
9.0
  9
$UNITMODE
 70
     0
  9
$VISRETAIN
 70
     1
  9
$PLINEGEN
 70
     0
  9
$PSLTSCALE
 70
     1
  9
$TREEDEPTH
 70
  3020
  9
$CMLSTYLE
  2
Standard
  9
$CMLJUST
 70
     0
  9
$CMLSCALE
 40
1.0
  9
$PROXYGRAPHICS
 70
     1
  9
$MEASUREMENT
 70
     1
  9
$CELWEIGHT
370
    -1
  9
$ENDCAPS
280
     0
  9
$JOINSTYLE
280
     0
  9
$LWDISPLAY
290
     1
  9
$INSUNITS
 70
     4
  9
$HYPERLINKBASE
  1

  9
$STYLESHEET
  1

  9
$XEDIT
290
     1
  9
$CEPSNTYPE
380
     0
  9
$PSTYLEMODE
290
     1
  9
$FINGERPRINTGUID
  2
{044D4966-1C3F-4C85-B235-D0D023648EC9}
  9
$VERSIONGUID
  2
{FAEB1C32-E019-11D5-929B-00C0DF256EC4}
  9
$EXTNAMES
290
     1
  9
$PSVPSCALE
 40
0.0
  9
$OLESTARTUP
290
     0
  9
$SORTENTS
280
   127
  9
$INDEXCTL
280
     0
  9
$HIDETEXT
280
     1
  9
$XCLIPFRAME
290
     0
  9
$HALOGAP
280
     0
  9
$OBSCOLOR
 70
   257
  9
$OBSLTYPE
280
     0
  9
$INTERSECTIONDISPLAY
280
     0
  9
$INTERSECTIONCOLOR
 70
   257
  9
$DIMASSOC
280
     2
  9
$PROJECTNAME
  1

  9
$CAMERADISPLAY
290
     0
  9
$LENSLENGTH
 40
50.0
  9
$CAMERAHEIGHT
 40
0.0
  9
$STEPSPERSEC
 40
2.0
  9
$STEPSIZE
 40
6.0
  9
$3DDWFPREC
 40
2.0
  9
$PSOLWIDTH
 40
0.25
  9
$PSOLHEIGHT
 40
4.0
  9
$LOFTANG1
 40
1.570796326794897
  9
$LOFTANG2
 40
1.570796326794897
  9
$LOFTMAG1
 40
0.0
  9
$LOFTMAG2
 40
0.0
  9
$LOFTPARAM
 70
     7
  9
$LOFTNORMALS
280
     1
  9
$LATITUDE
 40
37.795
  9
$LONGITUDE
 40
-122.394
  9
$NORTHDIRECTION
 40
0.0
  9
$TIMEZONE
 70
 -8000
  9
$LIGHTGLYPHDISPLAY
280
     1
  9
$TILEMODELIGHTSYNCH
280
     1
  9
$SOLIDHIST
280
     1
  9
$SHOWHIST
280
     1
  9
$DWFFRAME
280
     2
  9
$DGNFRAME
280
     2
  9
$REALWORLDSCALE
290
     1
  9
$INTERFERECOLOR
 62
   256
  9
$CSHADOW
280
     0
  9
$SHADOWPLANELOCATION
 40
0.0
  0
ENDSEC
  0
SECTION
  2
CLASSES
  0
CLASS
  1
ACDBDICTIONARYWDFLT
  2
AcDbDictionaryWithDefault
  3
ObjectDBX Classes
 90
        0
 91
        4
280
     0
281
     0
  0
CLASS
  1
VISUALSTYLE
  2
AcDbVisualStyle
  3
ObjectDBX Classes
 90
     4095
 91
        4
280
     0
281
     0
  0
ENDSEC
  0
SECTION
  2
TABLES
  0
TABLE
  2
VPORT
  5
8
330
0
100
AcDbSymbolTable
 70
     1
  0
VPORT
  5
29
330
8
100
AcDbSymbolTableRecord
100
AcDbViewportTableRecord
  2
*Active
 70
     0
 10
0.0
 20
0.0
 11
1.0
 21
1.0
 12
472.6300087048659
 22
-224.8628791174212
 13
0.0
 23
0.0
 14
0.5
 24
0.5
 15
0.5
 25
0.5
 16
0.0
 26
0.0
 36
1.0
 17
0.0
 27
0.0
 37
0.0
 40
469.7257582348424
 41
1.6
 42
50.0
 43
0.0
 44
0.0
 50
0.0
 51
0.0
 71
     0
 72
   100
 73
     1
 74
     3
 75
     0
 76
     0
 77
     0
 78
     0
281
     0
 65
     1
110
0.0
120
0.0
130
0.0
111
1.0
121
0.0
131
0.0
112
0.0
122
1.0
132
0.0
 79
     0
146
0.0
 60
     3
 61
     5
292
     1
282
     1
141
0.0
142
0.0
 63
   250
  0
ENDTAB
  0
TABLE
  2
LTYPE
  5
5
330
0
100
AcDbSymbolTable
 70
     2
  0
LTYPE
  5
14
330
5
100
AcDbSymbolTableRecord
100
AcDbLinetypeTableRecord
  2
ByBlock
 70
     0
  3

 72
    65
 73
     0
 40
0.0
  0
LTYPE
  5
15
330
5
100
AcDbSymbolTableRecord
100
AcDbLinetypeTableRecord
  2
ByLayer
 70
     0
  3

 72
    65
 73
     0
 40
0.0
  0
LTYPE
  5
16
330
5
100
AcDbSymbolTableRecord
100
AcDbLinetypeTableRecord
  2
Continuous
 70
     0
  3
Solid line
 72
    65
 73
     0
 40
0.0
  0
LTYPE
  5
3D
330
5
100
AcDbSymbolTableRecord
100
AcDbLinetypeTableRecord
  2
________________
 70
     0
  3

 72
    65
 73
     0
 40
0.0
  0
ENDTAB
  0
TABLE
  2
LAYER
  5
2
330
0
100
AcDbSymbolTable
 70
     2
  0
LAYER
  5
10
330
2
100
AcDbSymbolTableRecord
100
AcDbLayerTableRecord
  2
0
 70
     0
 62
     7
  6
Continuous
370
    -3
390
F
347
0
  0
LAYER
  5
3B
330
2
100
AcDbSymbolTableRecord
100
AcDbLayerTableRecord
  2
5
 70
     0
 62
     7
  6
Continuous
370
    -3
390
F
347
0
  0
ENDTAB
  0
TABLE
  2
STYLE
  5
3
330
0
100
AcDbSymbolTable
 70
     1
  0
STYLE
  5
11
330
3
100
AcDbSymbolTableRecord
100
AcDbTextStyleTableRecord
  2
Standard
 70
     0
 40
0.0
 41
1.0
 50
0.0
 71
     0
 42
0.2
  3
txt
  4

  0
ENDTAB
  0
TABLE
  2
VIEW
  5
6
330
0
100
AcDbSymbolTable
 70
     0
  0
ENDTAB
  0
TABLE
  2
UCS
  5
7
330
0
100
AcDbSymbolTable
 70
     0
  0
ENDTAB
  0
TABLE
  2
APPID
  5
9
330
0
100
AcDbSymbolTable
 70
     1
  0
APPID
  5
12
330
9
100
AcDbSymbolTableRecord
100
AcDbRegAppTableRecord
  2
ACAD
 70
     0
  0
ENDTAB
  0
TABLE
  2
DIMSTYLE
  5
A
330
0
100
AcDbSymbolTable
 70
     1
100
AcDbDimStyleTable
  0
DIMSTYLE
105
27
330
A
100
AcDbSymbolTableRecord
100
AcDbDimStyleTableRecord
  2
Standard
 70
     0
340
11
  0
ENDTAB
  0
TABLE
  2
BLOCK_RECORD
  5
1
330
0
100
AcDbSymbolTable
 70
     1
  0
BLOCK_RECORD
  5
1F
330
1
100
AcDbSymbolTableRecord
100
AcDbBlockTableRecord
  2
*Model_Space
340
22
 70
     0
280
     1
281
     0
  0
BLOCK_RECORD
  5
1B
330
1
100
AcDbSymbolTableRecord
100
AcDbBlockTableRecord
  2
*Paper_Space
340
1E
 70
     0
280
     1
281
     0
  0
BLOCK_RECORD
  5
23
330
1
100
AcDbSymbolTableRecord
100
AcDbBlockTableRecord
  2
*Paper_Space0
340
26
 70
     0
280
     1
281
     0
  0
ENDTAB
  0
ENDSEC
  0
SECTION
  2
BLOCKS
  0
BLOCK
  5
20
330
1F
100
AcDbEntity
  8
0
100
AcDbBlockBegin
  2
*Model_Space
 70
     0
 10
0.0
 20
0.0
 30
0.0
  3
*Model_Space
  1

  0
ENDBLK
  5
21
330
1F
100
AcDbEntity
  8
0
100
AcDbBlockEnd
  0
BLOCK
  5
1C
330
1B
100
AcDbEntity
 67
     1
  8
0
100
AcDbBlockBegin
  2
*Paper_Space
 70
     0
 10
0.0
 20
0.0
 30
0.0
  3
*Paper_Space
  1

  0
ENDBLK
  5
1D
330
1B
100
AcDbEntity
 67
     1
  8
0
100
AcDbBlockEnd
  0
BLOCK
  5
24
330
23
100
AcDbEntity
  8
0
100
AcDbBlockBegin
  2
*Paper_Space0
 70
     0
 10
0.0
 20
0.0
 30
0.0
  3
*Paper_Space0
  1

  0
ENDBLK
  5
25
330
23
100
AcDbEntity
  8
0
100
AcDbBlockEnd
  0
ENDSEC
  0
SECTION
  2
ENTITIES
  0
LINE
  5
3C
330
1F
100
AcDbEntity
  8
5
  6
________________
 62
     7
370
     0
100
AcDbLine
 10
750.1616787387863
 20
-372.7326947312552
 30
0.0
 11
752.0539484679226
 21
-427.588508436186
 31
0.0
  0
LINE
  5
3E
330
1F
100
AcDbEntity
  8
5
  6
________________
 62
     7
370
     0
100
AcDbLine
 10
752.0539484679226
 20
-427.588508436186
 30
0.0
 11
752.479587961478
 21
-440.0403500920543
 31
0.0
  0
LINE
  5
3F
330
1F
100
AcDbEntity
  8
5
  6
________________
 62
     7
370
     0
100
AcDbLine
 10
752.1284703622456
 20
-429.7688751696209
 30
0.0
 11
752.0052425885144
 21
-426.1681013434153
 31
0.0
  0
LINE
  5
40
330
1F
100
AcDbEntity
  8
5
  6
________________
 62
     7
370
     0
100
AcDbLine
 10
747.7689955422338
 20
-304.5093929597814
 30
0.0
 11
750.1616787387863
 21
-372.7326947312551
 31
0.0
  0
LINE
  5
41
330
1F
100
AcDbEntity
  8
5
  6
________________
 62
     7
370
     0
100
AcDbLine
 10
752.3514456153531
 20
-305.4075572585814
 30
0.0
 11
752.3514456153531
 21
-305.4001310216026
 31
0.0
  0
LINE
  5
42
330
1F
100
AcDbEntity
  8
5
  6
________________
 62
     7
370
     0
100
AcDbLine
 10
764.3514456153531
 20
-307.7403874941674
 30
0.0
 11
752.351445615353
 21
-305.4075572585813
 31
0.0
  0
LINE
  5
43
330
1F
100
AcDbEntity
  8
5
  6
________________
 62
     7
370
     0
100
AcDbLine
 10
764.3514456153531
 20
-307.7403874941674
 30
0.0
 11
764.3514456153531
 21
-437.7326947312551
 31
0.0
  0
LINE
  5
44
330
1F
100
AcDbEntity
  8
5
  6
________________
 62
     7
370
     0
100
AcDbLine
 10
751.3514456153531
 20
-407.1381929368611
 30
0.0
 11
751.3514456153531
 21
-423.7326947312551
 31
0.0
  0
LINE
  5
45
330
1F
100
AcDbEntity
  8
5
  6
________________
 62
     7
370
     0
100
AcDbLine
 10
654.7831998819041
 20
-307.7326947312551
 30
0.0
 11
654.7831998819041
 21
-437.7326947312551
 31
0.0
  0
LINE
  5
46
330
1F
100
AcDbEntity
  8
5
  6
________________
 62
     7
370
     0
100
AcDbLine
 10
650.3514456153531
 20
-420.6984981653039
 30
0.0
 11
650.3514456153531
 21
-437.6680349605639
 31
0.0
  0
LINE
  5
47
330
1F
100
AcDbEntity
  8
5
  6
________________
 62
     7
370
     0
100
AcDbLine
 10
650.3514456153531
 20
-375.6312442485001
 30
0.0
 11
650.3514456153531
 21
-416.5993301268059
 31
0.0
  0
LINE
  5
48
330
1F
100
AcDbEntity
  8
5
  6
________________
 62
     7
370
     0
100
AcDbLine
 10
650.3514456153531
 20
-328.8660593357042
 30
0.0
 11
650.3514456153531
 21
-369.8341452140101
 31
0.0
  0
LINE
  5
49
330
1F
100
AcDbEntity
  8
5
  6
________________
 62
     7
370
     0
100
AcDbLine
 10
650.3514456153531
 20
-307.7973545019464
 30
0.0
 11
650.3514456153531
 21
-324.7668912972064
 31
0.0
  0
ELLIPSE
  5
4A
330
1F
100
AcDbEntity
  8
5
  6
________________
 62
     7
370
     0
100
AcDbEllipse
 10
627.4899375978273
 20
-375.6089477137522
 30
0.0
 11
0.01569352271757471
 21
0.4997536526576998
 31
0.0
210
0.0
220
0.0
230
1.0
 40
0.5138020083501011
 41
3.141592653589793
 42
3.202634657782851
  0
LINE
  5
4B
330
1F
100
AcDbEntity
  8
5
  6
________________
 62
     7
370
     0
100
AcDbLine
 10
627.4899375978274
 20
-376.1089477137521
 30
0.0
 11
627.4899375978274
 21
-376.1082624811294
 31
0.0
  0
ELLIPSE
  5
4C
330
1F
100
AcDbEntity
  8
5
  6
________________
 62
     7
370
     0
100
AcDbEllipse
 10
627.4899375978274
 20
-369.8564417487581
 30
0.0
 11
-0.01569352271757469
 21
0.4997536526576998
 31
0.0
210
0.0
220
0.0
230
1.0
 40
0.513802008350132
 41
0.0
 42
0.1481995224665296
  0
ELLIPSE
  5
4D
330
1F
100
AcDbEntity
  8
5
  6
________________
 62
     7
370
     0
100
AcDbEllipse
 10
627.4899375978274
 20
-369.8564417487581
 30
0.0
 11
-0.01569352271758608
 21
0.4997536526576991
 31
0.0
210
0.0
220
0.0
230
0.9999999999999998
 40
0.5138020083501305
 41
-0.0610420041929765
 42
0.0
  0
LINE
  5
4E
330
1F
100
AcDbEntity
  8
5
  6
________________
 62
     7
370
     0
100
AcDbLine
 10
627.4899375978274
 20
-369.3564417487581
 30
0.0
 11
627.4899375978274
 21
-369.3571269813808
 31
0.0
  0
ELLIPSE
  5
4F
330
1F
100
AcDbEntity
  8
5
  6
________________
 62
     7
370
     0
100
AcDbEllipse
 10
627.4899375978273
 20
-375.6089477137522
 30
0.0
 11
0.01569352271754269
 21
0.499753652657701
 31
0.0
210
0.0
220
0.0
230
1.0
 40
0.5138020083501003
 41
2.993397532013736
 42
3.141592653589793
  0
ELLIPSE
  5
50
330
1F
100
AcDbEntity
  8
5
  6
________________
 62
     7
370
     0
100
AcDbEllipse
 10
622.8514456153531
 20
-375.4632871917091
 30
0.0
 11
0.01569356616338411
 21
0.4997536512933901
 31
0.0
210
0.0
220
0.0
230
0.9999999999999997
 40
0.5138030552503372
 41
2.993358530960378
 42
3.141592653589806
  0
LINE
  5
51
330
1F
100
AcDbEntity
  8
5
  6
________________
 62
     7
370
     0
100
AcDbLine
 10
622.3514456153531
 20
-375.4632871917091
 30
0.0
 11
622.3514456153531
 21
-370.0021022708013
 31
0.0
  0
ELLIPSE
  5
52
330
1F
100
AcDbEntity
  8
5
  6
________________
 62
     7
370
     0
100
AcDbEllipse
 10
622.8514456153531
 20
-370.0021022708012
 30
0.0
 11
-0.01569356616340515
 21
0.4997536512933893
 31
3.851859888774470E-34
210
2.417976720665945E-35
220
-7.699924174742369E-34
230
1.0
 40
0.513803055250343
 41
0.0
 42
0.1482385243446683
  0
LINE
  5
53
330
1F
100
AcDbEntity
  8
5
  6
________________
 62
     7
370
     0
100
AcDbLine
 10
650.3514456153531
 20
-410.9101082179092
 30
0.0
 11
639.7642898726053
 21
-410.2903219077407
 31
0.0
  0
LINE
  5
54
330
1F
100
AcDbEntity
  8
5
  6
________________
 62
     7
370
     0
100
AcDbLine
 10
650.3514456153531
 20
-334.555281244601
 30
0.0
 11
639.7642898726053
 21
-335.1750675547695
 31
0.0
  0
ELLIPSE
  5
55
330
1F
100
AcDbEntity
  8
5
  6
________________
 62
     7
370
     0
100
AcDbEllipse
 10
639.8514456153531
 20
-409.6237375453551
 30
0.0
 11
1.000000000000001
 21
6.704998577406916E-16
 31
-2.465190328815664E-32
210
-2.465190328815661E-32
220
-1.652909764774628E-47
230
-1.0
 40
0.6691306063588581
 41
1.658062789394658
 42
2.931891659675567
  0
LINE
  5
56
330
1F
100
AcDbEntity
  8
5
  6
________________
 62
     7
370
     0
100
AcDbLine
 10
638.8514456153531
 20
-409.607454020681
 30
0.0
 11
638.8733524135714
 21
-409.7630287596302
 31
0.0
  0
LINE
  5
57
330
1F
100
AcDbEntity
  8
5
  6
________________
 62
     7
370
     0
100
AcDbLine
 10
638.8514456153531
 20
-376.1082624811294
 30
0.0
 11
638.8514456153531
 21
-409.607454020681
 31
0.0
  0
LINE
  5
58
330
1F
100
AcDbEntity
  8
5
  6
________________
 62
     7
370
     0
100
AcDbLine
 10
638.8733524135714
 20
-335.7023607028801
 30
0.0
 11
638.8514456153531
 21
-335.8579354418291
 31
0.0
  0
ELLIPSE
  5
59
330
1F
100
AcDbEntity
  8
5
  6
________________
 62
     7
370
     0
100
AcDbEllipse
 10
639.8514456153531
 20
-335.8416519171551
 30
0.0
 11
1.000000000000001
 21
5.993597154927750E-16
 31
-2.465190328815664E-32
210
2.465190328815661E-32
220
1.477535774114495E-47
230
1.0
 40
0.669130606358858
 41
1.658062789394657
 42
2.931891659675567
  0
LINE
  5
5A
330
1F
100
AcDbEntity
  8
5
  6
________________
 62
     7
370
     0
100
AcDbLine
 10
638.8514456153531
 20
-335.8579354418289
 30
0.0
 11
638.8514456153531
 21
-369.3571269813808
 31
0.0
  0
LINE
  5
5B
330
1F
100
AcDbEntity
  8
5
  6
________________
 62
     7
370
     0
100
AcDbLine
 10
622.3514456153531
 20
-376.4732322718376
 30
0.0
 11
622.3514456153531
 21
-375.4633058553575
 31
0.0
  0
LINE
  5
5C
330
1F
100
AcDbEntity
  8
5
  6
________________
 62
     7
370
     0
100
AcDbLine
 10
622.3514456153531
 20
-370.0020807010308
 30
0.0
 11
622.3514456153531
 21
-368.9921571906727
 31
0.0
  0
LINE
  5
5D
330
1F
100
AcDbEntity
  8
5
  6
________________
 62
     7
370
     0
100
AcDbLine
 10
622.3514456153531
 20
-337.0375258733138
 30
0.0
 11
622.3514456153531
 21
-368.9921571906728
 31
0.0
  0
LINE
  5
5E
330
1F
100
AcDbEntity
  8
5
  6
________________
 62
     7
370
     0
100
AcDbLine
 10
622.3514456153531
 20
-376.4732322718376
 30
0.0
 11
622.3514456153531
 21
-408.4278635891966
 31
0.0
  0
LINE
  5
5F
330
1F
100
AcDbEntity
  8
5
  6
________________
 62
     7
370
     0
100
AcDbLine
 10
622.3514456153531
 20
-335.3262544224471
 30
0.0
 11
622.3514456153531
 21
-331.065807644048
 31
0.0
  0
LINE
  5
60
330
1F
100
AcDbEntity
  8
5
  6
________________
 62
     7
370
     0
100
AcDbLine
 10
622.3514456153531
 20
-414.3995818184623
 30
0.0
 11
622.3514456153531
 21
-410.1391350400631
 31
0.0
  0
LINE
  5
61
330
1F
100
AcDbEntity
  8
5
  6
________________
 62
     7
370
     0
100
AcDbLine
 10
622.3514456153531
 20
-331.065807644048
 30
0.0
 11
622.3514456153531
 21
-327.2041667531603
 31
0.0
  0
LINE
  5
62
330
1F
100
AcDbEntity
  8
5
  6
________________
 62
     7
370
     0
100
AcDbLine
 10
622.3514456153531
 20
-418.2612227093499
 30
0.0
 11
622.3514456153531
 21
-414.3995818184621
 31
0.0
  0
LINE
  5
63
330
1F
100
AcDbEntity
  8
5
  6
________________
 62
     7
370
     0
100
AcDbLine
 10
622.3514456153531
 20
-335.4246275044225
 30
0.0
 11
622.3514456153531
 21
-335.3262544224471
 31
0.0
  0
LINE
  5
64
330
1F
100
AcDbEntity
  8
5
  6
________________
 62
     7
370
     0
100
AcDbLine
 10
622.3514456153531
 20
-337.0375258733137
 30
0.0
 11
622.3514456153531
 21
-335.5218701877664
 31
0.0
  0
LINE
  5
65
330
1F
100
AcDbEntity
  8
5
  6
________________
 62
     7
370
     0
100
AcDbLine
 10
622.3514456153531
 20
-335.5218701877665
 30
0.0
 11
622.3514456153531
 21
-335.4246275044226
 31
0.0
  0
LINE
  5
66
330
1F
100
AcDbEntity
  8
5
  6
________________
 62
     7
370
     0
100
AcDbLine
 10
622.3514456153531
 20
-410.0450727081335
 30
0.0
 11
622.3514456153531
 21
-409.9459410412618
 31
0.0
  0
LINE
  5
67
330
1F
100
AcDbEntity
  8
5
  6
________________
 62
     7
370
     0
100
AcDbLine
 10
622.3514456153531
 20
-409.9459410412618
 30
0.0
 11
622.3514456153531
 21
-408.4278635891966
 31
0.0
  0
LINE
  5
68
330
1F
100
AcDbEntity
  8
5
  6
________________
 62
     7
370
     0
100
AcDbLine
 10
622.3514456153531
 20
-410.1391350400631
 30
0.0
 11
622.3514456153531
 21
-410.0450727081334
 31
0.0
  0
LINE
  5
69
330
1F
100
AcDbEntity
  8
5
  6
________________
 62
     7
370
     0
100
AcDbLine
 10
650.3514456153531
 20
-315.7556377770503
 30
0.0
 11
639.7642898726053
 21
-316.6806244817217
 31
0.0
  0
LINE
  5
6A
330
1F
100
AcDbEntity
  8
5
  6
________________
 62
     7
370
     0
100
AcDbLine
 10
650.3514456153531
 20
-429.70975168546
 30
0.0
 11
639.7642898726053
 21
-428.7847649807885
 31
0.0
  0
ELLIPSE
  5
6B
330
1F
100
AcDbEntity
  8
5
  6
________________
 62
     7
370
     0
100
AcDbEllipse
 10
639.8514456153531
 20
-427.7899355329081
 30
0.0
 11
1.000000000000001
 21
3.848239224924780E-14
 31
0.0
210
0.0
220
0.0
230
-1.0
 40
0.9986295347545744
 41
1.658062789394699
 42
2.93189165967563
  0
LINE
  5
6C
330
1F
100
AcDbEntity
  8
5
  6
________________
 62
     7
370
     0
100
AcDbLine
 10
638.8636534247637
 20
-427.9454817437414
 30
0.0
 11
638.8733524135714
 21
-427.9978176999843
 31
0.0
  0
LINE
  5
6D
330
1F
100
AcDbEntity
  8
5
  6
________________
 62
     7
370
     0
100
AcDbLine
 10
638.8514456153531
 20
-427.7887846244992
 30
0.0
 11
638.8636616916907
 21
-427.9454804413652
 31
0.0
  0
LINE
  5
6E
330
1F
100
AcDbEntity
  8
5
  6
________________
 62
     7
370
     0
100
AcDbLine
 10
638.8514456153531
 20
-420.8295304465806
 30
0.0
 11
638.8514456153531
 21
-427.7887846244993
 31
0.0
  0
LINE
  5
6F
330
1F
100
AcDbEntity
  8
5
  6
________________
 62
     7
370
     0
100
AcDbLine
 10
638.8636616916907
 20
-317.519909021145
 30
0.0
 11
638.8514456153531
 21
-317.676604838011
 31
0.0
  0
LINE
  5
70
330
1F
100
AcDbEntity
  8
5
  6
________________
 62
     7
370
     0
100
AcDbLine
 10
638.8733524135714
 20
-317.4675717625259
 30
0.0
 11
638.8636534247637
 21
-317.5199077187688
 31
0.0
  0
ELLIPSE
  5
71
330
1F
100
AcDbEntity
  8
5
  6
________________
 62
     7
370
     0
100
AcDbEllipse
 10
639.8514456153531
 20
-317.6754539296021
 30
0.0
 11
1.000000000000001
 21
1.438535189475260E-14
 31
-2.465190328815664E-32
210
2.465190328815661E-32
220
3.546263036755415E-46
230
1.0
 40
0.9986295347545737
 41
1.658062789394643
 42
2.931891659675573
  0
LINE
  5
72
330
1F
100
AcDbEntity
  8
5
  6
________________
 62
     7
370
     0
100
AcDbLine
 10
638.8514456153531
 20
-317.6766048380109
 30
0.0
 11
638.8514456153531
 21
-324.6358590159297
 31
0.0
  0
LINE
  5
73
330
1F
100
AcDbEntity
  8
5
  6
________________
 62
     7
370
     0
100
AcDbLine
 10
622.3514456153531
 20
-318.5115652805742
 30
0.0
 11
622.3514456153531
 21
-327.2041667531603
 31
0.0
  0
LINE
  5
74
330
1F
100
AcDbEntity
  8
5
  6
________________
 62
     7
370
     0
100
AcDbLine
 10
622.3514456153531
 20
-418.26122270935
 30
0.0
 11
622.3514456153531
 21
-426.9538241819361
 31
0.0
  0
LINE
  5
75
330
1F
100
AcDbEntity
  8
5
  6
________________
 62
     7
370
     0
100
AcDbLine
 10
622.3514456153531
 20
-318.5115652805742
 30
0.0
 11
622.3514456153531
 21
-317.4346373113973
 31
0.0
  0
LINE
  5
76
330
1F
100
AcDbEntity
  8
5
  6
________________
 62
     7
370
     0
100
AcDbLine
 10
622.3514456153531
 20
-428.0307521511128
 30
0.0
 11
622.3514456153531
 21
-426.9538241819359
 31
0.0
  0
LINE
  5
77
330
1F
100
AcDbEntity
  8
5
  6
________________
 62
     7
370
     0
100
AcDbLine
 10
622.3514456153531
 20
-317.4346373113973
 30
0.0
 11
622.3514456153531
 21
-311.0762254502045
 31
0.0
  0
LINE
  5
78
330
1F
100
AcDbEntity
  8
5
  6
________________
 62
     7
370
     0
100
AcDbLine
 10
622.3514456153531
 20
-434.3891640123056
 30
0.0
 11
622.3514456153531
 21
-428.0307521511128
 31
0.0
  0
LINE
  5
79
330
1F
100
AcDbEntity
  8
5
  6
________________
 62
     7
370
     0
100
AcDbLine
 10
622.3514456153531
 20
-311.0762254502044
 30
0.0
 11
622.3514456153531
 21
-311.0157899207396
 31
0.0
  0
LINE
  5
7A
330
1F
100
AcDbEntity
  8
5
  6
________________
 62
     7
370
     0
100
AcDbLine
 10
622.3514456153531
 20
-434.4495995417706
 30
0.0
 11
622.3514456153531
 21
-434.3891640123058
 31
0.0
  0
LINE
  5
7B
330
1F
100
AcDbEntity
  8
5
  6
________________
 62
     7
370
     0
100
AcDbLine
 10
769.3514456153532
 20
-307.7403874941674
 30
0.0
 11
764.3514456153532
 21
-307.7403874941674
 31
0.0
  0
LINE
  5
7C
330
1F
100
AcDbEntity
  8
5
  6
________________
 62
     7
370
     0
100
AcDbLine
 10
764.3514456153532
 20
-307.7403874941674
 30
0.0
 11
764.3514456153532
 21
-437.7326947312551
 31
0.0
  0
LWPOLYLINE
  5
7D
330
1F
100
AcDbEntity
  8
5
  6
________________
 62
     7
370
     0
100
AcDbPolyline
 90
       38
 70
     0
 43
0.0
 10
770.3514151010341
 20
-308.7326947312551
 10
770.3498546096178
 20
-308.6841140238706
 10
770.3459870376236
 20
-308.6361527558944
 10
770.3398915954817
 20
-308.5889162688478
 10
770.3316513057075
 20
-308.5425027545061
 10
770.3213524700657
 20
-308.4970032481918
 10
770.3090841546791
 20
-308.4525016549129
 10
770.2949376945003
 20
-308.4090748059576
 10
770.2790062183461
 20
-308.3667925435637
 10
770.2613841954887
 20
-308.3257178312947
 10
770.242167004602
 20
-308.2859068877916
 10
770.2214505256776
 20
-308.2474093416126
 10
770.199330755348
 20
-308.2102684049284
 10
770.1759034458953
 20
-308.1745210639006
 10
770.1512637680726
 20
-308.1401982836507
 10
770.125505997722
 20
-308.1073252257981
 10
770.09872322605
 20
-308.0759214766363
 10
770.0710070933031
 20
-308.046001284101
 10
770.0424475454761
 20
-308.0175738017813
 10
770.0131326135999
 20
-307.9906433383176
 10
769.98314821506
 20
-307.9652096106291
 10
769.948874060757
 20
-307.938494904275
 10
769.9139787953717
 20
-307.9136392584321
 10
769.8785721625119
 20
-307.8906241634619
 10
769.8427596165227
 20
-307.8694255906831
 10
769.8066421574978
 20
-307.850014435585
 10
769.7709661679907
 20
-307.8326571016738
 10
769.7351760175078
 20
-307.8169554522801
 10
769.6993542282569
 20
-307.802870018149
 10
769.663578862714
 20
-307.7903581581657
 10
769.6230745807177
 20
-307.7779924130441
 10
769.5828261178638
 20
-307.7675293410365
 10
769.54292706592
 20
-307.7588949002188
 10
769.5034637160129
 20
-307.7520121403371
 10
769.4645151861627
 20
-307.7468017619559
 10
769.4261535797605
 20
-307.7431826424477
 10
769.3884441712388
 20
-307.7410723283822
 10
769.3514456153532
 20
-307.7403874941674
  0
LINE
  5
7E
330
1F
100
AcDbEntity
  8
5
  6
________________
 62
     7
370
     0
100
AcDbLine
 10
770.3514456153532
 20
-308.7326947312551
 30
0.0
 11
770.3514456153532
 21
-436.7326947312551
 31
0.0
  0
LINE
  5
7F
330
1F
100
AcDbEntity
  8
5
  6
________________
 62
     7
370
     0
100
AcDbLine
 10
770.5514456153531
 20
-365.2326947312552
 30
0.0
 11
770.5514456153531
 21
-367.4828764812971
 31
0.0
  0
LINE
  5
80
330
1F
100
AcDbEntity
  8
5
  6
________________
 62
     7
370
     0
100
AcDbLine
 10
770.3514456153532
 20
-367.4828764812971
 30
0.0
 11
770.5514456153531
 21
-367.4828764812971
 31
0.0
  0
LINE
  5
81
330
1F
100
AcDbEntity
  8
5
  6
________________
 62
     7
370
     0
100
AcDbLine
 10
770.3514456153532
 20
-365.2326947312552
 30
0.0
 11
770.5514456153531
 21
-365.2326947312552
 31
0.0
  0
LINE
  5
82
330
1F
100
AcDbEntity
  8
5
  6
________________
 62
     7
370
     0
100
AcDbLine
 10
770.5514456153531
 20
-367.4828764812957
 30
0.0
 11
770.5514456153531
 21
-367.8318795368169
 31
0.0
  0
LINE
  5
83
330
1F
100
AcDbEntity
  8
5
  6
________________
 62
     7
370
     0
100
AcDbLine
 10
770.3514456153532
 20
-367.8318795368169
 30
0.0
 11
770.5514456153531
 21
-367.8318795368169
 31
0.0
  0
LINE
  5
84
330
1F
100
AcDbEntity
  8
5
  6
________________
 62
     7
370
     0
100
AcDbLine
 10
770.5514456153531
 20
-369.0404297581741
 30
0.0
 11
770.5514456153531
 21
-376.4826947312551
 31
0.0
  0
LINE
  5
85
330
1F
100
AcDbEntity
  8
5
  6
________________
 62
     7
370
     0
100
AcDbLine
 10
770.3514456153532
 20
-376.4826947312551
 30
0.0
 11
770.5514456153531
 21
-376.4826947312551
 31
0.0
  0
LINE
  5
86
330
1F
100
AcDbEntity
  8
5
  6
________________
 62
     7
370
     0
100
AcDbLine
 10
770.3514456153532
 20
-368.66650320774
 30
0.0
 11
770.5514456153531
 21
-368.66650320774
 31
0.0
  0
LINE
  5
87
330
1F
100
AcDbEntity
  8
5
  6
________________
 62
     7
370
     0
100
AcDbLine
 10
770.3514456153532
 20
-368.4585947470313
 30
0.0
 11
770.5514456153531
 21
-368.4585947470309
 31
0.0
  0
LINE
  5
88
330
1F
100
AcDbEntity
  8
5
  6
________________
 62
     7
370
     0
100
AcDbLine
 10
770.5514456153531
 20
-368.4585947470313
 30
0.0
 11
770.5514456153531
 21
-368.66650320774
 31
0.0
  0
LINE
  5
89
330
1F
100
AcDbEntity
  8
5
  6
________________
 62
     7
370
     0
100
AcDbLine
 10
770.5514456153531
 20
-367.8318795368169
 30
0.0
 11
770.5514456153531
 21
-368.4585947470309
 31
0.0
  0
LINE
  5
8A
330
1F
100
AcDbEntity
  8
5
  6
________________
 62
     7
370
     0
100
AcDbLine
 10
770.3514456153532
 20
-368.785769339568
 30
0.0
 11
770.5514456153531
 21
-368.785769339568
 31
0.0
  0
LINE
  5
8B
330
1F
100
AcDbEntity
  8
5
  6
________________
 62
     7
370
     0
100
AcDbLine
 10
770.5514456153531
 20
-368.66650320774
 30
0.0
 11
770.5514456153531
 21
-368.7857693395679
 31
0.0
  0
LINE
  5
8C
330
1F
100
AcDbEntity
  8
5
  6
________________
 62
     7
370
     0
100
AcDbLine
 10
770.3514456153532
 20
-368.901442753444
 30
0.0
 11
770.5514456153531
 21
-368.901442753444
 31
0.0
  0
LINE
  5
8D
330
1F
100
AcDbEntity
  8
5
  6
________________
 62
     7
370
     0
100
AcDbLine
 10
770.5514456153531
 20
-368.785769339568
 30
0.0
 11
770.5514456153531
 21
-368.9014427534441
 31
0.0
  0
LINE
  5
8E
330
1F
100
AcDbEntity
  8
5
  6
________________
 62
     7
370
     0
100
AcDbLine
 10
770.5514456153531
 20
-368.901442753444
 30
0.0
 11
770.5514456153531
 21
-368.9569396348828
 31
0.0
  0
LINE
  5
8F
330
1F
100
AcDbEntity
  8
5
  6
________________
 62
     7
370
     0
100
AcDbLine
 10
770.3514456153532
 20
-368.9569396348829
 30
0.0
 11
770.5514456153531
 21
-368.9569396348829
 31
0.0
  0
LINE
  5
90
330
1F
100
AcDbEntity
  8
5
  6
________________
 62
     7
370
     0
100
AcDbLine
 10
770.5514456153531
 20
-368.9569396348827
 30
0.0
 11
770.5514456153531
 21
-368.9826947312551
 31
0.0
  0
LINE
  5
91
330
1F
100
AcDbEntity
  8
5
  6
________________
 62
     7
370
     0
100
AcDbLine
 10
770.3514456153532
 20
-368.9826947312551
 30
0.0
 11
770.5514456153531
 21
-368.9826947312551
 31
0.0
  0
LINE
  5
92
330
1F
100
AcDbEntity
  8
5
  6
________________
 62
     7
370
     0
100
AcDbLine
 10
770.5514456153531
 20
-376.8576947312552
 30
0.0
 11
770.5514456153531
 21
-376.4826947312552
 31
0.0
  0
LINE
  5
93
330
1F
100
AcDbEntity
  8
5
  6
________________
 62
     7
370
     0
100
AcDbLine
 10
770.3514456153532
 20
-380.2326947312551
 30
0.0
 11
770.5514456153531
 21
-380.2326947312551
 31
0.0
  0
LINE
  5
94
330
1F
100
AcDbEntity
  8
5
  6
________________
 62
     7
370
     0
100
AcDbLine
 10
770.5514456153531
 20
-376.8576947312552
 30
0.0
 11
770.5514456153531
 21
-380.2326947312552
 31
0.0
  0
LINE
  5
95
330
1F
100
AcDbEntity
  8
5
  6
________________
 62
     7
370
     0
100
AcDbLine
 10
770.5514456153531
 20
-369.0192972716335
 30
0.0
 11
770.5514456153531
 21
-369.0404297581741
 31
0.0
  0
LWPOLYLINE
  5
96
330
1F
100
AcDbEntity
  8
5
  6
________________
 62
     7
370
     0
100
AcDbPolyline
 90
        3
 70
     0
 43
0.0
 10
-740.6180941663272
 20
-420.4148513070041
 42
0.0189200465756316
 10
-738.9576567701894
 20
-389.0718526207754
 42
0.0005255896310369
 10
-738.4107801736119
 20
-372.7326947312522
210
0.0
220
0.0
230
-1.0
  0
LWPOLYLINE
  5
97
330
1F
100
AcDbEntity
  8
5
  6
________________
 62
     7
370
     0
100
AcDbPolyline
 90
        3
 70
     0
 43
0.0
 10
-730.6180616986137
 20
-420.4147950464675
 42
0.0189197569355182
 10
-728.9576355382748
 20
-389.0718526207778
 42
0.000525589270955
 10
-728.4107593172066
 20
-372.7326947312552
210
0.0
220
0.0
230
-1.0
  0
LWPOLYLINE
  5
98
330
1F
100
AcDbEntity
  8
5
  6
________________
 62
     7
370
     0
100
AcDbPolyline
 90
        3
 70
     0
 43
0.0
 10
-720.6180004407773
 20
-420.4143804295061
 42
0.0189178553434879
 10
-718.9576365211802
 20
-389.0718526207777
 42
0.0005255931082918
 10
-718.4107562983568
 20
-372.7326947312553
210
0.0
220
0.0
230
-1.0
  0
LWPOLYLINE
  5
99
330
1F
100
AcDbEntity
  8
5
  6
________________
 62
     7
370
     0
100
AcDbPolyline
 90
        3
 70
     0
 43
0.0
 10
-710.6178341906271
 20
-420.4135583067713
 42
0.0189136535674411
 10
-708.9576319400228
 20
-389.0718526207779
 42
0.000525588617144
 10
-708.4107564007791
 20
-372.7326947312553
210
0.0
220
0.0
230
-1.0
  0
LWPOLYLINE
  5
9A
330
1F
100
AcDbEntity
  8
5
  6
________________
 62
     7
370
     0
100
AcDbPolyline
 90
        3
 70
     0
 43
0.0
 10
-700.6176777904828
 20
-420.4125941764014
 42
0.0189088354133694
 10
-698.9576557012081
 20
-389.0718526207777
 42
0.0005255862996688
 10
-698.4107825787387
 20
-372.7326947312552
210
0.0
220
0.0
230
-1.0
  0
LWPOLYLINE
  5
9B
330
1F
100
AcDbEntity
  8
5
  6
________________
 62
     7
370
     0
100
AcDbPolyline
 90
        3
 70
     0
 43
0.0
 10
-690.6176271836814
 20
-420.4121427204534
 42
0.0189066282645068
 10
-688.9576852140857
 20
-389.0718526207777
 42
0.0005255865432716
 10
-688.4108118375724
 20
-372.732694731255
210
0.0
220
0.0
230
-1.0
  0
LWPOLYLINE
  5
9C
330
1F
100
AcDbEntity
  8
5
  6
________________
 62
     7
370
     0
100
AcDbPolyline
 90
        3
 70
     0
 43
0.0
 10
-680.6213693413587
 20
-420.4326984019166
 42
0.0190083775268066
 10
-678.9577257232553
 20
-389.0718526207779
 42
0.0005255852424952
 10
-678.4108537032552
 20
-372.7326947312554
210
0.0
220
0.0
230
-1.0
  0
LWPOLYLINE
  5
9D
330
1F
100
AcDbEntity
  8
5
  6
________________
 62
     7
370
     0
100
AcDbPolyline
 90
        3
 70
     0
 43
0.0
 10
-670.6176996819509
 20
-420.412221430424
 42
0.018907035876777
 10
-668.9577417235001
 20
-389.0718526207777
 42
0.0005255871395198
 10
-668.4108677251892
 20
-372.7326947312552
210
0.0
220
0.0
230
-1.0
  0
LWPOLYLINE
  5
9E
330
1F
100
AcDbEntity
  8
5
  6
________________
 62
     7
370
     0
100
AcDbPolyline
 90
        3
 70
     0
 43
0.0
 10
-660.6209258656153
 20
-420.4300925538501
 42
0.0189955342265657
 10
-658.957740089991
 20
-389.0718526207777
 42
0.0005255898239937
 10
-658.4108632921852
 20
-372.7326947312551
210
0.0
220
0.0
230
-1.0
  0
LWPOLYLINE
  5
9F
330
1F
100
AcDbEntity
  8
5
  6
________________
 62
     7
370
     0
100
AcDbPolyline
 90
        3
 70
     0
 43
0.0
 10
-620.6201087718672
 20
-420.4255020338904
 42
0.0189726650076775
 10
-618.9577557156678
 20
-389.0718526207767
 42
0.0005255890620218
 10
-618.4108797124823
 20
-372.7326947312537
210
0.0
220
0.0
230
-1.0
  0
LWPOLYLINE
  5
A0
330
1F
100
AcDbEntity
  8
5
  6
________________
 62
     7
370
     0
100
AcDbPolyline
 90
        3
 70
     0
 43
0.0
 10
-610.6180118189403
 20
-420.4139789099623
 42
0.0189157445587466
 10
-608.9577320196611
 20
-389.0718526207777
 42
0.0005255892873288
 10
-608.4108557815124
 20
-372.7326947312554
210
0.0
220
0.0
230
-1.0
  0
LWPOLYLINE
  5
A1
330
1F
100
AcDbEntity
  8
5
  6
________________
 62
     7
370
     0
100
AcDbPolyline
 90
        3
 70
     0
 43
0.0
 10
-600.6199091330051
 20
-420.4247252092898
 42
0.0189687515490153
 10
-598.9577014117033
 20
-389.0718526207773
 42
0.0005255874657037
 10
-598.4108270732343
 20
-372.7326947312546
210
0.0
220
0.0
230
-1.0
  0
LWPOLYLINE
  5
A2
330
1F
100
AcDbEntity
  8
5
  6
________________
 62
     7
370
     0
100
AcDbPolyline
 90
        3
 70
     0
 43
0.0
 10
-590.6180473443301
 20
-420.4144916318315
 42
0.0189182816224088
 10
-588.9576741286335
 20
-389.0718526207779
 42
0.0005255897433361
 10
-588.4107974149382
 20
-372.7326947312552
210
0.0
220
0.0
230
-1.0
  0
LWPOLYLINE
  5
A3
330
1F
100
AcDbEntity
  8
5
  6
________________
 62
     7
370
     0
100
AcDbPolyline
 90
        3
 70
     0
 43
0.0
 10
-580.6197414432135
 20
-420.424063414761
 42
0.0189655414610687
 10
-578.9576467361472
 20
-389.0718526207781
 42
0.0005255894963804
 10
-578.4107702800005
 20
-372.7326947312554
210
0.0
220
0.0
230
-1.0
  0
SPLINE
  5
A4
330
1F
100
AcDbEntity
  8
5
  6
________________
 62
     7
370
     0
100
AcDbSpline
210
0.0
220
0.0
230
1.0
 70
    12
 71
     3
 72
    18
 73
    14
 74
     0
 42
0.000000001
 43
0.0001
 40
2.889185347283118
 40
2.889185347283118
 40
2.889185347283118
 40
2.889185347283118
 40
2.89494057322571
 40
2.9024017602701
 40
2.90986294731451
 40
2.9173241343589
 40
2.92478532140329
 40
2.93224650844769
 40
2.93970769549209
 40
2.94716888253648
 40
2.95463006958088
 40
2.96209125662527
 40
2.966493791256851
 40
2.966493791256851
 40
2.966493791256851
 40
2.966493791256851
 10
581.0750109491204
 20
-422.9641988304994
 30
0.0
 41
1.0
 10
580.9577979553522
 20
-422.3141307826339
 30
0.0
 41
1.0
 10
580.6886277527342
 20
-419.8831217749564
 30
0.0
 41
1.0
 10
580.2675003412671
 20
-412.8978460975295
 30
0.0
 41
1.0
 10
579.8116287147171
 20
-402.0634387407871
 30
0.0
 41
1.0
 10
579.3557570881661
 20
-388.8390382644722
 30
0.0
 41
1.0
 10
578.899885461617
 20
-374.3022247715157
 30
0.0
 41
1.0
 10
578.4440138350672
 20
-359.6375193302356
 30
0.0
 41
1.0
 10
577.9881422085161
 20
-346.039864186004
 30
0.0
 41
1.0
 10
577.532270581967
 20
-334.6172538113274
 30
0.0
 41
1.0
 10
577.0763989554171
 20
-326.3004508283247
 30
0.0
 41
1.0
 10
576.6828209398875
 20
-322.38660757627
 30
0.0
 41
1.0
 10
576.4412001332081
 20
-321.7338145417202
 30
0.0
 41
1.0
 10
576.3515365353784
 20
-321.7336138118055
 30
0.0
 41
1.0
  0
SPLINE
  5
A5
330
1F
100
AcDbEntity
  8
5
  6
________________
 62
     7
370
     0
100
AcDbSpline
210
0.0
220
0.0
230
1.0
 70
    12
 71
     3
 72
    18
 73
    14
 74
     0
 42
0.000000001
 43
0.0001
 40
2.72555161825768
 40
2.72555161825768
 40
2.72555161825768
 40
2.72555161825768
 40
2.73079445824899
 40
2.73825564529339
 40
2.74571683233779
 40
2.75317801938218
 40
2.76063920642658
 40
2.76810039347097
 40
2.77556158051537
 40
2.78302276755977
 40
2.79048395460417
 40
2.79794514164856
 40
2.802824854837158
 40
2.802824854837158
 40
2.802824854837158
 40
2.802824854837158
 10
591.0728804255723
 20
-422.9521693699809
 30
0.0
 41
1.0
 10
590.9661028676867
 20
-422.3555329548913
 30
0.0
 41
1.0
 10
590.7073681009507
 20
-420.0895970394548
 30
0.0
 41
1.0
 10
590.2966761253662
 20
-413.4878629003782
 30
0.0
 41
1.0
 10
589.8408044988162
 20
-402.8389776672157
 30
0.0
 41
1.0
 10
589.3849328722652
 20
-389.7369051214683
 30
0.0
 41
1.0
 10
588.9290612457161
 20
-375.2492575687182
 30
0.0
 41
1.0
 10
588.4731896191662
 20
-360.5565498284549
 30
0.0
 41
1.0
 10
588.0173179926152
 20
-346.8560058918495
 30
0.0
 41
1.0
 10
587.5614463660661
 20
-335.2640040455305
 30
0.0
 41
1.0
 10
587.1055747395152
 20
-326.7251096454182
 30
0.0
 41
1.0
 10
586.7022783345107
 20
-322.4875340709887
 30
0.0
 41
1.0
 10
586.4509391383561
 20
-321.7339356840683
 30
0.0
 41
1.0
 10
586.351557151051
 20
-321.7335068238843
 30
0.0
 41
1.0
  0
SPLINE
  5
A6
330
1F
100
AcDbEntity
  8
5
  6
________________
 62
     7
370
     0
100
AcDbSpline
210
0.0
220
0.0
230
1.0
 70
    12
 71
     3
 72
    18
 73
    14
 74
     0
 42
0.000000001
 43
0.0001
 40
2.561846405837515
 40
2.561846405837515
 40
2.561846405837515
 40
2.561846405837515
 40
2.56664834327228
 40
2.57410953031668
 40
2.58157071736107
 40
2.58903190440547
 40
2.59649309144987
 40
2.60395427849426
 40
2.61141546553865
 40
2.61887665258305
 40
2.62633783962745
 40
2.63379902667185
 40
2.639154197392627
 40
2.639154197392627
 40
2.639154197392627
 40
2.639154197392627
 10
601.0751174713165
 20
-422.9644757167295
 30
0.0
 41
1.0
 10
600.9773194928827
 20
-422.4224629841322
 30
0.0
 41
1.0
 10
600.727564305599
 20
-420.3135580366897
 30
0.0
 41
1.0
 10
600.3258519094641
 20
-414.0641842838012
 30
0.0
 41
1.0
 10
599.8699802829151
 20
-403.6043996393855
 30
0.0
 41
1.0
 10
599.4141086563641
 20
-390.6290578616105
 30
0.0
 41
1.0
 10
598.9582370298141
 20
-376.1954446968896
 30
0.0
 41
1.0
 10
598.502365403265
 20
-361.4796720141569
 30
0.0
 41
1.0
 10
598.0464937767151
 20
-347.6808432336831
 30
0.0
 41
1.0
 10
597.5906221501651
 20
-335.9233453070154
 30
0.0
 41
1.0
 10
597.134750523615
 20
-327.165228910913
 30
0.0
 41
1.0
 10
596.7217707801427
 20
-322.5948226791494
 30
0.0
 41
1.0
 10
596.4607482455206
 20
-321.7342333481248
 30
0.0
 41
1.0
 10
596.3516829197482
 20
-321.7333583510621
 30
0.0
 41
1.0
  0
SPLINE
  5
A7
330
1F
100
AcDbEntity
  8
5
  6
________________
 62
     7
370
     0
100
AcDbSpline
210
0.0
220
0.0
230
1.0
 70
    12
 71
     3
 72
    18
 73
    14
 74
     0
 42
0.000000001
 43
0.0001
 40
2.398215567884306
 40
2.398215567884306
 40
2.398215567884306
 40
2.398215567884306
 40
2.40250222829557
 40
2.40996341533996
 40
2.41742460238435
 40
2.42488578942876
 40
2.43234697647315
 40
2.43980816351755
 40
2.44726935056194
 40
2.45473053760634
 40
2.46219172465073
 40
2.46965291169513
 40
2.475493046026353
 40
2.475493046026353
 40
2.475493046026353
 40
2.475493046026353
 10
611.0728103059288
 20
-422.951538616317
 30
0.0
 41
1.0
 10
610.9855066439903
 20
-422.4638512665904
 30
0.0
 41
1.0
 10
610.7462457732024
 20
-420.5081043140935
 30
0.0
 41
1.0
 10
610.3550276935641
 20
-414.6266165800143
 30
0.0
 41
1.0
 10
609.8991560670131
 20
-404.3594474439074
 30
0.0
 41
1.0
 10
609.4432844404641
 20
-391.5151966847387
 30
0.0
 41
1.0
 10
608.9874128139141
 20
-377.1404681980839
 30
0.0
 41
1.0
 10
608.531541187363
 20
-362.4065756801676
 30
0.0
 41
1.0
 10
608.0756695608142
 20
-348.514099032097
 30
0.0
 41
1.0
 10
607.6197979342642
 20
-336.5950560298924
 30
0.0
 41
1.0
 10
607.1639263077141
 20
-327.6206607265603
 30
0.0
 41
1.0
 10
606.7410696215778
 20
-322.7059087829428
 30
0.0
 41
1.0
 10
606.4701701442929
 20
-321.7331062417721
 30
0.0
 41
1.0
 10
606.3512278758576
 20
-321.7331822419912
 30
0.0
 41
1.0
  0
SPLINE
  5
A8
330
1F
100
AcDbEntity
  8
5
  6
________________
 62
     7
370
     0
100
AcDbSpline
210
0.0
220
0.0
230
1.0
 70
    12
 71
     3
 72
    18
 73
    14
 74
     0
 42
0.000000001
 43
0.0001
 40
2.234506373037997
 40
2.234506373037997
 40
2.234506373037997
 40
2.234506373037997
 40
2.23835611331885
 40
2.24581730036325
 40
2.25327848740764
 40
2.26073967445204
 40
2.26820086149643
 40
2.27566204854083
 40
2.28312323558523
 40
2.29058442262962
 40
2.29804560967402
 40
2.30550679671842
 40
2.311811621951816
 40
2.311811621951816
 40
2.311811621951816
 40
2.311811621951816
 10
621.0752906742268
 20
-422.9652846131385
 30
0.0
 41
1.0
 10
620.9968854842223
 20
-422.531300134537
 30
0.0
 41
1.0
 10
620.7665230853677
 20
-420.7207760665859
 30
0.0
 41
1.0
 10
620.384203477663
 20
-415.1749707885419
 30
0.0
 41
1.0
 10
619.9283318511132
 20
-405.1038673535396
 30
0.0
 41
1.0
 10
619.4724602245632
 20
-392.3950238116162
 30
0.0
 41
1.0
 10
619.0165885980131
 20
-378.0840105053807
 30
0.0
 41
1.0
 10
618.5607169714622
 20
-363.3369493485807
 30
0.0
 41
1.0
 10
618.1048453449141
 20
-349.3554932787352
 30
0.0
 41
1.0
 10
617.6489737183631
 20
-337.2789104916204
 30
0.0
 41
1.0
 10
617.1931020918131
 20
-328.0912520484648
 30
0.0
 41
1.0
 10
616.7607813442561
 20
-322.8278913189722
 30
0.0
 41
1.0
 10
616.4804178055476
 20
-321.7349071809836
 30
0.0
 41
1.0
 10
616.3520114756897
 20
-321.73301138643
 30
0.0
 41
1.0
  0
SPLINE
  5
A9
330
1F
100
AcDbEntity
  8
5
  6
________________
 62
     7
370
     0
100
AcDbSpline
210
0.0
220
0.0
230
1.0
 70
    12
 71
     3
 72
    19
 73
    15
 74
     0
 42
0.000000001
 43
0.0001
 40
1.579820382859193
 40
1.579820382859193
 40
1.579820382859193
 40
1.579820382859193
 40
1.58177165341198
 40
1.58923284045638
 40
1.59669402750078
 40
1.60415521454517
 40
1.61161640158957
 40
1.61907758863397
 40
1.62653877567836
 40
1.63399996272276
 40
1.64146114976715
 40
1.64892233681155
 40
1.65638352385595
 40
1.657143319452087
 40
1.657143319452087
 40
1.657143319452087
 40
1.657143319452087
 10
661.0759990663902
 20
-422.9695464456846
 30
0.0
 41
1.0
 10
661.03625879113
 20
-422.7503901477296
 30
0.0
 41
1.0
 10
660.8445613070195
 20
-421.4668622232392
 30
0.0
 41
1.0
 10
660.5009066140591
 20
-417.2239936040077
 30
0.0
 41
1.0
 10
660.0450349875101
 20
-407.9703202544652
 30
0.0
 41
1.0
 10
659.5891633609592
 20
-395.845336087741
 30
0.0
 41
1.0
 10
659.1332917344091
 20
-381.8370361142571
 30
0.0
 41
1.0
 10
658.6774201078591
 20
-367.0868758846358
 30
0.0
 41
1.0
 10
658.22154848131
 20
-352.7967608619613
 30
0.0
 41
1.0
 10
657.7656768547591
 20
-340.1311100794168
 30
0.0
 41
1.0
 10
657.3098052282091
 20
-330.1219743508286
 30
0.0
 41
1.0
 10
656.8539336016592
 20
-323.5849404037766
 30
0.0
 41
1.0
 10
656.5345449145976
 20
-321.8108062409969
 30
0.0
 41
1.0
 10
656.3671134363857
 20
-321.7328336960971
 30
0.0
 41
1.0
 10
656.3516391670237
 20
-321.7328814576646
 30
0.0
 41
1.0
  0
SPLINE
  5
AA
330
1F
100
AcDbEntity
  8
5
  6
________________
 62
     7
370
     0
100
AcDbSpline
210
0.0
220
0.0
230
1.0
 70
    12
 71
     3
 72
    19
 73
    15
 74
     0
 42
0.000000001
 43
0.0001
 40
1.416209762982503
 40
1.416209762982503
 40
1.416209762982503
 40
1.416209762982503
 40
1.41762553843527
 40
1.42508672547966
 40
1.43254791252406
 40
1.44000909956845
 40
1.44747028661285
 40
1.45493147365725
 40
1.46239266070164
 40
1.46985384774604
 40
1.47731503479043
 40
1.48477622183483
 40
1.49223740887923
 40
1.493472886124646
 40
1.493472886124646
 40
1.493472886124646
 40
1.493472886124646
 10
671.0724565952298
 20
-422.9500628035123
 30
0.0
 41
1.0
 10
671.043622405056
 20
-422.7890326105224
 30
0.0
 41
1.0
 10
670.8628310060324
 20
-421.6242738516789
 30
0.0
 41
1.0
 10
670.5300823981587
 20
-417.6992900789388
 30
0.0
 41
1.0
 10
670.0742107716086
 20
-408.6579226966534
 30
0.0
 41
1.0
 10
669.6183391450585
 20
-396.6892157409666
 30
0.0
 41
1.0
 10
669.1624675185087
 20
-382.7684300939409
 30
0.0
 41
1.0
 10
668.7065958919587
 20
-368.0298902686075
 30
0.0
 41
1.0
 10
668.2507242654088
 20
-353.6745548483438
 30
0.0
 41
1.0
 10
667.7948526388589
 20
-340.8721573002739
 30
0.0
 41
1.0
 10
667.3389810123087
 20
-330.665891143252
 30
0.0
 41
1.0
 10
666.883109385759
 20
-323.8874061262212
 30
0.0
 41
1.0
 10
666.5540327957806
 20
-321.867372179366
 30
0.0
 41
1.0
 10
666.3769134146523
 20
-321.7329857287183
 30
0.0
 41
1.0
 10
666.3517512423741
 20
-321.7330380166173
 30
0.0
 41
1.0
  0
SPLINE
  5
AB
330
1F
100
AcDbEntity
  8
5
  6
________________
 62
     7
370
     0
100
AcDbSpline
210
0.0
220
0.0
230
1.0
 70
    12
 71
     3
 72
    19
 73
    15
 74
     0
 42
0.000000001
 43
0.0001
 40
1.252475491366727
 40
1.252475491366727
 40
1.252475491366727
 40
1.252475491366727
 40
1.25347942345855
 40
1.26094061050295
 40
1.26840179754734
 40
1.27586298459174
 40
1.28332417163613
 40
1.29078535868053
 40
1.29824654572493
 40
1.30570773276932
 40
1.31316891981372
 40
1.32063010685812
 40
1.32809129390251
 40
1.32981058187128
 40
1.32981058187128
 40
1.32981058187128
 40
1.32981058187128
 10
681.0764691309452
 20
-422.9724834344713
 30
0.0
 41
1.0
 10
681.0560226902327
 20
-422.8599108615627
 30
0.0
 41
1.0
 10
680.88361904067
 20
-421.8056190749064
 30
0.0
 41
1.0
 10
680.5592581822583
 20
-418.159475921007
 30
0.0
 41
1.0
 10
680.1033865557076
 20
-409.3334527787681
 30
0.0
 41
1.0
 10
679.6475149291582
 20
-397.5250450138852
 30
0.0
 41
1.0
 10
679.1916433026079
 20
-383.6964516521327
 30
0.0
 41
1.0
 10
678.735771676058
 20
-368.9744849890738
 30
0.0
 41
1.0
 10
678.2799000495079
 20
-354.5587531567031
 30
0.0
 41
1.0
 10
677.8240284229581
 20
-341.6239109773393
 30
0.0
 41
1.0
 10
677.3681567964082
 20
-331.2239441187649
 30
0.0
 41
1.0
 10
676.9122851698578
 20
-324.206285882627
 30
0.0
 41
1.0
 10
676.5733551173284
 20
-321.9286284967931
 30
0.0
 41
1.0
 10
676.3863822736488
 20
-321.732867147047
 30
0.0
 41
1.0
 10
676.3513666388188
 20
-321.7332183624878
 30
0.0
 41
1.0
  0
SPLINE
  5
AC
330
1F
100
AcDbEntity
  8
5
  6
________________
 62
     7
370
     0
100
AcDbSpline
210
0.0
220
0.0
230
1.0
 70
    12
 71
     3
 72
    19
 73
    15
 74
     0
 42
0.000000001
 43
0.0001
 40
1.088872648616572
 40
1.088872648616572
 40
1.088872648616572
 40
1.088872648616572
 40
1.08933330848183
 40
1.09679449552623
 40
1.10425568257063
 40
1.11171686961502
 40
1.11917805665942
 40
1.12663924370381
 40
1.13410043074821
 40
1.14156161779261
 40
1.149022804837
 40
1.1564839918814
 40
1.1639451789258
 40
1.166134403744512
 40
1.166134403744512
 40
1.166134403744512
 40
1.166134403744512
 10
691.072451484548
 20
-422.9503328418831
 30
0.0
 41
1.0
 10
691.0630695206679
 20
-422.8979111235118
 30
0.0
 41
1.0
 10
690.9017303479376
 20
-421.9512153252829
 30
0.0
 41
1.0
 10
690.588433966357
 20
-418.6043964887669
 30
0.0
 41
1.0
 10
690.1325623398075
 20
-409.9966834948067
 30
0.0
 41
1.0
 10
689.676690713257
 20
-398.3525430333474
 30
0.0
 41
1.0
 10
689.2208190867073
 20
-384.6207889352677
 30
0.0
 41
1.0
 10
688.7649474601573
 20
-369.9203426232028
 30
0.0
 41
1.0
 10
688.3090758336075
 20
-355.4490586598965
 30
0.0
 41
1.0
 10
687.8532042070573
 20
-342.3861184903355
 30
0.0
 41
1.0
 10
687.3973325805074
 20
-331.7959457485229
 30
0.0
 41
1.0
 10
686.9414609539577
 20
-324.5414725162298
 30
0.0
 41
1.0
 10
686.592959999153
 20
-321.997579390415
 30
0.0
 41
1.0
 10
686.3964162531987
 20
-321.7333837987518
 30
0.0
 41
1.0
 10
686.3518297160945
 20
-321.7333873035929
 30
0.0
 41
1.0
  0
SPLINE
  5
AD
330
1F
100
AcDbEntity
  8
5
  6
________________
 62
     7
370
     0
100
AcDbSpline
210
0.0
220
0.0
230
1.0
 70
    12
 71
     3
 72
    18
 73
    14
 74
     0
 42
0.000000001
 43
0.0001
 40
0.9252023077618795
 40
0.9252023077618795
 40
0.9252023077618795
 40
0.9252023077618795
 40
0.932648380549514
 40
0.940109567593911
 40
0.947570754638307
 40
0.955031941682703
 40
0.962493128727099
 40
0.969954315771495
 40
0.977415502815892
 40
0.984876689860288
 40
0.992337876904684
 40
0.99979906394908
 40
1.002472830930017
 40
1.002472830930017
 40
1.002472830930017
 40
1.002472830930017
 10
701.0725579098995
 20
-422.9509816015033
 30
0.0
 41
1.0
 10
700.9209085234187
 20
-422.1034636720078
 30
0.0
 41
1.0
 10
700.6173019280878
 20
-419.0282393704615
 30
0.0
 41
1.0
 10
700.161738123906
 20
-410.6473919718625
 30
0.0
 41
1.0
 10
699.7058664973569
 20
-399.1714317258478
 30
0.0
 41
1.0
 10
699.2499948708064
 20
-385.5411313278496
 30
0.0
 41
1.0
 10
698.7941232442564
 20
-370.8671453237719
 30
0.0
 41
1.0
 10
698.3382516177069
 20
-356.3451721785111
 30
0.0
 41
1.0
 10
697.8823799911565
 20
-343.1585237060635
 30
0.0
 41
1.0
 10
697.4265083646064
 20
-332.3817038163591
 30
0.0
 41
1.0
 10
696.9706367380569
 20
-324.8928533904784
 30
0.0
 41
1.0
 10
696.6122674239549
 20
-322.0701693758897
 30
0.0
 41
1.0
 10
696.405855318703
 20
-321.7331274848158
 30
0.0
 41
1.0
 10
696.3514004223009
 20
-321.7335315023103
 30
0.0
 41
1.0
  0
SPLINE
  5
AE
330
1F
100
AcDbEntity
  8
5
  6
________________
 62
     7
370
     0
100
AcDbSpline
210
0.0
220
0.0
230
1.0
 70
    12
 71
     3
 72
    18
 73
    14
 74
     0
 42
0.000000001
 43
0.0001
 40
0.7615306845539539
 40
0.7615306845539539
 40
0.7615306845539539
 40
0.7615306845539539
 40
0.768502265572801
 40
0.775963452617197
 40
0.783424639661593
 40
0.790885826705989
 40
0.798347013750385
 40
0.805808200794781
 40
0.813269387839177
 40
0.820730574883573
 40
0.828191761927969
 40
0.835652948972365
 40
0.8388057419784463
 40
0.8388057419784463
 40
0.8388057419784463
 40
0.8388057419784463
 10
711.0727426858474
 20
-422.9519660887894
 30
0.0
 41
1.0
 10
710.9307569687501
 20
-422.1585186896477
 30
0.0
 41
1.0
 10
710.6368140428026
 20
-419.2693070142974
 30
0.0
 41
1.0
 10
710.1909139080057
 20
-411.2853595450135
 30
0.0
 41
1.0
 10
709.7350422814557
 20
-399.9814359109678
 30
0.0
 41
1.0
 10
709.2791706549059
 20
-386.4571695568268
 30
0.0
 41
1.0
 10
708.8232990283554
 20
-371.8145749259735
 30
0.0
 41
1.0
 10
708.3674274018059
 20
-357.2467925813972
 30
0.0
 41
1.0
 10
707.9115557752558
 20
-343.9408670644734
 30
0.0
 41
1.0
 10
707.4556841487057
 20
-332.981021483373
 30
0.0
 41
1.0
 10
706.9998125221559
 20
-325.2603104268889
 30
0.0
 41
1.0
 10
706.6316871923806
 20
-322.1493727277515
 30
0.0
 41
1.0
 10
706.4155190714552
 20
-321.733145480631
 30
0.0
 41
1.0
 10
706.3513081593798
 20
-321.7336294903197
 30
0.0
 41
1.0
  0
SPLINE
  5
AF
330
1F
100
AcDbEntity
  8
5
  6
________________
 62
     7
370
     0
100
AcDbSpline
210
0.0
220
0.0
230
1.0
 70
    12
 71
     3
 72
    18
 73
    14
 74
     0
 42
0.000000001
 43
0.0001
 40
0.5978589923114621
 40
0.5978589923114621
 40
0.5978589923114621
 40
0.5978589923114621
 40
0.604356150596087
 40
0.611817337640483
 40
0.619278524684879
 40
0.626739711729275
 40
0.634200898773671
 40
0.641662085818068
 40
0.649123272862464
 40
0.65658445990686
 40
0.664045646951256
 40
0.671506833995652
 40
0.675132980969577
 40
0.675132980969577
 40
0.675132980969577
 40
0.675132980969577
 10
721.0729316797433
 20
-422.9528984062761
 30
0.0
 41
1.0
 10
720.9406082260471
 20
-422.2136861219732
 30
0.0
 41
1.0
 10
720.6563275635009
 20
-419.5043167464878
 30
0.0
 41
1.0
 10
720.2200896921047
 20
-411.9103718308144
 30
0.0
 41
1.0
 10
719.7642180655547
 20
-400.7822833938564
 30
0.0
 41
1.0
 10
719.308346439005
 20
-387.368595795531
 30
0.0
 41
1.0
 10
718.8524748124546
 20
-372.7623130543408
 30
0.0
 41
1.0
 10
718.3966031859048
 20
-358.1536168868713
 30
0.0
 41
1.0
 10
717.9407315593551
 20
-344.7328856658918
 30
0.0
 41
1.0
 10
717.4848599328051
 20
-333.5936973540806
 30
0.0
 41
1.0
 10
717.028988306255
 20
-325.6437201447237
 30
0.0
 41
1.0
 10
716.6512224799577
 20
-322.2354385400639
 30
0.0
 41
1.0
 10
716.4254138625104
 20
-321.7336370045047
 30
0.0
 41
1.0
 10
716.351562453913
 20
-321.7336707991306
 30
0.0
 41
1.0
  0
SPLINE
  5
B0
330
1F
100
AcDbEntity
  8
5
  6
________________
 62
     7
370
     0
100
AcDbSpline
210
0.0
220
0.0
230
1.0
 70
    12
 71
     3
 72
    18
 73
    14
 74
     0
 42
0.000000001
 43
0.0001
 40
0.434188859687377
 40
0.434188859687377
 40
0.434188859687377
 40
0.434188859687377
 40
0.440210035619374
 40
0.447671222663769
 40
0.455132409708166
 40
0.462593596752562
 40
0.470054783796958
 40
0.477515970841354
 40
0.48497715788575
 40
0.492438344930146
 40
0.499899531974542
 40
0.507360719018938
 40
0.5114655946508734
 40
0.5114655946508734
 40
0.5114655946508734
 40
0.5114655946508734
 10
731.0730253823975
 20
-422.9532575183299
 30
0.0
 41
1.0
 10
730.9503959558497
 20
-422.2683268751189
 30
0.0
 41
1.0
 10
730.6758093204518
 20
-419.7327414361243
 30
0.0
 41
1.0
 10
730.2492654762037
 20
-412.5222187993285
 30
0.0
 41
1.0
 10
729.793393849654
 20
-401.5737050566903
 30
0.0
 41
1.0
 10
729.3375222231041
 20
-388.2751037671106
 30
0.0
 41
1.0
 10
728.8816505965541
 20
-373.7100412297286
 30
0.0
 41
1.0
 10
728.4257789700039
 20
-359.0653403645214
 30
0.0
 41
1.0
 10
727.9699073434541
 20
-345.534313359365
 30
0.0
 41
1.0
 10
727.5140357169041
 20
-334.2195255440915
 30
0.0
 41
1.0
 10
727.0581640903542
 20
-326.0429537024856
 30
0.0
 41
1.0
 10
726.6706483046688
 20
-322.3264347965079
 30
0.0
 41
1.0
 10
726.4350897278338
 20
-321.7336603320973
 30
0.0
 41
1.0
 10
726.3514883598485
 20
-321.7336539540614
 30
0.0
 41
1.0
  0
SPLINE
  5
B1
330
1F
100
AcDbEntity
  8
5
  6
________________
 62
     7
370
     0
100
AcDbSpline
210
0.0
220
0.0
230
1.0
 70
    12
 71
     3
 72
    18
 73
    14
 74
     0
 42
0.000000001
 43
0.0001
 40
0.2705202379602442
 40
0.2705202379602442
 40
0.2705202379602442
 40
0.2705202379602442
 40
0.276063920642658
 40
0.283525107687054
 40
0.29098629473145
 40
0.298447481775846
 40
0.305908668820242
 40
0.313369855864639
 40
0.320831042909035
 40
0.328292229953431
 40
0.335753416997827
 40
0.343214604042223
 40
0.3477931838563519
 40
0.3477931838563519
 40
0.3477931838563519
 40
0.3477931838563519
 10
741.0730267706455
 20
-422.9530903217126
 30
0.0
 41
1.0
 10
740.9601221427147
 20
-422.3224922734909
 30
0.0
 41
1.0
 10
740.6952603059339
 20
-419.954680320391
 30
0.0
 41
1.0
 10
740.278441260303
 20
-413.1206948447102
 30
0.0
 41
1.0
 10
739.8225696337532
 20
-402.3554349491115
 30
0.0
 41
1.0
 10
739.3666980072034
 20
-389.1763888474567
 30
0.0
 41
1.0
 10
738.9108263806528
 20
-374.6574409763372
 30
0.0
 41
1.0
 10
738.4549547541034
 20
-359.9816566376131
 30
0.0
 41
1.0
 10
737.9990831275535
 20
-346.344880832096
 30
0.0
 41
1.0
 10
737.5432115010032
 20
-334.8582957492922
 30
0.0
 41
1.0
 10
737.0873398744534
 20
-326.457876941215
 30
0.0
 41
1.0
 10
736.6901764596553
 20
-322.4243561935487
 30
0.0
 41
1.0
 10
736.4449702537069
 20
-321.7341971339532
 30
0.0
 41
1.0
 10
736.3517212566087
 20
-321.7335803416851
 30
0.0
 41
1.0
  0
LINE
  5
B2
330
1F
100
AcDbEntity
  8
5
  6
________________
 62
     7
370
     0
100
AcDbLine
 10
747.3514456153531
 20
-331.4714096868868
 30
0.0
 11
747.3514456153531
 21
-342.7794820699181
 31
0.0
  0
LWPOLYLINE
  5
B3
330
1F
100
AcDbEntity
  8
5
  6
________________
 62
     7
370
     0
100
AcDbPolyline
 90
        3
 70
     0
 43
0.0
 10
747.3514456153525
 20
-342.7794820699198
 42
0.0329554281287579
 10
746.0140967288556
 20
-324.3346270928319
 10
745.9437099453559
 20
-324.2430051055213
  0
LWPOLYLINE
  5
B4
330
1F
100
AcDbEntity
  8
5
  6
________________
 62
     7
370
     0
100
AcDbPolyline
 90
        4
 70
     0
 43
0.0
 10
738.4107801736114
 20
-372.7326947312522
 42
0.0119677809369972
 10
736.3291984933526
 20
-325.8983178631219
 42
0.0600352497617945
 10
736.0208160222031
 20
-324.3483140325031
 10
735.9437204044158
 20
-324.2430051055213
  0
LWPOLYLINE
  5
B5
330
1F
100
AcDbEntity
  8
5
  6
________________
 62
     7
370
     0
100
AcDbPolyline
 90
        7
 70
     0
 43
0.0
 10
728.4107593172087
 20
-372.732694731255
 42
0.0125172170315641
 10
726.3014031888039
 20
-325.6861789513197
 10
726.2232788877519
 20
-325.1646086316985
 10
726.1451545867
 20
-324.7576339979632
 10
726.0670302856479
 20
-324.4662354876536
 10
725.9889059845958
 20
-324.2911151053043
 10
725.9107816835439
 20
-324.2326947312552
  0
LWPOLYLINE
  5
B6
330
1F
100
AcDbEntity
  8
5
  6
________________
 62
     7
370
     0
100
AcDbPolyline
 90
        7
 70
     0
 43
0.0
 10
718.4107562983581
 20
-372.732694731255
 42
0.0125173159681204
 10
716.301383421508
 20
-325.6861789513197
 10
716.2232585001432
 20
-325.1646086316985
 10
716.1451335787784
 20
-324.7576339979632
 10
716.0670086574137
 20
-324.4662354876536
 10
715.9888837360488
 20
-324.2911151053043
 10
715.910758814684
 20
-324.2326947312552
  0
LWPOLYLINE
  5
B7
330
1F
100
AcDbEntity
  8
5
  6
________________
 62
     7
370
     0
100
AcDbPolyline
 90
        7
 70
     0
 43
0.0
 10
708.4107564007816
 20
-372.7326947312552
 42
0.0125173060512445
 10
706.3013852027066
 20
-325.6861789513197
 10
706.2232603435186
 20
-325.1646086316985
 10
706.1451354843307
 20
-324.7576339979632
 10
706.0670106251428
 20
-324.4662354876536
 10
705.9888857659547
 20
-324.2911151053043
 10
705.9107609067669
 20
-324.2326947312552
  0
LWPOLYLINE
  5
B8
330
1F
100
AcDbEntity
  8
5
  6
________________
 62
     7
370
     0
100
AcDbPolyline
 90
        7
 70
     0
 43
0.0
 10
698.4107825787365
 20
-372.7326947312551
 42
0.0125172925850071
 10
696.3014136602901
 20
-325.6861789513197
 10
696.2232888855327
 20
-325.1646086316985
 10
696.1451641107756
 20
-324.7576339979632
 10
696.0670393360182
 20
-324.4662354876536
 10
695.988914561261
 20
-324.2911151053043
 10
695.9107897865036
 20
-324.2326947312552
  0
LWPOLYLINE
  5
B9
330
1F
100
AcDbEntity
  8
5
  6
________________
 62
     7
370
     0
100
AcDbPolyline
 90
        7
 70
     0
 43
0.0
 10
688.4108118375723
 20
-372.7326947312551
 42
0.0125172920755423
 10
686.3014430053702
 20
-325.6861789513197
 10
686.223318233807
 20
-325.1646086316985
 10
686.1451934622442
 20
-324.7576339979632
 10
686.067068690681
 20
-324.4662354876536
 10
685.988943919118
 20
-324.2911151053043
 10
685.9108191475549
 20
-324.2326947312552
  0
LWPOLYLINE
  5
BA
330
1F
100
AcDbEntity
  8
5
  6
________________
 62
     7
370
     0
100
AcDbPolyline
 90
        7
 70
     0
 43
0.0
 10
678.4108537032555
 20
-372.7326947312553
 42
0.0125173163893412
 10
676.3014807550991
 20
-325.6861789513198
 10
676.2233558310934
 20
-325.1646086316985
 10
676.1452309070876
 20
-324.7576339979632
 10
676.0671059830817
 20
-324.4662354876536
 10
675.988981059076
 20
-324.2911151053043
 10
675.9108561350702
 20
-324.2326947312552
  0
LWPOLYLINE
  5
BB
330
1F
100
AcDbEntity
  8
5
  6
________________
 62
     7
370
     0
100
AcDbPolyline
 90
        7
 70
     0
 43
0.0
 10
668.4108677251896
 20
-372.732694731255
 42
0.012517298594592
 10
666.3014977894122
 20
-325.6861789513197
 10
666.2233729769761
 20
-325.1646086316985
 10
666.1452481645399
 20
-324.7576339979632
 10
666.0671233521036
 20
-324.4662354876536
 10
665.9889985396674
 20
-324.2911151053043
 10
665.9108737272312
 20
-324.2326947312552
  0
LWPOLYLINE
  5
BC
330
1F
100
AcDbEntity
  8
5
  6
________________
 62
     7
370
     0
100
AcDbPolyline
 90
        7
 70
     0
 43
0.0
 10
658.4108632921848
 20
-372.732694731255
 42
0.0125172460957387
 10
656.30150224366
 20
-325.6861789513197
 10
656.2233777603813
 20
-325.1646086316985
 10
656.1452532771026
 20
-324.7576339979632
 10
656.0671287938238
 20
-324.4662354876536
 10
655.9890043105452
 20
-324.2911151053043
 10
655.9108798272665
 20
-324.2326947312552
  0
LWPOLYLINE
  5
BD
330
1F
100
AcDbEntity
  8
5
  6
________________
 62
     7
370
     0
100
AcDbPolyline
 90
        7
 70
     0
 43
0.0
 10
618.4108797124849
 20
-372.7326947312537
 42
0.012517359937319
 10
616.301499392322
 20
-325.6861789513196
 10
616.2233741952788
 20
-325.1646086316983
 10
616.1452489982357
 20
-324.7576339979631
 10
616.0671238011927
 20
-324.4662354876535
 10
615.9889986041495
 20
-324.2911151053042
 10
615.9108734071065
 20
-324.2326947312552
  0
LWPOLYLINE
  5
BE
330
1F
100
AcDbEntity
  8
5
  6
________________
 62
     7
370
     0
100
AcDbPolyline
 90
        7
 70
     0
 43
0.0
 10
608.4108557815151
 20
-372.7326947312551
 42
0.0125174151269841
 10
606.3014661185852
 20
-325.6861789513197
 10
606.2233405755136
 20
-325.1646086316985
 10
606.1452150324423
 20
-324.7576339979632
 10
606.0670894893707
 20
-324.4662354876536
 10
605.9889639462992
 20
-324.2911151053043
 10
605.9108384032278
 20
-324.2326947312552
  0
LWPOLYLINE
  5
BF
330
1F
100
AcDbEntity
  8
5
  6
________________
 62
     7
370
     0
100
AcDbPolyline
 90
        7
 70
     0
 43
0.0
 10
598.4108270732362
 20
-372.7326947312546
 42
0.0125173633751001
 10
596.3014461711092
 20
-325.6861789513197
 10
596.2233209525119
 20
-325.1646086316984
 10
596.1451957339146
 20
-324.7576339979632
 10
596.0670705153173
 20
-324.4662354876535
 10
595.98894529672
 20
-324.2911151053043
 10
595.9108200781227
 20
-324.2326947312552
  0
LWPOLYLINE
  5
C0
330
1F
100
AcDbEntity
  8
5
  6
________________
 62
     7
370
     0
100
AcDbPolyline
 90
        4
 70
     0
 43
0.0
 10
588.4107974149397
 20
-372.7326947312552
 42
0.011967890409673
 10
586.329196609284
 20
-325.8983178631216
 42
0.0600357520383527
 10
586.0208113047424
 20
-324.348314032503
 10
585.9437149786071
 20
-324.2430051055212
  0
LWPOLYLINE
  5
C1
330
1F
100
AcDbEntity
  8
5
  6
________________
 62
     7
370
     0
100
AcDbPolyline
 90
        4
 70
     0
 43
0.0
 10
578.4107702800017
 20
-372.7326947312555
 42
0.0119677263661767
 10
576.3291981335223
 20
-325.8983178631219
 42
0.0600349993825408
 10
576.0208170747845
 20
-324.3483140325031
 10
575.9437218101002
 20
-324.2430051055213
  0
SPLINE
  5
C2
330
1F
100
AcDbEntity
  8
5
  6
________________
 62
     7
370
     0
100
AcDbSpline
210
0.0
220
0.0
230
1.0
 70
    12
 71
     3
 72
    10
 73
     6
 74
     0
 42
0.000000001
 43
0.0001
 40
0.167762236331709
 40
0.167762236331709
 40
0.167762236331709
 40
0.167762236331709
 40
0.171607302021111
 40
0.179068489065507
 40
0.1837137624207273
 40
0.1837137624207273
 40
0.1837137624207273
 40
0.1837137624207273
 10
747.3514456153529
 20
-331.4714096868842
 30
0.0
 41
1.0
 10
747.2731356297527
 20
-329.9965909298048
 30
0.0
 41
1.0
 10
747.0428684353027
 20
-326.0990286262038
 30
0.0
 41
1.0
 10
746.7179939391989
 20
-322.6171522998973
 30
0.0
 41
1.0
 10
746.4714294286952
 20
-321.788446515259
 30
0.0
 41
1.0
 10
746.3768221270414
 20
-321.73998734076
 30
0.0
 41
1.0
  0
LINE
  5
C3
330
1F
100
AcDbEntity
  8
5
  6
________________
 62
     7
370
     0
100
AcDbLine
 10
747.3514456153531
 20
-321.7397934711295
 30
0.0
 11
747.3514456153531
 21
-331.4714096868868
 31
0.0
  0
ARC
  5
C4
330
1F
100
AcDbEntity
  8
5
  6
________________
 62
     7
370
     0
100
AcDbCircle
 10
577.5715088095689
 20
-322.6092652594069
 30
0.0
 40
1.50169830774351
100
AcDbArc
 50
144.3305988439679
 51
176.3161505420905
  0
ARC
  5
C5
330
1F
100
AcDbEntity
  8
5
  6
________________
 62
     7
370
     0
100
AcDbCircle
 10
-582.4257365955217
 20
-422.9109745888309
 30
0.0
 40
1.351773868569483
210
0.0
220
0.0
230
-1.0
100
AcDbArc
 50
322.6099906530781
 51
357.7434739833711
  0
ARC
  5
C6
330
1F
100
AcDbEntity
  8
5
  6
________________
 62
     7
370
     0
100
AcDbCircle
 10
587.3163293798185
 20
-322.517993322184
 30
0.0
 40
1.243464723832336
100
AcDbArc
 50
140.8843601797503
 51
179.7779352609629
  0
ARC
  5
C7
330
1F
100
AcDbEntity
  8
5
  6
________________
 62
     7
370
     0
100
AcDbCircle
 10
-592.1994969952101
 20
-422.9894477823369
 30
0.0
 40
1.127233150244698
210
0.0
220
0.0
230
-1.0
100
AcDbArc
 50
318.7993805936268
 51
1.895158259524578
  0
ARC
  5
C8
330
1F
100
AcDbEntity
  8
5
  6
________________
 62
     7
370
     0
100
AcDbCircle
 10
597.0842432010468
 20
-322.4350978246597
 30
0.0
 40
1.014437210743543
100
AcDbArc
 50
136.2310052129024
 51
184.4333859212159
  0
ARC
  5
C9
330
1F
100
AcDbEntity
  8
5
  6
________________
 62
     7
370
     0
100
AcDbCircle
 10
-601.9688632575471
 20
-423.0761057291195
 30
0.0
 40
0.9006901742948161
210
0.0
220
0.0
230
-1.0
100
AcDbArc
 50
313.2524140824439
 51
7.119448304183947
  0
SPLINE
  5
CA
330
1F
100
AcDbEntity
  8
5
  6
________________
 62
     7
370
     0
100
AcDbSpline
210
0.0
220
0.0
230
1.0
 70
    12
 71
     3
 72
     9
 73
     5
 74
     0
 42
0.000000001
 43
0.0001
 40
2.475493046026353
 40
2.475493046026353
 40
2.475493046026353
 40
2.475493046026353
 40
2.47711409873953
 40
2.480050289408005
 40
2.480050289408005
 40
2.480050289408005
 40
2.480050289408005
 10
606.3512278758576
 20
-321.7331822419912
 30
0.0
 41
1.0
 10
606.318212935443
 20
-321.7332033374583
 30
0.0
 41
1.0
 10
606.2253984837743
 20
-321.8257928858974
 30
0.0
 41
1.0
 10
606.1325840321053
 20
-322.179822267798
 30
0.0
 41
1.0
 10
606.072784520851
 20
-322.513952236456
 30
0.0
 41
1.0
  0
SPLINE
  5
CB
330
1F
100
AcDbEntity
  8
5
  6
________________
 62
     7
370
     0
100
AcDbSpline
210
0.0
220
0.0
230
1.0
 70
    12
 71
     3
 72
     9
 73
     5
 74
     0
 42
0.000000001
 43
0.0001
 40
2.393655466520002
 40
2.393655466520002
 40
2.393655466520002
 40
2.393655466520002
 40
2.39504104125117
 40
2.398215567884306
 40
2.398215567884306
 40
2.398215567884306
 40
2.398215567884306
 10
611.3514282810321
 20
-423.7322965366354
 30
0.0
 41
1.0
 10
611.3232091695759
 20
-423.7323902987144
 30
0.0
 41
1.0
 10
611.230336511208
 20
-423.6534986144125
 30
0.0
 41
1.0
 10
611.1374638528403
 20
-423.3127000641148
 30
0.0
 41
1.0
 10
611.0728103059288
 20
-422.951538616317
 30
0.0
 41
1.0
  0
SPLINE
  5
CC
330
1F
100
AcDbEntity
  8
5
  6
________________
 62
     7
370
     0
100
AcDbSpline
210
0.0
220
0.0
230
1.0
 70
    12
 71
     3
 72
     9
 73
     5
 74
     0
 42
0.000000001
 43
0.0001
 40
2.311811621951816
 40
2.311811621951816
 40
2.311811621951816
 40
2.311811621951816
 40
2.31296798376281
 40
2.316382806091399
 40
2.316382806091399
 40
2.316382806091399
 40
2.316382806091399
 10
616.3520114756897
 20
-321.73301138643
 30
0.0
 41
1.0
 10
616.3284605966975
 20
-321.7326636806106
 30
0.0
 41
1.0
 10
616.235362222557
 20
-321.7976034829146
 30
0.0
 41
1.0
 10
616.1422638484166
 20
-322.1258423466705
 30
0.0
 41
1.0
 10
616.0727163532682
 20
-322.5144048199504
 30
0.0
 41
1.0
  0
SPLINE
  5
CD
330
1F
100
AcDbEntity
  8
5
  6
________________
 62
     7
370
     0
100
AcDbSpline
210
0.0
220
0.0
230
1.0
 70
    12
 71
     3
 72
     9
 73
     5
 74
     0
 42
0.000000001
 43
0.0001
 40
2.229986058878701
 40
2.229986058878701
 40
2.229986058878701
 40
2.229986058878701
 40
2.23089492627445
 40
2.234506373037997
 40
2.234506373037997
 40
2.234506373037997
 40
2.234506373037997
 10
621.3514776879086
 20
-423.7324631753721
 30
0.0
 41
1.0
 10
621.3329673688601
 20
-423.7325263652592
 30
0.0
 41
1.0
 10
621.2409050309661
 20
-423.6812486245136
 30
0.0
 41
1.0
 10
621.1488426930722
 20
-423.3724060619465
 30
0.0
 41
1.0
 10
621.0752906742268
 20
-422.9652846131385
 30
0.0
 41
1.0
  0
ARC
  5
CE
330
1F
100
AcDbEntity
  8
5
  6
________________
 62
     7
370
     0
100
AcDbCircle
 10
657.1816208262949
 20
-322.4701398748657
 30
0.0
 40
1.110143922408537
100
AcDbArc
 50
138.3858659325476
 51
182.3576993916772
  0
ARC
  5
CF
330
1F
100
AcDbEntity
  8
5
  6
________________
 62
     7
370
     0
100
AcDbCircle
 10
-662.1555044280209
 20
-423.0112147655478
 30
0.0
 40
1.080309249553104
210
0.0
220
0.0
230
-1.0
100
AcDbArc
 50
318.1178138350663
 51
2.210488548798935
  0
ARC
  5
D0
330
1F
100
AcDbEntity
  8
5
  6
________________
 62
     7
370
     0
100
AcDbCircle
 10
667.1787052089514
 20
-322.469227836968
 30
0.0
 40
1.107171312140021
100
AcDbArc
 50
138.3231554637298
 51
182.3812466665712
  0
ARC
  5
D1
330
1F
100
AcDbEntity
  8
5
  6
________________
 62
     7
370
     0
100
AcDbCircle
 10
-672.1773865029968
 20
-422.9964180452345
 30
0.0
 40
1.105901853472085
210
0.0
220
0.0
230
-1.0
100
AcDbArc
 50
318.2884924866428
 51
2.402327165632187
  0
ARC
  5
D2
330
1F
100
AcDbEntity
  8
5
  6
________________
 62
     7
370
     0
100
AcDbCircle
 10
677.1830321620798
 20
-322.4706891092114
 30
0.0
 40
1.111544261311297
100
AcDbArc
 50
138.4353258305262
 51
182.3147887105617
  0
ARC
  5
D3
330
1F
100
AcDbEntity
  8
5
  6
________________
 62
     7
370
     0
100
AcDbCircle
 10
-682.1459062170817
 20
-423.0149492947758
 30
0.0
 40
1.070279884187053
210
0.0
220
0.0
230
-1.0
100
AcDbArc
 50
317.9295611331173
 51
2.273941108972621
  0
ARC
  5
D4
330
1F
100
AcDbEntity
  8
5
  6
________________
 62
     7
370
     0
100
AcDbCircle
 10
687.1748397239035
 20
-322.4683230161764
 30
0.0
 40
1.103392937526937
100
AcDbArc
 50
138.235619703918
 51
182.4333084793732
  0
ARC
  5
D5
330
1F
100
AcDbEntity
  8
5
  6
________________
 62
     7
370
     0
100
AcDbCircle
 10
-692.1757307095465
 20
-422.9968598857473
 30
0.0
 40
1.104259849004803
210
0.0
220
0.0
230
-1.0
100
AcDbArc
 50
318.2667190822456
 51
2.414823504100525
  0
ARC
  5
D6
330
1F
100
AcDbEntity
  8
5
  6
________________
 62
     7
370
     0
100
AcDbCircle
 10
697.1786923998691
 20
-322.4694508150907
 30
0.0
 40
1.107243988952662
100
AcDbArc
 50
138.3452406375118
 51
182.3738806901006
  0
ARC
  5
D7
330
1F
100
AcDbEntity
  8
5
  6
________________
 62
     7
370
     0
100
AcDbCircle
 10
-703.5161523997315
 20
-422.5156772830904
 30
0.0
 40
2.482064439204958
210
0.0
220
0.0
230
-1.0
100
AcDbArc
 50
330.6617973717019
 51
349.8992308401574
  0
ARC
  5
D8
330
1F
100
AcDbEntity
  8
5
  6
________________
 62
     7
370
     0
100
AcDbCircle
 10
708.3639792265656
 20
-322.8923200843773
 30
0.0
 40
2.322371356489808
100
AcDbArc
 50
150.0710542732913
 51
170.6306893628674
  0
ARC
  5
D9
330
1F
100
AcDbEntity
  8
5
  6
________________
 62
     7
370
     0
100
AcDbCircle
 10
-713.1975006654586
 20
-422.6322459321975
 30
0.0
 40
2.148678070454547
210
0.0
220
0.0
230
-1.0
100
AcDbArc
 50
329.2226248764185
 51
351.4426934679979
  0
ARC
  5
DA
330
1F
100
AcDbEntity
  8
5
  6
________________
 62
     7
370
     0
100
AcDbCircle
 10
718.0393268552775
 20
-322.7768918563886
 30
0.0
 40
1.984151921809311
100
AcDbArc
 50
148.2794479110464
 51
172.3740426633263
  0
ARC
  5
DB
330
1F
100
AcDbEntity
  8
5
  6
________________
 62
     7
370
     0
100
AcDbCircle
 10
-722.8869794103662
 20
-422.7431450837786
 30
0.0
 40
1.82613406552656
210
0.0
220
0.0
230
-1.0
100
AcDbArc
 50
327.2245314884481
 51
353.4043373094594
  0
ARC
  5
DC
330
1F
100
AcDbEntity
  8
5
  6
________________
 62
     7
370
     0
100
AcDbCircle
 10
727.7437428657108
 20
-322.6708245679567
 30
0.0
 40
1.678291204958974
100
AcDbArc
 50
146.0542538852054
 51
174.5900950099322
  0
ARC
  5
DD
330
1F
100
AcDbEntity
  8
5
  6
________________
 62
     7
370
     0
100
AcDbCircle
 10
-732.603198218983
 20
-422.8447508811721
 30
0.0
 40
1.534015189015769
210
0.0
220
0.0
230
-1.0
100
AcDbArc
 50
324.6738040198045
 51
355.9438678961316
  0
ARC
  5
DE
330
1F
100
AcDbEntity
  8
5
  6
________________
 62
     7
370
     0
100
AcDbCircle
 10
737.4705421358526
 20
-322.5732766097262
 30
0.0
 40
1.398874541334687
100
AcDbArc
 50
143.1110776754268
 51
177.5058809559961
  0
ARC
  5
DF
330
1F
100
AcDbEntity
  8
5
  6
________________
 62
     7
370
     0
100
AcDbCircle
 10
-742.3406024885165
 20
-422.9382250058034
 30
0.0
 40
1.267662880324806
210
0.0
220
0.0
230
-1.0
100
AcDbArc
 50
321.2397821030514
 51
359.3281026072103
  0
ARC
  5
E0
330
1F
100
AcDbEntity
  8
5
  6
________________
 62
     7
370
     0
100
AcDbCircle
 10
747.0094179690515
 20
-322.4348113937142
 30
0.0
 40
0.9396584293732676
100
AcDbArc
 50
132.3159921249103
 51
184.7492918885715
  0
SPLINE
  5
E1
330
1F
100
AcDbEntity
  8
5
  6
________________
 62
     7
370
     0
100
AcDbSpline
210
0.0
220
0.0
230
1.0
 70
    12
 71
     3
 72
    16
 73
    12
 74
     0
 42
0.000000001
 43
0.0001
 40
3.048329157494414
 40
3.048329157494414
 40
3.048329157494414
 40
3.048329157494414
 40
3.05162550115803
 40
3.05908668820243
 40
3.06654787524682
 40
3.07400906229122
 40
3.08147024933561
 40
3.08893143638001
 40
3.09639262342441
 40
3.1038538104688
 40
3.10561358848701
 40
3.10561358848701
 40
3.10561358848701
 40
3.10561358848701
 10
574.8514713588709
 20
-423.731733722114
 30
0.0
 41
1.0
 10
574.7843368426669
 20
-423.7317324282807
 30
0.0
 41
1.0
 10
574.5652451176131
 20
-423.2889854032089
 30
0.0
 41
1.0
 10
574.1941961837082
 20
-420.086963732123
 30
0.0
 41
1.0
 10
573.7383245571591
 20
-412.2943258925283
 30
0.0
 41
1.0
 10
573.2824529306091
 20
-401.2780389615982
 30
0.0
 41
1.0
 10
572.8265813040582
 20
-387.9357566081111
 30
0.0
 41
1.0
 10
572.3707096775091
 20
-373.3546644491061
 30
0.0
 41
1.0
 10
571.9148380509591
 20
-358.7228915659521
 30
0.0
 41
1.0
 10
571.5750833635731
 20
-348.6688397983748
 30
0.0
 41
1.0
 10
571.3872858850382
 20
-343.6819358858738
 30
0.0
 41
1.0
 10
571.3514456153531
 20
-342.7529887573007
 30
0.0
 41
1.0
  0
SPLINE
  5
E2
330
1F
100
AcDbEntity
  8
5
  6
________________
 62
     7
370
     0
100
AcDbSpline
210
0.0
220
0.0
230
1.0
 70
    12
 71
     3
 72
    18
 73
    14
 74
     0
 42
0.000000001
 43
0.0001
 40
2.884656806922644
 40
2.884656806922644
 40
2.884656806922644
 40
2.884656806922644
 40
2.88747938618131
 40
2.89494057322571
 40
2.9024017602701
 40
2.90986294731451
 40
2.9173241343589
 40
2.92478532140329
 40
2.93224650844769
 40
2.93970769549209
 40
2.94716888253648
 40
2.95463006958088
 40
2.961931107340096
 40
2.961931107340096
 40
2.961931107340096
 40
2.961931107340096
 10
584.8517005760759
 20
-423.7318142134441
 30
0.0
 41
1.0
 10
584.7942149155031
 20
-423.732182774113
 30
0.0
 41
1.0
 10
584.5847720460803
 20
-423.3709396555042
 30
0.0
 41
1.0
 10
584.2233719678081
 20
-420.4594194399206
 30
0.0
 41
1.0
 10
583.7675003412571
 20
-412.8978397494086
 30
0.0
 41
1.0
 10
583.3116287147071
 20
-402.0634341050493
 30
0.0
 41
1.0
 10
582.8557570881571
 20
-388.839035718857
 30
0.0
 41
1.0
 10
582.3998854616071
 20
-374.3022245234508
 30
0.0
 41
1.0
 10
581.9440138350581
 20
-359.6375213999341
 30
0.0
 41
1.0
 10
581.488142208507
 20
-346.0398684048182
 30
0.0
 41
1.0
 10
581.0322705819582
 20
-334.6172598354905
 30
0.0
 41
1.0
 10
580.5796606131339
 20
-326.359962989909
 30
0.0
 41
1.0
 10
580.2790078531615
 20
-323.3434138540981
 30
0.0
 41
1.0
 10
580.1303123020384
 20
-322.5129905230259
 30
0.0
 41
1.0
  0
SPLINE
  5
E3
330
1F
100
AcDbEntity
  8
5
  6
________________
 62
     7
370
     0
100
AcDbSpline
210
0.0
220
0.0
230
1.0
 70
    12
 71
     3
 72
    19
 73
    15
 74
     0
 42
0.000000001
 43
0.0001
 40
2.720994567418772
 40
2.720994567418772
 40
2.720994567418772
 40
2.720994567418772
 40
2.7233332712046
 40
2.73079445824899
 40
2.73825564529339
 40
2.74571683233779
 40
2.75317801938218
 40
2.76063920642658
 40
2.76810039347097
 40
2.77556158051537
 40
2.78302276755977
 40
2.79048395460417
 40
2.79794514164856
 40
2.798300989858606
 40
2.798300989858606
 40
2.798300989858606
 40
2.798300989858606
 10
594.8513120163859
 20
-423.7319455096825
 30
0.0
 41
1.0
 10
594.8036811370761
 20
-423.731947993847
 30
0.0
 41
1.0
 10
594.6040930489163
 20
-423.4454289024121
 30
0.0
 41
1.0
 10
594.2525477519061
 20
-420.8158369974151
 30
0.0
 41
1.0
 10
593.7966761253562
 20
-413.487856459005
 30
0.0
 41
1.0
 10
593.3408044988071
 20
-402.8389729089037
 30
0.0
 41
1.0
 10
592.8849328722561
 20
-389.736902433945
 30
0.0
 41
1.0
 10
592.4290612457071
 20
-375.2492571709743
 30
0.0
 41
1.0
 10
591.9731896191571
 20
-360.5565517529004
 30
0.0
 41
1.0
 10
591.5173179926061
 20
-346.8560099816721
 30
0.0
 41
1.0
 10
591.0614463660571
 20
-335.2640099674745
 30
0.0
 41
1.0
 10
590.6055747395061
 20
-326.7251169169384
 30
0.0
 41
1.0
 10
590.2944129896522
 20
-323.4556327209174
 30
0.0
 41
1.0
 10
590.1352084486487
 20
-322.5400556360894
 30
0.0
 41
1.0
 10
590.1279611164948
 20
-322.4999467650785
 30
0.0
 41
1.0
  0
SPLINE
  5
E4
330
1F
100
AcDbEntity
  8
5
  6
________________
 62
     7
370
     0
100
AcDbSpline
210
0.0
220
0.0
230
1.0
 70
    12
 71
     3
 72
    19
 73
    15
 74
     0
 42
0.000000001
 43
0.0001
 40
2.557320408825842
 40
2.557320408825842
 40
2.557320408825842
 40
2.557320408825842
 40
2.55918715622789
 40
2.56664834327228
 40
2.57410953031668
 40
2.58157071736107
 40
2.58903190440547
 40
2.59649309144987
 40
2.60395427849426
 40
2.61141546553865
 40
2.61887665258305
 40
2.62633783962745
 40
2.63379902667185
 40
2.634593185581538
 40
2.634593185581538
 40
2.634593185581538
 40
2.634593185581538
 10
604.8516517020128
 20
-423.7321086218384
 30
0.0
 41
1.0
 10
604.813632855527
 20
-423.7324029578131
 30
0.0
 41
1.0
 10
604.6236568001912
 20
-423.5159319446565
 30
0.0
 41
1.0
 10
604.2817235360062
 20
-421.156096633589
 30
0.0
 41
1.0
 10
603.8258519094551
 20
-414.0641777513401
 30
0.0
 41
1.0
 10
603.3699802829061
 20
-403.6043947600981
 30
0.0
 41
1.0
 10
602.9141086563551
 20
-390.629055033082
 30
0.0
 41
1.0
 10
602.4582370298051
 20
-376.1954441496003
 30
0.0
 41
1.0
 10
602.0023654032561
 20
-361.4796737927023
 30
0.0
 41
1.0
 10
601.5464937767051
 20
-347.6808471931399
 30
0.0
 41
1.0
 10
601.090622150156
 20
-335.9233511247501
 30
0.0
 41
1.0
 10
600.6347505236062
 20
-327.1652361128721
 30
0.0
 41
1.0
 10
600.3146619809863
 20
-323.6228482311217
 30
0.0
 41
1.0
 10
600.1465306472172
 20
-322.6036189027981
 30
0.0
 41
1.0
 10
600.1303565222983
 20
-322.5133719531677
 30
0.0
 41
1.0
  0
SPLINE
  5
E5
330
1F
100
AcDbEntity
  8
5
  6
________________
 62
     7
370
     0
100
AcDbSpline
210
0.0
220
0.0
230
1.0
 70
    12
 71
     3
 72
    19
 73
    15
 74
     0
 42
0.000000001
 43
0.0001
 40
2.393655875158578
 40
2.393655875158578
 40
2.393655875158578
 40
2.393655875158578
 40
2.39504104125117
 40
2.40250222829557
 40
2.40996341533996
 40
2.41742460238435
 40
2.42488578942876
 40
2.43234697647315
 40
2.43980816351755
 40
2.44726935056194
 40
2.45473053760634
 40
2.46219172465073
 40
2.46965291169513
 40
2.470952846719999
 40
2.470952846719999
 40
2.470952846719999
 40
2.470952846719999
 10
614.8514033135837
 20
-423.7322885528032
 30
0.0
 41
1.0
 10
614.8231925246072
 20
-423.7323680968472
 30
0.0
 41
1.0
 10
614.6430245267806
 20
-423.5792769359132
 30
0.0
 41
1.0
 10
614.3108993201042
 20
-421.4800840071549
 30
0.0
 41
1.0
 10
613.8550276935551
 20
-414.6266099586605
 30
0.0
 41
1.0
 10
613.3991560670041
 20
-404.3594424452845
 30
0.0
 41
1.0
 10
612.943284440455
 20
-391.5151937161556
 30
0.0
 41
1.0
 10
612.487412813904
 20
-377.1404675014332
 30
0.0
 41
1.0
 10
612.0315411873542
 20
-362.4065773122155
 30
0.0
 41
1.0
 10
611.5756695608051
 20
-348.5141028598572
 30
0.0
 41
1.0
 10
611.1197979342551
 20
-336.5950617414629
 30
0.0
 41
1.0
 10
610.6639263077052
 20
-327.6206678565383
 30
0.0
 41
1.0
 10
610.3335369474934
 20
-323.7806399065282
 30
0.0
 41
1.0
 10
610.1551047961322
 20
-322.6507158776482
 30
0.0
 41
1.0
 10
610.1286298536211
 20
-322.5039296788919
 30
0.0
 41
1.0
  0
LINE
  5
E6
330
1F
100
AcDbEntity
  8
5
  6
________________
 62
     7
370
     0
100
AcDbLine
 10
622.3514456153531
 20
-372.7289905706209
 30
0.0
 11
622.2753487092083
 21
-370.2914292608208
 31
0.0
  0
LINE
  5
E7
330
1F
100
AcDbEntity
  8
5
  6
________________
 62
     7
370
     0
100
AcDbLine
 10
622.2753487092083
 20
-370.2914292608208
 30
0.0
 11
622.2734933034554
 21
-370.232043132266
 31
0.0
  0
SPLINE
  5
E8
330
1F
100
AcDbEntity
  8
5
  6
________________
 62
     7
370
     0
100
AcDbSpline
210
0.0
220
0.0
230
1.0
 70
    12
 71
     3
 72
    13
 73
     9
 74
     0
 42
0.000000001
 43
0.0001
 40
2.272179568124793
 40
2.272179568124793
 40
2.272179568124793
 40
2.272179568124793
 40
2.27566204854083
 40
2.28312323558523
 40
2.29058442262962
 40
2.29804560967402
 40
2.30550679671842
 40
2.307258438495425
 40
2.307258438495425
 40
2.307258438495425
 40
2.307258438495425
 10
622.2734933034556
 20
-370.232043132266
 30
0.0
 41
1.0
 10
622.2025678594548
 20
-367.9619907650609
 30
0.0
 41
1.0
 10
621.9796852066038
 20
-360.8517295224511
 30
0.0
 41
1.0
 10
621.6048453449041
 20
-349.3554969735127
 30
0.0
 41
1.0
 10
621.1489737183531
 20
-337.2789160951074
 30
0.0
 41
1.0
 10
620.6931020918041
 20
-328.0912591040654
 30
0.0
 41
1.0
 10
620.3535131100226
 20
-323.956877308888
 30
0.0
 41
1.0
 10
620.165881337091
 20
-322.7117801476033
 30
0.0
 41
1.0
 10
620.1302067730096
 20
-322.512874340311
 30
0.0
 41
1.0
  0
SPLINE
  5
E9
330
1F
100
AcDbEntity
  8
5
  6
________________
 62
     7
370
     0
100
AcDbSpline
210
0.0
220
0.0
230
1.0
 70
    12
 71
     3
 72
    18
 73
    14
 74
     0
 42
0.000000001
 43
0.0001
 40
1.575317090399142
 40
1.575317090399142
 40
1.575317090399142
 40
1.575317090399142
 40
1.58177165341198
 40
1.58923284045638
 40
1.59669402750078
 40
1.60415521454517
 40
1.61161640158957
 40
1.61907758863397
 40
1.62653877567836
 40
1.63399996272276
 40
1.64146114976715
 40
1.64892233681155
 40
1.65258228901036
 40
1.65258228901036
 40
1.65258228901036
 40
1.65258228901036
 10
664.8511460699848
 20
-423.732421726255
 30
0.0
 41
1.0
 10
664.7196901268566
 20
-423.7306072467042
 30
0.0
 41
1.0
 10
664.4362769748783
 20
-422.5992047419674
 30
0.0
 41
1.0
 10
664.0009066140501
 20
-417.2239865721372
 30
0.0
 41
1.0
 10
663.5450349875001
 20
-407.9703146851422
 30
0.0
 41
1.0
 10
663.0891633609501
 20
-395.8453324347773
 30
0.0
 41
1.0
 10
662.6332917344001
 20
-381.8370346753117
 30
0.0
 41
1.0
 10
662.1774201078501
 20
-367.0868767769601
 30
0.0
 41
1.0
 10
661.7215484813001
 20
-352.7967640128449
 30
0.0
 41
1.0
 10
661.2656768547502
 20
-340.1311152321124
 30
0.0
 41
1.0
 10
660.8098052282
 20
-330.1219810854727
 30
0.0
 41
1.0
 10
660.4313509125797
 20
-324.6950841839688
 30
0.0
 41
1.0
 10
660.204853805809
 20
-322.9300872167235
 30
0.0
 41
1.0
 10
660.1303139078884
 20
-322.5138938742772
 30
0.0
 41
1.0
  0
SPLINE
  5
EA
330
1F
100
AcDbEntity
  8
5
  6
________________
 62
     7
370
     0
100
AcDbSpline
210
0.0
220
0.0
230
1.0
 70
    12
 71
     3
 72
    18
 73
    14
 74
     0
 42
0.000000001
 43
0.0001
 40
1.411637779267915
 40
1.411637779267915
 40
1.411637779267915
 40
1.411637779267915
 40
1.41762553843527
 40
1.42508672547966
 40
1.43254791252406
 40
1.44000909956845
 40
1.44747028661285
 40
1.45493147365725
 40
1.46239266070164
 40
1.46985384774604
 40
1.47731503479043
 40
1.48477622183483
 40
1.488926168986233
 40
1.488926168986233
 40
1.488926168986233
 40
1.488926168986233
 10
674.8518005709348
 20
-423.732255264146
 30
0.0
 41
1.0
 10
674.7298517221894
 20
-423.7320956773066
 30
0.0
 41
1.0
 10
674.4559456645944
 20
-422.7226132172692
 30
0.0
 41
1.0
 10
674.0300823981494
 20
-417.6992829719475
 30
0.0
 41
1.0
 10
673.5742107715993
 20
-408.6579170186544
 30
0.0
 41
1.0
 10
673.1183391450492
 20
-396.6892119546273
 30
0.0
 41
1.0
 10
672.6624675184994
 20
-382.7684285077884
 30
0.0
 41
1.0
 10
672.2065958919493
 20
-368.0298910118879
 30
0.0
 41
1.0
 10
671.7507242653995
 20
-353.6745578604917
 30
0.0
 41
1.0
 10
671.2948526388495
 20
-340.8721623358466
 30
0.0
 41
1.0
 10
670.8389810122995
 20
-330.6658977919298
 30
0.0
 41
1.0
 10
670.4505472838988
 20
-324.8901669971564
 30
0.0
 41
1.0
 10
670.214070764348
 20
-322.9804221072309
 30
0.0
 41
1.0
 10
670.1295514536472
 20
-322.509614965918
 30
0.0
 41
1.0
  0
SPLINE
  5
EB
330
1F
100
AcDbEntity
  8
5
  6
________________
 62
     7
370
     0
100
AcDbSpline
210
0.0
220
0.0
230
1.0
 70
    12
 71
     3
 72
    18
 73
    14
 74
     0
 42
0.000000001
 43
0.0001
 40
1.247975515354177
 40
1.247975515354177
 40
1.247975515354177
 40
1.247975515354177
 40
1.25347942345855
 40
1.26094061050295
 40
1.26840179754734
 40
1.27586298459174
 40
1.28332417163613
 40
1.29078535868053
 40
1.29824654572493
 40
1.30570773276932
 40
1.31316891981372
 40
1.32063010685812
 40
1.325248440435775
 40
1.325248440435775
 40
1.325248440435775
 40
1.325248440435775
 10
684.8514135026654
 20
-423.7320755373843
 30
0.0
 41
1.0
 10
684.7393189380431
 20
-423.731082506154
 30
0.0
 41
1.0
 10
684.4752671645704
 20
-422.8358284924058
 30
0.0
 41
1.0
 10
684.0592581822488
 20
-418.159468741283
 30
0.0
 41
1.0
 10
683.6033865556983
 20
-409.3334469940014
 30
0.0
 41
1.0
 10
683.1475149291488
 20
-397.5250410954428
 30
0.0
 41
1.0
 10
682.6916433025985
 20
-383.6964499193058
 30
0.0
 41
1.0
 10
682.2357716760488
 20
-368.9744855830606
 30
0.0
 41
1.0
 10
681.7799000494985
 20
-354.558756029103
 30
0.0
 41
1.0
 10
681.3240284229488
 20
-341.623915894097
 30
0.0
 41
1.0
 10
680.8681567963989
 20
-331.2239506792422
 30
0.0
 41
1.0
 10
680.4701837422077
 20
-325.0975802770516
 30
0.0
 41
1.0
 10
680.2241678968669
 20
-323.0377932557132
 30
0.0
 41
1.0
 10
680.1301092603762
 20
-322.5126430714138
 30
0.0
 41
1.0
  0
SPLINE
  5
EC
330
1F
100
AcDbEntity
  8
5
  6
________________
 62
     7
370
     0
100
AcDbSpline
210
0.0
220
0.0
230
1.0
 70
    12
 71
     3
 72
    18
 73
    14
 74
     0
 42
0.000000001
 43
0.0001
 40
1.084303024594633
 40
1.084303024594633
 40
1.084303024594633
 40
1.084303024594633
 40
1.08933330848183
 40
1.09679449552623
 40
1.10425568257063
 40
1.11171686961502
 40
1.11917805665942
 40
1.12663924370381
 40
1.13410043074821
 40
1.14156161779261
 40
1.149022804837
 40
1.1564839918814
 40
1.161586714381357
 40
1.161586714381357
 40
1.161586714381357
 40
1.161586714381357
 10
694.8516512852148
 20
-423.7319177149772
 30
0.0
 41
1.0
 10
694.7492027211093
 20
-423.7316009709906
 30
0.0
 41
1.0
 10
694.4947969481537
 20
-422.9454003291086
 30
0.0
 41
1.0
 10
694.0884339663477
 20
-418.6043892387232
 30
0.0
 41
1.0
 10
693.632562339798
 20
-409.996677605216
 30
0.0
 41
1.0
 10
693.1766907132477
 20
-398.3525389841184
 30
0.0
 41
1.0
 10
692.7208190866979
 20
-384.6207870563489
 30
0.0
 41
1.0
 10
692.2649474601477
 20
-369.9203430676964
 30
0.0
 41
1.0
 10
691.8090758335981
 20
-355.4490613915832
 30
0.0
 41
1.0
 10
691.3532042070481
 20
-342.386123286626
 30
0.0
 41
1.0
 10
690.897332580498
 20
-331.7959522185951
 30
0.0
 41
1.0
 10
690.489494287949
 20
-325.3058542689211
 30
0.0
 41
1.0
 10
690.2336132042494
 20
-323.089682785428
 30
0.0
 41
1.0
 10
690.1296893294
 20
-322.5101703252629
 30
0.0
 41
1.0
  0
SPLINE
  5
ED
330
1F
100
AcDbEntity
  8
5
  6
________________
 62
     7
370
     0
100
AcDbSpline
210
0.0
220
0.0
230
1.0
 70
    12
 71
     3
 72
    18
 73
    14
 74
     0
 42
0.000000001
 43
0.0001
 40
0.9206224179372755
 40
0.9206224179372755
 40
0.9206224179372755
 40
0.9206224179372755
 40
0.925187193505118
 40
0.932648380549514
 40
0.940109567593911
 40
0.947570754638307
 40
0.955031941682703
 40
0.962493128727099
 40
0.969954315771495
 40
0.977415502815892
 40
0.984876689860288
 40
0.992337876904684
 40
0.9979117810731691
 40
0.9979117810731691
 40
0.9979117810731691
 40
0.9979117810731691
 10
704.8523849416127
 20
-423.7317915831063
 30
0.0
 41
1.0
 10
704.7594170867408
 20
-423.733015791253
 30
0.0
 41
1.0
 10
704.5144920230192
 20
-423.0505789782391
 30
0.0
 41
1.0
 10
704.1176097504474
 20
-419.0338949526076
 30
0.0
 41
1.0
 10
703.6617381238967
 20
-410.647385979427
 30
0.0
 41
1.0
 10
703.2058664973475
 20
-399.171427547193
 30
0.0
 41
1.0
 10
702.7499948707971
 20
-385.5411293034702
 30
0.0
 41
1.0
 10
702.294123244247
 20
-370.8671456186228
 30
0.0
 41
1.0
 10
701.8382516176977
 20
-356.3451747685666
 30
0.0
 41
1.0
 10
701.3823799911472
 20
-343.1585283802751
 30
0.0
 41
1.0
 10
700.9265083645971
 20
-332.3817101938519
 30
0.0
 41
1.0
 10
700.5090738173524
 20
-325.5242875977366
 30
0.0
 41
1.0
 10
700.2435964789573
 20
-323.1461552175553
 30
0.0
 41
1.0
 10
700.1300763494121
 20
-322.5121677726036
 30
0.0
 41
1.0
  0
SPLINE
  5
EE
330
1F
100
AcDbEntity
  8
5
  6
________________
 62
     7
370
     0
100
AcDbSpline
210
0.0
220
0.0
230
1.0
 70
    12
 71
     3
 72
    18
 73
    14
 74
     0
 42
0.000000001
 43
0.0001
 40
0.7569696897030264
 40
0.7569696897030264
 40
0.7569696897030264
 40
0.7569696897030264
 40
0.761041078528405
 40
0.768502265572801
 40
0.775963452617197
 40
0.783424639661593
 40
0.790885826705989
 40
0.798347013750385
 40
0.805808200794781
 40
0.813269387839177
 40
0.820730574883573
 40
0.828191761927969
 40
0.8342425234741283
 40
0.8342425234741283
 40
0.8342425234741283
 40
0.8342425234741283
 10
714.8514152521478
 20
-423.7317241662485
 30
0.0
 41
1.0
 10
714.7684958884639
 20
-423.7313578448658
 30
0.0
 41
1.0
 10
714.5336193159302
 20
-423.144112067292
 30
0.0
 41
1.0
 10
714.146785534546
 20
-419.4478415512798
 30
0.0
 41
1.0
 10
713.6909139079964
 20
-411.285353451747
 30
0.0
 41
1.0
 10
713.2350422814462
 20
-399.9814316042916
 30
0.0
 41
1.0
 10
712.7791706548965
 20
-386.4571673876672
 30
0.0
 41
1.0
 10
712.3232990283462
 20
-371.8145750710827
 30
0.0
 41
1.0
 10
711.8674274017965
 20
-357.2467950289513
 30
0.0
 41
1.0
 10
711.4115557752465
 20
-343.9408716150351
 30
0.0
 41
1.0
 10
710.9556841486965
 20
-332.9810277661433
 30
0.0
 41
1.0
 10
710.5285377532294
 20
-325.7468127263793
 30
0.0
 41
1.0
 10
710.2533485666123
 20
-323.2005494247363
 30
0.0
 41
1.0
 10
710.1301165888452
 20
-322.5122174484407
 30
0.0
 41
1.0
  0
SPLINE
  5
EF
330
1F
100
AcDbEntity
  8
5
  6
________________
 62
     7
370
     0
100
AcDbSpline
210
0.0
220
0.0
230
1.0
 70
    12
 71
     3
 72
    18
 73
    14
 74
     0
 42
0.000000001
 43
0.0001
 40
0.5932989910509072
 40
0.5932989910509072
 40
0.5932989910509072
 40
0.5932989910509072
 40
0.596894963551691
 40
0.604356150596087
 40
0.611817337640483
 40
0.619278524684879
 40
0.626739711729275
 40
0.634200898773671
 40
0.641662085818068
 40
0.649123272862464
 40
0.65658445990686
 40
0.664045646951256
 40
0.6705726599872023
 40
0.6705726599872023
 40
0.6705726599872023
 40
0.6705726599872023
 10
724.851543538591
 20
-423.7317115471012
 30
0.0
 41
1.0
 10
724.7783066741257
 20
-423.7317247518989
 30
0.0
 41
1.0
 10
724.5531126008103
 20
-423.2353890042867
 30
0.0
 41
1.0
 10
724.1759613186455
 20
-419.8460899315903
 30
0.0
 41
1.0
 10
723.7200896920955
 20
-411.9103656387643
 30
0.0
 41
1.0
 10
723.2642180655454
 20
-400.7822789606059
 30
0.0
 41
1.0
 10
722.8083464389957
 20
-387.3685934823199
 30
0.0
 41
1.0
 10
722.3524748124454
 20
-372.7623130496596
 30
0.0
 41
1.0
 10
721.8966031858955
 20
-358.1536191911013
 30
0.0
 41
1.0
 10
721.4407315593457
 20
-344.7328900912746
 30
0.0
 41
1.0
 10
720.9848599327956
 20
-333.5937035400173
 30
0.0
 41
1.0
 10
720.5480140288364
 20
-325.975518442901
 30
0.0
 41
1.0
 10
720.2631253337272
 20
-323.2550820348493
 30
0.0
 41
1.0
 10
720.130193847468
 20
-322.5124863233876
 30
0.0
 41
1.0
  0
SPLINE
  5
F0
330
1F
100
AcDbEntity
  8
5
  6
________________
 62
     7
370
     0
100
AcDbSpline
210
0.0
220
0.0
230
1.0
 70
    12
 71
     3
 72
    18
 73
    14
 74
     0
 42
0.000000001
 43
0.0001
 40
0.4296289055821241
 40
0.4296289055821241
 40
0.4296289055821241
 40
0.4296289055821241
 40
0.432748848574977
 40
0.440210035619374
 40
0.447671222663769
 40
0.455132409708166
 40
0.462593596752562
 40
0.470054783796958
 40
0.477515970841354
 40
0.48497715788575
 40
0.492438344930146
 40
0.499899531974542
 40
0.5069011123877915
 40
0.5069011123877915
 40
0.5069011123877915
 40
0.5069011123877915
 10
734.8516343600999
 20
-423.7317575153816
 30
0.0
 41
1.0
 10
734.7880924831647
 20
-423.7320097887721
 30
0.0
 41
1.0
 10
734.5725933973797
 20
-423.3206303018416
 30
0.0
 41
1.0
 10
734.2051371027445
 20
-420.228506265639
 30
0.0
 41
1.0
 10
733.7492654761943
 20
-412.5222125105757
 30
0.0
 41
1.0
 10
733.2933938496446
 20
-401.5737004983552
 30
0.0
 41
1.0
 10
732.8375222230949
 20
-388.2751013106256
 30
0.0
 41
1.0
 10
732.3816505965445
 20
-373.7100410752586
 30
0.0
 41
1.0
 10
731.9257789699947
 20
-359.0653425246531
 30
0.0
 41
1.0
 10
731.4699073434448
 20
-345.5343176580819
 30
0.0
 41
1.0
 10
731.0140357168948
 20
-334.2195316311158
 30
0.0
 41
1.0
 10
730.5675246036817
 20
-326.2108524205643
 30
0.0
 41
1.0
 10
730.2729706993186
 20
-323.3101844365937
 30
0.0
 41
1.0
 10
730.1303740038055
 20
-322.5133729023398
 30
0.0
 41
1.0
  0
SPLINE
  5
F1
330
1F
100
AcDbEntity
  8
5
  6
________________
 62
     7
370
     0
100
AcDbSpline
210
0.0
220
0.0
230
1.0
 70
    12
 71
     3
 72
    19
 73
    15
 74
     0
 42
0.000000001
 43
0.0001
 40
0.265952487776604
 40
0.265952487776604
 40
0.265952487776604
 40
0.265952487776604
 40
0.268602733598261
 40
0.276063920642658
 40
0.283525107687054
 40
0.29098629473145
 40
0.298447481775846
 40
0.305908668820242
 40
0.313369855864639
 40
0.320831042909035
 40
0.328292229953431
 40
0.335753416997827
 40
0.343214604042223
 40
0.343229616723596
 40
0.343229616723596
 40
0.343229616723596
 40
0.343229616723596
 10
744.8521120815255
 20
-423.7318532128305
 30
0.0
 41
1.0
 10
744.7981362254816
 20
-423.7326776364582
 30
0.0
 41
1.0
 10
744.5922031605876
 20
-423.4009944969388
 30
0.0
 41
1.0
 10
744.2343128868437
 20
-420.5949620457467
 30
0.0
 41
1.0
 10
743.7784412602937
 20
-413.1206884613679
 30
0.0
 41
1.0
 10
743.3225696337439
 20
-402.3554302672238
 30
0.0
 41
1.0
 10
742.8666980071939
 20
-389.1763862485232
 30
0.0
 41
1.0
 10
742.4108263806436
 20
-374.6574406721301
 30
0.0
 41
1.0
 10
741.954954754094
 20
-359.9816586529205
 30
0.0
 41
1.0
 10
741.4990831275439
 20
-346.3448850027022
 30
0.0
 41
1.0
 10
741.043211500994
 20
-334.8583017353584
 30
0.0
 41
1.0
 10
740.5873398744441
 20
-326.4578842549714
 30
0.0
 41
1.0
 10
740.2831197030958
 20
-323.3682789858788
 30
0.0
 41
1.0
 10
740.1308567405977
 20
-322.5160284040359
 30
0.0
 41
1.0
 10
740.1305509869494
 20
-322.5143198299288
 30
0.0
 41
1.0
  0
LINE
  5
F2
330
1F
100
AcDbEntity
  8
5
  6
________________
 62
     7
370
     0
100
AcDbLine
 10
571.3514456153531
 20
-423.7317417753912
 30
0.0
 11
571.3514456153531
 21
-342.7529887572963
 31
0.0
  0
LWPOLYLINE
  5
F3
330
1F
100
AcDbEntity
  8
5
  6
________________
 62
     7
370
     0
100
AcDbPolyline
 90
        3
 70
     0
 43
0.0
 10
-580.5850323940789
 20
-325.0512132351066
 42
0.0176570297608328
 10
-582.4067879406787
 20
-361.0997950328774
 42
0.0002612932175285
 10
-582.7922992008112
 20
-372.7326947312552
210
0.0
220
0.0
230
-1.0
  0
LWPOLYLINE
  5
F4
330
1F
100
AcDbEntity
  8
5
  6
________________
 62
     7
370
     0
100
AcDbPolyline
 90
        3
 70
     0
 43
0.0
 10
-590.583196832644
 20
-325.0405065556591
 42
0.0189696021807936
 10
-592.245439029857
 20
-356.3935368417324
 42
0.000525589360226
 10
-592.792315344024
 20
-372.732694731255
210
0.0
220
0.0
230
-1.0
  0
LWPOLYLINE
  5
F5
330
1F
100
AcDbEntity
  8
5
  6
________________
 62
     7
370
     0
100
AcDbPolyline
 90
        3
 70
     0
 43
0.0
 10
-600.5847895801875
 20
-325.0494233292408
 42
0.0189253515709773
 10
-602.2454110515652
 20
-356.3935368417323
 42
0.0005255845639374
 10
-602.7922823639367
 20
-372.7326947312551
210
0.0
220
0.0
230
-1.0
  0
LWPOLYLINE
  5
F6
330
1F
100
AcDbEntity
  8
5
  6
________________
 62
     7
370
     0
100
AcDbPolyline
 90
        3
 70
     0
 43
0.0
 10
-610.5838285252212
 20
-325.0442914613025
 42
0.0189507468499002
 10
-612.2453790879297
 20
-356.3935368417325
 42
0.0005255864996033
 10
-612.7922524189087
 20
-372.7326947312553
210
0.0
220
0.0
230
-1.0
  0
LWPOLYLINE
  5
F7
330
1F
100
AcDbEntity
  8
5
  6
________________
 62
     7
370
     0
100
AcDbPolyline
 90
        4
 70
     0
 43
0.0
 10
-620.5850882352893
 20
-325.0514390026441
 42
0.0189155210753661
 10
-622.2453555378654
 20
-356.3935368417324
 10
-622.3234803668088
 20
-358.6538878844137
 10
-622.3514456153531
 20
-359.4715232538127
210
0.0
220
0.0
230
-1.0
  0
LWPOLYLINE
  5
F8
330
1F
100
AcDbEntity
  8
5
  6
________________
 62
     7
370
     0
100
AcDbPolyline
 90
        3
 70
     0
 43
0.0
 10
-660.5851736553485
 20
-325.0519078339859
 42
0.01891319160302
 10
-662.2453546231321
 20
-356.3935368417324
 42
0.0005255862373169
 10
-662.7922276805806
 20
-372.7326947312552
210
0.0
220
0.0
230
-1.0
  0
LWPOLYLINE
  5
F9
330
1F
100
AcDbEntity
  8
5
  6
________________
 62
     7
370
     0
100
AcDbPolyline
 90
        3
 70
     0
 43
0.0
 10
-670.5848070547255
 20
-325.0498043762698
 42
0.0189235873170938
 10
-672.2453699766912
 20
-356.3935368417324
 42
0.0005255876797672
 10
-672.7922445383952
 20
-372.7326947312551
210
0.0
220
0.0
230
-1.0
  0
LWPOLYLINE
  5
FA
330
1F
100
AcDbEntity
  8
5
  6
________________
 62
     7
370
     0
100
AcDbPolyline
 90
        3
 70
     0
 43
0.0
 10
-680.585054804975
 20
-325.0510690014476
 42
0.0189174137941307
 10
-682.2453950000718
 20
-356.3935368417323
 42
0.0005255890129254
 10
-682.7922709520519
 20
-372.7326947312552
210
0.0
220
0.0
230
-1.0
  0
LWPOLYLINE
  5
FB
330
1F
100
AcDbEntity
  8
5
  6
________________
 62
     7
370
     0
100
AcDbPolyline
 90
        3
 70
     0
 43
0.0
 10
-690.5849931542302
 20
-325.0505433383021
 42
0.0189200229345114
 10
-692.2454297841227
 20
-356.3935368417324
 42
0.0005255896827669
 10
-692.7923064346481
 20
-372.732694731255
210
0.0
220
0.0
230
-1.0
  0
LWPOLYLINE
  5
FC
330
1F
100
AcDbEntity
  8
5
  6
________________
 62
     7
370
     0
100
AcDbPolyline
 90
        3
 70
     0
 43
0.0
 10
-700.5850234003766
 20
-325.0505203372522
 42
0.0189201693964456
 10
-702.2454671026521
 20
-356.3935368417325
 42
0.0005255906128303
 10
-702.7923447230905
 20
-372.7326947312553
210
0.0
220
0.0
230
-1.0
  0
LWPOLYLINE
  5
FD
330
1F
100
AcDbEntity
  8
5
  6
________________
 62
     7
370
     0
100
AcDbPolyline
 90
        3
 70
     0
 43
0.0
 10
-710.5851085425747
 20
-325.0509185335932
 42
0.0189181312865744
 10
-712.2454737543187
 20
-356.3935368417324
 42
0.0005255883884945
 10
-712.7923490551184
 20
-372.7326947312551
210
0.0
220
0.0
230
-1.0
  0
LWPOLYLINE
  5
FE
330
1F
100
AcDbEntity
  8
5
  6
________________
 62
     7
370
     0
100
AcDbPolyline
 90
        3
 70
     0
 43
0.0
 10
-720.5851226475668
 20
-325.0510912824954
 42
0.0189170804543524
 10
-722.245439063986
 20
-356.393536841733
 42
0.0005255827649954
 10
-722.7923085003365
 20
-372.7326947312558
210
0.0
220
0.0
230
-1.0
  0
LWPOLYLINE
  5
FF
330
1F
100
AcDbEntity
  8
5
  6
________________
 62
     7
370
     0
100
AcDbPolyline
 90
        3
 70
     0
 43
0.0
 10
-730.5852324103323
 20
-325.0522999724421
 42
0.0176527026466315
 10
-732.4068319147639
 20
-361.0997950328767
 42
0.0002612987757242
 10
-732.792351393547
 20
-372.7326947312545
210
0.0
220
0.0
230
-1.0
  0
LWPOLYLINE
  5
100
330
1F
100
AcDbEntity
  8
5
  6
________________
 62
     7
370
     0
100
AcDbPolyline
 90
        3
 70
     0
 43
0.0
 10
-740.5853566222979
 20
-325.053000107371
 42
0.0176494204747256
 10
-742.406804078632
 20
-361.0997950328776
 42
0.0002612949734155
 10
-742.7923179351196
 20
-372.7326947312555
210
0.0
220
0.0
230
-1.0
  0
ARC
  5
101
330
1F
100
AcDbEntity
  8
5
  6
________________
 62
     7
370
     0
100
AcDbCircle
 10
-572.9484542512276
 20
-422.6112847892741
 30
0.0
 40
2.20836589429487
210
0.0
220
0.0
230
-1.0
100
AcDbArc
 50
188.8757158534891
 51
210.4885138354021
  0
ARC
  5
102
330
1F
100
AcDbEntity
  8
5
  6
________________
 62
     7
370
     0
100
AcDbCircle
 10
577.7831678243698
 20
-322.9130118883907
 30
0.0
 40
2.380988091486181
100
AcDbArc
 50
9.67193023878965
 51
29.69193398053789
  0
ARC
  5
103
330
1F
100
AcDbEntity
  8
5
  6
________________
 62
     7
370
     0
100
AcDbCircle
 10
-584.0284997185234
 20
-422.9979373591268
 30
0.0
 40
1.102830399099337
210
0.0
220
0.0
230
-1.0
100
AcDbArc
 50
177.6153198924164
 51
221.7167436487432
  0
ARC
  5
104
330
1F
100
AcDbEntity
  8
5
  6
________________
 62
     7
370
     0
100
AcDbCircle
 10
589.0507205694648
 20
-322.4554077714533
 30
0.0
 40
1.078160896210949
100
AcDbArc
 50
357.6324287594283
 51
42.03308396972426
  0
ARC
  5
105
330
1F
100
AcDbEntity
  8
5
  6
________________
 62
     7
370
     0
100
AcDbCircle
 10
-594.0314584245658
 20
-422.9987099773172
 30
0.0
 40
1.099906476907736
210
0.0
220
0.0
230
-1.0
100
AcDbArc
 50
177.5657229181247
 51
221.8078372546295
  0
ARC
  5
106
330
1F
100
AcDbEntity
  8
5
  6
________________
 62
     7
370
     0
100
AcDbCircle
 10
599.0264572225053
 20
-322.4680271899877
 30
0.0
 40
1.104830218464001
100
AcDbArc
 50
357.6477892653141
 51
41.67878590525556
  0
ARC
  5
107
330
1F
100
AcDbEntity
  8
5
  6
________________
 62
     7
370
     0
100
AcDbCircle
 10
-604.0246962070714
 20
-422.9966965900521
 30
0.0
 40
1.106655432874181
210
0.0
220
0.0
230
-1.0
100
AcDbArc
 50
177.6610607727109
 51
221.6467146591796
  0
ARC
  5
108
330
1F
100
AcDbEntity
  8
5
  6
________________
 62
     7
370
     0
100
AcDbCircle
 10
609.0456255151772
 20
-322.4584798815155
 30
0.0
 40
1.083957601186252
100
AcDbArc
 50
357.5969122753025
 51
41.9986001971177
  0
ARC
  5
109
330
1F
100
AcDbEntity
  8
5
  6
________________
 62
     7
370
     0
100
AcDbCircle
 10
-614.0257681551412
 20
-422.9968753963618
 30
0.0
 40
1.105669898985966
210
0.0
220
0.0
230
-1.0
100
AcDbArc
 50
177.6240178257093
 51
221.6922256101161
  0
ARC
  5
10A
330
1F
100
AcDbEntity
  8
5
  6
________________
 62
     7
370
     0
100
AcDbCircle
 10
619.0201686969426
 20
-322.4693338525632
 30
0.0
 40
1.11089167086263
100
AcDbArc
 50
357.7537635672975
 51
41.51485406609891
  0
SPLINE
  5
10B
330
1F
100
AcDbEntity
  8
5
  6
________________
 62
     7
370
     0
100
AcDbSpline
210
0.0
220
0.0
230
1.0
 70
    12
 71
     3
 72
     9
 73
     5
 74
     0
 42
0.000000001
 43
0.0001
 40
1.734414032144828
 40
1.734414032144828
 40
1.734414032144828
 40
1.734414032144828
 40
1.7384565813443
 40
1.738971455422565
 40
1.738971455422565
 40
1.738971455422565
 40
1.738971455422565
 10
655.1304700996368
 20
-422.9506324589084
 30
0.0
 41
1.0
 10
655.0481380941079
 20
-423.4105049410903
 30
0.0
 41
1.0
 10
654.9553199786108
 20
-423.7024620406187
 30
0.0
 41
1.0
 10
654.8625018631136
 20
-423.7325008113222
 30
0.0
 41
1.0
 10
654.8520157531453
 20
-423.7325595828777
 30
0.0
 41
1.0
  0
SPLINE
  5
10C
330
1F
100
AcDbEntity
  8
5
  6
________________
 62
     7
370
     0
100
AcDbSpline
210
0.0
220
0.0
230
1.0
 70
    12
 71
     3
 72
     9
 73
     5
 74
     0
 42
0.000000001
 43
0.0001
 40
1.65258228901036
 40
1.65258228901036
 40
1.65258228901036
 40
1.65258228901036
 40
1.65638352385595
 40
1.65714369215288
 40
1.65714369215288
 40
1.65714369215288
 40
1.65714369215288
 10
660.1303139078884
 20
-322.5138938742772
 30
0.0
 41
1.0
 10
660.0528965969588
 20
-322.0816345031513
 30
0.0
 41
1.0
 10
659.9599974261095
 20
-321.7760762289627
 30
0.0
 41
1.0
 10
659.86709825526
 20
-321.7328346885822
 30
0.0
 41
1.0
 10
659.8516163953402
 20
-321.7328895937302
 30
0.0
 41
1.0
  0
SPLINE
  5
10D
330
1F
100
AcDbEntity
  8
5
  6
________________
 62
     7
370
     0
100
AcDbSpline
210
0.0
220
0.0
230
1.0
 70
    12
 71
     3
 72
     9
 73
     5
 74
     0
 42
0.000000001
 43
0.0001
 40
1.570746877255516
 40
1.570746877255516
 40
1.570746877255516
 40
1.570746877255516
 40
1.57431046636759
 40
1.575317090399142
 40
1.575317090399142
 40
1.575317090399142
 40
1.575317090399142
 10
665.1303818654511
 20
-422.9511217335182
 30
0.0
 41
1.0
 10
665.057804532684
 20
-423.3565271553841
 30
0.0
 41
1.0
 10
664.9647259341951
 20
-423.6762406316001
 30
0.0
 41
1.0
 10
664.8716473357065
 20
-423.7327047041604
 30
0.0
 41
1.0
 10
664.8511460699848
 20
-423.732421726255
 30
0.0
 41
1.0
  0
SPLINE
  5
10E
330
1F
100
AcDbEntity
  8
5
  6
________________
 62
     7
370
     0
100
AcDbSpline
210
0.0
220
0.0
230
1.0
 70
    12
 71
     3
 72
     9
 73
     5
 74
     0
 42
0.000000001
 43
0.0001
 40
1.488926168986233
 40
1.488926168986233
 40
1.488926168986233
 40
1.488926168986233
 40
1.49223740887923
 40
1.493473302794444
 40
1.493473302794444
 40
1.493473302794444
 40
1.493473302794444
 10
670.1295514536472
 20
-322.509614965918
 30
0.0
 41
1.0
 10
670.062113555498
 20
-322.1339582813031
 30
0.0
 41
1.0
 10
669.969504999024
 20
-321.8032222694949
 30
0.0
 41
1.0
 10
669.8768964425502
 20
-321.7329809141358
 30
0.0
 41
1.0
 10
669.8517257842256
 20
-321.7330461365718
 30
0.0
 41
1.0
  0
SPLINE
  5
10F
330
1F
100
AcDbEntity
  8
5
  6
________________
 62
     7
370
     0
100
AcDbSpline
210
0.0
220
0.0
230
1.0
 70
    12
 71
     3
 72
     9
 73
     5
 74
     0
 42
0.000000001
 43
0.0001
 40
1.407080037161921
 40
1.407080037161921
 40
1.407080037161921
 40
1.407080037161921
 40
1.41016435139087
 40
1.411637779267915
 40
1.411637779267915
 40
1.411637779267915
 40
1.411637779267915
 10
675.1302743975378
 20
-422.9517766069632
 30
0.0
 41
1.0
 10
675.0674581487749
 20
-423.3026447113305
 30
0.0
 41
1.0
 10
674.9746335399072
 20
-423.6482628165017
 30
0.0
 41
1.0
 10
674.8818089310396
 20
-423.7322945342121
 30
0.0
 41
1.0
 10
674.8518005709348
 20
-423.732255264146
 30
0.0
 41
1.0
  0
SPLINE
  5
110
330
1F
100
AcDbEntity
  8
5
  6
________________
 62
     7
370
     0
100
AcDbSpline
210
0.0
220
0.0
230
1.0
 70
    12
 71
     3
 72
     9
 73
     5
 74
     0
 42
0.000000001
 43
0.0001
 40
1.325248440435775
 40
1.325248440435775
 40
1.325248440435775
 40
1.325248440435775
 40
1.32809129390251
 40
1.329810613576028
 40
1.329810613576028
 40
1.329810613576028
 40
1.329810613576028
 10
680.1301092603762
 20
-322.5126430714138
 30
0.0
 41
1.0
 10
680.0722106880171
 20
-322.1893825279972
 30
0.0
 41
1.0
 10
679.979295835118
 20
-321.830154259506
 30
0.0
 41
1.0
 10
679.886380982219
 20
-321.7328738554837
 30
0.0
 41
1.0
 10
679.8513647016788
 20
-321.7332264424464
 30
0.0
 41
1.0
  0
ARC
  5
111
330
1F
100
AcDbEntity
  8
5
  6
________________
 62
     7
370
     0
100
AcDbCircle
 10
-684.1867965735205
 20
-423.0547556784982
 30
0.0
 40
0.9489351156678104
210
0.0
220
0.0
230
-1.0
100
AcDbArc
 50
173.8049948418104
 51
225.5423523148122
  0
ARC
  5
112
330
1F
100
AcDbEntity
  8
5
  6
________________
 62
     7
370
     0
100
AcDbCircle
 10
689.0768509081087
 20
-322.4486974851497
 30
0.0
 40
1.054631524001993
100
AcDbArc
 50
356.6584236269634
 51
42.70691632679376
  0
ARC
  5
113
330
1F
100
AcDbEntity
  8
5
  6
________________
 62
     7
370
     0
100
AcDbCircle
 10
-693.9613398040142
 20
-422.9743172149085
 30
0.0
 40
1.169022262945346
210
0.0
220
0.0
230
-1.0
100
AcDbArc
 50
178.9385868971056
 51
220.3957464452866
  0
ARC
  5
114
330
1F
100
AcDbEntity
  8
5
  6
________________
 62
     7
370
     0
100
AcDbCircle
 10
698.8437074580689
 20
-322.5334139840712
 30
0.0
 40
1.286544335076527
100
AcDbArc
 50
0.9462352381233629
 51
38.44206861979775
  0
ARC
  5
115
330
1F
100
AcDbEntity
  8
5
  6
________________
 62
     7
370
     0
100
AcDbCircle
 10
-703.7061227011269
 20
-422.8840656639525
 30
0.0
 40
1.42567750840386
210
0.0
220
0.0
230
-1.0
100
AcDbArc
 50
182.7711390282342
 51
216.4850256119318
  0
ARC
  5
116
330
1F
100
AcDbEntity
  8
5
  6
________________
 62
     7
370
     0
100
AcDbCircle
 10
708.5854256922205
 20
-322.6262328624475
 30
0.0
 40
1.548892985569618
100
AcDbArc
 50
4.22141236987548
 51
35.18927095086865
  0
ARC
  5
117
330
1F
100
AcDbEntity
  8
5
  6
________________
 62
     7
370
     0
100
AcDbCircle
 10
-713.444733862405
 20
-422.7889608199584
 30
0.0
 40
1.693385738500373
210
0.0
220
0.0
230
-1.0
100
AcDbArc
 50
185.5618833267016
 51
213.8301473445124
  0
ARC
  5
118
330
1F
100
AcDbEntity
  8
5
  6
________________
 62
     7
370
     0
100
AcDbCircle
 10
718.2979242398828
 20
-322.728811212318
 30
0.0
 40
1.844995493883731
100
AcDbArc
 50
6.733392646598269
 51
32.64065599928568
  0
ARC
  5
119
330
1F
100
AcDbEntity
  8
5
  6
________________
 62
     7
370
     0
100
AcDbCircle
 10
-723.1466879362079
 20
-422.6824464914536
 30
0.0
 40
2.001871569801781
210
0.0
220
0.0
230
-1.0
100
AcDbArc
 50
187.7646090258284
 51
211.6105039915928
  0
ARC
  5
11A
330
1F
100
AcDbEntity
  8
5
  6
________________
 62
     7
370
     0
100
AcDbCircle
 10
727.9888729078106
 20
-322.8396697774814
 30
0.0
 40
2.166217116282369
100
AcDbArc
 50
8.663426789735245
 51
30.70187492496294
  0
ARC
  5
11B
330
1F
100
AcDbEntity
  8
5
  6
________________
 62
     7
370
     0
100
AcDbCircle
 10
-732.8227276020918
 20
-422.5667589048369
 30
0.0
 40
2.339590646942701
210
0.0
220
0.0
230
-1.0
100
AcDbArc
 50
189.4772503801736
 51
209.8644499262284
  0
ARC
  5
11C
330
1F
100
AcDbEntity
  8
5
  6
________________
 62
     7
370
     0
100
AcDbCircle
 10
739.027252325231
 20
-322.4682212103247
 30
0.0
 40
1.104261300453517
100
AcDbArc
 50
357.6074284994286
 51
41.70311559278571
  0
ARC
  5
11D
330
1F
100
AcDbEntity
  8
5
  6
________________
 62
     7
370
     0
100
AcDbCircle
 10
-744.0208581676675
 20
-422.9953620660526
 30
0.0
 40
1.110586457051652
210
0.0
220
0.0
230
-1.0
100
AcDbArc
 50
177.7111750047534
 51
221.5409499713257
  0
ARC
  5
11E
330
1F
100
AcDbEntity
  8
5
  6
________________
 62
     7
370
     0
100
AcDbCircle
 10
1657.808940320925
 20
-437.8764668731263
 30
0.0
 40
2231.552337062434
210
0.0
220
0.0
230
-1.0
100
AcDbArc
 50
177.3469279596681
 51
178.3271763476842
  0
LWPOLYLINE
  5
11F
330
1F
100
AcDbEntity
  8
5
  6
________________
 62
     7
370
     0
100
AcDbPolyline
 90
        7
 70
     0
 43
0.0
 10
572.7923512594284
 20
-372.7326947312577
 42
0.0125173128175677
 10
574.9017236029373
 20
-419.7792105111908
 10
574.9798485045488
 20
-420.3007808308121
 10
575.0579734061603
 20
-420.7077554645472
 10
575.1360983077718
 20
-420.9991539748568
 10
575.2142232093831
 20
-421.174274357206
 10
575.2923481109946
 20
-421.2326947312551
  0
LWPOLYLINE
  5
120
330
1F
100
AcDbEntity
  8
5
  6
________________
 62
     7
370
     0
100
AcDbPolyline
 90
        7
 70
     0
 43
0.0
 10
582.7922992008122
 20
-372.7326947312551
 42
0.0125173387973138
 10
584.9016759422964
 20
-419.7792105111905
 10
584.9798010067958
 20
-420.3007808308118
 10
585.0579260712951
 20
-420.7077554645469
 10
585.1360511357946
 20
-420.9991539748567
 10
585.214176200294
 20
-421.174274357206
 10
585.2923012647933
 20
-421.2326947312551
  0
LWPOLYLINE
  5
121
330
1F
100
AcDbEntity
  8
5
  6
________________
 62
     7
370
     0
100
AcDbPolyline
 90
        7
 70
     0
 43
0.0
 10
592.7923153440233
 20
-372.732694731255
 42
0.0125173303426528
 10
594.901690654262
 20
-419.7792105111905
 10
594.9798156657523
 20
-420.3007808308118
 10
595.0579406772428
 20
-420.7077554645469
 10
595.136065688733
 20
-420.9991539748567
 10
595.2141907002233
 20
-421.174274357206
 10
595.2923157117136
 20
-421.2326947312551
  0
LWPOLYLINE
  5
122
330
1F
100
AcDbEntity
  8
5
  6
________________
 62
     7
370
     0
100
AcDbPolyline
 90
        7
 70
     0
 43
0.0
 10
602.7922823639345
 20
-372.7326947312551
 42
0.0125172919124545
 10
604.9016511685284
 20
-419.7792105111905
 10
604.9797759390688
 20
-420.3007808308118
 10
605.0579007096094
 20
-420.7077554645469
 10
605.1360254801499
 20
-420.9991539748567
 10
605.2141502506903
 20
-421.174274357206
 10
605.2922750212309
 20
-421.2326947312551
  0
LWPOLYLINE
  5
123
330
1F
100
AcDbEntity
  8
5
  6
________________
 62
     7
370
     0
100
AcDbPolyline
 90
        7
 70
     0
 43
0.0
 10
612.7922524189097
 20
-372.7326947312552
 42
0.0125172982787538
 10
614.9016223012201
 20
-419.7792105111905
 10
614.979747111676
 20
-420.3007808308118
 10
615.0578719221319
 20
-420.7077554645469
 10
615.1359967325878
 20
-420.9991539748567
 10
615.2141215430439
 20
-421.174274357206
 10
615.2922463534999
 20
-421.2326947312551
  0
LWPOLYLINE
  5
124
330
1F
100
AcDbEntity
  8
5
  6
________________
 62
     7
370
     0
100
AcDbPolyline
 90
        4
 70
     0
 43
0.0
 10
654.7831998819041
 20
-418.7731974632822
 42
0.0363424177705832
 10
655.1359782522405
 20
-420.9991539748567
 10
655.2141037577941
 20
-421.174274357206
 10
655.2922292633476
 20
-421.2326947312551
  0
LWPOLYLINE
  5
125
330
1F
100
AcDbEntity
  8
5
  6
________________
 62
     7
370
     0
100
AcDbPolyline
 90
        7
 70
     0
 43
0.0
 10
662.7922276805804
 20
-372.7326947312553
 42
0.0125173805079976
 10
664.901611483045
 20
-419.7792105111905
 10
664.9797368090623
 20
-420.3007808308118
 10
665.0578621350795
 20
-420.7077554645469
 10
665.1359874610966
 20
-420.9991539748567
 10
665.2141127871139
 20
-421.174274357206
 10
665.2922381131312
 20
-421.2326947312551
  0
LWPOLYLINE
  5
126
330
1F
100
AcDbEntity
  8
5
  6
________________
 62
     7
370
     0
100
AcDbPolyline
 90
        7
 70
     0
 43
0.0
 10
672.7922445383952
 20
-372.732694731255
 42
0.0125173726447178
 10
674.901627009727
 20
-419.7792105111905
 10
674.9797522864429
 20
-420.3007808308118
 10
675.057877563159
 20
-420.7077554645469
 10
675.1360028398749
 20
-420.9991539748567
 10
675.2141281165909
 20
-421.174274357206
 10
675.2922533933069
 20
-421.2326947312551
  0
LWPOLYLINE
  5
127
330
1F
100
AcDbEntity
  8
5
  6
________________
 62
     7
370
     0
100
AcDbPolyline
 90
        7
 70
     0
 43
0.0
 10
682.792270952053
 20
-372.7326947312551
 42
0.0125173793291591
 10
684.9016545549592
 20
-419.7792105111905
 10
684.9797798735852
 20
-420.3007808308118
 10
685.0579051922114
 20
-420.7077554645469
 10
685.1360305108376
 20
-420.9991539748567
 10
685.2141558294637
 20
-421.174274357206
 10
685.2922811480898
 20
-421.2326947312551
  0
LWPOLYLINE
  5
128
330
1F
100
AcDbEntity
  8
5
  6
________________
 62
     7
370
     0
100
AcDbPolyline
 90
        7
 70
     0
 43
0.0
 10
692.7923064346492
 20
-372.7326947312551
 42
0.0125173642222438
 10
694.9016874801847
 20
-419.7792105111905
 10
694.9798127040934
 20
-420.3007808308118
 10
695.0579379280022
 20
-420.7077554645469
 10
695.1360631519109
 20
-420.9991539748567
 10
695.2141883758196
 20
-421.174274357206
 10
695.2923135997283
 20
-421.2326947312551
  0
LWPOLYLINE
  5
129
330
1F
100
AcDbEntity
  8
5
  6
________________
 62
     7
370
     0
100
AcDbPolyline
 90
        7
 70
     0
 43
0.0
 10
702.7923447230875
 20
-372.7326947312553
 42
0.0125173324521694
 10
704.9017203904347
 20
-419.7792105111905
 10
704.9798454151512
 20
-420.3007808308118
 10
705.0579704398677
 20
-420.7077554645471
 10
705.1360954645843
 20
-420.9991539748567
 10
705.2142204893009
 20
-421.174274357206
 10
705.2923455140174
 20
-421.2326947312551
  0
LWPOLYLINE
  5
12A
330
1F
100
AcDbEntity
  8
5
  6
________________
 62
     7
370
     0
100
AcDbPolyline
 90
        7
 70
     0
 43
0.0
 10
712.7923490551179
 20
-372.7326947312552
 42
0.0125173542107267
 10
714.9017284058566
 20
-419.7792105111905
 10
714.9798535669951
 20
-420.3007808308118
 10
715.0579787281335
 20
-420.7077554645469
 10
715.136103889272
 20
-420.9991539748567
 10
715.2142290504105
 20
-421.174274357206
 10
715.292354211549
 20
-421.2326947312551
  0
LWPOLYLINE
  5
12B
330
1F
100
AcDbEntity
  8
5
  6
________________
 62
     7
370
     0
100
AcDbPolyline
 90
        7
 70
     0
 43
0.0
 10
722.792308500338
 20
-372.7326947312557
 42
0.0125173425421703
 10
724.9016858757683
 20
-419.7792105111906
 10
724.9798109637472
 20
-420.3007808308119
 10
725.0579360517262
 20
-420.7077554645471
 10
725.136061139705
 20
-420.9991539748568
 10
725.214186227684
 20
-421.174274357206
 10
725.2923113156628
 20
-421.2326947312551
  0
LWPOLYLINE
  5
12C
330
1F
100
AcDbEntity
  8
5
  6
________________
 62
     7
370
     0
100
AcDbPolyline
 90
        7
 70
     0
 43
0.0
 10
732.7923513935447
 20
-372.7326947312546
 42
0.0125173025509634
 10
734.9017219990757
 20
-419.7792105111904
 10
734.9798468363175
 20
-420.3007808308117
 10
735.0579716735595
 20
-420.7077554645469
 10
735.1360965108014
 20
-420.9991539748567
 10
735.2142213480431
 20
-421.174274357206
 10
735.292346185285
 20
-421.2326947312551
  0
LWPOLYLINE
  5
12D
330
1F
100
AcDbEntity
  8
5
  6
________________
 62
     7
370
     0
100
AcDbPolyline
 90
        7
 70
     0
 43
0.0
 10
742.7923179351185
 20
-372.7326947312557
 42
0.0131007871538915
 10
744.9090557866559
 20
-419.8331876007048
 10
744.9904687809458
 20
-420.3630048288352
 10
745.0718817752356
 20
-420.7682175344269
 10
745.1532947695256
 20
-421.0477656501487
 10
745.2347077638154
 20
-421.200917856817
 10
745.2923254893909
 20
-421.2326947312328
  0
LINE
  5
12E
330
1F
100
AcDbEntity
  8
5
  6
________________
 62
     7
370
     0
100
AcDbLine
 10
571.3514456153531
 20
-342.7529887572963
 30
0.0
 11
571.3514456153531
 21
-334.5817098850105
 31
0.0
  0
LINE
  5
12F
330
1F
100
AcDbEntity
  8
5
  6
________________
 62
     7
370
     0
100
AcDbLine
 10
570.3514456153531
 20
-420.6492889340989
 30
0.0
 11
570.3514456153531
 21
-421.2326947312551
 31
0.0
  0
LINE
  5
130
330
1F
100
AcDbEntity
  8
5
  6
________________
 62
     7
370
     0
100
AcDbLine
 10
570.3514456153531
 20
-420.6492889340989
 30
0.0
 11
569.3514456153531
 21
-420.6492889340989
 31
0.0
  0
LINE
  5
131
330
1F
100
AcDbEntity
  8
5
  6
________________
 62
     7
370
     0
100
AcDbLine
 10
569.3514456153531
 20
-380.2326947312551
 30
0.0
 11
569.3514456153531
 21
-420.6492889340989
 31
0.0
  0
LINE
  5
132
330
1F
100
AcDbEntity
  8
5
  6
________________
 62
     7
370
     0
100
AcDbLine
 10
570.3514456153531
 20
-380.2326947312551
 30
0.0
 11
569.3514456153531
 21
-380.2326947312551
 31
0.0
  0
LINE
  5
133
330
1F
100
AcDbEntity
  8
5
  6
________________
 62
     7
370
     0
100
AcDbLine
 10
570.3514456153531
 20
-365.2326947312552
 30
0.0
 11
570.3514456153531
 21
-380.2326947312551
 31
0.0
  0
LINE
  5
134
330
1F
100
AcDbEntity
  8
5
  6
________________
 62
     7
370
     0
100
AcDbLine
 10
569.3514456153531
 20
-365.2326947312552
 30
0.0
 11
570.3514456153531
 21
-365.2326947312552
 31
0.0
  0
LINE
  5
135
330
1F
100
AcDbEntity
  8
5
  6
________________
 62
     7
370
     0
100
AcDbLine
 10
569.3514456153531
 20
-324.8161005284114
 30
0.0
 11
569.3514456153531
 21
-365.2326947312552
 31
0.0
  0
LINE
  5
136
330
1F
100
AcDbEntity
  8
5
  6
________________
 62
     7
370
     0
100
AcDbLine
 10
570.3514456153531
 20
-324.8161005284113
 30
0.0
 11
569.3514456153531
 21
-324.8161005284113
 31
0.0
  0
LINE
  5
137
330
1F
100
AcDbEntity
  8
5
  6
________________
 62
     7
370
     0
100
AcDbLine
 10
570.3514456153531
 20
-324.2430051055213
 30
0.0
 11
570.3514456153531
 21
-324.8161005284114
 31
0.0
  0
LINE
  5
138
330
1F
100
AcDbEntity
  8
5
  6
________________
 62
     7
370
     0
100
AcDbLine
 10
575.9437218100991
 20
-324.2430051055213
 30
0.0
 11
570.3514456153531
 21
-324.2430051055213
 31
0.0
  0
LINE
  5
139
330
1F
100
AcDbEntity
  8
5
  6
________________
 62
     7
370
     0
100
AcDbLine
 10
735.9437204044156
 20
-324.2430051055213
 30
0.0
 11
730.4402676606786
 21
-324.2430051055213
 31
0.0
  0
LINE
  5
13A
330
1F
100
AcDbEntity
  8
5
  6
________________
 62
     7
370
     0
100
AcDbLine
 10
585.9437149786071
 20
-324.2430051055213
 30
0.0
 11
580.440277243228
 21
-324.2430051055213
 31
0.0
  0
LINE
  5
13B
330
1F
100
AcDbEntity
  8
5
  6
________________
 62
     7
370
     0
100
AcDbLine
 10
745.9437099453557
 20
-324.2430051055213
 30
0.0
 11
740.4402798181873
 21
-324.2430051055213
 31
0.0
  0
LINE
  5
13C
330
1F
100
AcDbEntity
  8
5
  6
________________
 62
     7
370
     0
100
AcDbLine
 10
748.4655746286134
 20
-324.2430051055213
 30
0.0
 11
747.3514456153531
 21
-324.2430051055213
 31
0.0
  0
LINE
  5
13D
330
1F
100
AcDbEntity
  8
5
  6
________________
 62
     7
370
     0
100
AcDbLine
 10
749.3514456153531
 20
-349.4784054474445
 30
0.0
 11
749.3514456153531
 21
-421.232694731255
 31
0.0
  0
LINE
  5
13E
330
1F
100
AcDbEntity
  8
5
  6
________________
 62
     7
370
     0
100
AcDbLine
 10
770.6514456153532
 20
-320.4236038221642
 30
0.0
 11
770.6514456153532
 21
-313.0054220039824
 31
0.0
  0
LINE
  5
13F
330
1F
100
AcDbEntity
  8
5
  6
________________
 62
     7
370
     0
100
AcDbLine
 10
770.3514456153532
 20
-313.0054220039824
 30
0.0
 11
770.6514456153532
 21
-313.0054220039824
 31
0.0
  0
LINE
  5
140
330
1F
100
AcDbEntity
  8
5
  6
________________
 62
     7
370
     0
100
AcDbLine
 10
770.6514456153532
 20
-320.4599674585278
 30
0.0
 11
770.6514456153532
 21
-320.4470011945421
 31
0.0
  0
LINE
  5
141
330
1F
100
AcDbEntity
  8
5
  6
________________
 62
     7
370
     0
100
AcDbLine
 10
752.4795879614782
 20
-440.0403500920543
 30
0.0
 11
764.3514456153532
 21
-437.7326947312551
 31
0.0
  0
LINE
  5
142
330
1F
100
AcDbEntity
  8
5
  6
________________
 62
     7
370
     0
100
AcDbLine
 10
752.3514456153531
 20
-305.4001310216025
 30
0.0
 11
747.7570582933632
 21
-304.5070725936557
 31
0.0
  0
LINE
  5
143
330
1F
100
AcDbEntity
  8
5
  6
________________
 62
     7
370
     0
100
AcDbLine
 10
751.3514456153531
 20
-423.7326947312552
 30
0.0
 11
751.9288204348146
 21
-423.942841979554
 31
0.0
  0
LINE
  5
144
330
1F
100
AcDbEntity
  8
5
  6
________________
 62
     7
370
     0
100
AcDbLine
 10
627.4899375978273
 20
-437.7326947312552
 30
0.0
 11
654.7831998819041
 21
-437.7326947312552
 31
0.0
  0
LINE
  5
145
330
1F
100
AcDbEntity
  8
5
  6
________________
 62
     7
370
     0
100
AcDbLine
 10
654.7831998819041
 20
-307.7326947312551
 30
0.0
 11
627.4899375978273
 21
-307.7326947312551
 31
0.0
  0
LINE
  5
146
330
1F
100
AcDbEntity
  8
5
  6
________________
 62
     7
370
     0
100
AcDbLine
 10
650.3514456153531
 20
-369.3564417487581
 30
0.0
 11
627.4899375978273
 21
-369.3564417487581
 31
0.0
  0
LINE
  5
147
330
1F
100
AcDbEntity
  8
5
  6
________________
 62
     7
370
     0
100
AcDbLine
 10
627.4899375978274
 20
-376.1089477137521
 30
0.0
 11
650.3514456153532
 21
-376.1089477137521
 31
0.0
  0
LINE
  5
148
330
1F
100
AcDbEntity
  8
5
  6
________________
 62
     7
370
     0
100
AcDbLine
 10
627.4365014125334
 20
-369.3633569072949
 30
0.0
 11
622.7979994235959
 21
-369.5090199631248
 31
0.0
  0
LINE
  5
149
330
1F
100
AcDbEntity
  8
5
  6
________________
 62
     7
370
     0
100
AcDbLine
 10
622.7980005312513
 20
-375.9563698593655
 30
0.0
 11
627.4365025199842
 21
-376.1020329150648
 31
0.0
  0
ARC
  5
14A
330
1F
100
AcDbEntity
  8
5
  6
________________
 62
     7
370
     0
100
AcDbCircle
 10
622.8514456153531
 20
-370.0021022708012
 30
0.0
 40
0.4999999999999998
100
AcDbArc
 50
91.7986456190633
 51
179.9999999999996
  0
ARC
  5
14B
330
1F
100
AcDbEntity
  8
5
  6
________________
 62
     7
370
     0
100
AcDbCircle
 10
622.8514456153531
 20
-375.4632871917091
 30
0.0
 40
0.5000000000000004
100
AcDbArc
 50
179.9999999999998
 51
268.2013543809367
  0
LINE
  5
14C
330
1F
100
AcDbEntity
  8
5
  6
________________
 62
     7
370
     0
100
AcDbLine
 10
627.4899375978274
 20
-420.8295304465806
 30
0.0
 11
650.3514456153532
 21
-420.8295304465806
 31
0.0
  0
ARC
  5
14D
330
1F
100
AcDbEntity
  8
5
  6
________________
 62
     7
370
     0
100
AcDbCircle
 10
627.4899375978273
 20
-420.3295304465805
 30
0.0
 40
0.4999999999999993
100
AcDbArc
 50
245.9678936976316
 51
270.0000000000064
  0
ARC
  5
14E
330
1F
100
AcDbEntity
  8
5
  6
________________
 62
     7
370
     0
100
AcDbCircle
 10
627.4899375978273
 20
-325.1358590159298
 30
0.0
 40
0.5000000000000004
100
AcDbArc
 50
90.0
 51
114.0321063023626
  0
LINE
  5
14F
330
1F
100
AcDbEntity
  8
5
  6
________________
 62
     7
370
     0
100
AcDbLine
 10
650.3514456153531
 20
-324.6358590159297
 30
0.0
 11
627.4899375978273
 21
-324.6358590159297
 31
0.0
  0
LINE
  5
150
330
1F
100
AcDbEntity
  8
5
  6
________________
 62
     7
370
     0
100
AcDbLine
 10
627.2859737459731
 20
-324.6793530291428
 30
0.0
 11
622.6474813387197
 21
-326.7476609558522
 31
0.0
  0
LINE
  5
151
330
1F
100
AcDbEntity
  8
5
  6
________________
 62
     7
370
     0
100
AcDbLine
 10
622.6474813387197
 20
-418.7177285066581
 30
0.0
 11
627.2859737459733
 21
-420.7860364333676
 31
0.0
  0
ARC
  5
152
330
1F
100
AcDbEntity
  8
5
  6
________________
 62
     7
370
     0
100
AcDbCircle
 10
622.8514456153531
 20
-327.2041667531603
 30
0.0
 40
0.4999999999999963
100
AcDbArc
 50
114.0321653577431
 51
180.0000000000119
  0
ARC
  5
153
330
1F
100
AcDbEntity
  8
5
  6
________________
 62
     7
370
     0
100
AcDbCircle
 10
622.8514456153531
 20
-418.26122270935
 30
0.0
 40
0.5000000000000004
100
AcDbArc
 50
180.0
 51
245.9678346422533
  0
LINE
  5
154
330
1F
100
AcDbEntity
  8
5
  6
________________
 62
     7
370
     0
100
AcDbLine
 10
622.360691961896
 20
-335.3958036046099
 30
0.0
 11
622.3516097096156
 21
-335.4167725740483
 31
0.0
  0
LINE
  5
155
330
1F
100
AcDbEntity
  8
5
  6
________________
 62
     7
370
     0
100
AcDbLine
 10
622.3515797378662
 20
-410.0485538707945
 30
0.0
 11
622.3606919618959
 21
-410.0695858579003
 31
0.0
  0
ARC
  5
156
330
1F
100
AcDbEntity
  8
5
  6
________________
 62
     7
370
     0
100
AcDbCircle
 10
627.4899375978273
 20
-437.232694731255
 30
0.0
 40
0.4999999999999937
100
AcDbArc
 50
239.0362434679314
 51
270.0
  0
ARC
  5
157
330
1F
100
AcDbEntity
  8
5
  6
________________
 62
     7
370
     0
100
AcDbCircle
 10
627.4899375978273
 20
-308.2326947312552
 30
0.0
 40
0.5000000000000004
100
AcDbArc
 50
90.0
 51
120.9637565320686
  0
LINE
  5
158
330
1F
100
AcDbEntity
  8
5
  6
________________
 62
     7
370
     0
100
AcDbLine
 10
627.2326897201136
 20
-307.8039482683989
 30
0.0
 11
622.5941977376393
 21
-310.5870434578833
 31
0.0
  0
LINE
  5
159
330
1F
100
AcDbEntity
  8
5
  6
________________
 62
     7
370
     0
100
AcDbLine
 10
622.5941977376394
 20
-434.8783460046269
 30
0.0
 11
627.2326897201137
 21
-437.6614411941115
 31
0.0
  0
ARC
  5
15A
330
1F
100
AcDbEntity
  8
5
  6
________________
 62
     7
370
     0
100
AcDbCircle
 10
622.8514456153531
 20
-311.0157899207396
 30
0.0
 40
0.4999999999999996
100
AcDbArc
 50
120.9637565320684
 51
180.0
  0
ARC
  5
15B
330
1F
100
AcDbEntity
  8
5
  6
________________
 62
     7
370
     0
100
AcDbCircle
 10
622.8514456153531
 20
-434.4495995417706
 30
0.0
 40
0.5000000000000004
100
AcDbArc
 50
180.0
 51
239.0362434679317
  0
LINE
  5
15C
330
1F
100
AcDbEntity
  8
5
  6
________________
 62
     7
370
     0
100
AcDbLine
 10
764.3514456153532
 20
-437.7326947312552
 30
0.0
 11
769.3514456153532
 21
-437.7326947312552
 31
0.0
  0
ARC
  5
15D
330
1F
100
AcDbEntity
  8
5
  6
________________
 62
     7
370
     0
100
AcDbCircle
 10
769.3514456153532
 20
-436.7326947312551
 30
0.0
 40
1.000000000000001
100
AcDbArc
 50
270.0
 51
0.0
  0
LINE
  5
15E
330
1F
100
AcDbEntity
  8
5
  6
________________
 62
     7
370
     0
100
AcDbLine
 10
770.5514456153531
 20
-369.0192972716335
 30
0.0
 11
770.3514456153532
 21
-369.0192972716335
 31
0.0
  0
LINE
  5
15F
330
1F
100
AcDbEntity
  8
5
  6
________________
 62
     7
370
     0
100
AcDbLine
 10
576.0729469509754
 20
-322.512591924764
 30
0.0
 11
575.7629075522266
 21
-324.2431179296838
 31
0.0
  0
LINE
  5
160
330
1F
100
AcDbEntity
  8
5
  6
________________
 62
     7
370
     0
100
AcDbLine
 10
586.072940058848
 20
-322.5128048306701
 30
0.0
 11
585.7629371922048
 21
-324.2431179999297
 31
0.0
  0
LINE
  5
161
330
1F
100
AcDbEntity
  8
5
  6
________________
 62
     7
370
     0
100
AcDbLine
 10
596.072910646178
 20
-322.5131264127213
 30
0.0
 11
595.7648114545924
 21
-324.2328048137675
 31
0.0
  0
LINE
  5
162
330
1F
100
AcDbEntity
  8
5
  6
________________
 62
     7
370
     0
100
AcDbLine
 10
606.0728624312568
 20
-322.5135169717983
 30
0.0
 11
605.7648465232952
 21
-324.2327121174937
 31
0.0
  0
LINE
  5
163
330
1F
100
AcDbEntity
  8
5
  6
________________
 62
     7
370
     0
100
AcDbLine
 10
616.0727687578368
 20
-322.5141120622918
 30
0.0
 11
615.7648575608367
 21
-324.2327027056052
 31
0.0
  0
LINE
  5
164
330
1F
100
AcDbEntity
  8
5
  6
________________
 62
     7
370
     0
100
AcDbLine
 10
656.072479759321
 20
-322.515456597615
 30
0.0
 11
655.7647818659213
 21
-324.2328039973502
 31
0.0
  0
LINE
  5
165
330
1F
100
AcDbEntity
  8
5
  6
________________
 62
     7
370
     0
100
AcDbLine
 10
666.072526865091
 20
-322.515023214612
 30
0.0
 11
665.7647515632091
 21
-324.2328039371391
 31
0.0
  0
LINE
  5
166
330
1F
100
AcDbEntity
  8
5
  6
________________
 62
     7
370
     0
100
AcDbLine
 10
676.0724194490228
 20
-322.5154470096139
 30
0.0
 11
675.7647218500067
 21
-324.2328037397534
 31
0.0
  0
LINE
  5
167
330
1F
100
AcDbEntity
  8
5
  6
________________
 62
     7
370
     0
100
AcDbLine
 10
686.0724771743879
 20
-322.5149710103283
 30
0.0
 11
685.7646977070497
 21
-324.2328036865511
 31
0.0
  0
LINE
  5
168
330
1F
100
AcDbEntity
  8
5
  6
________________
 62
     7
370
     0
100
AcDbLine
 10
696.0724648274402
 20
-322.5149430603707
 30
0.0
 11
695.7646856147957
 21
-324.2328035728334
 31
0.0
  0
LINE
  5
169
330
1F
100
AcDbEntity
  8
5
  6
________________
 62
     7
370
     0
100
AcDbLine
 10
706.0726596024767
 20
-322.5138517935987
 30
0.0
 11
705.7646906572392
 21
-324.2328040441989
 31
0.0
  0
LINE
  5
16A
330
1F
100
AcDbEntity
  8
5
  6
________________
 62
     7
370
     0
100
AcDbLine
 10
716.0728023665016
 20
-322.5131445761658
 30
0.0
 11
715.764710035803
 21
-324.2328044284751
 31
0.0
  0
LINE
  5
16B
330
1F
100
AcDbEntity
  8
5
  6
________________
 62
     7
370
     0
100
AcDbLine
 10
726.0729805174117
 20
-322.5122973008836
 30
0.0
 11
725.764737366616
 21
-324.2328047444666
 31
0.0
  0
LINE
  5
16C
330
1F
100
AcDbEntity
  8
5
  6
________________
 62
     7
370
     0
100
AcDbLine
 10
736.0730223975092
 20
-322.5122364437041
 30
0.0
 11
735.7629189304251
 21
-324.2431180775043
 31
0.0
  0
LINE
  5
16D
330
1F
100
AcDbEntity
  8
5
  6
________________
 62
     7
370
     0
100
AcDbLine
 10
746.0730468839604
 20
-322.5122702739368
 30
0.0
 11
745.7629473618381
 21
-324.2431181320511
 31
0.0
  0
LINE
  5
16E
330
1F
100
AcDbEntity
  8
5
  6
________________
 62
     7
370
     0
100
AcDbLine
 10
740.6162457592906
 20
-420.4041833022189
 30
0.0
 11
741.0730601334743
 21
-422.9532766496825
 31
0.0
  0
LINE
  5
16F
330
1F
100
AcDbEntity
  8
5
  6
________________
 62
     7
370
     0
100
AcDbLine
 10
730.616207466168
 20
-420.4041319079823
 30
0.0
 11
731.0730475017901
 21
-422.9533810584555
 31
0.0
  0
LINE
  5
170
330
1F
100
AcDbEntity
  8
5
  6
________________
 62
     7
370
     0
100
AcDbLine
 10
720.6161097767887
 20
-420.4037510884299
 30
0.0
 11
721.0729673139541
 21
-422.953097460761
 31
0.0
  0
LINE
  5
171
330
1F
100
AcDbEntity
  8
5
  6
________________
 62
     7
370
     0
100
AcDbLine
 10
710.6159469619246
 20
-420.4029825475486
 30
0.0
 11
711.072806099055
 21
-422.9523204156958
 31
0.0
  0
LINE
  5
172
330
1F
100
AcDbEntity
  8
5
  6
________________
 62
     7
370
     0
100
AcDbLine
 10
700.6157711122733
 20
-420.4020859662609
 30
0.0
 11
701.0726115906689
 21
-422.9512815766919
 31
0.0
  0
LINE
  5
173
330
1F
100
AcDbEntity
  8
5
  6
________________
 62
     7
370
     0
100
AcDbLine
 10
690.6156971463491
 20
-420.4016688371639
 30
0.0
 11
691.0725115229218
 21
-422.9506682703761
 31
0.0
  0
LINE
  5
174
330
1F
100
AcDbEntity
  8
5
  6
________________
 62
     7
370
     0
100
AcDbLine
 10
680.6192065703506
 20
-420.4210176865197
 30
0.0
 11
681.0765088371113
 21
-422.9727020302169
 31
0.0
  0
LINE
  5
175
330
1F
100
AcDbEntity
  8
5
  6
________________
 62
     7
370
     0
100
AcDbLine
 10
670.6157538185839
 20
-420.4017448189003
 30
0.0
 11
671.0725104009078
 21
-422.9503632631684
 31
0.0
  0
LINE
  5
176
330
1F
100
AcDbEntity
  8
5
  6
________________
 62
     7
370
     0
100
AcDbLine
 10
660.6188150434785
 20
-420.4185468407462
 30
0.0
 11
661.076076643889
 21
-422.9699742038821
 31
0.0
  0
LINE
  5
177
330
1F
100
AcDbEntity
  8
5
  6
________________
 62
     7
370
     0
100
AcDbLine
 10
620.6181024265117
 20
-420.4142014890841
 30
0.0
 11
621.0753040650463
 21
-422.9653587315601
 31
0.0
  0
LINE
  5
178
330
1F
100
AcDbEntity
  8
5
  6
________________
 62
     7
370
     0
100
AcDbLine
 10
610.6161665028042
 20
-420.403465287994
 30
0.0
 11
611.072845861946
 21
-422.9517372234411
 31
0.0
  0
LINE
  5
179
330
1F
100
AcDbEntity
  8
5
  6
________________
 62
     7
370
     0
100
AcDbLine
 10
600.6179523311704
 20
-420.4134616867602
 30
0.0
 11
601.0751808917787
 21
-422.9648271637449
 31
0.0
  0
LINE
  5
17A
330
1F
100
AcDbEntity
  8
5
  6
________________
 62
     7
370
     0
100
AcDbLine
 10
590.6162016536351
 20
-420.4038465699225
 30
0.0
 11
591.0729342828673
 21
-422.9524702773918
 31
0.0
  0
LINE
  5
17B
330
1F
100
AcDbEntity
  8
5
  6
________________
 62
     7
370
     0
100
AcDbLine
 10
580.6177914801435
 20
-420.4128382859218
 30
0.0
 11
581.0750772589413
 21
-422.9645665438897
 31
0.0
  0
LINE
  5
17C
330
1F
100
AcDbEntity
  8
5
  6
________________
 62
     7
370
     0
100
AcDbLine
 10
579.8515364061126
 20
-321.7336218719448
 30
0.0
 11
576.3515364061218
 21
-321.7336138115163
 31
0.0
  0
LINE
  5
17D
330
1F
100
AcDbEntity
  8
5
  6
________________
 62
     7
370
     0
100
AcDbLine
 10
589.8515345296379
 20
-321.7335147918511
 30
0.0
 11
586.3515345296478
 21
-321.7335067314057
 31
0.0
  0
LINE
  5
17E
330
1F
100
AcDbEntity
  8
5
  6
________________
 62
     7
370
     0
100
AcDbLine
 10
599.8516606622512
 20
-321.7333662379458
 30
0.0
 11
596.351660662261
 21
-321.7333581774769
 31
0.0
  0
LINE
  5
17F
330
1F
100
AcDbEntity
  8
5
  6
________________
 62
     7
370
     0
100
AcDbLine
 10
609.8512050247548
 20
-321.7331903223449
 30
0.0
 11
606.3512050247633
 21
-321.7331822618483
 31
0.0
  0
LINE
  5
180
330
1F
100
AcDbEntity
  8
5
  6
________________
 62
     7
370
     0
100
AcDbLine
 10
619.8520104224941
 20
-321.7330194314155
 30
0.0
 11
616.3520104225034
 21
-321.7330113708918
 31
0.0
  0
LINE
  5
181
330
1F
100
AcDbEntity
  8
5
  6
________________
 62
     7
370
     0
100
AcDbLine
 10
659.851638846553
 20
-321.7328895191989
 30
0.0
 11
656.3516388465629
 21
-321.7328814586547
 31
0.0
  0
LINE
  5
182
330
1F
100
AcDbEntity
  8
5
  6
________________
 62
     7
370
     0
100
AcDbLine
 10
669.8517500107673
 20
-321.7330460797113
 30
0.0
 11
666.3517500107768
 21
-321.733038019192
 31
0.0
  0
LINE
  5
183
330
1F
100
AcDbEntity
  8
5
  6
________________
 62
     7
370
     0
100
AcDbLine
 10
679.8513656558001
 20
-321.7332264328483
 30
0.0
 11
676.3513656558094
 21
-321.7332183723573
 31
0.0
  0
LINE
  5
184
330
1F
100
AcDbEntity
  8
5
  6
________________
 62
     7
370
     0
100
AcDbLine
 10
689.8518296145505
 20
-321.7333953640652
 30
0.0
 11
686.3518296145597
 21
-321.733387303601
 31
0.0
  0
LINE
  5
185
330
1F
100
AcDbEntity
  8
5
  6
________________
 62
     7
370
     0
100
AcDbLine
 10
699.8513775548288
 20
-321.7335397376629
 30
0.0
 11
696.3513775548382
 21
-321.7335316772214
 31
0.0
  0
LINE
  5
186
330
1F
100
AcDbEntity
  8
5
  6
________________
 62
     7
370
     0
100
AcDbLine
 10
709.8512856112953
 20
-321.7336377258105
 30
0.0
 11
706.3512856113047
 21
-321.7336296653846
 31
0.0
  0
LINE
  5
187
330
1F
100
AcDbEntity
  8
5
  6
________________
 62
     7
370
     0
100
AcDbLine
 10
719.8515393973393
 20
-321.7336788754338
 30
0.0
 11
716.3515393973485
 21
-321.7336708150145
 31
0.0
  0
LINE
  5
188
330
1F
100
AcDbEntity
  8
5
  6
________________
 62
     7
370
     0
100
AcDbLine
 10
729.8514872558317
 20
-321.7336620144115
 30
0.0
 11
726.351487255841
 21
-321.7336539539895
 31
0.0
  0
LINE
  5
189
330
1F
100
AcDbEntity
  8
5
  6
________________
 62
     7
370
     0
100
AcDbLine
 10
739.8516969605894
 20
-321.7335882473388
 30
0.0
 11
736.3516969605986
 21
-321.7335801869051
 31
0.0
  0
LINE
  5
18A
330
1F
100
AcDbEntity
  8
5
  6
________________
 62
     7
370
     0
100
AcDbLine
 10
747.3514456431838
 20
-321.7399781527441
 30
0.0
 11
746.3767997978348
 21
-321.7399759084347
 31
0.0
  0
LINE
  5
18B
330
1F
100
AcDbEntity
  8
5
  6
________________
 62
     7
370
     0
100
AcDbLine
 10
741.3521133451954
 20
-423.7318612539552
 30
0.0
 11
744.852113345186
 21
-423.7318531935134
 31
0.0
  0
LINE
  5
18C
330
1F
100
AcDbEntity
  8
5
  6
________________
 62
     7
370
     0
100
AcDbLine
 10
731.3516355259934
 20
-423.731765571166
 30
0.0
 11
734.8516355259842
 21
-423.7317575107392
 31
0.0
  0
LINE
  5
18D
330
1F
100
AcDbEntity
  8
5
  6
________________
 62
     7
370
     0
100
AcDbLine
 10
721.3515677511352
 20
-423.7317195972736
 30
0.0
 11
724.8515677511259
 21
-423.7317115368541
 31
0.0
  0
LINE
  5
18E
330
1F
100
AcDbEntity
  8
5
  6
________________
 62
     7
370
     0
100
AcDbLine
 10
711.3514378841534
 20
-423.7317323215146
 30
0.0
 11
714.851437884144
 21
-423.7317242610931
 31
0.0
  0
LINE
  5
18F
330
1F
100
AcDbEntity
  8
5
  6
________________
 62
     7
370
     0
100
AcDbLine
 10
701.3524073298847
 20
-423.7317993436968
 30
0.0
 11
704.8524073298755
 21
-423.7317912832647
 31
0.0
  0
LINE
  5
190
330
1F
100
AcDbEntity
  8
5
  6
________________
 62
     7
370
     0
100
AcDbLine
 10
691.3516744720255
 20
-423.7319258417164
 30
0.0
 11
694.8516744720163
 21
-423.7319177812643
 31
0.0
  0
LINE
  5
191
330
1F
100
AcDbEntity
  8
5
  6
________________
 62
     7
370
     0
100
AcDbLine
 10
681.3514142909472
 20
-423.7320836048382
 30
0.0
 11
684.8514142909379
 21
-423.7320755443612
 31
0.0
  0
LINE
  5
192
330
1F
100
AcDbEntity
  8
5
  6
________________
 62
     7
370
     0
100
AcDbLine
 10
671.3518244005022
 20
-423.7322633501174
 30
0.0
 11
674.851824400493
 21
-423.7322552896119
 31
0.0
  0
LINE
  5
193
330
1F
100
AcDbEntity
  8
5
  6
________________
 62
     7
370
     0
100
AcDbLine
 10
661.3511703646577
 20
-423.7324301161708
 30
0.0
 11
664.8511703646485
 21
-423.7324220556389
 31
0.0
  0
LINE
  5
194
330
1F
100
AcDbEntity
  8
5
  6
________________
 62
     7
370
     0
100
AcDbLine
 10
654.7831998819041
 20
-423.7325596090663
 30
0.0
 11
654.8520384385534
 21
-423.7325594505301
 31
0.0
  0
LINE
  5
195
330
1F
100
AcDbEntity
  8
5
  6
________________
 62
     7
370
     0
100
AcDbLine
 10
621.3514771141723
 20
-423.7324631773274
 30
0.0
 11
622.3514456153531
 21
-423.7324608743893
 31
0.0
  0
LINE
  5
196
330
1F
100
AcDbEntity
  8
5
  6
________________
 62
     7
370
     0
100
AcDbLine
 10
611.3514275140267
 20
-423.7322965391779
 30
0.0
 11
614.8514275140174
 21
-423.7322884786672
 31
0.0
  0
LINE
  5
197
330
1F
100
AcDbEntity
  8
5
  6
________________
 62
     7
370
     0
100
AcDbLine
 10
601.3516745902058
 20
-423.7321164998547
 30
0.0
 11
604.8516745901967
 21
-423.7321084393726
 31
0.0
  0
LINE
  5
198
330
1F
100
AcDbEntity
  8
5
  6
________________
 62
     7
370
     0
100
AcDbLine
 10
591.3513347448126
 20
-423.7319535637637
 30
0.0
 11
594.8513347448027
 21
-423.7319455033071
 31
0.0
  0
LINE
  5
199
330
1F
100
AcDbEntity
  8
5
  6
________________
 62
     7
370
     0
100
AcDbLine
 10
581.3517240776291
 20
-423.7318221176587
 30
0.0
 11
584.8517240776196
 21
-423.731814057223
 31
0.0
  0
LINE
  5
19A
330
1F
100
AcDbEntity
  8
5
  6
________________
 62
     7
370
     0
100
AcDbLine
 10
571.3514722524942
 20
-423.7317417825464
 30
0.0
 11
574.8514722524848
 21
-423.7317337221233
 31
0.0
  0
LINE
  5
19B
330
1F
100
AcDbEntity
  8
5
  6
________________
 62
     7
370
     0
100
AcDbLine
 10
580.587454834169
 20
-325.0639518198601
 30
0.0
 11
580.1303103717509
 21
-322.5129797429431
 31
0.0
  0
LINE
  5
19C
330
1F
100
AcDbEntity
  8
5
  6
________________
 62
     7
370
     0
100
AcDbLine
 10
590.5852654198187
 20
-325.0517580431065
 30
0.0
 11
590.127898390289
 21
-322.4995996589857
 31
0.0
  0
LINE
  5
19D
330
1F
100
AcDbEntity
  8
5
  6
________________
 62
     7
370
     0
100
AcDbLine
 10
600.5867626441647
 20
-325.0601396520492
 30
0.0
 11
600.1302958179043
 21
-322.5130332768024
 31
0.0
  0
LINE
  5
19E
330
1F
100
AcDbEntity
  8
5
  6
________________
 62
     7
370
     0
100
AcDbLine
 10
610.585870436496
 20
-325.0553194358039
 30
0.0
 11
610.1285591733964
 21
-322.5035378529608
 31
0.0
  0
LINE
  5
19F
330
1F
100
AcDbEntity
  8
5
  6
________________
 62
     7
370
     0
100
AcDbLine
 10
620.5870482195768
 20
-325.0620275308928
 30
0.0
 11
620.1301568055432
 21
-322.5125957682502
 31
0.0
  0
LINE
  5
1A0
330
1F
100
AcDbEntity
  8
5
  6
________________
 62
     7
370
     0
100
AcDbLine
 10
660.5870448149298
 20
-325.062482149961
 30
0.0
 11
660.1302519044958
 21
-322.5135477164601
 31
0.0
  0
LINE
  5
1A1
330
1F
100
AcDbEntity
  8
5
  6
________________
 62
     7
370
     0
100
AcDbLine
 10
670.5866913051901
 20
-325.060513893364
 30
0.0
 11
670.129529547284
 21
-322.5094929432544
 31
0.0
  0
LINE
  5
1A2
330
1F
100
AcDbEntity
  8
5
  6
________________
 62
     7
370
     0
100
AcDbLine
 10
680.5869137772088
 20
-325.061700635899
 30
0.0
 11
680.130098671168
 21
-322.5125839506297
 31
0.0
  0
LINE
  5
1A3
330
1F
100
AcDbEntity
  8
5
  6
________________
 62
     7
370
     0
100
AcDbLine
 10
690.5868443308746
 20
-325.0612108414396
 30
0.0
 11
690.1296849341414
 21
-322.5101458160991
 31
0.0
  0
LINE
  5
1A4
330
1F
100
AcDbEntity
  8
5
  6
________________
 62
     7
370
     0
100
AcDbLine
 10
700.5868659681691
 20
-325.0611905446767
 30
0.0
 11
700.1300139574332
 21
-322.5118193643123
 31
0.0
  0
LINE
  5
1A5
330
1F
100
AcDbEntity
  8
5
  6
________________
 62
     7
370
     0
100
AcDbLine
 10
710.5869615565467
 20
-325.0615607848471
 30
0.0
 11
710.130053622843
 21
-322.5118657810631
 31
0.0
  0
LINE
  5
1A6
330
1F
100
AcDbEntity
  8
5
  6
________________
 62
     7
370
     0
100
AcDbLine
 10
720.5870183792075
 20
-325.0617143254507
 30
0.0
 11
720.1301273893592
 21
-322.5121151120683
 31
0.0
  0
LINE
  5
1A7
330
1F
100
AcDbEntity
  8
5
  6
________________
 62
     7
370
     0
100
AcDbLine
 10
730.5876458289257
 20
-325.0650763177668
 30
0.0
 11
730.1303242690493
 21
-322.5130950157108
 31
0.0
  0
LINE
  5
1A8
330
1F
100
AcDbEntity
  8
5
  6
________________
 62
     7
370
     0
100
AcDbLine
 10
740.5877890591917
 20
-325.065795310062
 30
0.0
 11
740.1305050377292
 21
-322.5140630833424
 31
0.0
  0
LINE
  5
1A9
330
1F
100
AcDbEntity
  8
5
  6
________________
 62
     7
370
     0
100
AcDbLine
 10
745.1305575980923
 20
-422.9510142885642
 30
0.0
 11
745.4384309468259
 21
-421.2325857851959
 31
0.0
  0
LINE
  5
1AA
330
1F
100
AcDbEntity
  8
5
  6
________________
 62
     7
370
     0
100
AcDbLine
 10
735.1303735499179
 20
-422.9520521956064
 30
0.0
 11
735.438426981271
 21
-421.2325853510646
 31
0.0
  0
LINE
  5
1AB
330
1F
100
AcDbEntity
  8
5
  6
________________
 62
     7
370
     0
100
AcDbLine
 10
725.1301859493592
 20
-422.9530146276596
 30
0.0
 11
725.4384083826333
 21
-421.2325849356712
 31
0.0
  0
LINE
  5
1AC
330
1F
100
AcDbEntity
  8
5
  6
________________
 62
     7
370
     0
100
AcDbLine
 10
715.1300853054059
 20
-422.9534314043244
 30
0.0
 11
715.4383812486102
 21
-421.2325846766365
 31
0.0
  0
LINE
  5
1AD
330
1F
100
AcDbEntity
  8
5
  6
________________
 62
     7
370
     0
100
AcDbLine
 10
705.1300603020951
 20
-422.9533986935777
 30
0.0
 11
705.4383510232323
 21
-421.232584551298
 31
0.0
  0
LINE
  5
1AE
330
1F
100
AcDbEntity
  8
5
  6
________________
 62
     7
370
     0
100
AcDbLine
 10
695.1300854909643
 20
-422.9530865631004
 30
0.0
 11
695.4383222732255
 21
-421.2325845236598
 31
0.0
  0
LINE
  5
1AF
330
1F
100
AcDbEntity
  8
5
  6
________________
 62
     7
370
     0
100
AcDbLine
 10
685.1301455759872
 20
-422.952603128518
 30
0.0
 11
685.4382986372182
 21
-421.2325845700428
 31
0.0
  0
LINE
  5
1B0
330
1F
100
AcDbEntity
  8
5
  6
________________
 62
     7
370
     0
100
AcDbLine
 10
675.1302250113986
 20
-422.952052435389
 30
0.0
 11
675.4382827982787
 21
-421.2325846683012
 31
0.0
  0
LINE
  5
1B1
330
1F
100
AcDbEntity
  8
5
  6
________________
 62
     7
370
     0
100
AcDbLine
 10
665.1303161723521
 20
-422.9514886420735
 30
0.0
 11
665.4382764468697
 21
-421.2325848039847
 31
0.0
  0
LINE
  5
1B2
330
1F
100
AcDbEntity
  8
5
  6
________________
 62
     7
370
     0
100
AcDbLine
 10
655.1304080410017
 20
-422.9509790546918
 30
0.0
 11
655.4382802649799
 21
-421.232584959969
 31
0.0
  0
LINE
  5
1B3
330
1F
100
AcDbEntity
  8
5
  6
________________
 62
     7
370
     0
100
AcDbLine
 10
615.1304691014961
 20
-422.9511405402586
 30
0.0
 11
615.4383747584877
 21
-421.2325854212858
 31
0.0
  0
LINE
  5
1B4
330
1F
100
AcDbEntity
  8
5
  6
________________
 62
     7
370
     0
100
AcDbLine
 10
605.1303678005755
 20
-422.9518782842914
 30
0.0
 11
605.4384034232503
 21
-421.2325854551889
 31
0.0
  0
LINE
  5
1B5
330
1F
100
AcDbEntity
  8
5
  6
________________
 62
     7
370
     0
100
AcDbLine
 10
595.1302991296878
 20
-422.9524018065789
 30
0.0
 11
595.438424606456
 21
-421.2325855199114
 31
0.0
  0
LINE
  5
1B6
330
1F
100
AcDbEntity
  8
5
  6
________________
 62
     7
370
     0
100
AcDbLine
 10
585.1302988069657
 20
-422.9524759632492
 30
0.0
 11
585.4384318105359
 21
-421.2325855357556
 31
0.0
  0
LINE
  5
1B7
330
1F
100
AcDbEntity
  8
5
  6
________________
 62
     7
370
     0
100
AcDbLine
 10
575.1303307229608
 20
-422.9522686667452
 30
0.0
 11
575.43842142339
 21
-421.2325852479929
 31
0.0
  0
LINE
  5
1B8
330
1F
100
AcDbEntity
  8
5
  6
________________
 62
     7
370
     0
100
AcDbLine
 10
575.2923481109946
 20
-421.2326947312551
 30
0.0
 11
580.7647749957088
 21
-421.2326947312551
 31
0.0
  0
LINE
  5
1B9
330
1F
100
AcDbEntity
  8
5
  6
________________
 62
     7
370
     0
100
AcDbLine
 10
570.3514456153531
 20
-421.2326947312551
 30
0.0
 11
571.3514456153531
 21
-421.2326947312551
 31
0.0
  0
LINE
  5
1BA
330
1F
100
AcDbEntity
  8
5
  6
________________
 62
     7
370
     0
100
AcDbLine
 10
735.292346185285
 20
-421.2326947312551
 30
0.0
 11
740.7647822605767
 21
-421.2326947312551
 31
0.0
  0
LINE
  5
1BB
330
1F
100
AcDbEntity
  8
5
  6
________________
 62
     7
370
     0
100
AcDbLine
 10
725.2923113156629
 20
-421.2326947312551
 30
0.0
 11
730.7647523776574
 21
-421.2326947312551
 31
0.0
  0
LINE
  5
1BC
330
1F
100
AcDbEntity
  8
5
  6
________________
 62
     7
370
     0
100
AcDbLine
 10
715.292354211549
 20
-421.2326947312551
 30
0.0
 11
720.7647229167118
 21
-421.2326947312551
 31
0.0
  0
LINE
  5
1BD
330
1F
100
AcDbEntity
  8
5
  6
________________
 62
     7
370
     0
100
AcDbLine
 10
705.2923455140174
 20
-421.2326947312551
 30
0.0
 11
710.7646988340625
 21
-421.2326947312551
 31
0.0
  0
LINE
  5
1BE
330
1F
100
AcDbEntity
  8
5
  6
________________
 62
     7
370
     0
100
AcDbLine
 10
695.2923135997283
 20
-421.2326947312551
 30
0.0
 11
700.764685855332
 21
-421.2326947312551
 31
0.0
  0
LINE
  5
1BF
330
1F
100
AcDbEntity
  8
5
  6
________________
 62
     7
370
     0
100
AcDbLine
 10
685.2922811480898
 20
-421.2326947312551
 30
0.0
 11
690.7646896721991
 21
-421.2326947312551
 31
0.0
  0
LINE
  5
1C0
330
1F
100
AcDbEntity
  8
5
  6
________________
 62
     7
370
     0
100
AcDbLine
 10
675.2922533933069
 20
-421.2326947312551
 30
0.0
 11
680.7647302282152
 21
-421.2326947312551
 31
0.0
  0
LINE
  5
1C1
330
1F
100
AcDbEntity
  8
5
  6
________________
 62
     7
370
     0
100
AcDbLine
 10
665.2922381131311
 20
-421.2326947312551
 30
0.0
 11
670.7647363119171
 21
-421.2326947312551
 31
0.0
  0
LINE
  5
1C2
330
1F
100
AcDbEntity
  8
5
  6
________________
 62
     7
370
     0
100
AcDbLine
 10
655.2922292633476
 20
-421.2326947312551
 30
0.0
 11
660.7647838360463
 21
-421.2326947312551
 31
0.0
  0
LINE
  5
1C3
330
1F
100
AcDbEntity
  8
5
  6
________________
 62
     7
370
     0
100
AcDbLine
 10
615.2922463534999
 20
-421.2326947312551
 30
0.0
 11
620.7648473055253
 21
-421.2326947312551
 31
0.0
  0
LINE
  5
1C4
330
1F
100
AcDbEntity
  8
5
  6
________________
 62
     7
370
     0
100
AcDbLine
 10
605.2922750212309
 20
-421.2326947312551
 30
0.0
 11
610.7648240103134
 21
-421.2326947312551
 31
0.0
  0
LINE
  5
1C5
330
1F
100
AcDbEntity
  8
5
  6
________________
 62
     7
370
     0
100
AcDbLine
 10
595.2923157117136
 20
-421.2326947312551
 30
0.0
 11
600.7648266106389
 21
-421.2326947312551
 31
0.0
  0
LINE
  5
1C6
330
1F
100
AcDbEntity
  8
5
  6
________________
 62
     7
370
     0
100
AcDbLine
 10
585.2923012647933
 20
-421.2326947312551
 30
0.0
 11
590.7647993864789
 21
-421.2326947312551
 31
0.0
  0
LINE
  5
1C7
330
1F
100
AcDbEntity
  8
5
  6
________________
 62
     7
370
     0
100
AcDbLine
 10
595.9108200781227
 20
-324.2326947312552
 30
0.0
 11
590.4384233871803
 21
-324.2326947312552
 31
0.0
  0
LINE
  5
1C8
330
1F
100
AcDbEntity
  8
5
  6
________________
 62
     7
370
     0
100
AcDbLine
 10
605.9108384032278
 20
-324.2326947312552
 30
0.0
 11
600.4384151210895
 21
-324.2326947312552
 31
0.0
  0
LINE
  5
1C9
330
1F
100
AcDbEntity
  8
5
  6
________________
 62
     7
370
     0
100
AcDbLine
 10
615.9108734071065
 20
-324.2326947312552
 30
0.0
 11
610.4383855734346
 21
-324.2326947312552
 31
0.0
  0
LINE
  5
1CA
330
1F
100
AcDbEntity
  8
5
  6
________________
 62
     7
370
     0
100
AcDbLine
 10
622.351445615353
 20
-324.2326947312552
 30
0.0
 11
620.4383593571697
 21
-324.2326947312552
 31
0.0
  0
LINE
  5
1CB
330
1F
100
AcDbEntity
  8
5
  6
________________
 62
     7
370
     0
100
AcDbLine
 10
655.9108798272665
 20
-324.2326947312552
 30
0.0
 11
654.783199881904
 21
-324.2326947312552
 31
0.0
  0
LINE
  5
1CC
330
1F
100
AcDbEntity
  8
5
  6
________________
 62
     7
370
     0
100
AcDbLine
 10
665.9108737272312
 20
-324.2326947312552
 30
0.0
 11
660.4382771471418
 21
-324.2326947312552
 31
0.0
  0
LINE
  5
1CD
330
1F
100
AcDbEntity
  8
5
  6
________________
 62
     7
370
     0
100
AcDbLine
 10
675.9108561350702
 20
-324.2326947312552
 30
0.0
 11
670.4382784442646
 21
-324.2326947312552
 31
0.0
  0
LINE
  5
1CE
330
1F
100
AcDbEntity
  8
5
  6
________________
 62
     7
370
     0
100
AcDbLine
 10
685.9108191475549
 20
-324.2326947312552
 30
0.0
 11
680.4382896586559
 21
-324.2326947312552
 31
0.0
  0
LINE
  5
1CF
330
1F
100
AcDbEntity
  8
5
  6
________________
 62
     7
370
     0
100
AcDbLine
 10
695.9107897865036
 20
-324.2326947312552
 30
0.0
 11
690.4383097693321
 21
-324.2326947312552
 31
0.0
  0
LINE
  5
1D0
330
1F
100
AcDbEntity
  8
5
  6
________________
 62
     7
370
     0
100
AcDbLine
 10
705.9107609067669
 20
-324.2326947312552
 30
0.0
 11
700.4383362353515
 21
-324.2326947312552
 31
0.0
  0
LINE
  5
1D1
330
1F
100
AcDbEntity
  8
5
  6
________________
 62
     7
370
     0
100
AcDbLine
 10
715.910758814684
 20
-324.2326947312552
 30
0.0
 11
710.4383661795954
 21
-324.2326947312552
 31
0.0
  0
LINE
  5
1D2
330
1F
100
AcDbEntity
  8
5
  6
________________
 62
     7
370
     0
100
AcDbLine
 10
725.9107816835439
 20
-324.2326947312552
 30
0.0
 11
720.4383954928172
 21
-324.2326947312552
 31
0.0
  0
LINE
  5
1D3
330
1F
100
AcDbEntity
  8
5
  6
________________
 62
     7
370
     0
100
AcDbLine
 10
745.2923254893909
 20
-421.2326947312551
 30
0.0
 11
749.3514456153531
 21
-421.2326947312551
 31
0.0
  0
LINE
  5
1D4
330
1F
100
AcDbEntity
  8
5
  6
________________
 62
     7
370
     0
100
AcDbLine
 10
749.3514456153531
 20
-420.9326947312551
 30
0.0
 11
751.3514456153531
 21
-420.9326947312551
 31
0.0
  0
LINE
  5
1D5
330
1F
100
AcDbEntity
  8
5
  6
________________
 62
     7
370
     0
100
AcDbLine
 10
770.3514456153532
 20
-320.4236038221642
 30
0.0
 11
770.6514456153532
 21
-320.4236038221642
 31
0.0
  0
LINE
  5
1D6
330
1F
100
AcDbEntity
  8
5
  6
________________
 62
     7
370
     0
100
AcDbLine
 10
770.3514456153532
 20
-320.4599674585278
 30
0.0
 11
770.6514456153532
 21
-320.4599674585278
 31
0.0
  0
LINE
  5
1D7
330
1F
100
AcDbEntity
  8
5
  6
________________
 62
     7
370
     0
100
AcDbLine
 10
770.6514456153532
 20
-320.4236038221642
 30
0.0
 11
770.6889456153532
 21
-320.4236038221642
 31
0.0
  0
LINE
  5
1D8
330
1F
100
AcDbEntity
  8
5
  6
________________
 62
     7
370
     0
100
AcDbLine
 10
770.6889456153532
 20
-313.0054220039824
 30
0.0
 11
770.6514456153532
 21
-313.0054220039824
 31
0.0
  0
LINE
  5
1D9
330
1F
100
AcDbEntity
  8
5
  6
________________
 62
     7
370
     0
100
AcDbLine
 10
878.5002427970694
 20
-307.7403874941674
 30
0.0
 11
878.5002427970694
 21
-305.4075572585813
 31
0.0
  0
ARC
  5
1DA
330
1F
100
AcDbEntity
  8
5
  6
________________
 62
     7
370
     0
100
AcDbCircle
 10
-877.5002427970694
 20
-372.7326947312552
 30
0.0
 40
67.33256370965258
210
0.0
220
0.0
230
-1.0
100
AcDbArc
 50
89.14903157002325
 51
90.85096842997675
  0
LINE
  5
1DB
330
1F
100
AcDbEntity
  8
5
  6
________________
 62
     7
370
     0
100
AcDbLine
 10
876.5002427970694
 20
-307.7403874941674
 30
0.0
 11
876.5002427970694
 21
-305.4075572585813
 31
0.0
  0
ARC
  5
1DC
330
1F
100
AcDbEntity
  8
5
  6
________________
 62
     7
370
     0
100
AcDbCircle
 10
877.4994234698994
 20
-372.2877716126669
 30
0.0
 40
67.75257848434151
100
AcDbArc
 50
234.7077726504426
 51
270.0006928738351
  0
ARC
  5
1DD
330
1F
100
AcDbEntity
  8
5
  6
________________
 62
     7
370
     0
100
AcDbCircle
 10
877.5078637582081
 20
-372.2756193757094
 30
0.0
 40
67.76737368482405
100
AcDbArc
 50
180.386449790409
 51
234.7078841005298
  0
ARC
  5
1DE
330
1F
100
AcDbEntity
  8
5
  6
________________
 62
     7
370
     0
100
AcDbCircle
 10
877.5037670540461
 20
-372.2726897660513
 30
0.0
 40
67.76329689791524
100
AcDbArc
 50
90.00297985871434
 51
180.3889501647598
  0
ARC
  5
1DF
330
1F
100
AcDbEntity
  8
5
  6
________________
 62
     7
370
     0
100
AcDbCircle
 10
877.4965650775473
 20
-372.2728451921657
 30
0.0
 40
67.7634523321845
100
AcDbArc
 50
359.6111821473097
 51
89.9968903915061
  0
ARC
  5
1E0
330
1F
100
AcDbEntity
  8
5
  6
________________
 62
     7
370
     0
100
AcDbCircle
 10
877.4972251661176
 20
-372.2775899329236
 30
0.0
 40
67.76276022632176
100
AcDbArc
 50
270.0025515123225
 51
359.6151901113849
  0
LINE
  5
1E1
330
1F
100
AcDbEntity
  8
5
  6
________________
 62
     7
370
     0
100
AcDbLine
 10
878.5002427970694
 20
-306.4188477165578
 30
0.0
 11
876.5002427970694
 21
-306.4188477165578
 31
0.0
  0
ARC
  5
1E2
330
1F
100
AcDbEntity
  8
5
  6
________________
 62
     7
370
     0
100
AcDbCircle
 10
877.5002427970694
 20
-372.7326947312552
 30
0.0
 40
64.99999999999994
100
AcDbArc
 50
0.0
 51
89.11849169319404
  0
LINE
  5
1E3
330
1F
100
AcDbEntity
  8
5
  6
________________
 62
     7
370
     0
100
AcDbLine
 10
876.5002427970694
 20
-308.7326947312552
 30
0.0
 11
876.5002427970694
 21
-307.7403874941674
 31
0.0
  0
LINE
  5
1E4
330
1F
100
AcDbEntity
  8
5
  6
________________
 62
     7
370
     0
100
AcDbLine
 10
877.5002427970694
 20
-308.7326947312552
 30
0.0
 11
876.5002427970694
 21
-308.7326947312552
 31
0.0
  0
LINE
  5
1E5
330
1F
100
AcDbEntity
  8
5
  6
________________
 62
     7
370
     0
100
AcDbLine
 10
878.5002427970694
 20
-308.7326947312552
 30
0.0
 11
877.5002427970694
 21
-308.7326947312552
 31
0.0
  0
LINE
  5
1E6
330
1F
100
AcDbEntity
  8
5
  6
________________
 62
     7
370
     0
100
AcDbLine
 10
878.5002427970694
 20
-307.7403874941674
 30
0.0
 11
878.5002427970694
 21
-308.7326947312552
 31
0.0
  0
ARC
  5
1E7
330
1F
100
AcDbEntity
  8
5
  6
________________
 62
     7
370
     0
100
AcDbCircle
 10
877.5002427970694
 20
-372.7326947312552
 30
0.0
 40
65.00000000000003
100
AcDbArc
 50
90.88150830680597
 51
0.0
  0
CIRCLE
  5
1E8
330
1F
100
AcDbEntity
  8
5
  6
________________
 62
     7
370
     0
100
AcDbCircle
 10
877.5002427970694
 20
-372.7326947312552
 30
0.0
 40
44.10000000000003
  0
ARC
  5
1E9
330
1F
100
AcDbEntity
  8
5
  6
________________
 62
     7
370
     0
100
AcDbCircle
 10
877.5002427970694
 20
-372.7326947312552
 30
0.0
 40
38.59999999999997
100
AcDbArc
 50
180.0
 51
0.0
  0
ARC
  5
1EA
330
1F
100
AcDbEntity
  8
5
  6
________________
 62
     7
370
     0
100
AcDbCircle
 10
877.5002427970694
 20
-372.7326947312552
 30
0.0
 40
38.59999999999997
100
AcDbArc
 50
0.0
 51
180.0
  0
MTEXT
  5
1EB
330
1F
100
AcDbEntity
  8
5
 62
     7
100
AcDbMText
 10
739.7831686409176
 20
-454.4075764166606
 30
0.0
 40
6.0
 41
0.0
 46
0.0
 71
     1
 72
     1
  1
{\FＭＳ ゴシック;BMHM-80P}
 73
     1
 44
1.0
  0
ENDSEC
  0
SECTION
  2
OBJECTS
  0
DICTIONARY
  5
C
330
0
100
AcDbDictionary
281
     1
  3
ACAD_GROUP
350
D
  3
ACAD_LAYOUT
350
1A
  3
ACAD_MLEADERSTYLE
350
1ED
  3
ACAD_MLINESTYLE
350
17
  3
ACAD_PLOTSETTINGS
350
19
  3
ACAD_PLOTSTYLENAME
350
E
  3
ACAD_TABLESTYLE
350
1EC
  3
ACAD_VISUALSTYLE
350
2A
  0
DICTIONARY
  5
D
102
{ACAD_REACTORS
330
C
102
}
330
C
100
AcDbDictionary
281
     1
  0
DICTIONARY
  5
1A
102
{ACAD_REACTORS
330
C
102
}
330
C
100
AcDbDictionary
281
     1
  3
Layout1
350
1E
  3
Layout2
350
26
  3
Model
350
22
  0
DICTIONARY
  5
1ED
102
{ACAD_REACTORS
330
C
102
}
330
C
100
AcDbDictionary
281
     1
  0
DICTIONARY
  5
17
102
{ACAD_REACTORS
330
C
102
}
330
C
100
AcDbDictionary
281
     1
  3
Standard
350
18
  0
DICTIONARY
  5
19
102
{ACAD_REACTORS
330
C
102
}
330
C
100
AcDbDictionary
281
     1
  0
ACDBDICTIONARYWDFLT
  5
E
102
{ACAD_REACTORS
330
C
102
}
330
C
100
AcDbDictionary
281
     1
  3
Normal
350
F
100
AcDbDictionaryWithDefault
340
F
  0
DICTIONARY
  5
1EC
102
{ACAD_REACTORS
330
C
102
}
330
C
100
AcDbDictionary
281
     1
  0
DICTIONARY
  5
2A
102
{ACAD_REACTORS
330
C
102
}
330
C
100
AcDbDictionary
281
     1
  3
2dWireframe
350
2F
  3
3D Hidden
350
31
  3
3dWireframe
350
30
  3
Basic
350
32
  3
Brighten
350
36
  3
ColorChange
350
3A
  3
Conceptual
350
34
  3
Dim
350
35
  3
Facepattern
350
39
  3
Flat
350
2B
  3
FlatWithEdges
350
2C
  3
Gouraud
350
2D
  3
GouraudWithEdges
350
2E
  3
Linepattern
350
38
  3
Realistic
350
33
  3
Thicken
350
37
  0
LAYOUT
  5
1E
102
{ACAD_REACTORS
330
1A
102
}
330
1A
100
AcDbPlotSettings
  1

  2
none_device
  4

  6

 40
0.0
 41
0.0
 42
0.0
 43
0.0
 44
0.0
 45
0.0
 46
0.0
 47
0.0
 48
0.0
 49
0.0
140
0.0
141
0.0
142
1.0
143
1.0
 70
   688
 72
     0
 73
     0
 74
     5
  7

 75
    16
 76
     0
 77
     2
 78
   300
147
1.0
148
0.0
149
0.0
100
AcDbLayout
  1
Layout1
 70
     1
 71
     1
 10
0.0
 20
0.0
 11
12.0
 21
9.0
 12
0.0
 22
0.0
 32
0.0
 14
1.000000000000000E+20
 24
1.000000000000000E+20
 34
1.000000000000000E+20
 15
-1.000000000000000E+20
 25
-1.000000000000000E+20
 35
-1.000000000000000E+20
146
0.0
 13
0.0
 23
0.0
 33
0.0
 16
1.0
 26
0.0
 36
0.0
 17
0.0
 27
1.0
 37
0.0
 76
     0
330
1B
  0
LAYOUT
  5
26
102
{ACAD_REACTORS
330
1A
102
}
330
1A
100
AcDbPlotSettings
  1

  2
none_device
  4

  6

 40
0.0
 41
0.0
 42
0.0
 43
0.0
 44
0.0
 45
0.0
 46
0.0
 47
0.0
 48
0.0
 49
0.0
140
0.0
141
0.0
142
1.0
143
1.0
 70
   688
 72
     0
 73
     0
 74
     5
  7

 75
    16
 76
     0
 77
     2
 78
   300
147
1.0
148
0.0
149
0.0
100
AcDbLayout
  1
Layout2
 70
     1
 71
     2
 10
0.0
 20
0.0
 11
0.0
 21
0.0
 12
0.0
 22
0.0
 32
0.0
 14
0.0
 24
0.0
 34
0.0
 15
0.0
 25
0.0
 35
0.0
146
0.0
 13
0.0
 23
0.0
 33
0.0
 16
1.0
 26
0.0
 36
0.0
 17
0.0
 27
1.0
 37
0.0
 76
     0
330
23
  0
LAYOUT
  5
22
102
{ACAD_REACTORS
330
1A
102
}
330
1A
100
AcDbPlotSettings
  1

  2
none_device
  4

  6

 40
0.0
 41
0.0
 42
0.0
 43
0.0
 44
0.0
 45
0.0
 46
0.0
 47
0.0
 48
0.0
 49
0.0
140
0.0
141
0.0
142
1.0
143
1.0
 70
  1712
 72
     0
 73
     0
 74
     0
  7

 75
     0
 76
     0
 77
     2
 78
   300
147
1.0
148
0.0
149
0.0
100
AcDbLayout
  1
Model
 70
     1
 71
     0
 10
0.0
 20
0.0
 11
12.0
 21
9.0
 12
0.0
 22
0.0
 32
0.0
 14
0.0
 24
-459.7257582348424
 34
0.0
 15
945.2600174097319
 25
10.0
 35
10.0
146
0.0
 13
0.0
 23
0.0
 33
0.0
 16
1.0
 26
0.0
 36
0.0
 17
0.0
 27
1.0
 37
0.0
 76
     0
330
1F
331
29
  0
MLINESTYLE
  5
18
102
{ACAD_REACTORS
330
17
102
}
330
17
100
AcDbMlineStyle
  2
Standard
 70
     0
  3

 62
   256
 51
90.0
 52
90.0
 71
     2
 49
0.5
 62
   256
  6
BYLAYER
 49
-0.5
 62
   256
  6
BYLAYER
  0
ACDBPLACEHOLDER
  5
F
102
{ACAD_REACTORS
330
E
102
}
330
E
  0
VISUALSTYLE
  5
2F
102
{ACAD_REACTORS
330
2A
102
}
330
2A
100
AcDbVisualStyle
  2
2dWireframe
 70
     4
 71
     0
 72
     2
 73
     0
 90
        0
 40
-0.6
 41
-30.0
 62
     5
 63
     7
421
 16777215
 74
     1
 91
        4
 64
     7
 65
   257
 75
     1
175
     1
 42
1.0
 92
        0
 66
   257
 43
1.0
 76
     1
 77
     6
 78
     2
 67
     7
 79
     5
170
     0
171
     0
290
     0
174
     0
 93
        1
 44
0.0
173
     0
291
     0
 45
0.0
  0
VISUALSTYLE
  5
31
102
{ACAD_REACTORS
330
2A
102
}
330
2A
100
AcDbVisualStyle
  2
3D Hidden
 70
     6
 71
     1
 72
     2
 73
     2
 90
        0
 40
-0.6
 41
-30.0
 62
     5
 63
     7
421
 16777215
 74
     2
 91
        2
 64
     7
 65
   257
 75
     2
175
     1
 42
40.0
 92
        0
 66
   257
 43
1.0
 76
     1
 77
     6
 78
     2
 67
     7
 79
     3
170
     0
171
     0
290
     0
174
     0
 93
        1
 44
0.0
173
     0
291
     0
 45
0.0
  0
VISUALSTYLE
  5
30
102
{ACAD_REACTORS
330
2A
102
}
330
2A
100
AcDbVisualStyle
  2
3dWireframe
 70
     5
 71
     0
 72
     2
 73
     0
 90
        0
 40
-0.6
 41
-30.0
 62
     5
 63
     7
421
 16777215
 74
     1
 91
        4
 64
     7
 65
   257
 75
     1
175
     1
 42
1.0
 92
        0
 66
   257
 43
1.0
 76
     1
 77
     6
 78
     2
 67
     7
 79
     5
170
     0
171
     0
290
     0
174
     0
 93
        1
 44
0.0
173
     0
291
     0
 45
0.0
  0
VISUALSTYLE
  5
32
102
{ACAD_REACTORS
330
2A
102
}
330
2A
100
AcDbVisualStyle
  2
Basic
 70
     7
 71
     1
 72
     0
 73
     1
 90
        0
 40
-0.6
 41
-30.0
 62
     5
 63
     7
421
 16777215
 74
     0
 91
        4
 64
     7
 65
   257
 75
     1
175
     1
 42
1.0
 92
        8
 66
     7
 43
1.0
 76
     1
 77
     6
 78
     2
 67
     7
 79
     5
170
     0
171
     0
290
     0
174
     0
 93
        1
 44
0.0
173
     0
291
     1
 45
0.0
  0
VISUALSTYLE
  5
36
102
{ACAD_REACTORS
330
2A
102
}
330
2A
100
AcDbVisualStyle
  2
Brighten
 70
    12
 71
     2
 72
     2
 73
     0
 90
        0
 40
-0.6
 41
-30.0
 62
     5
 63
     7
421
 16777215
 74
     1
 91
        4
 64
     7
 65
   257
 75
     1
175
     1
 42
1.0
 92
        8
 66
     7
 43
1.0
 76
     1
 77
     6
 78
     2
 67
     7
 79
     5
170
     0
171
     0
290
     0
174
     0
 93
        1
 44
50.0
173
     0
291
     1
 45
0.0
  0
VISUALSTYLE
  5
3A
102
{ACAD_REACTORS
330
2A
102
}
330
2A
100
AcDbVisualStyle
  2
ColorChange
 70
    16
 71
     2
 72
     2
 73
     3
 90
        0
 40
-0.6
 41
-30.0
 62
     5
 63
     8
421
  8421504
 74
     1
 91
        4
 64
     7
 65
   257
 75
     1
175
     1
 42
1.0
 92
        8
 66
     8
424
  8421504
 43
1.0
 76
     1
 77
     6
 78
     2
 67
     7
 79
     5
170
     0
171
     0
290
     0
174
     0
 93
        1
 44
0.0
173
     0
291
     1
 45
0.0
  0
VISUALSTYLE
  5
34
102
{ACAD_REACTORS
330
2A
102
}
330
2A
100
AcDbVisualStyle
  2
Conceptual
 70
     9
 71
     3
 72
     2
 73
     0
 90
        0
 40
-0.6
 41
-30.0
 62
     5
 63
     7
421
 16777215
 74
     2
 91
        2
 64
     7
 65
   257
 75
     1
175
     1
 42
40.0
 92
        8
 66
     7
 43
1.0
 76
     1
 77
     6
 78
     2
 67
     7
 79
     3
170
     0
171
     0
290
     0
174
     0
 93
        1
 44
0.0
173
     0
291
     0
 45
0.0
  0
VISUALSTYLE
  5
35
102
{ACAD_REACTORS
330
2A
102
}
330
2A
100
AcDbVisualStyle
  2
Dim
 70
    11
 71
     2
 72
     2
 73
     0
 90
        0
 40
-0.6
 41
-30.0
 62
     5
 63
     7
421
 16777215
 74
     1
 91
        4
 64
     7
 65
   257
 75
     1
175
     1
 42
1.0
 92
        8
 66
     7
 43
1.0
 76
     1
 77
     6
 78
     2
 67
     7
 79
     5
170
     0
171
     0
290
     0
174
     0
 93
        1
 44
-50.0
173
     0
291
     1
 45
0.0
  0
VISUALSTYLE
  5
39
102
{ACAD_REACTORS
330
2A
102
}
330
2A
100
AcDbVisualStyle
  2
Facepattern
 70
    15
 71
     2
 72
     2
 73
     0
 90
        0
 40
-0.6
 41
-30.0
 62
     5
 63
     7
421
 16777215
 74
     1
 91
        4
 64
     7
 65
   257
 75
     1
175
     1
 42
1.0
 92
        8
 66
     7
 43
1.0
 76
     1
 77
     6
 78
     2
 67
     7
 79
     5
170
     0
171
     0
290
     0
174
     0
 93
        1
 44
0.0
173
     0
291
     1
 45
0.0
  0
VISUALSTYLE
  5
2B
102
{ACAD_REACTORS
330
2A
102
}
330
2A
100
AcDbVisualStyle
  2
Flat
 70
     0
 71
     2
 72
     1
 73
     1
 90
        2
 40
-0.6
 41
30.0
 62
     5
 63
     7
421
 16777215
 74
     0
 91
        4
 64
     7
 65
   257
 75
     1
175
     1
 42
1.0
 92
        8
 66
     7
 43
1.0
 76
     1
 77
     6
 78
     2
 67
     7
 79
     5
170
     0
171
     0
290
     0
174
     0
 93
       13
 44
0.0
173
     0
291
     1
 45
0.0
  0
VISUALSTYLE
  5
2C
102
{ACAD_REACTORS
330
2A
102
}
330
2A
100
AcDbVisualStyle
  2
FlatWithEdges
 70
     1
 71
     2
 72
     1
 73
     1
 90
        2
 40
-0.6
 41
30.0
 62
     5
 63
     7
421
 16777215
 74
     1
 91
        4
 64
     7
 65
   257
 75
     1
175
     1
 42
1.0
 92
        0
 66
   257
 43
1.0
 76
     1
 77
     6
 78
     2
 67
     7
 79
     5
170
     0
171
     0
290
     0
174
     0
 93
       13
 44
0.0
173
     0
291
     1
 45
0.0
  0
VISUALSTYLE
  5
2D
102
{ACAD_REACTORS
330
2A
102
}
330
2A
100
AcDbVisualStyle
  2
Gouraud
 70
     2
 71
     2
 72
     2
 73
     1
 90
        2
 40
-0.6
 41
30.0
 62
     5
 63
     7
421
 16777215
 74
     0
 91
        4
 64
     7
 65
   257
 75
     1
175
     1
 42
1.0
 92
        0
 66
     7
 43
1.0
 76
     1
 77
     6
 78
     2
 67
     7
 79
     5
170
     0
171
     0
290
     0
174
     0
 93
       13
 44
0.0
173
     0
291
     1
 45
0.0
  0
VISUALSTYLE
  5
2E
102
{ACAD_REACTORS
330
2A
102
}
330
2A
100
AcDbVisualStyle
  2
GouraudWithEdges
 70
     3
 71
     2
 72
     2
 73
     1
 90
        2
 40
-0.6
 41
30.0
 62
     5
 63
     7
421
 16777215
 74
     1
 91
        4
 64
     7
 65
   257
 75
     1
175
     1
 42
1.0
 92
        0
 66
   257
 43
1.0
 76
     1
 77
     6
 78
     2
 67
     7
 79
     5
170
     0
171
     0
290
     0
174
     0
 93
       13
 44
0.0
173
     0
291
     1
 45
0.0
  0
VISUALSTYLE
  5
38
102
{ACAD_REACTORS
330
2A
102
}
330
2A
100
AcDbVisualStyle
  2
Linepattern
 70
    14
 71
     2
 72
     2
 73
     0
 90
        0
 40
-0.6
 41
-30.0
 62
     5
 63
     7
421
 16777215
 74
     1
 91
        4
 64
     7
 65
   257
 75
     7
175
     7
 42
1.0
 92
        8
 66
     7
 43
1.0
 76
     1
 77
     6
 78
     2
 67
     7
 79
     5
170
     0
171
     0
290
     0
174
     0
 93
        1
 44
0.0
173
     0
291
     1
 45
0.0
  0
VISUALSTYLE
  5
33
102
{ACAD_REACTORS
330
2A
102
}
330
2A
100
AcDbVisualStyle
  2
Realistic
 70
     8
 71
     2
 72
     2
 73
     0
 90
        0
 40
-0.6
 41
-30.0
 62
     5
 63
     7
421
 16777215
 74
     1
 91
        0
 64
     7
 65
   257
 75
     1
175
     1
 42
1.0
 92
        8
 66
     8
424
  7895160
 43
1.0
 76
     1
 77
     6
 78
     2
 67
     7
 79
     5
170
     0
171
     0
290
     0
174
     0
 93
       13
 44
0.0
173
     0
291
     0
 45
0.0
  0
VISUALSTYLE
  5
37
102
{ACAD_REACTORS
330
2A
102
}
330
2A
100
AcDbVisualStyle
  2
Thicken
 70
    13
 71
     2
 72
     2
 73
     0
 90
        0
 40
-0.6
 41
-30.0
 62
     5
 63
     7
421
 16777215
 74
     1
 91
        4
 64
     7
 65
   257
 75
     1
175
     1
 42
1.0
 92
       12
 66
     7
 43
1.0
 76
     1
 77
     6
 78
     2
 67
     7
 79
     5
170
     0
171
     0
290
     0
174
     0
 93
        1
 44
0.0
173
     0
291
     1
 45
0.0
  0
ENDSEC
  0
EOF
